  0
SECTION
  2
HEADER
  9
$EXTMIN
 10
-210.0
 20
-148.5
  9
$EXTMAX
 10
210.0
 20
148.5
  9
$PDMODE
 70
    32
  9
$PDSIZE
 40
1.5
  9
$LTSCALE
 40
10.0
  0
ENDSEC
  0
SECTION
  2
TABLES
  0
TABLE
  2
LTYPE
 70
    15
  0
LTYPE
  2
CONTINUOUS
 70
    64
  3
実線
 72
    65
 73
     0
 40
0.0
  0
LTYPE
  2
DASHED
 70
    64
  3
破線A
 72
    65
 73
     2
 40
0.6
 49
0.4
 49
-0.2
  0
LTYPE
  2
DASHEDX2
 70
    64
  3
破線B
 72
    65
 73
     2
 40
1.3
 49
0.9
 49
-0.4
  0
LTYPE
  2
DASHDOT
 70
    64
  3
１点鎖線A
 72
    65
 73
     4
 40
0.5375
 49
0.375
 49
-0.05
 49
0.0625
 49
-0.05
  0
LTYPE
  2
DASHDOTX2
 70
    64
  3
１点鎖線B
 72
    65
 73
     4
 40
1.075
 49
0.75
 49
-0.1
 49
0.125
 49
-0.1
  0
LTYPE
  2
DIVIDE2
 70
    64
  3
２点鎖線A
 72
    65
 73
     6
 40
0.5125
 49
0.3
 49
-0.0375
 49
0.05
 49
-0.0375
 49
0.05
 49
-0.0375
  0
LTYPE
  2
DIVIDE
 70
    64
  3
２点鎖線B
 72
    65
 73
     6
 40
1.05
 49
0.55
 49
-0.1
 49
0.1
 49
-0.1
 49
0.1
 49
-0.1
  0
LTYPE
  2
DOT
 70
    64
  3
点線A
 72
    65
 73
     2
 40
0.1125
 49
0.0625
 49
-0.05
  0
LTYPE
  2
DOTX2
 70
    64
  3
点線B
 72
    65
 73
     2
 40
0.275
 49
0.15
 49
-0.125
  0
LTYPE
  2
CONTINUOUS
 70
    64
  3
実線
 72
    65
 73
     0
 40
0.0
  0
LTYPE
  2
CONTINUOUS
 70
    64
  3
実線
 72
    65
 73
     0
 40
0.0
  0
LTYPE
  2
CONTINUOUS
 70
    64
  3
実線
 72
    65
 73
     0
 40
0.0
  0
LTYPE
  2
CONTINUOUS
 70
    64
  3
実線
 72
    65
 73
     0
 40
0.0
  0
LTYPE
  2
CONTINUOUS
 70
    64
  3
実線
 72
    65
 73
     0
 40
0.0
  0
LTYPE
  2
CONTINUOUS
 70
    64
  3
実線
 72
    65
 73
     0
 40
0.0
  0
ENDTAB
  0
TABLE
  2
LAYER
 70
    34
  0
LAYER
  2
通り芯
 70
     0
 62
    15
  6
CONTINUOUS
  0
LAYER
  2
補助線
 70
     0
 62
    16
  6
DOT
  0
LAYER
  2
躯体
 70
     0
 62
    31
  6
CONTINUOUS
  0
LAYER
  2
型材
 70
     0
 62
    32
  6
CONTINUOUS
  0
LAYER
  2
型材断面
 70
     0
 62
    47
  6
CONTINUOUS
  0
LAYER
  2
ガラス
 70
     0
 62
    48
  6
CONTINUOUS
  0
LAYER
  2
ゴム等
 70
     0
 62
    63
  6
CONTINUOUS
  0
LAYER
  2
ボルト／ビス
 70
     0
 62
    64
  6
CONTINUOUS
  0
LAYER
  2
文字
 70
     0
 62
    79
  6
CONTINUOUS
  0
LAYER
  2
寸法
 70
     0
 62
    80
  6
CONTINUOUS
  0
LAYER
  2
ﾊｯﾁﾝｸﾞ
 70
     0
 62
    95
  6
CONTINUOUS
  0
LAYER
  2
別途部材
 70
     0
 62
    96
  6
CONTINUOUS
  0
LAYER
  2
曲げ物
 70
     0
 62
   111
  6
CONTINUOUS
  0
LAYER
  2
鉄骨等
 70
     0
 62
   112
  6
CONTINUOUS
  0
LAYER
  2
St
 70
     0
 62
   127
  6
CONTINUOUS
  0
LAYER
  2
その他部品等
 70
     0
 62
   128
  6
CONTINUOUS
  0
LAYER
  2
ｶﾞｽｹｯﾄ
 70
     0
 62
   143
  6
CONTINUOUS
  0
LAYER
  2
ｽｹｯﾁ
 70
     0
 62
    14
  6
CONTINUOUS
  0
LAYER
  2
0
 70
     0
 62
    17
  6
CONTINUOUS
  0
LAYER
  2
1
 70
     0
 62
    30
  6
CONTINUOUS
  0
LAYER
  2
4
 70
     0
 62
    33
  6
CONTINUOUS
  0
LAYER
  2
ﾚｲﾔ3
 70
     0
 62
    46
  6
CONTINUOUS
  0
LAYER
  2
外形線
 70
     0
 62
    49
  6
CONTINUOUS
  0
LAYER
  2
部品
 70
     0
 62
    14
  6
CONTINUOUS
  0
LAYER
  2
サッシ芯
 70
     0
 62
    17
  6
DASHDOTX2
  0
LAYER
  2
寸法線
 70
     0
 62
    62
  6
CONTINUOUS
  0
LAYER
  2
姿図外形線
 70
     0
 62
    65
  6
CONTINUOUS
  0
LAYER
  2
姿補助線
 70
     0
 62
    30
  6
CONTINUOUS
  0
LAYER
  2
透視線
 70
     0
 62
    78
  6
DOT
  0
LAYER
  2
用紙
 70
     0
 62
    81
  6
CONTINUOUS
  0
LAYER
  2
実線図枠
 70
     0
 62
    94
  6
CONTINUOUS
  0
LAYER
  2
補助図枠
 70
     0
 62
    97
  6
CONTINUOUS
  0
LAYER
  2
建具記号
 70
     0
 62
   110
  6
CONTINUOUS
  0
LAYER
  2
補助文字
 70
     0
 62
   113
  6
CONTINUOUS
  0
ENDTAB
  0
TABLE
  2
STYLE
 70
    10
  0
STYLE
  2
STANDARD
 70
     0
 40
1.0
 41
1.0
 42
1.0
 50
0.0
 71
     0
  3
TXT
  4
BIGFONT
  0
STYLE
  2
TATE
 70
     4
 40
1.0
 41
1.0
 42
1.0
 50
0.0
 71
     0
  3
TXT
  4
BIGFONT
  0
STYLE
  2
TextStyle03
 70
     0
 40
1.0
 41
1.0
 42
1.0
 50
0.0
 71
     0
  3
MONOTXT
  4
BIGFONT
  0
STYLE
  2
TextStyle04
 70
     0
 40
1.0
 41
1.0
 42
1.0
 50
0.0
 71
     0
  3
MONOTXT
  4
BIGFONT
  0
STYLE
  2
TextStyle05
 70
     0
 40
1.0
 41
1.0
 42
1.0
 50
0.0
 71
     0
  3
MONOTXT
  4
BIGFONT
  0
STYLE
  2
TextStyle06
 70
     0
 40
1.0
 41
1.0
 42
1.0
 50
0.0
 71
     0
  3
MONOTXT
  4
BIGFONT
  0
STYLE
  2
TextStyle07
 70
     0
 40
1.0
 41
1.0
 42
1.0
 50
0.0
 71
     0
  3
MONOTXT
  4
BIGFONT
  0
STYLE
  2
TextStyle08
 70
     0
 40
1.0
 41
1.0
 42
1.0
 50
0.0
 71
     0
  3
MONOTXT
  4
BIGFONT
  0
STYLE
  2
TextStyle09
 70
     0
 40
1.0
 41
1.0
 42
1.0
 50
0.0
 71
     0
  3
MONOTXT
  4
BIGFONT
  0
STYLE
  2
TextStyle10
 70
     0
 40
1.0
 41
1.0
 42
1.0
 50
0.0
 71
     0
  3
MONOTXT
  4
BIGFONT
  0
ENDTAB
  0
ENDSEC
  0
SECTION
  2
BLOCKS
  0
BLOCK
  2
*GRP_0001
 70
    65
 10
0.0
 20
0.0
  0
LINE
  8
型材断面
  6
CONTINUOUS
 10
195.0
 20
133.5
 11
195.0
 21
-133.5
  0
LINE
  8
型材断面
  6
CONTINUOUS
 10
195.0
 20
-133.5
 11
-185.0
 21
-133.5
  0
LINE
  8
型材断面
  6
CONTINUOUS
 10
-185.0
 20
-133.5
 11
-185.0
 21
133.5
  0
LINE
  8
型材断面
  6
CONTINUOUS
 10
195.0
 20
133.5
 11
-185.0
 21
133.5
  0
LINE
  8
型材断面
  6
CONTINUOUS
 10
145.0
 20
-133.5
 11
145.0
 21
-118.5
  0
LINE
  8
型材断面
  6
CONTINUOUS
 10
195.0
 20
-118.5
 11
145.0
 21
-118.5
  0
ENDBLK
  0
BLOCK
  2
*DIM_0002
 70
    65
 10
0.0
 20
0.0
  0
LINE
  8
寸法
  6
BYBLOCK
 62
     0
 10
-25.950345
 20
-68.32169
 11
-8.229482
 21
-68.32169
  0
LINE
  8
寸法
  6
BYBLOCK
 62
     0
 10
-24.625342
 20
-59.550495
 11
-8.229482
 21
-59.550495
  0
LINE
  8
寸法
  6
BYBLOCK
 62
     0
 10
-8.229482
 20
-68.32169
 11
-8.229482
 21
-59.550495
  0
POINT
  8
寸法
 62
     0
 10
-8.229482
 20
-68.32169
  0
POINT
  8
寸法
 62
     0
 10
-8.229482
 20
-59.550495
  0
TEXT
  7
TextStyle03
  8
寸法
  6
CONTINUOUS
 62
     0
 10
-8.625
 20
-68.1
  1
175.4
 40
3.0
 50
90.0
 72
     5
 11
-8.625
 21
-59.85
  0
ENDBLK
  0
BLOCK
  2
*DIM_0003
 70
    65
 10
0.0
 20
0.0
  0
LINE
  8
寸法
  6
BYBLOCK
 62
     0
 10
-66.65034
 20
-25.91953
 11
-66.65034
 21
-18.25821
  0
LINE
  8
寸法
  6
BYBLOCK
 62
     0
 10
-58.150342
 20
-25.91953
 11
-58.150342
 21
-18.25821
  0
LINE
  8
寸法
  6
BYBLOCK
 62
     0
 10
-66.65034
 20
-18.25821
 11
-58.150342
 21
-18.25821
  0
POINT
  8
寸法
 62
     0
 10
-66.65034
 20
-18.25821
  0
POINT
  8
寸法
 62
     0
 10
-58.150342
 20
-18.25821
  0
TEXT
  7
TextStyle03
  8
寸法
  6
CONTINUOUS
 62
     0
 10
-64.8625
 20
-17.9
  1
170
 40
3.0
 72
     5
 11
-59.9875
 21
-17.9
  0
ENDBLK
  0
BLOCK
  2
*DIM_0004
 70
    65
 10
0.0
 20
0.0
  0
LINE
  8
寸法
  6
BYBLOCK
 62
     0
 10
-51.659207
 20
-22.66953
 11
-51.049258
 21
-22.66953
  0
LINE
  8
寸法
  6
BYBLOCK
 62
     0
 10
-57.150342
 20
-26.91953
 11
-51.049258
 21
-26.91953
  0
LINE
  8
寸法
  6
BYBLOCK
 62
     0
 10
-51.049258
 20
-22.66953
 11
-51.049258
 21
-26.91953
  0
POINT
  8
寸法
 62
     0
 10
-51.049258
 20
-22.66953
  0
POINT
  8
寸法
 62
     0
 10
-51.049258
 20
-26.91953
  0
TEXT
  7
TextStyle03
  8
寸法
  6
CONTINUOUS
 62
     0
 10
-51.425
 20
-26.39375
  1
85
 40
3.0
 50
90.0
 72
     5
 11
-51.425
 21
-23.20625
  0
ENDBLK
  0
BLOCK
  2
*DIM_0005
 70
    65
 10
0.0
 20
0.0
  0
LINE
  8
寸法
  6
BYBLOCK
 62
     0
 10
-61.400342
 20
-22.66953
 11
-8.229482
 21
-22.66953
  0
LINE
  8
寸法
  6
BYBLOCK
 62
     0
 10
-8.229482
 20
-59.550495
 11
-8.229482
 21
-22.66953
  0
POINT
  8
寸法
 62
     0
 10
-8.229482
 20
-59.550495
  0
POINT
  8
寸法
 62
     0
 10
-8.229482
 20
-22.66953
  0
TEXT
  7
TextStyle03
  8
寸法
  6
CONTINUOUS
 62
     0
 10
-8.625
 20
-45.25
  1
737.6
 40
3.0
 50
90.0
 72
     5
 11
-8.625
 21
-37.0
  0
ENDBLK
  0
BLOCK
  2
*DIM_0006
 70
    65
 10
0.0
 20
0.0
  0
LINE
  8
寸法
  6
BYBLOCK
 62
     0
 10
-94.900342
 20
-6.542915
 11
-94.900342
 21
-5.710077
  0
LINE
  8
寸法
  6
BYBLOCK
 62
     0
 10
-29.900342
 20
-6.542915
 11
-29.900342
 21
-5.710077
  0
LINE
  8
寸法
  6
BYBLOCK
 62
     0
 10
-94.900342
 20
-5.710077
 11
-29.900342
 21
-5.710077
  0
POINT
  8
寸法
 62
     0
 10
-94.900342
 20
-5.710077
  0
POINT
  8
寸法
 62
     0
 10
-29.900342
 20
-5.710077
  0
TEXT
  7
TextStyle03
  8
寸法
  6
CONTINUOUS
 62
     0
 10
-74.14375
 20
-5.35
  1
呼称寸法　1300
 40
3.0
 72
     5
 11
-50.70625
 21
-5.35
  0
ENDBLK
  0
BLOCK
  2
*DIM_0007
 70
    65
 10
0.0
 20
0.0
  0
LINE
  8
寸法
  6
BYBLOCK
 62
     0
 10
-25.625342
 20
-58.550495
 11
-25.625342
 21
-5.710077
  0
LINE
  8
寸法
  6
BYBLOCK
 62
     0
 10
-29.900342
 20
-5.710077
 11
-25.625342
 21
-5.710077
  0
POINT
  8
寸法
 62
     0
 10
-25.625342
 20
-5.710077
  0
TEXT
  7
TextStyle03
  8
寸法
  6
CONTINUOUS
 62
     0
 10
-24.30625
 20
-5.35
  1
85.5
 40
3.0
 72
     5
 11
-17.74375
 21
-5.35
  0
ENDBLK
  0
BLOCK
  2
*DIM_0008
 70
    65
 10
0.0
 20
0.0
  0
LINE
  8
寸法
  6
BYBLOCK
 62
     0
 10
-99.175342
 20
-58.550495
 11
-99.175342
 21
-5.710077
  0
LINE
  8
寸法
  6
BYBLOCK
 62
     0
 10
-94.900342
 20
-5.710077
 11
-99.175342
 21
-5.710077
  0
POINT
  8
寸法
 62
     0
 10
-94.900342
 20
-5.710077
  0
POINT
  8
寸法
 62
     0
 10
-99.175342
 20
-5.710077
  0
TEXT
  7
TextStyle03
  8
寸法
  6
CONTINUOUS
 62
     0
 10
-107.08125
 20
-5.35
  1
85.5
 40
3.0
 72
     5
 11
-100.51875
 21
-5.35
  0
ENDBLK
  0
BLOCK
  2
*GRP_0009
 70
    65
 10
0.0
 20
0.0
  0
POLYLINE
  8
寸法
  6
BYBLOCK
 62
     0
 66
     1
  0
VERTEX
  8
寸法
 10
-34.11394
 20
49.736958
  0
VERTEX
  8
寸法
 10
-27.697437
 20
43.320455
  0
VERTEX
  8
寸法
 10
-21.79031
 20
43.320455
  0
SEQEND
  0
ENDBLK
  0
BLOCK
  2
*DIM_0010
 70
    65
 10
0.0
 20
0.0
  0
LINE
  8
寸法
  6
BYBLOCK
 62
     0
 10
-28.900342
 20
88.452985
 11
-11.32107
 21
88.452985
  0
LINE
  8
寸法
  6
BYBLOCK
 62
     0
 10
-20.876468
 20
82.602988
 11
-11.32107
 21
82.602988
  0
LINE
  8
寸法
  6
BYBLOCK
 62
     0
 10
-11.32107
 20
88.452985
 11
-11.32107
 21
82.602988
  0
POINT
  8
寸法
 62
     0
 10
-11.32107
 20
88.452985
  0
POINT
  8
寸法
 62
     0
 10
-11.32107
 20
82.602988
  0
TEXT
  7
TextStyle03
  8
寸法
  6
CONTINUOUS
 62
     0
 10
-11.725
 20
83.0625
  1
117
 40
3.0
 50
90.0
 72
     5
 11
-11.725
 21
87.9375
  0
ENDBLK
  0
BLOCK
  2
*DIM_0011
 70
    65
 10
0.0
 20
0.0
  0
LINE
  8
寸法
  6
BYBLOCK
 62
     0
 10
-28.900342
 20
23.452985
 11
-11.32107
 21
23.452985
  0
LINE
  8
寸法
  6
BYBLOCK
 62
     0
 10
-20.876468
 20
29.302982
 11
-11.32107
 21
29.302982
  0
LINE
  8
寸法
  6
BYBLOCK
 62
     0
 10
-11.32107
 20
23.452985
 11
-11.32107
 21
29.302982
  0
POINT
  8
寸法
 62
     0
 10
-11.32107
 20
23.452985
  0
POINT
  8
寸法
 62
     0
 10
-11.32107
 20
29.302982
  0
TEXT
  7
TextStyle03
  8
寸法
  6
CONTINUOUS
 62
     0
 10
-11.725
 20
23.9125
  1
117
 40
3.0
 50
90.0
 72
     5
 11
-11.725
 21
28.7875
  0
ENDBLK
  0
BLOCK
  2
*DIM_0012
 70
    65
 10
0.0
 20
0.0
  0
LINE
  8
寸法
  6
BYBLOCK
 62
     0
 10
-79.900342
 20
111.32142
 11
-79.900342
 21
121.676958
  0
LINE
  8
寸法
  6
BYBLOCK
 62
     0
 10
-44.900342
 20
111.32142
 11
-44.900342
 21
121.676958
  0
LINE
  8
寸法
  6
BYBLOCK
 62
     0
 10
-79.900342
 20
121.676958
 11
-44.900342
 21
121.676958
  0
POINT
  8
寸法
 62
     0
 10
-79.900342
 20
121.676958
  0
POINT
  8
寸法
 62
     0
 10
-44.900342
 20
121.676958
  0
TEXT
  7
TextStyle03
  8
寸法
  6
CONTINUOUS
 62
     0
 10
-64.8625
 20
122.025
  1
700
 40
3.0
 72
     5
 11
-59.9875
 21
122.025
  0
ENDBLK
  0
BLOCK
  2
*DIM_0013
 70
    65
 10
0.0
 20
0.0
  0
LINE
  8
寸法
  6
BYBLOCK
 62
     0
 10
-123.048777
 20
73.452988
 11
-133.404315
 21
73.452988
  0
LINE
  8
寸法
  6
BYBLOCK
 62
     0
 10
-123.04878
 20
38.452988
 11
-133.404317
 21
38.452988
  0
LINE
  8
寸法
  6
BYBLOCK
 62
     0
 10
-133.404315
 20
73.452988
 11
-133.404317
 21
38.452988
  0
POINT
  8
寸法
 62
     0
 10
-133.404315
 20
73.452988
  0
POINT
  8
寸法
 62
     0
 10
-133.404317
 20
38.452988
  0
TEXT
  7
TextStyle03
  8
寸法
  6
CONTINUOUS
 62
     0
 10
-133.8
 20
53.4875
  1
700
 40
3.0
 50
90.0
 72
     5
 11
-133.8
 21
58.3625
  0
ENDBLK
  0
BLOCK
  2
*GRP_0014
 70
    65
 10
0.0
 20
0.0
  0
LINE
  8
型材断面
  6
CONTINUOUS
 10
73.108215
 20
-64.972285
 11
73.473857
 21
-65.967928
  0
LINE
  8
型材断面
  6
CONTINUOUS
 10
73.473857
 20
-65.967928
 11
73.053858
 21
-66.875453
  0
LINE
  8
型材断面
  6
CONTINUOUS
 10
73.053858
 20
-66.875453
 11
72.058215
 21
-67.241095
  0
LINE
  8
型材断面
  6
CONTINUOUS
 10
29.093297
 20
-44.602283
 11
73.108215
 21
-64.972285
  0
LINE
  8
型材断面
  6
CONTINUOUS
 10
28.097653
 20
-44.967925
 11
29.093297
 21
-44.602283
  0
LINE
  8
型材断面
  6
CONTINUOUS
 10
28.097653
 20
-44.967925
 11
27.677652
 21
-45.87545
  0
LINE
  8
型材断面
  6
CONTINUOUS
 10
28.043297
 20
-46.871093
 11
72.058215
 21
-67.241095
  0
LINE
  8
型材断面
  6
CONTINUOUS
 10
27.677652
 20
-45.87545
 11
28.043297
 21
-46.871093
  0
INSERT
  2
*GRP_0016
  8
ボルト／ビス
  6
CONTINUOUS
 62
    64
 10
0.0
 20
0.0
  0
INSERT
  2
*GRP_0017
  8
ボルト／ビス
  6
CONTINUOUS
 62
    64
 10
0.0
 20
0.0
  0
INSERT
  2
*GRP_0018
  8
ボルト／ビス
  6
CONTINUOUS
 62
    64
 10
0.0
 20
0.0
  0
ENDBLK
  0
BLOCK
  2
*GRP_0015
 70
    65
 10
0.0
 20
0.0
  0
LINE
  8
型材断面
  6
CONTINUOUS
 10
28.043295
 20
-64.972285
 11
27.677652
 21
-65.967928
  0
LINE
  8
型材断面
  6
CONTINUOUS
 10
27.677652
 20
-65.967928
 11
28.097653
 21
-66.875453
  0
LINE
  8
型材断面
  6
CONTINUOUS
 10
28.097653
 20
-66.875453
 11
29.093295
 21
-67.241095
  0
LINE
  8
型材断面
  6
CONTINUOUS
 10
72.058213
 20
-44.602283
 11
28.043295
 21
-64.972285
  0
LINE
  8
型材断面
  6
CONTINUOUS
 10
73.053858
 20
-44.967925
 11
72.058213
 21
-44.602283
  0
LINE
  8
型材断面
  6
CONTINUOUS
 10
73.053858
 20
-44.967925
 11
73.473857
 21
-45.87545
  0
LINE
  8
型材断面
  6
CONTINUOUS
 10
73.108213
 20
-46.871093
 11
29.093295
 21
-67.241095
  0
LINE
  8
型材断面
  6
CONTINUOUS
 10
73.473857
 20
-45.87545
 11
73.108213
 21
-46.871093
  0
INSERT
  2
*GRP_0019
  8
ボルト／ビス
  6
CONTINUOUS
 62
    64
 10
0.0
 20
0.0
  0
INSERT
  2
*GRP_0020
  8
ボルト／ビス
  6
CONTINUOUS
 62
    64
 10
0.0
 20
0.0
  0
INSERT
  2
*GRP_0021
  8
ボルト／ビス
  6
CONTINUOUS
 62
    64
 10
0.0
 20
0.0
  0
ENDBLK
  0
BLOCK
  2
*GRP_0016
 70
    65
 10
0.0
 20
0.0
  0
INSERT
  2
*GRP_0022
  8
補助線
  6
CONTINUOUS
 62
    64
 10
0.0
 20
0.0
  0
LINE
  8
ボルト／ビス
  6
CONTINUOUS
 62
    64
 10
29.216048
 20
-45.52752
 11
28.756042
 21
-45.569105
  0
LINE
  8
ボルト／ビス
  6
CONTINUOUS
 62
    64
 10
29.216048
 20
-45.52752
 11
29.482063
 21
-45.905105
  0
LINE
  8
ボルト／ビス
  6
CONTINUOUS
 62
    64
 10
28.82807
 20
-46.365855
 11
28.562055
 21
-45.988273
  0
LINE
  8
ボルト／ビス
  6
CONTINUOUS
 62
    64
 10
28.82807
 20
-46.365855
 11
29.288073
 21
-46.324273
  0
CIRCLE
  8
ボルト／ビス
  6
CONTINUOUS
 62
    64
 10
29.022057
 20
-45.946688
 40
0.4
  0
LINE
  8
ボルト／ビス
  6
CONTINUOUS
 62
    64
 10
29.482063
 20
-45.905105
 11
29.288073
 21
-46.324273
  0
LINE
  8
ボルト／ビス
  6
CONTINUOUS
 62
    64
 10
28.756042
 20
-45.569105
 11
28.562055
 21
-45.988273
  0
ENDBLK
  0
BLOCK
  2
*GRP_0017
 70
    65
 10
0.0
 20
0.0
  0
INSERT
  2
*GRP_0023
  8
補助線
  6
CONTINUOUS
 62
    64
 10
0.0
 20
0.0
  0
LINE
  8
ボルト／ビス
  6
CONTINUOUS
 62
    64
 10
72.323443
 20
-65.477523
 11
72.589458
 21
-65.855108
  0
LINE
  8
ボルト／ビス
  6
CONTINUOUS
 62
    64
 10
72.323443
 20
-65.477523
 11
71.863437
 21
-65.519107
  0
LINE
  8
ボルト／ビス
  6
CONTINUOUS
 62
    64
 10
71.935463
 20
-66.315858
 11
72.395468
 21
-66.274273
  0
LINE
  8
ボルト／ビス
  6
CONTINUOUS
 62
    64
 10
71.935463
 20
-66.315858
 11
71.669448
 21
-65.938273
  0
CIRCLE
  8
ボルト／ビス
  6
CONTINUOUS
 62
    64
 10
72.129452
 20
-65.89669
 40
0.4
  0
LINE
  8
ボルト／ビス
  6
CONTINUOUS
 62
    64
 10
71.863437
 20
-65.519107
 11
71.669448
 21
-65.938273
  0
LINE
  8
ボルト／ビス
  6
CONTINUOUS
 62
    64
 10
72.589458
 20
-65.855108
 11
72.395468
 21
-66.274273
  0
ENDBLK
  0
BLOCK
  2
*GRP_0018
 70
    65
 10
0.0
 20
0.0
  0
INSERT
  2
*GRP_0024
  8
補助線
  6
CONTINUOUS
 62
    64
 10
0.0
 20
0.0
  0
LINE
  8
ボルト／ビス
  6
CONTINUOUS
 62
    64
 10
50.769745
 20
-55.502523
 11
50.30974
 21
-55.544105
  0
LINE
  8
ボルト／ビス
  6
CONTINUOUS
 62
    64
 10
50.769745
 20
-55.502523
 11
51.03576
 21
-55.880105
  0
LINE
  8
ボルト／ビス
  6
CONTINUOUS
 62
    64
 10
50.381765
 20
-56.340855
 11
50.11575
 21
-55.963273
  0
LINE
  8
ボルト／ビス
  6
CONTINUOUS
 62
    64
 10
50.381765
 20
-56.340855
 11
50.84177
 21
-56.299273
  0
CIRCLE
  8
ボルト／ビス
  6
CONTINUOUS
 62
    64
 10
50.575755
 20
-55.92169
 40
0.4
  0
LINE
  8
ボルト／ビス
  6
CONTINUOUS
 62
    64
 10
51.03576
 20
-55.880105
 11
50.84177
 21
-56.299273
  0
LINE
  8
ボルト／ビス
  6
CONTINUOUS
 62
    64
 10
50.30974
 20
-55.544105
 11
50.11575
 21
-55.963273
  0
ENDBLK
  0
BLOCK
  2
*GRP_0019
 70
    65
 10
0.0
 20
0.0
  0
INSERT
  2
*GRP_0025
  8
補助線
  6
CONTINUOUS
 62
    64
 10
0.0
 20
0.0
  0
LINE
  8
ボルト／ビス
  6
CONTINUOUS
 62
    64
 10
71.935463
 20
-45.52752
 11
72.395468
 21
-45.569105
  0
LINE
  8
ボルト／ビス
  6
CONTINUOUS
 62
    64
 10
71.935463
 20
-45.52752
 11
71.669448
 21
-45.905105
  0
LINE
  8
ボルト／ビス
  6
CONTINUOUS
 62
    64
 10
72.32344
 20
-46.365855
 11
72.589455
 21
-45.988273
  0
LINE
  8
ボルト／ビス
  6
CONTINUOUS
 62
    64
 10
72.32344
 20
-46.365855
 11
71.863437
 21
-46.324273
  0
CIRCLE
  8
ボルト／ビス
  6
CONTINUOUS
 62
    64
 10
72.129452
 20
-45.946688
 40
0.4
  0
LINE
  8
ボルト／ビス
  6
CONTINUOUS
 62
    64
 10
71.669448
 20
-45.905105
 11
71.863437
 21
-46.324273
  0
LINE
  8
ボルト／ビス
  6
CONTINUOUS
 62
    64
 10
72.395468
 20
-45.569105
 11
72.589455
 21
-45.988273
  0
ENDBLK
  0
BLOCK
  2
*GRP_0020
 70
    65
 10
0.0
 20
0.0
  0
INSERT
  2
*GRP_0026
  8
補助線
  6
CONTINUOUS
 62
    64
 10
0.0
 20
0.0
  0
LINE
  8
ボルト／ビス
  6
CONTINUOUS
 62
    64
 10
28.828067
 20
-65.477523
 11
28.562053
 21
-65.855108
  0
LINE
  8
ボルト／ビス
  6
CONTINUOUS
 62
    64
 10
28.828067
 20
-65.477523
 11
29.288073
 21
-65.519107
  0
LINE
  8
ボルト／ビス
  6
CONTINUOUS
 62
    64
 10
29.216048
 20
-66.315858
 11
28.756042
 21
-66.274273
  0
LINE
  8
ボルト／ビス
  6
CONTINUOUS
 62
    64
 10
29.216048
 20
-66.315858
 11
29.482063
 21
-65.938273
  0
CIRCLE
  8
ボルト／ビス
  6
CONTINUOUS
 62
    64
 10
29.022057
 20
-65.89669
 40
0.4
  0
LINE
  8
ボルト／ビス
  6
CONTINUOUS
 62
    64
 10
29.288073
 20
-65.519107
 11
29.482063
 21
-65.938273
  0
LINE
  8
ボルト／ビス
  6
CONTINUOUS
 62
    64
 10
28.562053
 20
-65.855108
 11
28.756042
 21
-66.274273
  0
ENDBLK
  0
BLOCK
  2
*GRP_0021
 70
    65
 10
0.0
 20
0.0
  0
INSERT
  2
*GRP_0027
  8
補助線
  6
CONTINUOUS
 62
    64
 10
0.0
 20
0.0
  0
LINE
  8
ボルト／ビス
  6
CONTINUOUS
 62
    64
 10
50.381765
 20
-55.502523
 11
50.84177
 21
-55.544105
  0
LINE
  8
ボルト／ビス
  6
CONTINUOUS
 62
    64
 10
50.381765
 20
-55.502523
 11
50.11575
 21
-55.880105
  0
LINE
  8
ボルト／ビス
  6
CONTINUOUS
 62
    64
 10
50.769745
 20
-56.340855
 11
51.03576
 21
-55.963273
  0
LINE
  8
ボルト／ビス
  6
CONTINUOUS
 62
    64
 10
50.769745
 20
-56.340855
 11
50.30974
 21
-56.299273
  0
CIRCLE
  8
ボルト／ビス
  6
CONTINUOUS
 62
    64
 10
50.575755
 20
-55.92169
 40
0.4
  0
LINE
  8
ボルト／ビス
  6
CONTINUOUS
 62
    64
 10
50.11575
 20
-55.880105
 11
50.30974
 21
-56.299273
  0
LINE
  8
ボルト／ビス
  6
CONTINUOUS
 62
    64
 10
50.84177
 20
-55.544105
 11
51.03576
 21
-55.963273
  0
ENDBLK
  0
BLOCK
  2
*GRP_0022
 70
    65
 10
0.0
 20
0.0
  0
LINE
  8
補助線
  6
BYBLOCK
 62
    64
 10
29.1355
 20
-45.999187
 11
28.908618
 21
-45.894188
  0
LINE
  8
補助線
  6
BYBLOCK
 62
    64
 10
29.074558
 20
-45.833248
 11
28.969557
 21
-46.060128
  0
ENDBLK
  0
BLOCK
  2
*GRP_0023
 70
    65
 10
0.0
 20
0.0
  0
LINE
  8
補助線
  6
BYBLOCK
 62
    64
 10
72.016013
 20
-65.84419
 11
72.242893
 21
-65.94919
  0
LINE
  8
補助線
  6
BYBLOCK
 62
    64
 10
72.181953
 20
-65.78325
 11
72.076952
 21
-66.01013
  0
ENDBLK
  0
BLOCK
  2
*GRP_0024
 70
    65
 10
0.0
 20
0.0
  0
LINE
  8
補助線
  6
BYBLOCK
 62
    64
 10
50.689195
 20
-55.97419
 11
50.462315
 21
-55.86919
  0
LINE
  8
補助線
  6
BYBLOCK
 62
    64
 10
50.628255
 20
-55.808248
 11
50.523255
 21
-56.03513
  0
ENDBLK
  0
BLOCK
  2
*GRP_0025
 70
    65
 10
0.0
 20
0.0
  0
LINE
  8
補助線
  6
BYBLOCK
 62
    64
 10
72.01601
 20
-45.999187
 11
72.242893
 21
-45.894188
  0
LINE
  8
補助線
  6
BYBLOCK
 62
    64
 10
72.076952
 20
-45.833248
 11
72.181953
 21
-46.060128
  0
ENDBLK
  0
BLOCK
  2
*GRP_0026
 70
    65
 10
0.0
 20
0.0
  0
LINE
  8
補助線
  6
BYBLOCK
 62
    64
 10
29.135498
 20
-65.84419
 11
28.908618
 21
-65.94919
  0
LINE
  8
補助線
  6
BYBLOCK
 62
    64
 10
28.969557
 20
-65.78325
 11
29.074558
 21
-66.01013
  0
ENDBLK
  0
BLOCK
  2
*GRP_0027
 70
    65
 10
0.0
 20
0.0
  0
LINE
  8
補助線
  6
BYBLOCK
 62
    64
 10
50.462315
 20
-55.97419
 11
50.689195
 21
-55.86919
  0
LINE
  8
補助線
  6
BYBLOCK
 62
    64
 10
50.523255
 20
-55.808248
 11
50.628255
 21
-56.03513
  0
ENDBLK
  0
BLOCK
  2
*DIM_0028
 70
    65
 10
0.0
 20
0.0
  0
LINE
  8
寸法
  6
BYBLOCK
 62
     0
 10
104.801687
 20
-98.24814
 11
104.801687
 21
-113.971158
  0
LINE
  8
寸法
  6
BYBLOCK
 62
     0
 10
171.421265
 20
-98.24814
 11
171.421265
 21
-113.971158
  0
LINE
  8
寸法
  6
BYBLOCK
 62
     0
 10
104.801687
 20
-113.971158
 11
171.421265
 21
-113.971158
  0
POINT
  8
寸法
 62
     0
 10
104.801687
 20
-113.971158
  0
POINT
  8
寸法
 62
     0
 10
171.421265
 20
-113.971158
  0
TEXT
  7
TextStyle03
  8
寸法
  6
CONTINUOUS
 62
     0
 10
133.10625
 20
-113.575
  1
1332.4
 40
3.0
 72
     5
 11
143.04375
 21
-113.575
  0
ENDBLK
  0
BLOCK
  2
*DIM_0029
 70
    65
 10
0.0
 20
0.0
  0
LINE
  8
寸法
  6
BYBLOCK
 62
     0
 10
174.421265
 20
-95.24814
 11
188.24873
 21
-95.24814
  0
LINE
  8
寸法
  6
BYBLOCK
 62
     0
 10
141.111478
 20
-48.141185
 11
188.24873
 21
-48.141185
  0
LINE
  8
寸法
  6
BYBLOCK
 62
     0
 10
188.24873
 20
-95.24814
 11
188.24873
 21
-48.141185
  0
POINT
  8
寸法
 62
     0
 10
188.24873
 20
-95.24814
  0
POINT
  8
寸法
 62
     0
 10
188.24873
 20
-48.141185
  0
TEXT
  7
TextStyle03
  8
寸法
  6
CONTINUOUS
 62
     0
 10
187.85
 20
-75.8
  1
942.1
 40
3.0
 50
90.0
 72
     5
 11
187.85
 21
-67.55
  0
ENDBLK
  0
BLOCK
  2
*DIM_0030
 70
    65
 10
0.0
 20
0.0
  0
LINE
  8
寸法
  6
BYBLOCK
 62
     0
 10
80.549453
 20
-48.380728
 11
93.722265
 21
-48.380728
  0
LINE
  8
寸法
  6
BYBLOCK
 62
     0
 10
80.549453
 20
-64.380728
 11
93.722265
 21
-64.380728
  0
LINE
  8
寸法
  6
BYBLOCK
 62
     0
 10
93.722265
 20
-48.380728
 11
93.722265
 21
-64.380728
  0
POINT
  8
寸法
 62
     0
 10
93.722265
 20
-48.380728
  0
POINT
  8
寸法
 62
     0
 10
93.722265
 20
-64.380728
  0
TEXT
  7
TextStyle03
  8
寸法
  6
CONTINUOUS
 62
     0
 10
99.25
 20
-66.09375
  1
上昇258以上
 40
3.0
 50
90.0
 72
     5
 11
99.25
 21
-47.90625
  0
ENDBLK
  0
ENDSEC
  0
SECTION
  2
ENTITIES
  0
POLYLINE
  8
通り芯
  6
CONTINUOUS
 66
     1
 70
     1
  0
VERTEX
  8
通り芯
 10
-210.0
 20
-148.5
  0
VERTEX
  8
通り芯
 10
210.0
 20
-148.5
  0
VERTEX
  8
通り芯
 10
210.0
 20
148.5
  0
VERTEX
  8
通り芯
 10
-210.0
 20
148.5
  0
SEQEND
  0
INSERT
  2
*GRP_0001
  8
型材断面
  6
CONTINUOUS
 10
0.0
 20
0.0
  0
LINE
  8
型材断面
  6
CONTINUOUS
 10
-25.926112
 20
-59.249723
 11
-25.625342
 21
-59.550495
  0
LINE
  8
型材断面
  6
CONTINUOUS
 10
-25.625342
 20
-60.89669
 11
-25.625342
 21
-59.550495
  0
LINE
  8
型材断面
  6
CONTINUOUS
 62
    47
 10
-25.625342
 20
-61.59669
 11
-25.625342
 21
-60.89669
  0
LINE
  8
型材断面
  6
CONTINUOUS
 62
    47
 10
-26.300342
 20
-61.59669
 11
-26.300342
 21
-62.09669
  0
LINE
  8
型材断面
  6
CONTINUOUS
 62
    47
 10
-27.269618
 20
-57.90622
 11
-25.926112
 21
-59.249723
  0
LINE
  8
型材断面
  6
CONTINUOUS
 10
-27.62317
 20
-57.552668
 11
-31.173075
 21
-57.552668
  0
LINE
  8
型材断面
  6
CONTINUOUS
 62
    47
 10
-26.480343
 20
-64.380728
 11
-26.480343
 21
-63.880728
  0
LINE
  8
型材断面
  6
CONTINUOUS
 62
    47
 10
-26.480343
 20
-63.880728
 11
-27.655343
 21
-63.730728
  0
LINE
  8
型材断面
  6
CONTINUOUS
 62
    47
 10
-27.655343
 20
-63.12169
 11
-27.655343
 21
-63.730728
  0
LINE
  8
型材断面
  6
CONTINUOUS
 62
    47
 10
-26.950345
 20
-63.12169
 11
-26.950345
 21
-62.09669
  0
LINE
  8
型材断面
  6
CONTINUOUS
 62
    47
 10
-26.950345
 20
-68.32169
 11
-26.950345
 21
-64.380728
  0
LINE
  8
型材断面
  6
CONTINUOUS
 62
    47
 10
-27.800345
 20
-69.07169
 11
-27.800345
 21
-68.32169
  0
LINE
  8
型材断面
  6
CONTINUOUS
 10
-27.269618
 20
-57.90622
 11
-62.400342
 21
-22.775495
  0
LINE
  8
型材断面
  6
CONTINUOUS
 10
-58.150342
 20
-26.91953
 11
-62.400342
 21
-26.91953
  0
LINE
  8
型材断面
  6
CONTINUOUS
 10
-66.65034
 20
-26.91953
 11
-62.400342
 21
-26.91953
  0
LINE
  8
型材断面
  6
CONTINUOUS
 10
-66.597358
 20
-26.972512
 11
-62.400342
 21
-26.972512
  0
LINE
  8
型材断面
  6
CONTINUOUS
 10
-62.400342
 20
-22.66953
 11
-58.150342
 21
-26.91953
  0
LINE
  8
型材断面
  6
CONTINUOUS
 10
-62.400342
 20
-22.66953
 11
-66.65034
 21
-26.91953
  0
LINE
  8
型材断面
  6
CONTINUOUS
 10
-58.203327
 20
-26.972512
 11
-62.400342
 21
-26.972512
  0
LINE
  8
型材断面
  6
CONTINUOUS
 10
-66.65034
 20
-26.91953
 11
-66.597358
 21
-26.972512
  0
LINE
  8
型材断面
  6
CONTINUOUS
 10
-58.203327
 20
-26.972512
 11
-58.150342
 21
-26.91953
  0
LINE
  8
型材断面
  6
CONTINUOUS
 10
-30.890233
 20
-57.552668
 11
-61.47038
 21
-26.972512
  0
LINE
  8
型材断面
  6
CONTINUOUS
 10
-31.173075
 20
-57.552668
 11
-61.753222
 21
-26.972512
  0
LINE
  8
型材断面
  6
CONTINUOUS
 10
-27.976725
 20
-57.552668
 11
-58.55688
 21
-26.972512
  0
LINE
  8
型材断面
  6
CONTINUOUS
 62
    47
 10
-27.800345
 20
-69.07169
 11
-62.400342
 21
-69.07169
  0
LINE
  8
型材断面
  6
CONTINUOUS
 62
    47
 10
-26.950345
 20
-68.32169
 11
-62.400342
 21
-68.32169
  0
LINE
  8
型材断面
  6
CONTINUOUS
 10
-25.625342
 20
-61.59669
 11
-62.400342
 21
-61.59669
  0
LINE
  8
型材断面
  6
CONTINUOUS
 10
-25.625342
 20
-60.89669
 11
-62.400342
 21
-60.89669
  0
LINE
  8
型材断面
  6
CONTINUOUS
 10
-26.300342
 20
-62.09669
 11
-62.400342
 21
-62.09669
  0
LINE
  8
型材断面
  6
CONTINUOUS
 10
-25.625342
 20
-59.550495
 11
-62.400342
 21
-59.550495
  0
LINE
  8
型材断面
  6
CONTINUOUS
 10
-27.655343
 20
-63.730728
 11
-62.400342
 21
-63.730728
  0
LINE
  8
型材断面
  6
CONTINUOUS
 10
-26.480343
 20
-63.880728
 11
-62.400342
 21
-63.880728
  0
LINE
  8
型材断面
  6
CONTINUOUS
 62
    47
 10
-26.480343
 20
-64.380728
 11
-62.400342
 21
-64.380728
  0
LINE
  8
型材断面
  6
CONTINUOUS
 62
    47
 10
-26.950345
 20
-63.12169
 11
-62.400342
 21
-63.12169
  0
LINE
  8
型材断面
  6
CONTINUOUS
 10
-26.279667
 20
-58.89617
 11
-62.400342
 21
-58.89617
  0
LINE
  8
型材断面
  6
CONTINUOUS
 10
-27.269618
 20
-57.90622
 11
-62.400342
 21
-57.90622
  0
LINE
  8
型材断面
  6
CONTINUOUS
 10
-25.926112
 20
-59.249723
 11
-62.400342
 21
-59.249723
  0
LINE
  8
型材断面
  6
CONTINUOUS
 10
-98.874572
 20
-59.249723
 11
-99.175342
 21
-59.550495
  0
LINE
  8
型材断面
  6
CONTINUOUS
 10
-99.175342
 20
-60.89669
 11
-99.175342
 21
-59.550495
  0
LINE
  8
型材断面
  6
CONTINUOUS
 62
    47
 10
-99.175342
 20
-61.59669
 11
-99.175342
 21
-60.89669
  0
LINE
  8
型材断面
  6
CONTINUOUS
 62
    47
 10
-98.500342
 20
-61.59669
 11
-98.500342
 21
-62.09669
  0
LINE
  8
型材断面
  6
CONTINUOUS
 62
    47
 10
-97.531067
 20
-57.90622
 11
-98.874572
 21
-59.249723
  0
LINE
  8
型材断面
  6
CONTINUOUS
 10
-97.177515
 20
-57.552668
 11
-93.62761
 21
-57.552668
  0
LINE
  8
型材断面
  6
CONTINUOUS
 62
    47
 10
-98.320342
 20
-64.380728
 11
-98.320342
 21
-63.880728
  0
LINE
  8
型材断面
  6
CONTINUOUS
 62
    47
 10
-98.320342
 20
-63.880728
 11
-97.145342
 21
-63.730728
  0
LINE
  8
型材断面
  6
CONTINUOUS
 62
    47
 10
-97.145342
 20
-63.12169
 11
-97.145342
 21
-63.730728
  0
LINE
  8
型材断面
  6
CONTINUOUS
 62
    47
 10
-97.85034
 20
-63.12169
 11
-97.85034
 21
-62.09669
  0
LINE
  8
型材断面
  6
CONTINUOUS
 62
    47
 10
-97.85034
 20
-68.32169
 11
-97.85034
 21
-64.380728
  0
LINE
  8
型材断面
  6
CONTINUOUS
 62
    47
 10
-97.00034
 20
-69.07169
 11
-97.00034
 21
-68.32169
  0
LINE
  8
型材断面
  6
CONTINUOUS
 10
-97.531067
 20
-57.90622
 11
-62.400342
 21
-22.775495
  0
LINE
  8
型材断面
  6
CONTINUOUS
 10
-93.910452
 20
-57.552668
 11
-63.330305
 21
-26.972512
  0
LINE
  8
型材断面
  6
CONTINUOUS
 10
-93.62761
 20
-57.552668
 11
-63.047462
 21
-26.972512
  0
LINE
  8
型材断面
  6
CONTINUOUS
 10
-96.82396
 20
-57.552668
 11
-66.243805
 21
-26.972512
  0
LINE
  8
型材断面
  6
CONTINUOUS
 62
    47
 10
-97.00034
 20
-69.07169
 11
-62.400342
 21
-69.07169
  0
LINE
  8
型材断面
  6
CONTINUOUS
 62
    47
 10
-97.85034
 20
-68.32169
 11
-62.400342
 21
-68.32169
  0
LINE
  8
型材断面
  6
CONTINUOUS
 10
-99.175342
 20
-61.59669
 11
-62.400342
 21
-61.59669
  0
LINE
  8
型材断面
  6
CONTINUOUS
 10
-99.175342
 20
-60.89669
 11
-62.400342
 21
-60.89669
  0
LINE
  8
型材断面
  6
CONTINUOUS
 10
-98.500342
 20
-62.09669
 11
-62.400342
 21
-62.09669
  0
LINE
  8
型材断面
  6
CONTINUOUS
 10
-99.175342
 20
-59.550495
 11
-62.400342
 21
-59.550495
  0
LINE
  8
型材断面
  6
CONTINUOUS
 10
-97.145342
 20
-63.730728
 11
-62.400342
 21
-63.730728
  0
LINE
  8
型材断面
  6
CONTINUOUS
 10
-98.320342
 20
-63.880728
 11
-62.400342
 21
-63.880728
  0
LINE
  8
型材断面
  6
CONTINUOUS
 62
    47
 10
-98.320342
 20
-64.380728
 11
-62.400342
 21
-64.380728
  0
LINE
  8
型材断面
  6
CONTINUOUS
 62
    47
 10
-97.85034
 20
-63.12169
 11
-62.400342
 21
-63.12169
  0
LINE
  8
型材断面
  6
CONTINUOUS
 10
-98.521018
 20
-58.89617
 11
-62.400342
 21
-58.89617
  0
LINE
  8
型材断面
  6
CONTINUOUS
 10
-97.531067
 20
-57.90622
 11
-62.400342
 21
-57.90622
  0
LINE
  8
型材断面
  6
CONTINUOUS
 10
-98.874572
 20
-59.249723
 11
-62.400342
 21
-59.249723
  0
LINE
  8
型材断面
  6
CONTINUOUS
 10
-30.89023
 20
21.17581
 11
-27.62317
 21
21.17581
  0
LINE
  8
型材断面
  6
CONTINUOUS
 10
-27.62317
 20
21.17581
 11
-27.62317
 21
24.44287
  0
LINE
  8
型材断面
  6
CONTINUOUS
 10
-25.625342
 20
19.177985
 11
-62.400342
 21
19.177985
  0
LINE
  8
型材断面
  6
CONTINUOUS
 10
-26.279667
 20
19.832308
 11
-62.400342
 21
19.832308
  0
LINE
  8
型材断面
  6
CONTINUOUS
 10
-27.55246
 20
21.1051
 11
-62.400342
 21
21.1051
  0
LINE
  8
型材断面
  6
CONTINUOUS
 10
-27.269618
 20
20.822257
 11
-62.400342
 21
20.822257
  0
LINE
  8
型材断面
  6
CONTINUOUS
 10
-25.926112
 20
19.478755
 11
-62.400342
 21
19.478755
  0
LINE
  8
型材断面
  6
DASHDOT
 10
-29.900342
 20
23.452985
 11
-94.900342
 21
23.452985
  0
LINE
  8
型材断面
  6
DASHDOT
 10
-29.900342
 20
55.952985
 11
-94.900342
 21
55.952985
  0
LINE
  8
型材断面
  6
DASHDOT
 10
-29.900342
 20
88.452985
 11
-94.900342
 21
88.452985
  0
LINE
  8
型材断面
  6
CONTINUOUS
 10
-62.400342
 20
51.702985
 11
-58.150342
 21
51.702985
  0
LINE
  8
型材断面
  6
CONTINUOUS
 10
-58.150342
 20
55.952985
 11
-58.150342
 21
51.702985
  0
LINE
  8
型材断面
  6
CONTINUOUS
 10
-58.150342
 20
51.702985
 11
-62.400342
 21
55.952985
  0
LINE
  8
型材断面
  6
CONTINUOUS
 10
-30.89023
 20
21.17581
 11
-61.417397
 21
51.702985
  0
LINE
  8
型材断面
  6
CONTINUOUS
 10
-27.976722
 20
21.17581
 11
-58.50389
 21
51.702985
  0
LINE
  8
型材断面
  6
DASHDOT
 10
-25.625342
 20
19.177985
 11
-58.150342
 21
51.702985
  0
LINE
  8
型材断面
  6
CONTINUOUS
 10
-27.62317
 20
24.44287
 11
-58.150342
 21
54.97005
  0
LINE
  8
型材断面
  6
CONTINUOUS
 10
-27.62317
 20
21.529365
 11
-58.150342
 21
52.056545
  0
LINE
  8
型材断面
  6
CONTINUOUS
 10
-27.269618
 20
20.822257
 11
-27.269618
 21
55.952985
  0
LINE
  8
型材断面
  6
CONTINUOUS
 10
-27.55246
 20
21.1051
 11
-27.55246
 21
55.952985
  0
LINE
  8
型材断面
  6
CONTINUOUS
 10
-25.625342
 20
19.177985
 11
-25.625342
 21
55.952985
  0
LINE
  8
型材断面
  6
CONTINUOUS
 10
-25.926112
 20
19.478755
 11
-25.926112
 21
55.952985
  0
LINE
  8
型材断面
  6
CONTINUOUS
 10
-26.279667
 20
19.832308
 11
-26.279667
 21
55.952985
  0
LINE
  8
型材断面
  6
CONTINUOUS
 10
-93.910455
 20
21.17581
 11
-97.177515
 21
21.17581
  0
LINE
  8
型材断面
  6
CONTINUOUS
 10
-97.177515
 20
21.17581
 11
-97.177515
 21
24.44287
  0
LINE
  8
型材断面
  6
CONTINUOUS
 10
-99.175342
 20
19.177985
 11
-62.400342
 21
19.177985
  0
LINE
  8
型材断面
  6
CONTINUOUS
 10
-98.521018
 20
19.832308
 11
-62.400342
 21
19.832308
  0
LINE
  8
型材断面
  6
CONTINUOUS
 10
-97.248225
 20
21.1051
 11
-62.400342
 21
21.1051
  0
LINE
  8
型材断面
  6
CONTINUOUS
 10
-97.531067
 20
20.822257
 11
-62.400342
 21
20.822257
  0
LINE
  8
型材断面
  6
CONTINUOUS
 10
-98.874572
 20
19.478755
 11
-62.400342
 21
19.478755
  0
LINE
  8
型材断面
  6
CONTINUOUS
 10
-62.400342
 20
51.702985
 11
-66.650342
 21
51.702985
  0
LINE
  8
型材断面
  6
CONTINUOUS
 10
-66.650342
 20
55.952985
 11
-66.650342
 21
51.702985
  0
LINE
  8
型材断面
  6
CONTINUOUS
 10
-66.650342
 20
51.702985
 11
-62.400342
 21
55.952985
  0
LINE
  8
型材断面
  6
CONTINUOUS
 10
-93.910455
 20
21.17581
 11
-63.383288
 21
51.702985
  0
LINE
  8
型材断面
  6
CONTINUOUS
 10
-96.823963
 20
21.17581
 11
-66.296795
 21
51.702985
  0
LINE
  8
型材断面
  6
DASHDOT
 10
-99.175342
 20
19.177985
 11
-66.650342
 21
51.702985
  0
LINE
  8
型材断面
  6
CONTINUOUS
 10
-97.177515
 20
24.44287
 11
-66.650342
 21
54.97005
  0
LINE
  8
型材断面
  6
CONTINUOUS
 10
-97.177515
 20
21.529365
 11
-66.650342
 21
52.056545
  0
LINE
  8
型材断面
  6
CONTINUOUS
 10
-97.531067
 20
20.822257
 11
-97.531067
 21
55.952985
  0
LINE
  8
型材断面
  6
CONTINUOUS
 10
-97.248225
 20
21.1051
 11
-97.248225
 21
55.952985
  0
LINE
  8
型材断面
  6
CONTINUOUS
 10
-99.175342
 20
19.177985
 11
-99.175342
 21
55.952985
  0
LINE
  8
型材断面
  6
CONTINUOUS
 10
-98.874572
 20
19.478755
 11
-98.874572
 21
55.952985
  0
LINE
  8
型材断面
  6
CONTINUOUS
 10
-98.521018
 20
19.832308
 11
-98.521018
 21
55.952985
  0
LINE
  8
型材断面
  6
CONTINUOUS
 10
-93.910455
 20
90.73016
 11
-97.177515
 21
90.73016
  0
LINE
  8
型材断面
  6
CONTINUOUS
 10
-97.177515
 20
90.73016
 11
-97.177515
 21
87.4631
  0
LINE
  8
型材断面
  6
CONTINUOUS
 10
-99.175342
 20
92.727985
 11
-62.400342
 21
92.727985
  0
LINE
  8
型材断面
  6
CONTINUOUS
 10
-98.521018
 20
92.073662
 11
-62.400342
 21
92.073662
  0
LINE
  8
型材断面
  6
CONTINUOUS
 10
-97.248225
 20
90.80087
 11
-62.400342
 21
90.80087
  0
LINE
  8
型材断面
  6
CONTINUOUS
 10
-97.531067
 20
91.083713
 11
-62.400342
 21
91.083713
  0
LINE
  8
型材断面
  6
CONTINUOUS
 10
-98.874572
 20
92.427215
 11
-62.400342
 21
92.427215
  0
LINE
  8
型材断面
  6
CONTINUOUS
 10
-62.400342
 20
60.202985
 11
-66.650342
 21
60.202985
  0
LINE
  8
型材断面
  6
CONTINUOUS
 10
-66.650342
 20
55.952985
 11
-66.650342
 21
60.202985
  0
LINE
  8
型材断面
  6
CONTINUOUS
 10
-66.650342
 20
60.202985
 11
-62.400342
 21
55.952985
  0
LINE
  8
型材断面
  6
CONTINUOUS
 10
-93.910455
 20
90.73016
 11
-63.383288
 21
60.202985
  0
LINE
  8
型材断面
  6
CONTINUOUS
 10
-96.823963
 20
90.73016
 11
-66.296795
 21
60.202985
  0
LINE
  8
型材断面
  6
DASHDOT
 10
-99.175342
 20
92.727985
 11
-66.650342
 21
60.202985
  0
LINE
  8
型材断面
  6
CONTINUOUS
 10
-97.177515
 20
87.4631
 11
-66.650342
 21
56.93592
  0
LINE
  8
型材断面
  6
CONTINUOUS
 10
-97.177515
 20
90.376605
 11
-66.650342
 21
59.849425
  0
LINE
  8
型材断面
  6
CONTINUOUS
 10
-97.531067
 20
91.083713
 11
-97.531067
 21
55.952985
  0
LINE
  8
型材断面
  6
CONTINUOUS
 10
-97.248225
 20
90.80087
 11
-97.248225
 21
55.952985
  0
LINE
  8
型材断面
  6
CONTINUOUS
 10
-99.175342
 20
92.727985
 11
-99.175342
 21
55.952985
  0
LINE
  8
型材断面
  6
CONTINUOUS
 10
-98.874572
 20
92.427215
 11
-98.874572
 21
55.952985
  0
LINE
  8
型材断面
  6
CONTINUOUS
 10
-98.521018
 20
92.073662
 11
-98.521018
 21
55.952985
  0
LINE
  8
型材断面
  6
CONTINUOUS
 10
-30.89023
 20
90.73016
 11
-27.62317
 21
90.73016
  0
LINE
  8
型材断面
  6
CONTINUOUS
 10
-27.62317
 20
90.73016
 11
-27.62317
 21
87.4631
  0
LINE
  8
型材断面
  6
CONTINUOUS
 10
-25.625342
 20
92.727985
 11
-62.400342
 21
92.727985
  0
LINE
  8
型材断面
  6
CONTINUOUS
 10
-26.279667
 20
92.073662
 11
-62.400342
 21
92.073662
  0
LINE
  8
型材断面
  6
CONTINUOUS
 10
-27.55246
 20
90.80087
 11
-62.400342
 21
90.80087
  0
LINE
  8
型材断面
  6
CONTINUOUS
 10
-27.269618
 20
91.083713
 11
-62.400342
 21
91.083713
  0
LINE
  8
型材断面
  6
CONTINUOUS
 10
-25.926112
 20
92.427215
 11
-62.400342
 21
92.427215
  0
LINE
  8
型材断面
  6
CONTINUOUS
 10
-62.400342
 20
60.202985
 11
-58.150342
 21
60.202985
  0
LINE
  8
型材断面
  6
CONTINUOUS
 10
-58.150342
 20
55.952985
 11
-58.150342
 21
60.202985
  0
LINE
  8
型材断面
  6
CONTINUOUS
 10
-58.150342
 20
60.202985
 11
-62.400342
 21
55.952985
  0
LINE
  8
型材断面
  6
CONTINUOUS
 10
-30.89023
 20
90.73016
 11
-61.417397
 21
60.202985
  0
LINE
  8
型材断面
  6
CONTINUOUS
 10
-27.976722
 20
90.73016
 11
-58.50389
 21
60.202985
  0
LINE
  8
型材断面
  6
DASHDOT
 10
-25.625342
 20
92.727985
 11
-58.150342
 21
60.202985
  0
LINE
  8
型材断面
  6
CONTINUOUS
 10
-27.62317
 20
87.4631
 11
-58.150342
 21
56.93592
  0
LINE
  8
型材断面
  6
CONTINUOUS
 10
-27.62317
 20
90.376605
 11
-58.150342
 21
59.849425
  0
LINE
  8
型材断面
  6
CONTINUOUS
 10
-27.269618
 20
91.083713
 11
-27.269618
 21
55.952985
  0
LINE
  8
型材断面
  6
CONTINUOUS
 10
-27.55246
 20
90.80087
 11
-27.55246
 21
55.952985
  0
LINE
  8
型材断面
  6
CONTINUOUS
 10
-25.625342
 20
92.727985
 11
-25.625342
 21
55.952985
  0
LINE
  8
型材断面
  6
CONTINUOUS
 10
-25.926112
 20
92.427215
 11
-25.926112
 21
55.952985
  0
LINE
  8
型材断面
  6
CONTINUOUS
 10
-26.279667
 20
92.073662
 11
-26.279667
 21
55.952985
  0
LINE
  8
型材断面
  6
DASHDOT
 10
-94.900342
 20
-69.07169
 11
-94.900342
 21
88.452985
  0
LINE
  8
型材断面
  6
DASHDOT
 10
-29.900342
 20
-69.07169
 11
-29.900342
 21
88.452985
  0
LINE
  8
型材断面
  6
DASHDOT
 10
-62.400342
 20
-69.07169
 11
-62.400342
 21
88.452985
  0
LINE
  8
型材断面
  6
DOT
 10
-36.11394
 20
88.452988
 11
-36.11394
 21
23.452985
  0
LINE
  8
型材断面
  6
DOT
 10
-34.11394
 20
88.452988
 11
-34.11394
 21
23.452985
  0
LINE
  8
型材断面
  6
CONTINUOUS
 10
-21.876468
 20
55.952985
 11
-17.990708
 21
53.70954
  0
LINE
  8
型材断面
  6
CONTINUOUS
 10
-21.876468
 20
55.952985
 11
-17.990708
 21
58.19643
  0
LINE
  8
型材断面
  6
CONTINUOUS
 10
-17.990708
 20
58.19643
 11
-17.990708
 21
53.70954
  0
LINE
  8
型材断面
  6
CONTINUOUS
 10
-62.400342
 20
96.47686
 11
-64.643787
 21
100.36262
  0
LINE
  8
型材断面
  6
CONTINUOUS
 10
-62.400342
 20
96.47686
 11
-60.156898
 21
100.36262
  0
LINE
  8
型材断面
  6
CONTINUOUS
 10
-60.156898
 20
100.36262
 11
-64.643787
 21
100.36262
  0
LINE
  8
型材断面
  6
CONTINUOUS
 10
-62.400342
 20
15.42911
 11
-64.643787
 21
11.54335
  0
LINE
  8
型材断面
  6
CONTINUOUS
 10
-62.400342
 20
15.42911
 11
-60.156898
 21
11.54335
  0
LINE
  8
型材断面
  6
CONTINUOUS
 10
-60.156898
 20
11.54335
 11
-64.643787
 21
11.54335
  0
LINE
  8
型材断面
  6
CONTINUOUS
 10
-102.924218
 20
55.952985
 11
-106.809977
 21
53.70954
  0
LINE
  8
型材断面
  6
CONTINUOUS
 10
-102.924218
 20
55.952985
 11
-106.809977
 21
58.19643
  0
LINE
  8
型材断面
  6
CONTINUOUS
 10
-106.809977
 20
58.19643
 11
-106.809977
 21
53.70954
  0
LINE
  8
型材断面
  6
CONTINUOUS
 10
-21.876468
 20
82.602988
 11
-17.990708
 21
81.708902
  0
LINE
  8
型材断面
  6
CONTINUOUS
 10
-21.876468
 20
82.602988
 11
-17.990708
 21
83.497072
  0
LINE
  8
型材断面
  6
CONTINUOUS
 10
-17.990708
 20
83.497072
 11
-17.990708
 21
81.708902
  0
LINE
  8
型材断面
  6
CONTINUOUS
 10
-102.924218
 20
82.602988
 11
-106.809977
 21
81.708902
  0
LINE
  8
型材断面
  6
CONTINUOUS
 10
-102.924218
 20
82.602988
 11
-106.809977
 21
83.497072
  0
LINE
  8
型材断面
  6
CONTINUOUS
 10
-106.809977
 20
83.497072
 11
-106.809977
 21
81.708902
  0
LINE
  8
型材断面
  6
CONTINUOUS
 10
-21.876468
 20
29.302982
 11
-17.990708
 21
30.197068
  0
LINE
  8
型材断面
  6
CONTINUOUS
 10
-21.876468
 20
29.302982
 11
-17.990708
 21
28.408898
  0
LINE
  8
型材断面
  6
CONTINUOUS
 10
-17.990708
 20
28.408898
 11
-17.990708
 21
30.197068
  0
LINE
  8
型材断面
  6
CONTINUOUS
 10
-102.924218
 20
29.302982
 11
-106.809977
 21
30.197068
  0
LINE
  8
型材断面
  6
CONTINUOUS
 10
-102.924218
 20
29.302982
 11
-106.809977
 21
28.408898
  0
LINE
  8
型材断面
  6
CONTINUOUS
 10
-106.809977
 20
28.408898
 11
-106.809977
 21
30.197068
  0
POLYLINE
  8
型材断面
  6
CONTINUOUS
 66
     1
 70
     1
  0
VERTEX
  8
型材断面
 10
-53.109893
 20
9.980393
  0
VERTEX
  8
型材断面
 10
-71.665105
 20
9.980393
  0
VERTEX
  8
型材断面
 10
-71.665105
 20
5.188357
  0
VERTEX
  8
型材断面
 10
-53.109893
 20
5.188357
  0
SEQEND
  0
POLYLINE
  8
型材断面
  6
CONTINUOUS
 66
     1
 70
     1
  0
VERTEX
  8
型材断面
 10
-53.109893
 20
106.430393
  0
VERTEX
  8
型材断面
 10
-71.665105
 20
106.430393
  0
VERTEX
  8
型材断面
 10
-71.665105
 20
101.638357
  0
VERTEX
  8
型材断面
 10
-53.109893
 20
101.638357
  0
SEQEND
  0
LINE
  8
型材断面
  6
CONTINUOUS
 10
78.103682
 20
-59.249723
 11
78.404452
 21
-59.550495
  0
LINE
  8
型材断面
  6
CONTINUOUS
 10
78.404452
 20
-60.89669
 11
78.404452
 21
-59.550495
  0
LINE
  8
型材断面
  6
CONTINUOUS
 62
    47
 10
78.404452
 20
-61.59669
 11
78.404452
 21
-60.89669
  0
LINE
  8
型材断面
  6
CONTINUOUS
 62
    47
 10
77.729452
 20
-61.59669
 11
77.729452
 21
-62.09669
  0
LINE
  8
型材断面
  6
CONTINUOUS
 62
    47
 10
76.760177
 20
-57.90622
 11
78.103682
 21
-59.249723
  0
LINE
  8
型材断面
  6
CONTINUOUS
 10
76.406625
 20
-57.552668
 11
72.85672
 21
-57.552668
  0
LINE
  8
型材断面
  6
CONTINUOUS
 62
    47
 10
77.549453
 20
-64.380728
 11
77.549453
 21
-63.880728
  0
LINE
  8
型材断面
  6
CONTINUOUS
 62
    47
 10
77.549453
 20
-63.880728
 11
76.374453
 21
-63.730728
  0
LINE
  8
型材断面
  6
CONTINUOUS
 62
    47
 10
76.374453
 20
-63.12169
 11
76.374453
 21
-63.730728
  0
LINE
  8
型材断面
  6
CONTINUOUS
 62
    47
 10
77.07945
 20
-63.12169
 11
77.07945
 21
-62.09669
  0
LINE
  8
型材断面
  6
CONTINUOUS
 62
    47
 10
77.07945
 20
-68.32169
 11
77.07945
 21
-64.380728
  0
LINE
  8
型材断面
  6
CONTINUOUS
 62
    47
 10
76.22945
 20
-69.07169
 11
76.22945
 21
-68.32169
  0
LINE
  8
型材断面
  6
CONTINUOUS
 10
76.760177
 20
-57.90622
 11
41.629452
 21
-22.775495
  0
LINE
  8
型材断面
  6
CONTINUOUS
 10
45.879452
 20
-26.91953
 11
41.629452
 21
-26.91953
  0
LINE
  8
型材断面
  6
CONTINUOUS
 10
37.379455
 20
-26.91953
 11
41.629452
 21
-26.91953
  0
LINE
  8
型材断面
  6
CONTINUOUS
 10
37.432438
 20
-26.972512
 11
41.629452
 21
-26.972512
  0
LINE
  8
型材断面
  6
CONTINUOUS
 10
41.629452
 20
-22.66953
 11
45.879452
 21
-26.91953
  0
LINE
  8
型材断面
  6
CONTINUOUS
 10
41.629452
 20
-22.66953
 11
37.379455
 21
-26.91953
  0
LINE
  8
型材断面
  6
CONTINUOUS
 10
45.826468
 20
-26.972512
 11
41.629452
 21
-26.972512
  0
LINE
  8
型材断面
  6
CONTINUOUS
 10
37.379455
 20
-26.91953
 11
37.432438
 21
-26.972512
  0
LINE
  8
型材断面
  6
CONTINUOUS
 10
45.826468
 20
-26.972512
 11
45.879452
 21
-26.91953
  0
LINE
  8
型材断面
  6
CONTINUOUS
 10
73.139562
 20
-57.552668
 11
42.559415
 21
-26.972512
  0
LINE
  8
型材断面
  6
CONTINUOUS
 10
72.85672
 20
-57.552668
 11
42.276572
 21
-26.972512
  0
LINE
  8
型材断面
  6
CONTINUOUS
 10
76.05307
 20
-57.552668
 11
45.472915
 21
-26.972512
  0
LINE
  8
型材断面
  6
CONTINUOUS
 62
    47
 10
76.22945
 20
-69.07169
 11
41.629452
 21
-69.07169
  0
LINE
  8
型材断面
  6
CONTINUOUS
 62
    47
 10
77.07945
 20
-68.32169
 11
41.629452
 21
-68.32169
  0
LINE
  8
型材断面
  6
CONTINUOUS
 10
78.404452
 20
-61.59669
 11
41.629452
 21
-61.59669
  0
LINE
  8
型材断面
  6
CONTINUOUS
 10
78.404452
 20
-60.89669
 11
41.629452
 21
-60.89669
  0
LINE
  8
型材断面
  6
CONTINUOUS
 10
77.729452
 20
-62.09669
 11
41.629452
 21
-62.09669
  0
LINE
  8
型材断面
  6
CONTINUOUS
 10
78.404452
 20
-59.550495
 11
41.629452
 21
-59.550495
  0
LINE
  8
型材断面
  6
CONTINUOUS
 10
76.374453
 20
-63.730728
 11
41.629452
 21
-63.730728
  0
LINE
  8
型材断面
  6
CONTINUOUS
 10
77.549453
 20
-63.880728
 11
41.629452
 21
-63.880728
  0
LINE
  8
型材断面
  6
CONTINUOUS
 62
    47
 10
77.549453
 20
-64.380728
 11
41.629452
 21
-64.380728
  0
LINE
  8
型材断面
  6
CONTINUOUS
 62
    47
 10
77.07945
 20
-63.12169
 11
41.629452
 21
-63.12169
  0
LINE
  8
型材断面
  6
CONTINUOUS
 10
77.750128
 20
-58.89617
 11
41.629452
 21
-58.89617
  0
LINE
  8
型材断面
  6
CONTINUOUS
 10
76.760177
 20
-57.90622
 11
41.629452
 21
-57.90622
  0
LINE
  8
型材断面
  6
CONTINUOUS
 10
78.103682
 20
-59.249723
 11
41.629452
 21
-59.249723
  0
LINE
  8
型材断面
  6
CONTINUOUS
 10
5.155222
 20
-59.249723
 11
4.854452
 21
-59.550495
  0
LINE
  8
型材断面
  6
CONTINUOUS
 10
4.854452
 20
-60.89669
 11
4.854452
 21
-59.550495
  0
LINE
  8
型材断面
  6
CONTINUOUS
 62
    47
 10
4.854452
 20
-61.59669
 11
4.854452
 21
-60.89669
  0
LINE
  8
型材断面
  6
CONTINUOUS
 62
    47
 10
5.529452
 20
-61.59669
 11
5.529452
 21
-62.09669
  0
LINE
  8
型材断面
  6
CONTINUOUS
 62
    47
 10
6.498727
 20
-57.90622
 11
5.155222
 21
-59.249723
  0
LINE
  8
型材断面
  6
CONTINUOUS
 10
6.85228
 20
-57.552668
 11
10.402185
 21
-57.552668
  0
LINE
  8
型材断面
  6
CONTINUOUS
 62
    47
 10
5.709453
 20
-64.380728
 11
5.709453
 21
-63.880728
  0
LINE
  8
型材断面
  6
CONTINUOUS
 62
    47
 10
5.709453
 20
-63.880728
 11
6.884453
 21
-63.730728
  0
LINE
  8
型材断面
  6
CONTINUOUS
 62
    47
 10
6.884453
 20
-63.12169
 11
6.884453
 21
-63.730728
  0
LINE
  8
型材断面
  6
CONTINUOUS
 62
    47
 10
6.179455
 20
-63.12169
 11
6.179455
 21
-62.09669
  0
LINE
  8
型材断面
  6
CONTINUOUS
 62
    47
 10
6.179455
 20
-68.32169
 11
6.179455
 21
-64.380728
  0
LINE
  8
型材断面
  6
CONTINUOUS
 62
    47
 10
7.029455
 20
-69.07169
 11
7.029455
 21
-68.32169
  0
LINE
  8
型材断面
  6
CONTINUOUS
 10
6.498727
 20
-57.90622
 11
41.629452
 21
-22.775495
  0
LINE
  8
型材断面
  6
CONTINUOUS
 10
10.119342
 20
-57.552668
 11
40.69949
 21
-26.972512
  0
LINE
  8
型材断面
  6
CONTINUOUS
 10
10.402185
 20
-57.552668
 11
40.982332
 21
-26.972512
  0
LINE
  8
型材断面
  6
CONTINUOUS
 10
7.205835
 20
-57.552668
 11
37.78599
 21
-26.972512
  0
LINE
  8
型材断面
  6
CONTINUOUS
 62
    47
 10
7.029455
 20
-69.07169
 11
41.629452
 21
-69.07169
  0
LINE
  8
型材断面
  6
CONTINUOUS
 62
    47
 10
6.179455
 20
-68.32169
 11
41.629452
 21
-68.32169
  0
LINE
  8
型材断面
  6
CONTINUOUS
 10
4.854452
 20
-61.59669
 11
41.629452
 21
-61.59669
  0
LINE
  8
型材断面
  6
CONTINUOUS
 10
4.854452
 20
-60.89669
 11
41.629452
 21
-60.89669
  0
LINE
  8
型材断面
  6
CONTINUOUS
 10
5.529452
 20
-62.09669
 11
41.629452
 21
-62.09669
  0
LINE
  8
型材断面
  6
CONTINUOUS
 10
4.854452
 20
-59.550495
 11
41.629452
 21
-59.550495
  0
LINE
  8
型材断面
  6
CONTINUOUS
 10
6.884453
 20
-63.730728
 11
41.629452
 21
-63.730728
  0
LINE
  8
型材断面
  6
CONTINUOUS
 10
5.709453
 20
-63.880728
 11
41.629452
 21
-63.880728
  0
LINE
  8
型材断面
  6
CONTINUOUS
 62
    47
 10
5.709453
 20
-64.380728
 11
41.629452
 21
-64.380728
  0
LINE
  8
型材断面
  6
CONTINUOUS
 62
    47
 10
6.179455
 20
-63.12169
 11
41.629452
 21
-63.12169
  0
LINE
  8
型材断面
  6
CONTINUOUS
 10
5.508777
 20
-58.89617
 11
41.629452
 21
-58.89617
  0
LINE
  8
型材断面
  6
CONTINUOUS
 10
6.498727
 20
-57.90622
 11
41.629452
 21
-57.90622
  0
LINE
  8
型材断面
  6
CONTINUOUS
 10
5.155222
 20
-59.249723
 11
41.629452
 21
-59.249723
  0
LINE
  8
型材断面
  6
DOT
 10
78.103682
 20
-43.249723
 11
78.404452
 21
-43.550495
  0
LINE
  8
型材断面
  6
DOT
 10
78.404452
 20
-44.89669
 11
78.404452
 21
-43.550495
  0
LINE
  8
型材断面
  6
DOT
 62
    47
 10
78.404452
 20
-45.59669
 11
78.404452
 21
-44.89669
  0
LINE
  8
型材断面
  6
DOT
 62
    47
 10
77.729452
 20
-45.59669
 11
77.729452
 21
-46.09669
  0
LINE
  8
型材断面
  6
DOT
 62
    47
 10
76.760177
 20
-41.90622
 11
78.103682
 21
-43.249723
  0
LINE
  8
型材断面
  6
DOT
 10
76.406625
 20
-41.552668
 11
72.85672
 21
-41.552668
  0
LINE
  8
型材断面
  6
DOT
 62
    47
 10
77.549453
 20
-48.380728
 11
77.549453
 21
-47.880728
  0
LINE
  8
型材断面
  6
DOT
 62
    47
 10
77.549453
 20
-47.880728
 11
76.374453
 21
-47.730728
  0
LINE
  8
型材断面
  6
DOT
 62
    47
 10
76.374453
 20
-47.12169
 11
76.374453
 21
-47.730728
  0
LINE
  8
型材断面
  6
DOT
 62
    47
 10
77.07945
 20
-47.12169
 11
77.07945
 21
-46.09669
  0
LINE
  8
型材断面
  6
DOT
 10
76.760177
 20
-41.90622
 11
41.629452
 21
-6.775495
  0
LINE
  8
型材断面
  6
DOT
 10
45.879452
 20
-10.91953
 11
41.629452
 21
-10.91953
  0
LINE
  8
型材断面
  6
DOT
 10
37.379455
 20
-10.91953
 11
41.629452
 21
-10.91953
  0
LINE
  8
型材断面
  6
DOT
 10
37.432438
 20
-10.972512
 11
41.629452
 21
-10.972512
  0
LINE
  8
型材断面
  6
DOT
 10
41.629452
 20
-6.66953
 11
45.879452
 21
-10.91953
  0
LINE
  8
型材断面
  6
DOT
 10
41.629452
 20
-6.66953
 11
37.379455
 21
-10.91953
  0
LINE
  8
型材断面
  6
DOT
 10
45.826468
 20
-10.972512
 11
41.629452
 21
-10.972512
  0
LINE
  8
型材断面
  6
DOT
 10
37.379455
 20
-10.91953
 11
37.432438
 21
-10.972512
  0
LINE
  8
型材断面
  6
DOT
 10
45.826468
 20
-10.972512
 11
45.879452
 21
-10.91953
  0
LINE
  8
型材断面
  6
DOT
 10
73.139562
 20
-41.552668
 11
42.559415
 21
-10.972512
  0
LINE
  8
型材断面
  6
DOT
 10
72.85672
 20
-41.552668
 11
42.276572
 21
-10.972512
  0
LINE
  8
型材断面
  6
DOT
 10
76.05307
 20
-41.552668
 11
45.472915
 21
-10.972512
  0
LINE
  8
型材断面
  6
DOT
 10
78.404452
 20
-45.59669
 11
41.629452
 21
-45.59669
  0
LINE
  8
型材断面
  6
DOT
 10
78.404452
 20
-44.89669
 11
41.629452
 21
-44.89669
  0
LINE
  8
型材断面
  6
DOT
 10
77.729452
 20
-46.09669
 11
41.629452
 21
-46.09669
  0
LINE
  8
型材断面
  6
DOT
 10
78.404452
 20
-43.550495
 11
41.629452
 21
-43.550495
  0
LINE
  8
型材断面
  6
DOT
 10
76.374453
 20
-47.730728
 11
41.629452
 21
-47.730728
  0
LINE
  8
型材断面
  6
DOT
 10
77.549453
 20
-47.880728
 11
41.629452
 21
-47.880728
  0
LINE
  8
型材断面
  6
DOT
 62
    47
 10
77.549453
 20
-48.380728
 11
41.629452
 21
-48.380728
  0
LINE
  8
型材断面
  6
DOT
 62
    47
 10
77.07945
 20
-47.12169
 11
41.629452
 21
-47.12169
  0
LINE
  8
型材断面
  6
DOT
 10
77.750128
 20
-42.89617
 11
41.629452
 21
-42.89617
  0
LINE
  8
型材断面
  6
DOT
 10
76.760177
 20
-41.90622
 11
41.629452
 21
-41.90622
  0
LINE
  8
型材断面
  6
DOT
 10
78.103682
 20
-43.249723
 11
41.629452
 21
-43.249723
  0
LINE
  8
型材断面
  6
DOT
 10
5.155222
 20
-43.249723
 11
4.854452
 21
-43.550495
  0
LINE
  8
型材断面
  6
DOT
 10
4.854452
 20
-44.89669
 11
4.854452
 21
-43.550495
  0
LINE
  8
型材断面
  6
DOT
 62
    47
 10
4.854452
 20
-45.59669
 11
4.854452
 21
-44.89669
  0
LINE
  8
型材断面
  6
DOT
 62
    47
 10
5.529452
 20
-45.59669
 11
5.529452
 21
-46.09669
  0
LINE
  8
型材断面
  6
DOT
 62
    47
 10
6.498727
 20
-41.90622
 11
5.155222
 21
-43.249723
  0
LINE
  8
型材断面
  6
DOT
 10
6.85228
 20
-41.552668
 11
10.402185
 21
-41.552668
  0
LINE
  8
型材断面
  6
DOT
 62
    47
 10
5.709453
 20
-48.380728
 11
5.709453
 21
-47.880728
  0
LINE
  8
型材断面
  6
DOT
 62
    47
 10
5.709453
 20
-47.880728
 11
6.884453
 21
-47.730728
  0
LINE
  8
型材断面
  6
DOT
 62
    47
 10
6.884453
 20
-47.12169
 11
6.884453
 21
-47.730728
  0
LINE
  8
型材断面
  6
DOT
 62
    47
 10
6.179455
 20
-47.12169
 11
6.179455
 21
-46.09669
  0
LINE
  8
型材断面
  6
DOT
 10
6.498727
 20
-41.90622
 11
41.629452
 21
-6.775495
  0
LINE
  8
型材断面
  6
DOT
 10
10.119342
 20
-41.552668
 11
40.69949
 21
-10.972512
  0
LINE
  8
型材断面
  6
DOT
 10
10.402185
 20
-41.552668
 11
40.982332
 21
-10.972512
  0
LINE
  8
型材断面
  6
DOT
 10
7.205835
 20
-41.552668
 11
37.78599
 21
-10.972512
  0
LINE
  8
型材断面
  6
DOT
 10
4.854452
 20
-45.59669
 11
41.629452
 21
-45.59669
  0
LINE
  8
型材断面
  6
DOT
 10
4.854452
 20
-44.89669
 11
41.629452
 21
-44.89669
  0
LINE
  8
型材断面
  6
DOT
 10
5.529452
 20
-46.09669
 11
41.629452
 21
-46.09669
  0
LINE
  8
型材断面
  6
DOT
 10
4.854452
 20
-43.550495
 11
41.629452
 21
-43.550495
  0
LINE
  8
型材断面
  6
DOT
 10
6.884453
 20
-47.730728
 11
41.629452
 21
-47.730728
  0
LINE
  8
型材断面
  6
DOT
 10
5.709453
 20
-47.880728
 11
41.629452
 21
-47.880728
  0
LINE
  8
型材断面
  6
DOT
 62
    47
 10
5.709453
 20
-48.380728
 11
41.629452
 21
-48.380728
  0
LINE
  8
型材断面
  6
DOT
 62
    47
 10
6.179455
 20
-47.12169
 11
41.629452
 21
-47.12169
  0
LINE
  8
型材断面
  6
DOT
 10
5.508777
 20
-42.89617
 11
41.629452
 21
-42.89617
  0
LINE
  8
型材断面
  6
DOT
 10
6.498727
 20
-41.90622
 11
41.629452
 21
-41.90622
  0
LINE
  8
型材断面
  6
DOT
 10
5.155222
 20
-43.249723
 11
41.629452
 21
-43.249723
  0
INSERT
  2
*GRP_0014
  8
型材断面
  6
CONTINUOUS
 10
0.0
 20
0.0
  0
INSERT
  2
*GRP_0015
  8
型材断面
  6
CONTINUOUS
 10
0.0
 20
0.0
  0
LINE
  8
型材断面
  6
CONTINUOUS
 10
105.526175
 20
-43.65874
 11
129.457798
 21
-43.65874
  0
LINE
  8
型材断面
  6
CONTINUOUS
 10
10.81847
 20
47.78891
 11
8.575025
 21
43.90315
  0
LINE
  8
型材断面
  6
CONTINUOUS
 10
10.81847
 20
47.78891
 11
13.061915
 21
43.90315
  0
LINE
  8
型材断面
  6
CONTINUOUS
 10
13.061915
 20
43.90315
 11
8.575025
 21
43.90315
  0
LINE
  8
型材断面
  6
CONTINUOUS
 10
10.81847
 20
40.099362
 11
11.712555
 21
36.213602
  0
LINE
  8
型材断面
  6
CONTINUOUS
 10
10.81847
 20
40.099362
 11
9.924385
 21
36.213602
  0
LINE
  8
型材断面
  6
CONTINUOUS
 10
9.924385
 20
36.213602
 11
11.712555
 21
36.213602
  0
LINE
  8
型材断面
  6
CONTINUOUS
 10
1.78459
 20
42.495257
 11
54.44127
 21
42.495257
  0
LINE
  8
型材断面
  6
CONTINUOUS
 10
1.78459
 20
31.295265
 11
54.44127
 21
31.295265
  0
LINE
  8
型材断面
  6
CONTINUOUS
 10
1.78459
 20
24.45532
 11
54.44127
 21
24.45532
  0
LINE
  8
型材断面
  6
CONTINUOUS
 10
1.78459
 20
17.615375
 11
54.44127
 21
17.615375
  0
LINE
  8
ガラス
  6
CONTINUOUS
 10
-60.395895
 20
-44.795025
 11
-64.26853
 21
-48.66766
  0
LINE
  8
ガラス
  6
CONTINUOUS
 10
-61.276217
 20
-46.393383
 11
-62.670172
 21
-47.787338
  0
LINE
  8
ガラス
  6
CONTINUOUS
 10
-61.994253
 20
-45.675348
 11
-63.388208
 21
-47.069302
  0
LINE
  8
ガラス
  6
CONTINUOUS
 10
-60.587118
 20
80.9127
 11
-64.459753
 21
77.040065
  0
LINE
  8
ガラス
  6
CONTINUOUS
 10
-61.46744
 20
79.314343
 11
-62.861395
 21
77.920387
  0
LINE
  8
ガラス
  6
CONTINUOUS
 10
-62.185475
 20
80.032378
 11
-63.57943
 21
78.638422
  0
LINE
  8
ガラス
  6
CONTINUOUS
 10
-60.587118
 20
37.165432
 11
-64.459753
 21
33.292798
  0
LINE
  8
ガラス
  6
CONTINUOUS
 10
-61.46744
 20
35.567075
 11
-62.861395
 21
34.17312
  0
LINE
  8
ガラス
  6
CONTINUOUS
 10
-62.185475
 20
36.28511
 11
-63.57943
 21
34.891155
  0
LINE
  8
ガラス
  6
CONTINUOUS
 10
-40.43608
 20
57.840688
 11
-44.308715
 21
53.968052
  0
LINE
  8
ガラス
  6
CONTINUOUS
 10
-41.316403
 20
56.24233
 11
-42.710358
 21
54.848375
  0
LINE
  8
ガラス
  6
CONTINUOUS
 10
-42.034437
 20
56.960365
 11
-43.428392
 21
55.56641
  0
LINE
  8
ガラス
  6
CONTINUOUS
 10
-80.294402
 20
57.840688
 11
-84.167037
 21
53.968052
  0
LINE
  8
ガラス
  6
CONTINUOUS
 10
-81.174725
 20
56.24233
 11
-82.56868
 21
54.848375
  0
LINE
  8
ガラス
  6
CONTINUOUS
 10
-81.89276
 20
56.960365
 11
-83.286715
 21
55.56641
  0
TEXT
  7
TextStyle03
  8
文字
  6
CONTINUOUS
 10
-21.225
 20
42.125
  1
ﾊﾞﾗﾝｽｽﾃｰ
 40
3.0
 72
     5
 11
-7.9125
 21
42.125
  0
TEXT
  7
TextStyle03
  8
文字
  6
CONTINUOUS
 10
-70.7
 20
6.2
  1
可動装置側
 40
3.0
 72
     5
 11
-54.2
 21
6.2
  0
TEXT
  7
TextStyle03
  8
文字
  6
CONTINUOUS
 10
-70.7
 20
102.65
  1
可動装置側
 40
3.0
 72
     5
 11
-54.2
 21
102.65
  0
TEXT
  7
TextStyle03
  8
文字
  6
CONTINUOUS
 10
66.75
 20
93.975
  1
ＮＳコード：ＮＳ４ＣＳ
 40
5.0
 72
     5
 11
128.0
 21
93.975
  0
TEXT
  7
TextStyle03
  8
文字
  6
CONTINUOUS
 10
-126.4
 20
12.55
  1
アンカーピッチ
 40
3.0
 50
90.0
 72
     5
 11
-126.4
 21
35.8
  0
TEXT
  7
TextStyle03
  8
文字
  6
CONTINUOUS
 10
-109.4
 20
115.35
  1
アンカーピッチ
 40
3.0
 72
     5
 11
-86.15
 21
115.35
  0
TEXT
  7
TextStyle03
  8
文字
  6
CONTINUOUS
 10
149.375
 20
-92.15
  1
×４枚
 40
3.0
 72
     5
 11
159.125
 21
-92.15
  0
TEXT
  7
TextStyle03
  8
文字
  6
CONTINUOUS
 10
109.1
 20
-42.425
  1
ガラス寸法
 40
3.0
 72
     5
 11
125.6
 21
-42.425
  0
TEXT
  7
TextStyle03
  8
文字
  6
CONTINUOUS
 10
15.025
 20
44.2
  1
は排水穴位置を示す
 40
3.0
 72
     5
 11
45.025
 21
44.2
  0
TEXT
  7
TextStyle03
  8
文字
  6
CONTINUOUS
 10
15.025
 20
36.35
  1
はケーシング位置を示す
 40
3.0
 72
     5
 11
51.775
 21
36.35
  0
TEXT
  7
TextStyle03
  8
文字
  6
CONTINUOUS
 10
15.025
 20
32.975
  1
４ヶ所中1ヶ所に設定
 40
3.0
 72
     5
 11
46.7125
 21
32.975
  0
TEXT
  7
TextStyle03
  8
文字
  6
CONTINUOUS
 10
9.425
 20
25.825
  1
アンカー数量　８ヶ所
 40
3.0
 72
     5
 11
42.8
 21
25.825
  0
TEXT
  7
TextStyle03
  8
文字
  6
CONTINUOUS
 10
9.425
 20
19.0
  1
アームユニット数　２ヶ所
 40
3.0
 72
     5
 11
49.55
 21
19.0
  0
TEXT
  7
TextStyle03
  8
文字
  6
CONTINUOUS
 10
66.675
 20
120.625
  1
シリーズ：ＳＴＦ４
 40
5.0
 72
     5
 11
116.675
 21
120.625
  0
TEXT
  7
TextStyle03
  8
文字
  6
CONTINUOUS
 10
66.675
 20
115.0
  1
　　　　　四角錘（上下可動）1300×1300タイプ
 40
5.0
 72
     5
 11
189.8
 21
115.0
  0
TEXT
  7
TextStyle03
  8
文字
  6
CONTINUOUS
 10
66.675
 20
109.375
  1
　　　　　ペアガラス仕様
 40
5.0
 72
     5
 11
133.55
 21
109.375
  0
TEXT
  7
TextStyle03
  8
文字
  6
CONTINUOUS
 10
66.675
 20
103.75
  1
図面名　：外観姿図
 40
5.0
 72
     5
 11
116.675
 21
103.75
  0
TEXT
  7
TextStyle03
  8
文字
  6
CONTINUOUS
 10
66.675
 20
98.125
  1
　　　　　　
 40
5.0
 72
     5
 11
99.8
 21
98.125
  0
INSERT
  2
*DIM_0002
  8
寸法
  6
CONTINUOUS
 10
0.0
 20
0.0
  0
INSERT
  2
*DIM_0003
  8
寸法
  6
CONTINUOUS
 10
0.0
 20
0.0
  0
INSERT
  2
*DIM_0004
  8
寸法
  6
CONTINUOUS
 10
0.0
 20
0.0
  0
INSERT
  2
*DIM_0005
  8
寸法
  6
CONTINUOUS
 10
0.0
 20
0.0
  0
INSERT
  2
*DIM_0006
  8
寸法
  6
CONTINUOUS
 10
0.0
 20
0.0
  0
INSERT
  2
*DIM_0007
  8
寸法
  6
CONTINUOUS
 10
0.0
 20
0.0
  0
INSERT
  2
*DIM_0008
  8
寸法
  6
CONTINUOUS
 10
0.0
 20
0.0
  0
INSERT
  2
*GRP_0009
  8
寸法
  6
CONTINUOUS
 10
0.0
 20
0.0
  0
INSERT
  2
*DIM_0010
  8
寸法
  6
CONTINUOUS
 10
0.0
 20
0.0
  0
INSERT
  2
*DIM_0011
  8
寸法
  6
CONTINUOUS
 10
0.0
 20
0.0
  0
INSERT
  2
*DIM_0012
  8
寸法
  6
CONTINUOUS
 10
0.0
 20
0.0
  0
INSERT
  2
*DIM_0013
  8
寸法
  6
CONTINUOUS
 10
0.0
 20
0.0
  0
INSERT
  2
*DIM_0028
  8
寸法
  6
CONTINUOUS
 10
0.0
 20
0.0
  0
INSERT
  2
*DIM_0029
  8
寸法
  6
CONTINUOUS
 10
0.0
 20
0.0
  0
INSERT
  2
*DIM_0030
  8
寸法
  6
CONTINUOUS
 10
0.0
 20
0.0
  0
LINE
  8
曲げ物
  6
CONTINUOUS
 10
104.801687
 20
-95.24814
 11
138.111478
 21
-48.141185
  0
LINE
  8
曲げ物
  6
CONTINUOUS
 10
138.111478
 20
-48.141185
 11
171.421265
 21
-95.24814
  0
LINE
  8
曲げ物
  6
CONTINUOUS
 10
104.801687
 20
-95.24814
 11
171.421265
 21
-95.24814
  0
ENDSEC
  0
EOF
