  0
SECTION
  2
HEADER
  9
$EXTMIN
 10
-210.0
 20
-148.5
  9
$EXTMAX
 10
210.0
 20
148.5
  9
$PDMODE
 70
    32
  9
$PDSIZE
 40
1.5
  9
$LTSCALE
 40
10.0
  0
ENDSEC
  0
SECTION
  2
TABLES
  0
TABLE
  2
LTYPE
 70
    15
  0
LTYPE
  2
CONTINUOUS
 70
    64
  3
実線
 72
    65
 73
     0
 40
0.0
  0
LTYPE
  2
DASHED
 70
    64
  3
破線A
 72
    65
 73
     2
 40
0.6
 49
0.4
 49
-0.2
  0
LTYPE
  2
DASHEDX2
 70
    64
  3
破線B
 72
    65
 73
     2
 40
1.3
 49
0.9
 49
-0.4
  0
LTYPE
  2
DASHDOT
 70
    64
  3
１点鎖線A
 72
    65
 73
     4
 40
0.5375
 49
0.375
 49
-0.05
 49
0.0625
 49
-0.05
  0
LTYPE
  2
DASHDOTX2
 70
    64
  3
１点鎖線B
 72
    65
 73
     4
 40
1.075
 49
0.75
 49
-0.1
 49
0.125
 49
-0.1
  0
LTYPE
  2
DIVIDE2
 70
    64
  3
２点鎖線A
 72
    65
 73
     6
 40
0.5125
 49
0.3
 49
-0.0375
 49
0.05
 49
-0.0375
 49
0.05
 49
-0.0375
  0
LTYPE
  2
DIVIDE
 70
    64
  3
２点鎖線B
 72
    65
 73
     6
 40
1.05
 49
0.55
 49
-0.1
 49
0.1
 49
-0.1
 49
0.1
 49
-0.1
  0
LTYPE
  2
DOT
 70
    64
  3
点線A
 72
    65
 73
     2
 40
0.1125
 49
0.0625
 49
-0.05
  0
LTYPE
  2
DOTX2
 70
    64
  3
点線B
 72
    65
 73
     2
 40
0.275
 49
0.15
 49
-0.125
  0
LTYPE
  2
CONTINUOUS
 70
    64
  3
実線
 72
    65
 73
     0
 40
0.0
  0
LTYPE
  2
CONTINUOUS
 70
    64
  3
実線
 72
    65
 73
     0
 40
0.0
  0
LTYPE
  2
CONTINUOUS
 70
    64
  3
実線
 72
    65
 73
     0
 40
0.0
  0
LTYPE
  2
CONTINUOUS
 70
    64
  3
実線
 72
    65
 73
     0
 40
0.0
  0
LTYPE
  2
CONTINUOUS
 70
    64
  3
実線
 72
    65
 73
     0
 40
0.0
  0
LTYPE
  2
CONTINUOUS
 70
    64
  3
実線
 72
    65
 73
     0
 40
0.0
  0
ENDTAB
  0
TABLE
  2
LAYER
 70
    34
  0
LAYER
  2
通り芯
 70
     0
 62
    15
  6
CONTINUOUS
  0
LAYER
  2
補助線
 70
     0
 62
    16
  6
DOT
  0
LAYER
  2
躯体
 70
     0
 62
    31
  6
CONTINUOUS
  0
LAYER
  2
型材
 70
     0
 62
    32
  6
CONTINUOUS
  0
LAYER
  2
型材断面
 70
     0
 62
    47
  6
CONTINUOUS
  0
LAYER
  2
ガラス
 70
     0
 62
    48
  6
CONTINUOUS
  0
LAYER
  2
ゴム等
 70
     0
 62
    63
  6
CONTINUOUS
  0
LAYER
  2
ボルト／ビス
 70
     0
 62
    64
  6
CONTINUOUS
  0
LAYER
  2
文字
 70
     0
 62
    79
  6
CONTINUOUS
  0
LAYER
  2
寸法
 70
     0
 62
    80
  6
CONTINUOUS
  0
LAYER
  2
ﾊｯﾁﾝｸﾞ
 70
     0
 62
    95
  6
CONTINUOUS
  0
LAYER
  2
別途部材
 70
     0
 62
    96
  6
CONTINUOUS
  0
LAYER
  2
曲げ物
 70
     0
 62
   111
  6
CONTINUOUS
  0
LAYER
  2
鉄骨等
 70
     0
 62
   112
  6
CONTINUOUS
  0
LAYER
  2
St
 70
     0
 62
   127
  6
CONTINUOUS
  0
LAYER
  2
その他部品等
 70
     0
 62
   128
  6
CONTINUOUS
  0
LAYER
  2
ｶﾞｽｹｯﾄ
 70
     0
 62
   143
  6
CONTINUOUS
  0
LAYER
  2
ｽｹｯﾁ
 70
     0
 62
    14
  6
CONTINUOUS
  0
LAYER
  2
0
 70
     0
 62
    17
  6
CONTINUOUS
  0
LAYER
  2
1
 70
     0
 62
    30
  6
CONTINUOUS
  0
LAYER
  2
4
 70
     0
 62
    33
  6
CONTINUOUS
  0
LAYER
  2
ﾚｲﾔ3
 70
     0
 62
    46
  6
CONTINUOUS
  0
LAYER
  2
外形線
 70
     0
 62
    49
  6
CONTINUOUS
  0
LAYER
  2
部品
 70
     0
 62
    14
  6
CONTINUOUS
  0
LAYER
  2
サッシ芯
 70
     0
 62
    17
  6
DASHDOTX2
  0
LAYER
  2
寸法線
 70
     0
 62
    62
  6
CONTINUOUS
  0
LAYER
  2
姿図外形線
 70
     0
 62
    65
  6
CONTINUOUS
  0
LAYER
  2
姿補助線
 70
     0
 62
    30
  6
CONTINUOUS
  0
LAYER
  2
透視線
 70
     0
 62
    78
  6
DOT
  0
LAYER
  2
用紙
 70
     0
 62
    81
  6
CONTINUOUS
  0
LAYER
  2
実線図枠
 70
     0
 62
    94
  6
CONTINUOUS
  0
LAYER
  2
補助図枠
 70
     0
 62
    97
  6
CONTINUOUS
  0
LAYER
  2
建具記号
 70
     0
 62
   110
  6
CONTINUOUS
  0
LAYER
  2
補助文字
 70
     0
 62
   113
  6
CONTINUOUS
  0
ENDTAB
  0
TABLE
  2
STYLE
 70
    10
  0
STYLE
  2
STANDARD
 70
     0
 40
1.0
 41
1.0
 42
1.0
 50
0.0
 71
     0
  3
TXT
  4
BIGFONT
  0
STYLE
  2
TATE
 70
     4
 40
1.0
 41
1.0
 42
1.0
 50
0.0
 71
     0
  3
TXT
  4
BIGFONT
  0
STYLE
  2
TextStyle03
 70
     0
 40
1.0
 41
1.0
 42
1.0
 50
0.0
 71
     0
  3
MONOTXT
  4
BIGFONT
  0
STYLE
  2
TextStyle04
 70
     0
 40
1.0
 41
1.0
 42
1.0
 50
0.0
 71
     0
  3
MONOTXT
  4
BIGFONT
  0
STYLE
  2
TextStyle05
 70
     0
 40
1.0
 41
1.0
 42
1.0
 50
0.0
 71
     0
  3
MONOTXT
  4
BIGFONT
  0
STYLE
  2
TextStyle06
 70
     0
 40
1.0
 41
1.0
 42
1.0
 50
0.0
 71
     0
  3
MONOTXT
  4
BIGFONT
  0
STYLE
  2
TextStyle07
 70
     0
 40
1.0
 41
1.0
 42
1.0
 50
0.0
 71
     0
  3
MONOTXT
  4
BIGFONT
  0
STYLE
  2
TextStyle08
 70
     0
 40
1.0
 41
1.0
 42
1.0
 50
0.0
 71
     0
  3
MONOTXT
  4
BIGFONT
  0
STYLE
  2
TextStyle09
 70
     0
 40
1.0
 41
1.0
 42
1.0
 50
0.0
 71
     0
  3
MONOTXT
  4
BIGFONT
  0
STYLE
  2
TextStyle10
 70
     0
 40
1.0
 41
1.0
 42
1.0
 50
0.0
 71
     0
  3
MONOTXT
  4
BIGFONT
  0
ENDTAB
  0
ENDSEC
  0
SECTION
  2
BLOCKS
  0
BLOCK
  2
*GRP_0001
 70
    65
 10
0.0
 20
0.0
  0
LINE
  8
型材断面
  6
CONTINUOUS
 10
195.0
 20
133.5
 11
195.0
 21
-133.5
  0
LINE
  8
型材断面
  6
CONTINUOUS
 10
195.0
 20
-133.5
 11
-185.0
 21
-133.5
  0
LINE
  8
型材断面
  6
CONTINUOUS
 10
-185.0
 20
-133.5
 11
-185.0
 21
133.5
  0
LINE
  8
型材断面
  6
CONTINUOUS
 10
195.0
 20
133.5
 11
-185.0
 21
133.5
  0
LINE
  8
型材断面
  6
CONTINUOUS
 10
145.0
 20
-133.5
 11
145.0
 21
-118.5
  0
LINE
  8
型材断面
  6
CONTINUOUS
 10
195.0
 20
-118.5
 11
145.0
 21
-118.5
  0
ENDBLK
  0
BLOCK
  2
*DIM_0002
 70
    65
 10
0.0
 20
0.0
  0
LINE
  8
寸法
  6
BYBLOCK
 62
     0
 10
-41.938977
 20
-75.304255
 11
-23.760088
 21
-75.304255
  0
LINE
  8
寸法
  6
BYBLOCK
 62
     0
 10
-40.613975
 20
-67.310877
 11
-23.760088
 21
-67.310877
  0
LINE
  8
寸法
  6
BYBLOCK
 62
     0
 10
-23.760088
 20
-75.304255
 11
-23.760088
 21
-67.310877
  0
POINT
  8
寸法
 62
     0
 10
-23.760088
 20
-75.304255
  0
POINT
  8
寸法
 62
     0
 10
-23.760088
 20
-67.310877
  0
TEXT
  7
TextStyle03
  8
寸法
  6
CONTINUOUS
 62
     0
 10
-20.75
 20
-75.475
  1
159.9
 40
3.0
 50
90.0
 72
     5
 11
-20.75
 21
-67.225
  0
ENDBLK
  0
BLOCK
  2
*DIM_0003
 70
    65
 10
0.0
 20
0.0
  0
LINE
  8
寸法
  6
BYBLOCK
 62
     0
 10
-82.638972
 20
-33.679912
 11
-82.638972
 21
-23.830735
  0
LINE
  8
寸法
  6
BYBLOCK
 62
     0
 10
-74.138975
 20
-33.679912
 11
-74.138975
 21
-23.830735
  0
LINE
  8
寸法
  6
BYBLOCK
 62
     0
 10
-82.638972
 20
-23.830735
 11
-74.138975
 21
-23.830735
  0
POINT
  8
寸法
 62
     0
 10
-82.638972
 20
-23.830735
  0
POINT
  8
寸法
 62
     0
 10
-74.138975
 20
-23.830735
  0
TEXT
  7
TextStyle03
  8
寸法
  6
CONTINUOUS
 62
     0
 10
-80.8125
 20
-23.5
  1
170
 40
3.0
 72
     5
 11
-75.9375
 21
-23.5
  0
ENDBLK
  0
BLOCK
  2
*DIM_0004
 70
    65
 10
0.0
 20
0.0
  0
LINE
  8
寸法
  6
BYBLOCK
 62
     0
 10
-67.350505
 20
-30.429912
 11
-68.294783
 21
-30.429912
  0
LINE
  8
寸法
  6
BYBLOCK
 62
     0
 10
-73.138975
 20
-34.679912
 11
-68.294783
 21
-34.679912
  0
LINE
  8
寸法
  6
BYBLOCK
 62
     0
 10
-68.294783
 20
-30.429912
 11
-68.294783
 21
-34.679912
  0
POINT
  8
寸法
 62
     0
 10
-68.294783
 20
-30.429912
  0
POINT
  8
寸法
 62
     0
 10
-68.294783
 20
-34.679912
  0
TEXT
  7
TextStyle03
  8
寸法
  6
CONTINUOUS
 62
     0
 10
-68.65
 20
-34.19375
  1
85
 40
3.0
 50
90.0
 72
     5
 11
-68.65
 21
-31.00625
  0
ENDBLK
  0
BLOCK
  2
*DIM_0005
 70
    65
 10
0.0
 20
0.0
  0
LINE
  8
寸法
  6
BYBLOCK
 62
     0
 10
-110.888975
 20
-17.911218
 11
-110.888975
 21
-17.245547
  0
LINE
  8
寸法
  6
BYBLOCK
 62
     0
 10
-45.888975
 20
-17.744055
 11
-45.888975
 21
-17.245547
  0
LINE
  8
寸法
  6
BYBLOCK
 62
     0
 10
-110.888975
 20
-17.245547
 11
-45.888975
 21
-17.245547
  0
POINT
  8
寸法
 62
     0
 10
-110.888975
 20
-17.245547
  0
POINT
  8
寸法
 62
     0
 10
-45.888975
 20
-17.245547
  0
TEXT
  7
TextStyle03
  8
寸法
  6
CONTINUOUS
 62
     0
 10
-90.11875
 20
-16.875
  1
呼称寸法　1300
 40
3.0
 72
     5
 11
-66.68125
 21
-16.875
  0
ENDBLK
  0
BLOCK
  2
*DIM_0006
 70
    65
 10
0.0
 20
0.0
  0
LINE
  8
寸法
  6
BYBLOCK
 62
     0
 10
-41.613975
 20
-66.310877
 11
-41.613975
 21
-17.245547
  0
LINE
  8
寸法
  6
BYBLOCK
 62
     0
 10
-45.888975
 20
-17.245547
 11
-41.613975
 21
-17.245547
  0
POINT
  8
寸法
 62
     0
 10
-41.613975
 20
-17.245547
  0
TEXT
  7
TextStyle03
  8
寸法
  6
CONTINUOUS
 62
     0
 10
-40.30625
 20
-16.875
  1
85.5
 40
3.0
 72
     5
 11
-33.74375
 21
-16.875
  0
ENDBLK
  0
BLOCK
  2
*DIM_0007
 70
    65
 10
0.0
 20
0.0
  0
LINE
  8
寸法
  6
BYBLOCK
 62
     0
 10
-115.163975
 20
-66.310877
 11
-115.163975
 21
-17.245547
  0
LINE
  8
寸法
  6
BYBLOCK
 62
     0
 10
-110.888975
 20
-17.245547
 11
-115.163975
 21
-17.245547
  0
POINT
  8
寸法
 62
     0
 10
-110.888975
 20
-17.245547
  0
POINT
  8
寸法
 62
     0
 10
-115.163975
 20
-17.245547
  0
TEXT
  7
TextStyle03
  8
寸法
  6
CONTINUOUS
 62
     0
 10
-123.08125
 20
-16.875
  1
85.5
 40
3.0
 72
     5
 11
-116.51875
 21
-16.875
  0
ENDBLK
  0
BLOCK
  2
*DIM_0008
 70
    65
 10
0.0
 20
0.0
  0
LINE
  8
寸法
  6
BYBLOCK
 62
     0
 10
-77.388975
 20
-30.429912
 11
-23.760088
 21
-30.429912
  0
LINE
  8
寸法
  6
BYBLOCK
 62
     0
 10
-23.760088
 20
-67.310877
 11
-23.760088
 21
-30.429912
  0
POINT
  8
寸法
 62
     0
 10
-23.760088
 20
-67.310877
  0
POINT
  8
寸法
 62
     0
 10
-23.760088
 20
-30.429912
  0
TEXT
  7
TextStyle03
  8
寸法
  6
CONTINUOUS
 62
     0
 10
-24.15
 20
-53.0
  1
737.6
 40
3.0
 50
90.0
 72
     5
 11
-24.15
 21
-44.75
  0
ENDBLK
  0
BLOCK
  2
*GRP_0009
 70
    65
 10
0.0
 20
0.0
  0
POLYLINE
  8
寸法
  6
BYBLOCK
 62
     0
 66
     1
  0
VERTEX
  8
寸法
 10
-50.102573
 20
37.589048
  0
VERTEX
  8
寸法
 10
-43.68607
 20
31.172545
  0
VERTEX
  8
寸法
 10
-37.778942
 20
31.172545
  0
SEQEND
  0
ENDBLK
  0
BLOCK
  2
*DIM_0010
 70
    65
 10
0.0
 20
0.0
  0
LINE
  8
寸法
  6
BYBLOCK
 62
     0
 10
-44.888975
 20
76.305075
 11
-27.309703
 21
76.305075
  0
LINE
  8
寸法
  6
BYBLOCK
 62
     0
 10
-36.8651
 20
70.455077
 11
-27.309703
 21
70.455077
  0
LINE
  8
寸法
  6
BYBLOCK
 62
     0
 10
-27.309703
 20
76.305075
 11
-27.309703
 21
70.455077
  0
POINT
  8
寸法
 62
     0
 10
-27.309703
 20
76.305075
  0
POINT
  8
寸法
 62
     0
 10
-27.309703
 20
70.455077
  0
TEXT
  7
TextStyle03
  8
寸法
  6
CONTINUOUS
 62
     0
 10
-27.7
 20
70.9375
  1
117
 40
3.0
 50
90.0
 72
     5
 11
-27.7
 21
75.8125
  0
ENDBLK
  0
BLOCK
  2
*DIM_0011
 70
    65
 10
0.0
 20
0.0
  0
LINE
  8
寸法
  6
BYBLOCK
 62
     0
 10
-44.888975
 20
11.305075
 11
-27.309703
 21
11.305075
  0
LINE
  8
寸法
  6
BYBLOCK
 62
     0
 10
-36.8651
 20
17.155072
 11
-27.309703
 21
17.155072
  0
LINE
  8
寸法
  6
BYBLOCK
 62
     0
 10
-27.309703
 20
11.305075
 11
-27.309703
 21
17.155072
  0
POINT
  8
寸法
 62
     0
 10
-27.309703
 20
11.305075
  0
POINT
  8
寸法
 62
     0
 10
-27.309703
 20
17.155072
  0
TEXT
  7
TextStyle03
  8
寸法
  6
CONTINUOUS
 62
     0
 10
-27.7
 20
11.7875
  1
117
 40
3.0
 50
90.0
 72
     5
 11
-27.7
 21
16.6625
  0
ENDBLK
  0
BLOCK
  2
*DIM_0012
 70
    65
 10
0.0
 20
0.0
  0
LINE
  8
寸法
  6
BYBLOCK
 62
     0
 10
-95.888975
 20
99.17351
 11
-95.888975
 21
109.529047
  0
LINE
  8
寸法
  6
BYBLOCK
 62
     0
 10
-60.888975
 20
99.17351
 11
-60.888975
 21
109.529047
  0
LINE
  8
寸法
  6
BYBLOCK
 62
     0
 10
-95.888975
 20
109.529047
 11
-60.888975
 21
109.529047
  0
POINT
  8
寸法
 62
     0
 10
-95.888975
 20
109.529047
  0
POINT
  8
寸法
 62
     0
 10
-60.888975
 20
109.529047
  0
TEXT
  7
TextStyle03
  8
寸法
  6
CONTINUOUS
 62
     0
 10
-80.8375
 20
109.9
  1
700
 40
3.0
 72
     5
 11
-75.9625
 21
109.9
  0
ENDBLK
  0
BLOCK
  2
*DIM_0013
 70
    65
 10
0.0
 20
0.0
  0
LINE
  8
寸法
  6
BYBLOCK
 62
     0
 10
-139.03741
 20
61.305077
 11
-149.392947
 21
61.305077
  0
LINE
  8
寸法
  6
BYBLOCK
 62
     0
 10
-139.037413
 20
26.305077
 11
-149.39295
 21
26.305077
  0
LINE
  8
寸法
  6
BYBLOCK
 62
     0
 10
-149.392947
 20
61.305077
 11
-149.39295
 21
26.305077
  0
POINT
  8
寸法
 62
     0
 10
-149.392947
 20
61.305077
  0
POINT
  8
寸法
 62
     0
 10
-149.39295
 20
26.305077
  0
TEXT
  7
TextStyle03
  8
寸法
  6
CONTINUOUS
 62
     0
 10
-149.775
 20
41.3625
  1
700
 40
3.0
 50
90.0
 72
     5
 11
-149.775
 21
46.2375
  0
ENDBLK
  0
BLOCK
  2
*GRP_0014
 70
    65
 10
0.0
 20
0.0
  0
LINE
  8
型材断面
  6
CONTINUOUS
 10
72.793985
 20
-71.95485
 11
73.159627
 21
-72.950493
  0
LINE
  8
型材断面
  6
CONTINUOUS
 10
73.159627
 20
-72.950493
 11
72.739627
 21
-73.858018
  0
LINE
  8
型材断面
  6
CONTINUOUS
 10
72.739627
 20
-73.858018
 11
71.743985
 21
-74.22366
  0
LINE
  8
型材断面
  6
CONTINUOUS
 10
28.779068
 20
-51.584847
 11
72.793985
 21
-71.95485
  0
LINE
  8
型材断面
  6
CONTINUOUS
 10
27.783423
 20
-51.95049
 11
28.779068
 21
-51.584847
  0
LINE
  8
型材断面
  6
CONTINUOUS
 10
27.783423
 20
-51.95049
 11
27.363422
 21
-52.858015
  0
LINE
  8
型材断面
  6
CONTINUOUS
 10
27.729068
 20
-53.853658
 11
71.743985
 21
-74.22366
  0
LINE
  8
型材断面
  6
CONTINUOUS
 10
27.363422
 20
-52.858015
 11
27.729068
 21
-53.853658
  0
INSERT
  2
*GRP_0016
  8
ボルト／ビス
  6
CONTINUOUS
 62
    64
 10
0.0
 20
0.0
  0
INSERT
  2
*GRP_0017
  8
ボルト／ビス
  6
CONTINUOUS
 62
    64
 10
0.0
 20
0.0
  0
INSERT
  2
*GRP_0018
  8
ボルト／ビス
  6
CONTINUOUS
 62
    64
 10
0.0
 20
0.0
  0
ENDBLK
  0
BLOCK
  2
*GRP_0015
 70
    65
 10
0.0
 20
0.0
  0
LINE
  8
型材断面
  6
CONTINUOUS
 10
27.729065
 20
-71.95485
 11
27.363422
 21
-72.950493
  0
LINE
  8
型材断面
  6
CONTINUOUS
 10
27.363422
 20
-72.950493
 11
27.783423
 21
-73.858018
  0
LINE
  8
型材断面
  6
CONTINUOUS
 10
27.783423
 20
-73.858018
 11
28.779065
 21
-74.22366
  0
LINE
  8
型材断面
  6
CONTINUOUS
 10
71.743982
 20
-51.584847
 11
27.729065
 21
-71.95485
  0
LINE
  8
型材断面
  6
CONTINUOUS
 10
72.739627
 20
-51.95049
 11
71.743982
 21
-51.584847
  0
LINE
  8
型材断面
  6
CONTINUOUS
 10
72.739627
 20
-51.95049
 11
73.159627
 21
-52.858015
  0
LINE
  8
型材断面
  6
CONTINUOUS
 10
72.793982
 20
-53.853658
 11
28.779065
 21
-74.22366
  0
LINE
  8
型材断面
  6
CONTINUOUS
 10
73.159627
 20
-52.858015
 11
72.793982
 21
-53.853658
  0
INSERT
  2
*GRP_0019
  8
ボルト／ビス
  6
CONTINUOUS
 62
    64
 10
0.0
 20
0.0
  0
INSERT
  2
*GRP_0020
  8
ボルト／ビス
  6
CONTINUOUS
 62
    64
 10
0.0
 20
0.0
  0
INSERT
  2
*GRP_0021
  8
ボルト／ビス
  6
CONTINUOUS
 62
    64
 10
0.0
 20
0.0
  0
ENDBLK
  0
BLOCK
  2
*GRP_0016
 70
    65
 10
0.0
 20
0.0
  0
INSERT
  2
*GRP_0022
  8
補助線
  6
CONTINUOUS
 62
    64
 10
0.0
 20
0.0
  0
LINE
  8
ボルト／ビス
  6
CONTINUOUS
 62
    64
 10
28.901817
 20
-52.510085
 11
28.441813
 21
-52.55167
  0
LINE
  8
ボルト／ビス
  6
CONTINUOUS
 62
    64
 10
28.901817
 20
-52.510085
 11
29.167833
 21
-52.88767
  0
LINE
  8
ボルト／ビス
  6
CONTINUOUS
 62
    64
 10
28.51384
 20
-53.34842
 11
28.247825
 21
-52.970838
  0
LINE
  8
ボルト／ビス
  6
CONTINUOUS
 62
    64
 10
28.51384
 20
-53.34842
 11
28.973842
 21
-53.306837
  0
CIRCLE
  8
ボルト／ビス
  6
CONTINUOUS
 62
    64
 10
28.707827
 20
-52.929252
 40
0.4
  0
LINE
  8
ボルト／ビス
  6
CONTINUOUS
 62
    64
 10
29.167833
 20
-52.88767
 11
28.973842
 21
-53.306837
  0
LINE
  8
ボルト／ビス
  6
CONTINUOUS
 62
    64
 10
28.441813
 20
-52.55167
 11
28.247825
 21
-52.970838
  0
ENDBLK
  0
BLOCK
  2
*GRP_0017
 70
    65
 10
0.0
 20
0.0
  0
INSERT
  2
*GRP_0023
  8
補助線
  6
CONTINUOUS
 62
    64
 10
0.0
 20
0.0
  0
LINE
  8
ボルト／ビス
  6
CONTINUOUS
 62
    64
 10
72.009212
 20
-72.460088
 11
72.275228
 21
-72.837673
  0
LINE
  8
ボルト／ビス
  6
CONTINUOUS
 62
    64
 10
72.009212
 20
-72.460088
 11
71.549208
 21
-72.501673
  0
LINE
  8
ボルト／ビス
  6
CONTINUOUS
 62
    64
 10
71.621233
 20
-73.298423
 11
72.081237
 21
-73.256837
  0
LINE
  8
ボルト／ビス
  6
CONTINUOUS
 62
    64
 10
71.621233
 20
-73.298423
 11
71.355218
 21
-72.920838
  0
CIRCLE
  8
ボルト／ビス
  6
CONTINUOUS
 62
    64
 10
71.815222
 20
-72.879255
 40
0.4
  0
LINE
  8
ボルト／ビス
  6
CONTINUOUS
 62
    64
 10
71.549208
 20
-72.501673
 11
71.355218
 21
-72.920838
  0
LINE
  8
ボルト／ビス
  6
CONTINUOUS
 62
    64
 10
72.275228
 20
-72.837673
 11
72.081237
 21
-73.256837
  0
ENDBLK
  0
BLOCK
  2
*GRP_0018
 70
    65
 10
0.0
 20
0.0
  0
INSERT
  2
*GRP_0024
  8
補助線
  6
CONTINUOUS
 62
    64
 10
0.0
 20
0.0
  0
LINE
  8
ボルト／ビス
  6
CONTINUOUS
 62
    64
 10
50.455515
 20
-62.485088
 11
49.99551
 21
-62.52667
  0
LINE
  8
ボルト／ビス
  6
CONTINUOUS
 62
    64
 10
50.455515
 20
-62.485088
 11
50.72153
 21
-62.86267
  0
LINE
  8
ボルト／ビス
  6
CONTINUOUS
 62
    64
 10
50.067535
 20
-63.32342
 11
49.80152
 21
-62.945838
  0
LINE
  8
ボルト／ビス
  6
CONTINUOUS
 62
    64
 10
50.067535
 20
-63.32342
 11
50.52754
 21
-63.281837
  0
CIRCLE
  8
ボルト／ビス
  6
CONTINUOUS
 62
    64
 10
50.261525
 20
-62.904255
 40
0.4
  0
LINE
  8
ボルト／ビス
  6
CONTINUOUS
 62
    64
 10
50.72153
 20
-62.86267
 11
50.52754
 21
-63.281837
  0
LINE
  8
ボルト／ビス
  6
CONTINUOUS
 62
    64
 10
49.99551
 20
-62.52667
 11
49.80152
 21
-62.945838
  0
ENDBLK
  0
BLOCK
  2
*GRP_0019
 70
    65
 10
0.0
 20
0.0
  0
INSERT
  2
*GRP_0025
  8
補助線
  6
CONTINUOUS
 62
    64
 10
0.0
 20
0.0
  0
LINE
  8
ボルト／ビス
  6
CONTINUOUS
 62
    64
 10
71.621233
 20
-52.510085
 11
72.081237
 21
-52.55167
  0
LINE
  8
ボルト／ビス
  6
CONTINUOUS
 62
    64
 10
71.621233
 20
-52.510085
 11
71.355218
 21
-52.88767
  0
LINE
  8
ボルト／ビス
  6
CONTINUOUS
 62
    64
 10
72.00921
 20
-53.34842
 11
72.275225
 21
-52.970838
  0
LINE
  8
ボルト／ビス
  6
CONTINUOUS
 62
    64
 10
72.00921
 20
-53.34842
 11
71.549208
 21
-53.306837
  0
CIRCLE
  8
ボルト／ビス
  6
CONTINUOUS
 62
    64
 10
71.815222
 20
-52.929252
 40
0.4
  0
LINE
  8
ボルト／ビス
  6
CONTINUOUS
 62
    64
 10
71.355218
 20
-52.88767
 11
71.549208
 21
-53.306837
  0
LINE
  8
ボルト／ビス
  6
CONTINUOUS
 62
    64
 10
72.081237
 20
-52.55167
 11
72.275225
 21
-52.970838
  0
ENDBLK
  0
BLOCK
  2
*GRP_0020
 70
    65
 10
0.0
 20
0.0
  0
INSERT
  2
*GRP_0026
  8
補助線
  6
CONTINUOUS
 62
    64
 10
0.0
 20
0.0
  0
LINE
  8
ボルト／ビス
  6
CONTINUOUS
 62
    64
 10
28.513838
 20
-72.460088
 11
28.247823
 21
-72.837673
  0
LINE
  8
ボルト／ビス
  6
CONTINUOUS
 62
    64
 10
28.513838
 20
-72.460088
 11
28.973842
 21
-72.501673
  0
LINE
  8
ボルト／ビス
  6
CONTINUOUS
 62
    64
 10
28.901817
 20
-73.298423
 11
28.441813
 21
-73.256837
  0
LINE
  8
ボルト／ビス
  6
CONTINUOUS
 62
    64
 10
28.901817
 20
-73.298423
 11
29.167833
 21
-72.920838
  0
CIRCLE
  8
ボルト／ビス
  6
CONTINUOUS
 62
    64
 10
28.707827
 20
-72.879255
 40
0.4
  0
LINE
  8
ボルト／ビス
  6
CONTINUOUS
 62
    64
 10
28.973842
 20
-72.501673
 11
29.167833
 21
-72.920838
  0
LINE
  8
ボルト／ビス
  6
CONTINUOUS
 62
    64
 10
28.247823
 20
-72.837673
 11
28.441813
 21
-73.256837
  0
ENDBLK
  0
BLOCK
  2
*GRP_0021
 70
    65
 10
0.0
 20
0.0
  0
INSERT
  2
*GRP_0027
  8
補助線
  6
CONTINUOUS
 62
    64
 10
0.0
 20
0.0
  0
LINE
  8
ボルト／ビス
  6
CONTINUOUS
 62
    64
 10
50.067535
 20
-62.485088
 11
50.52754
 21
-62.52667
  0
LINE
  8
ボルト／ビス
  6
CONTINUOUS
 62
    64
 10
50.067535
 20
-62.485088
 11
49.80152
 21
-62.86267
  0
LINE
  8
ボルト／ビス
  6
CONTINUOUS
 62
    64
 10
50.455515
 20
-63.32342
 11
50.72153
 21
-62.945838
  0
LINE
  8
ボルト／ビス
  6
CONTINUOUS
 62
    64
 10
50.455515
 20
-63.32342
 11
49.99551
 21
-63.281837
  0
CIRCLE
  8
ボルト／ビス
  6
CONTINUOUS
 62
    64
 10
50.261525
 20
-62.904255
 40
0.4
  0
LINE
  8
ボルト／ビス
  6
CONTINUOUS
 62
    64
 10
49.80152
 20
-62.86267
 11
49.99551
 21
-63.281837
  0
LINE
  8
ボルト／ビス
  6
CONTINUOUS
 62
    64
 10
50.52754
 20
-62.52667
 11
50.72153
 21
-62.945838
  0
ENDBLK
  0
BLOCK
  2
*GRP_0022
 70
    65
 10
0.0
 20
0.0
  0
LINE
  8
補助線
  6
BYBLOCK
 62
    64
 10
28.82127
 20
-52.981753
 11
28.594388
 21
-52.876753
  0
LINE
  8
補助線
  6
BYBLOCK
 62
    64
 10
28.760327
 20
-52.815812
 11
28.655328
 21
-53.042692
  0
ENDBLK
  0
BLOCK
  2
*GRP_0023
 70
    65
 10
0.0
 20
0.0
  0
LINE
  8
補助線
  6
BYBLOCK
 62
    64
 10
71.701783
 20
-72.826755
 11
71.928663
 21
-72.931755
  0
LINE
  8
補助線
  6
BYBLOCK
 62
    64
 10
71.867722
 20
-72.765815
 11
71.762723
 21
-72.992695
  0
ENDBLK
  0
BLOCK
  2
*GRP_0024
 70
    65
 10
0.0
 20
0.0
  0
LINE
  8
補助線
  6
BYBLOCK
 62
    64
 10
50.374965
 20
-62.956755
 11
50.148085
 21
-62.851755
  0
LINE
  8
補助線
  6
BYBLOCK
 62
    64
 10
50.314025
 20
-62.790812
 11
50.209025
 21
-63.017695
  0
ENDBLK
  0
BLOCK
  2
*GRP_0025
 70
    65
 10
0.0
 20
0.0
  0
LINE
  8
補助線
  6
BYBLOCK
 62
    64
 10
71.70178
 20
-52.981753
 11
71.928663
 21
-52.876753
  0
LINE
  8
補助線
  6
BYBLOCK
 62
    64
 10
71.762723
 20
-52.815812
 11
71.867722
 21
-53.042692
  0
ENDBLK
  0
BLOCK
  2
*GRP_0026
 70
    65
 10
0.0
 20
0.0
  0
LINE
  8
補助線
  6
BYBLOCK
 62
    64
 10
28.821268
 20
-72.826755
 11
28.594388
 21
-72.931755
  0
LINE
  8
補助線
  6
BYBLOCK
 62
    64
 10
28.655328
 20
-72.765815
 11
28.760327
 21
-72.992695
  0
ENDBLK
  0
BLOCK
  2
*GRP_0027
 70
    65
 10
0.0
 20
0.0
  0
LINE
  8
補助線
  6
BYBLOCK
 62
    64
 10
50.148085
 20
-62.956755
 11
50.374965
 21
-62.851755
  0
LINE
  8
補助線
  6
BYBLOCK
 62
    64
 10
50.209025
 20
-62.790812
 11
50.314025
 21
-63.017695
  0
ENDBLK
  0
BLOCK
  2
*DIM_0028
 70
    65
 10
0.0
 20
0.0
  0
LINE
  8
寸法
  6
BYBLOCK
 62
     0
 10
107.744353
 20
-98.186538
 11
107.744353
 21
-113.109198
  0
LINE
  8
寸法
  6
BYBLOCK
 62
     0
 10
173.879352
 20
-98.186538
 11
173.879352
 21
-113.109198
  0
LINE
  8
寸法
  6
BYBLOCK
 62
     0
 10
107.744353
 20
-113.109198
 11
173.879352
 21
-113.109198
  0
POINT
  8
寸法
 62
     0
 10
107.744353
 20
-113.109198
  0
POINT
  8
寸法
 62
     0
 10
173.879352
 20
-113.109198
  0
TEXT
  7
TextStyle03
  8
寸法
  6
CONTINUOUS
 62
     0
 10
135.83125
 20
-112.725
  1
1322.7
 40
3.0
 72
     5
 11
145.76875
 21
-112.725
  0
ENDBLK
  0
BLOCK
  2
*DIM_0029
 70
    65
 10
0.0
 20
0.0
  0
LINE
  8
寸法
  6
BYBLOCK
 62
     0
 10
176.879352
 20
-95.186538
 11
189.763298
 21
-95.186538
  0
LINE
  8
寸法
  6
BYBLOCK
 62
     0
 10
143.811852
 20
-48.422228
 11
189.763298
 21
-48.422228
  0
LINE
  8
寸法
  6
BYBLOCK
 62
     0
 10
189.763298
 20
-95.186538
 11
189.763298
 21
-48.422228
  0
POINT
  8
寸法
 62
     0
 10
189.763298
 20
-95.186538
  0
POINT
  8
寸法
 62
     0
 10
189.763298
 20
-48.422228
  0
TEXT
  7
TextStyle03
  8
寸法
  6
CONTINUOUS
 62
     0
 10
189.375
 20
-75.925
  1
935.3
 40
3.0
 50
90.0
 72
     5
 11
189.375
 21
-67.675
  0
ENDBLK
  0
BLOCK
  2
*DIM_0030
 70
    65
 10
0.0
 20
0.0
  0
LINE
  8
寸法
  6
BYBLOCK
 62
     0
 10
80.235223
 20
-55.363292
 11
93.408035
 21
-55.363292
  0
LINE
  8
寸法
  6
BYBLOCK
 62
     0
 10
80.235223
 20
-71.363292
 11
93.408035
 21
-71.363292
  0
LINE
  8
寸法
  6
BYBLOCK
 62
     0
 10
93.408035
 20
-55.363292
 11
93.408035
 21
-71.363292
  0
POINT
  8
寸法
 62
     0
 10
93.408035
 20
-55.363292
  0
POINT
  8
寸法
 62
     0
 10
93.408035
 20
-71.363292
  0
TEXT
  7
TextStyle03
  8
寸法
  6
CONTINUOUS
 62
     0
 10
99.15
 20
-72.39375
  1
上昇258以上
 40
3.0
 50
90.0
 72
     5
 11
99.15
 21
-54.20625
  0
ENDBLK
  0
ENDSEC
  0
SECTION
  2
ENTITIES
  0
POLYLINE
  8
通り芯
  6
CONTINUOUS
 66
     1
 70
     1
  0
VERTEX
  8
通り芯
 10
-210.0
 20
-148.5
  0
VERTEX
  8
通り芯
 10
210.0
 20
-148.5
  0
VERTEX
  8
通り芯
 10
210.0
 20
148.5
  0
VERTEX
  8
通り芯
 10
-210.0
 20
148.5
  0
SEQEND
  0
INSERT
  2
*GRP_0001
  8
型材断面
  6
CONTINUOUS
 10
0.0
 20
0.0
  0
LINE
  8
型材断面
  6
CONTINUOUS
 10
-41.613975
 20
7.030075
 11
-48.763975
 21
14.180075
  0
LINE
  8
型材断面
  6
CONTINUOUS
 10
-46.507042
 20
9.487522
 11
-44.071422
 21
9.487522
  0
LINE
  8
型材断面
  6
CONTINUOUS
 10
-44.071422
 20
11.923142
 11
-44.071422
 21
9.487522
  0
LINE
  8
型材断面
  6
DASHDOT
 10
-45.888975
 20
11.305075
 11
-45.888975
 21
26.305075
  0
LINE
  8
型材断面
  6
CONTINUOUS
 62
    47
 10
-41.613975
 20
-67.310877
 11
-41.613975
 21
-67.879255
  0
LINE
  8
型材断面
  6
CONTINUOUS
 62
    47
 10
-42.288975
 20
-68.579255
 11
-41.613975
 21
-68.579255
  0
LINE
  8
型材断面
  6
CONTINUOUS
 62
    47
 10
-41.613975
 20
-68.579255
 11
-41.613975
 21
-67.879255
  0
LINE
  8
型材断面
  6
CONTINUOUS
 62
    47
 10
-42.938977
 20
-67.879255
 11
-41.613975
 21
-67.879255
  0
LINE
  8
型材断面
  6
CONTINUOUS
 62
    47
 10
-42.288975
 20
-68.579255
 11
-42.288975
 21
-69.079255
  0
LINE
  8
型材断面
  6
CONTINUOUS
 10
-42.363975
 20
-69.079255
 11
-42.288975
 21
-69.079255
  0
LINE
  8
型材断面
  6
CONTINUOUS
 62
    47
 10
-43.71787
 20
-65.206982
 11
-42.657208
 21
-66.267645
  0
LINE
  8
型材断面
  6
CONTINUOUS
 10
-44.2482
 20
-64.676653
 11
-46.966643
 21
-64.676653
  0
LINE
  8
型材断面
  6
CONTINUOUS
 62
    47
 10
-42.468975
 20
-71.363292
 11
-42.468975
 21
-70.863292
  0
LINE
  8
型材断面
  6
CONTINUOUS
 62
    47
 10
-42.468975
 20
-70.863292
 11
-43.643975
 21
-70.713292
  0
LINE
  8
型材断面
  6
CONTINUOUS
 62
    47
 10
-43.643975
 20
-70.104255
 11
-43.643975
 21
-70.713292
  0
LINE
  8
型材断面
  6
CONTINUOUS
 62
    47
 10
-42.938977
 20
-75.304255
 11
-42.938977
 21
-71.363292
  0
LINE
  8
型材断面
  6
CONTINUOUS
 62
    47
 10
-43.788977
 20
-76.054255
 11
-43.788977
 21
-75.304255
  0
LINE
  8
型材断面
  6
CONTINUOUS
 62
    47
 10
-42.938977
 20
-70.104255
 11
-42.938977
 21
-69.079255
  0
LINE
  8
型材断面
  6
CONTINUOUS
 10
-43.643975
 20
-70.713292
 11
-68.388975
 21
-70.713292
  0
LINE
  8
型材断面
  6
CONTINUOUS
 62
    47
 10
-41.613975
 20
-67.310877
 11
-78.388975
 21
-30.535877
  0
LINE
  8
型材断面
  6
CONTINUOUS
 10
-74.138975
 20
-34.679912
 11
-78.388975
 21
-34.679912
  0
LINE
  8
型材断面
  6
CONTINUOUS
 10
-82.638972
 20
-34.679912
 11
-78.388975
 21
-34.679912
  0
LINE
  8
型材断面
  6
CONTINUOUS
 10
-82.58599
 20
-34.732895
 11
-78.388975
 21
-34.732895
  0
LINE
  8
型材断面
  6
CONTINUOUS
 10
-78.388975
 20
-30.429912
 11
-74.138975
 21
-34.679912
  0
LINE
  8
型材断面
  6
CONTINUOUS
 10
-78.388975
 20
-30.429912
 11
-82.638972
 21
-34.679912
  0
LINE
  8
型材断面
  6
CONTINUOUS
 10
-74.19196
 20
-34.732895
 11
-78.388975
 21
-34.732895
  0
LINE
  8
型材断面
  6
CONTINUOUS
 10
-82.638972
 20
-34.679912
 11
-82.58599
 21
-34.732895
  0
LINE
  8
型材断面
  6
CONTINUOUS
 10
-74.19196
 20
-34.732895
 11
-74.138975
 21
-34.679912
  0
LINE
  8
型材断面
  6
CONTINUOUS
 10
-82.638975
 20
-34.679912
 11
-78.388975
 21
-34.679912
  0
LINE
  8
型材断面
  6
CONTINUOUS
 10
-82.58599
 20
-34.732895
 11
-78.388975
 21
-34.732895
  0
LINE
  8
型材断面
  6
CONTINUOUS
 10
-82.58599
 20
-34.732895
 11
-82.638975
 21
-34.679912
  0
LINE
  8
型材断面
  6
CONTINUOUS
 10
-46.6838
 20
-64.676653
 11
-76.627557
 21
-34.732895
  0
LINE
  8
型材断面
  6
CONTINUOUS
 10
-46.966643
 20
-64.676653
 11
-76.910408
 21
-34.732895
  0
LINE
  8
型材断面
  6
CONTINUOUS
 10
-43.71787
 20
-65.206982
 11
-78.388975
 21
-65.206982
  0
LINE
  8
型材断面
  6
CONTINUOUS
 10
-43.010762
 20
-65.91409
 11
-78.388975
 21
-65.91409
  0
LINE
  8
型材断面
  6
CONTINUOUS
 10
-42.288975
 20
-69.079255
 11
-78.388975
 21
-69.079255
  0
LINE
  8
型材断面
  6
CONTINUOUS
 10
-42.288975
 20
-68.579255
 11
-78.388975
 21
-68.579255
  0
LINE
  8
型材断面
  6
CONTINUOUS
 10
-42.468975
 20
-70.863292
 11
-78.388975
 21
-70.863292
  0
LINE
  8
型材断面
  6
CONTINUOUS
 62
    47
 10
-42.468975
 20
-71.363292
 11
-78.388975
 21
-71.363292
  0
LINE
  8
型材断面
  6
CONTINUOUS
 62
    47
 10
-42.938977
 20
-70.104255
 11
-78.388975
 21
-70.104255
  0
LINE
  8
型材断面
  6
CONTINUOUS
 10
-41.613975
 20
-67.879255
 11
-78.388975
 21
-67.879255
  0
LINE
  8
型材断面
  6
CONTINUOUS
 10
-41.613975
 20
-67.310877
 11
-78.388975
 21
-67.310877
  0
LINE
  8
型材断面
  6
CONTINUOUS
 10
-42.657208
 20
-66.267645
 11
-78.388975
 21
-66.267645
  0
LINE
  8
型材断面
  6
CONTINUOUS
 62
    47
 10
-42.938977
 20
-75.304255
 11
-78.388975
 21
-75.304255
  0
LINE
  8
型材断面
  6
CONTINUOUS
 62
    47
 10
-43.788977
 20
-76.054255
 11
-78.388975
 21
-76.054255
  0
LINE
  8
型材断面
  6
CONTINUOUS
 62
    47
 10
-115.163975
 20
-67.310877
 11
-115.163975
 21
-67.879255
  0
LINE
  8
型材断面
  6
CONTINUOUS
 62
    47
 10
-114.488975
 20
-68.579255
 11
-115.163975
 21
-68.579255
  0
LINE
  8
型材断面
  6
CONTINUOUS
 62
    47
 10
-115.163975
 20
-68.579255
 11
-115.163975
 21
-67.879255
  0
LINE
  8
型材断面
  6
CONTINUOUS
 62
    47
 10
-113.838973
 20
-67.879255
 11
-115.163975
 21
-67.879255
  0
LINE
  8
型材断面
  6
CONTINUOUS
 62
    47
 10
-114.488975
 20
-68.579255
 11
-114.488975
 21
-69.079255
  0
LINE
  8
型材断面
  6
CONTINUOUS
 10
-114.413975
 20
-69.079255
 11
-114.488975
 21
-69.079255
  0
LINE
  8
型材断面
  6
CONTINUOUS
 62
    47
 10
-113.06008
 20
-65.206982
 11
-114.120742
 21
-66.267645
  0
LINE
  8
型材断面
  6
CONTINUOUS
 10
-112.52975
 20
-64.676653
 11
-109.811308
 21
-64.676653
  0
LINE
  8
型材断面
  6
CONTINUOUS
 62
    47
 10
-114.308975
 20
-71.363292
 11
-114.308975
 21
-70.863292
  0
LINE
  8
型材断面
  6
CONTINUOUS
 62
    47
 10
-114.308975
 20
-70.863292
 11
-113.133975
 21
-70.713292
  0
LINE
  8
型材断面
  6
CONTINUOUS
 62
    47
 10
-113.133975
 20
-70.104255
 11
-113.133975
 21
-70.713292
  0
LINE
  8
型材断面
  6
CONTINUOUS
 62
    47
 10
-113.838973
 20
-75.304255
 11
-113.838973
 21
-71.363292
  0
LINE
  8
型材断面
  6
CONTINUOUS
 62
    47
 10
-112.988973
 20
-76.054255
 11
-112.988973
 21
-75.304255
  0
LINE
  8
型材断面
  6
CONTINUOUS
 62
    47
 10
-113.838973
 20
-70.104255
 11
-113.838973
 21
-69.079255
  0
LINE
  8
型材断面
  6
CONTINUOUS
 10
-113.133975
 20
-70.713292
 11
-88.388975
 21
-70.713292
  0
LINE
  8
型材断面
  6
CONTINUOUS
 62
    47
 10
-115.163975
 20
-67.310877
 11
-78.388975
 21
-30.535877
  0
LINE
  8
型材断面
  6
CONTINUOUS
 10
-110.09415
 20
-64.676653
 11
-80.150392
 21
-34.732895
  0
LINE
  8
型材断面
  6
CONTINUOUS
 10
-109.811308
 20
-64.676653
 11
-79.867543
 21
-34.732895
  0
LINE
  8
型材断面
  6
CONTINUOUS
 10
-113.06008
 20
-65.206982
 11
-78.388975
 21
-65.206982
  0
LINE
  8
型材断面
  6
CONTINUOUS
 10
-113.767188
 20
-65.91409
 11
-78.388975
 21
-65.91409
  0
LINE
  8
型材断面
  6
CONTINUOUS
 10
-114.488975
 20
-69.079255
 11
-78.388975
 21
-69.079255
  0
LINE
  8
型材断面
  6
CONTINUOUS
 10
-114.488975
 20
-68.579255
 11
-78.388975
 21
-68.579255
  0
LINE
  8
型材断面
  6
CONTINUOUS
 10
-114.308975
 20
-70.863292
 11
-78.388975
 21
-70.863292
  0
LINE
  8
型材断面
  6
CONTINUOUS
 62
    47
 10
-114.308975
 20
-71.363292
 11
-78.388975
 21
-71.363292
  0
LINE
  8
型材断面
  6
CONTINUOUS
 62
    47
 10
-113.838973
 20
-70.104255
 11
-78.388975
 21
-70.104255
  0
LINE
  8
型材断面
  6
CONTINUOUS
 10
-115.163975
 20
-67.879255
 11
-78.388975
 21
-67.879255
  0
LINE
  8
型材断面
  6
CONTINUOUS
 10
-115.163975
 20
-67.310877
 11
-78.388975
 21
-67.310877
  0
LINE
  8
型材断面
  6
CONTINUOUS
 10
-114.120742
 20
-66.267645
 11
-78.388975
 21
-66.267645
  0
LINE
  8
型材断面
  6
CONTINUOUS
 62
    47
 10
-113.838973
 20
-75.304255
 11
-78.388975
 21
-75.304255
  0
LINE
  8
型材断面
  6
CONTINUOUS
 62
    47
 10
-112.988973
 20
-76.054255
 11
-78.388975
 21
-76.054255
  0
LINE
  8
型材断面
  6
CONTINUOUS
 10
-78.388975
 20
39.555075
 11
-74.138975
 21
39.555075
  0
LINE
  8
型材断面
  6
CONTINUOUS
 10
-74.138975
 20
43.805075
 11
-74.138975
 21
39.555075
  0
LINE
  8
型材断面
  6
CONTINUOUS
 10
-46.507042
 20
9.487522
 11
-76.574595
 21
39.555075
  0
LINE
  8
型材断面
  6
CONTINUOUS
 10
-44.424975
 20
9.487522
 11
-74.492535
 21
39.555075
  0
LINE
  8
型材断面
  6
CONTINUOUS
 10
-44.071422
 20
9.841075
 11
-74.138975
 21
39.908627
  0
LINE
  8
型材断面
  6
CONTINUOUS
 10
-44.071422
 20
11.923142
 11
-74.138975
 21
41.990695
  0
LINE
  8
型材断面
  6
CONTINUOUS
 10
-78.388975
 20
43.805075
 11
-74.138975
 21
39.555075
  0
LINE
  8
型材断面
  6
DASHDOT
 10
-45.888975
 20
11.305075
 11
-74.138975
 21
39.555075
  0
LINE
  8
型材断面
  6
CONTINUOUS
 10
-43.71787
 20
9.13397
 11
-78.388975
 21
9.13397
  0
LINE
  8
型材断面
  6
CONTINUOUS
 10
-44.000713
 20
9.416813
 11
-78.388975
 21
9.416813
  0
LINE
  8
型材断面
  6
CONTINUOUS
 10
-43.010762
 20
8.426863
 11
-78.388975
 21
8.426863
  0
LINE
  8
型材断面
  6
CONTINUOUS
 10
-41.613975
 20
7.030075
 11
-78.388975
 21
7.030075
  0
LINE
  8
型材断面
  6
CONTINUOUS
 10
-42.657208
 20
8.073308
 11
-78.388975
 21
8.073308
  0
LINE
  8
型材断面
  6
DASHDOT
 10
-45.888975
 20
-75.304255
 11
-45.888975
 21
76.305075
  0
LINE
  8
型材断面
  6
DASHDOT
 10
-110.888975
 20
-75.304255
 11
-110.888975
 21
76.305075
  0
LINE
  8
型材断面
  6
DASHDOT
 10
-78.388975
 20
-75.304255
 11
-78.388975
 21
76.305075
  0
LINE
  8
型材断面
  6
DASHDOT
 10
-45.888975
 20
11.305075
 11
-110.888975
 21
11.305075
  0
LINE
  8
型材断面
  6
DASHDOT
 10
-45.888975
 20
43.805075
 11
-110.888975
 21
43.805075
  0
LINE
  8
型材断面
  6
DASHDOT
 10
-45.888975
 20
76.305075
 11
-110.888975
 21
76.305075
  0
LINE
  8
型材断面
  6
CONTINUOUS
 10
-43.71787
 20
9.13397
 11
-43.71787
 21
43.805075
  0
LINE
  8
型材断面
  6
CONTINUOUS
 10
-44.000713
 20
9.416813
 11
-44.000713
 21
43.805075
  0
LINE
  8
型材断面
  6
CONTINUOUS
 10
-43.010762
 20
8.426863
 11
-43.010762
 21
43.805075
  0
LINE
  8
型材断面
  6
CONTINUOUS
 10
-42.657208
 20
8.073308
 11
-42.657208
 21
43.805075
  0
LINE
  8
型材断面
  6
CONTINUOUS
 10
-41.613975
 20
7.030075
 11
-41.613975
 21
43.805075
  0
LINE
  8
型材断面
  6
CONTINUOUS
 10
-115.163975
 20
7.030075
 11
-108.013975
 21
14.180075
  0
LINE
  8
型材断面
  6
CONTINUOUS
 10
-110.270907
 20
9.487522
 11
-112.706527
 21
9.487522
  0
LINE
  8
型材断面
  6
CONTINUOUS
 10
-112.706527
 20
11.923142
 11
-112.706527
 21
9.487522
  0
LINE
  8
型材断面
  6
DASHDOT
 10
-110.888975
 20
11.305075
 11
-110.888975
 21
26.305075
  0
LINE
  8
型材断面
  6
CONTINUOUS
 10
-78.388975
 20
39.555075
 11
-82.638975
 21
39.555075
  0
LINE
  8
型材断面
  6
CONTINUOUS
 10
-82.638975
 20
43.805075
 11
-82.638975
 21
39.555075
  0
LINE
  8
型材断面
  6
CONTINUOUS
 10
-110.270907
 20
9.487522
 11
-80.203355
 21
39.555075
  0
LINE
  8
型材断面
  6
CONTINUOUS
 10
-112.352975
 20
9.487522
 11
-82.285415
 21
39.555075
  0
LINE
  8
型材断面
  6
CONTINUOUS
 10
-112.706527
 20
9.841075
 11
-82.638975
 21
39.908627
  0
LINE
  8
型材断面
  6
CONTINUOUS
 10
-112.706527
 20
11.923142
 11
-82.638975
 21
41.990695
  0
LINE
  8
型材断面
  6
CONTINUOUS
 10
-78.388975
 20
43.805075
 11
-82.638975
 21
39.555075
  0
LINE
  8
型材断面
  6
DASHDOT
 10
-110.888975
 20
11.305075
 11
-82.638975
 21
39.555075
  0
LINE
  8
型材断面
  6
CONTINUOUS
 10
-113.06008
 20
9.13397
 11
-78.388975
 21
9.13397
  0
LINE
  8
型材断面
  6
CONTINUOUS
 10
-112.777237
 20
9.416813
 11
-78.388975
 21
9.416813
  0
LINE
  8
型材断面
  6
CONTINUOUS
 10
-113.767188
 20
8.426863
 11
-78.388975
 21
8.426863
  0
LINE
  8
型材断面
  6
CONTINUOUS
 10
-115.163975
 20
7.030075
 11
-78.388975
 21
7.030075
  0
LINE
  8
型材断面
  6
CONTINUOUS
 10
-114.120742
 20
8.073308
 11
-78.388975
 21
8.073308
  0
LINE
  8
型材断面
  6
CONTINUOUS
 10
-113.06008
 20
9.13397
 11
-113.06008
 21
43.805075
  0
LINE
  8
型材断面
  6
CONTINUOUS
 10
-112.777237
 20
9.416813
 11
-112.777237
 21
43.805075
  0
LINE
  8
型材断面
  6
CONTINUOUS
 10
-113.767188
 20
8.426863
 11
-113.767188
 21
43.805075
  0
LINE
  8
型材断面
  6
CONTINUOUS
 10
-114.120742
 20
8.073308
 11
-114.120742
 21
43.805075
  0
LINE
  8
型材断面
  6
CONTINUOUS
 10
-115.163975
 20
7.030075
 11
-115.163975
 21
43.805075
  0
LINE
  8
型材断面
  6
CONTINUOUS
 10
-115.163975
 20
80.580075
 11
-108.013975
 21
73.430075
  0
LINE
  8
型材断面
  6
CONTINUOUS
 10
-110.270907
 20
78.122628
 11
-112.706527
 21
78.122628
  0
LINE
  8
型材断面
  6
CONTINUOUS
 10
-112.706527
 20
75.687008
 11
-112.706527
 21
78.122628
  0
LINE
  8
型材断面
  6
DASHDOT
 10
-110.888975
 20
76.305075
 11
-110.888975
 21
61.305075
  0
LINE
  8
型材断面
  6
CONTINUOUS
 10
-78.388975
 20
48.055075
 11
-82.638975
 21
48.055075
  0
LINE
  8
型材断面
  6
CONTINUOUS
 10
-82.638975
 20
43.805075
 11
-82.638975
 21
48.055075
  0
LINE
  8
型材断面
  6
CONTINUOUS
 10
-110.270907
 20
78.122628
 11
-80.203355
 21
48.055075
  0
LINE
  8
型材断面
  6
CONTINUOUS
 10
-112.352975
 20
78.122628
 11
-82.285415
 21
48.055075
  0
LINE
  8
型材断面
  6
CONTINUOUS
 10
-112.706527
 20
77.769075
 11
-82.638975
 21
47.701522
  0
LINE
  8
型材断面
  6
CONTINUOUS
 10
-112.706527
 20
75.687008
 11
-82.638975
 21
45.619455
  0
LINE
  8
型材断面
  6
CONTINUOUS
 10
-78.388975
 20
43.805075
 11
-82.638975
 21
48.055075
  0
LINE
  8
型材断面
  6
DASHDOT
 10
-110.888975
 20
76.305075
 11
-82.638975
 21
48.055075
  0
LINE
  8
型材断面
  6
CONTINUOUS
 10
-113.06008
 20
78.47618
 11
-78.388975
 21
78.47618
  0
LINE
  8
型材断面
  6
CONTINUOUS
 10
-112.777237
 20
78.193338
 11
-78.388975
 21
78.193338
  0
LINE
  8
型材断面
  6
CONTINUOUS
 10
-113.767188
 20
79.183288
 11
-78.388975
 21
79.183288
  0
LINE
  8
型材断面
  6
CONTINUOUS
 10
-115.163975
 20
80.580075
 11
-78.388975
 21
80.580075
  0
LINE
  8
型材断面
  6
CONTINUOUS
 10
-114.120742
 20
79.536843
 11
-78.388975
 21
79.536843
  0
LINE
  8
型材断面
  6
CONTINUOUS
 10
-113.06008
 20
78.47618
 11
-113.06008
 21
43.805075
  0
LINE
  8
型材断面
  6
CONTINUOUS
 10
-112.777237
 20
78.193338
 11
-112.777237
 21
43.805075
  0
LINE
  8
型材断面
  6
CONTINUOUS
 10
-113.767188
 20
79.183288
 11
-113.767188
 21
43.805075
  0
LINE
  8
型材断面
  6
CONTINUOUS
 10
-114.120742
 20
79.536843
 11
-114.120742
 21
43.805075
  0
LINE
  8
型材断面
  6
CONTINUOUS
 10
-115.163975
 20
80.580075
 11
-115.163975
 21
43.805075
  0
LINE
  8
型材断面
  6
CONTINUOUS
 10
-41.613975
 20
80.580075
 11
-48.763975
 21
73.430075
  0
LINE
  8
型材断面
  6
CONTINUOUS
 10
-46.507042
 20
78.122628
 11
-44.071422
 21
78.122628
  0
LINE
  8
型材断面
  6
CONTINUOUS
 10
-44.071422
 20
75.687008
 11
-44.071422
 21
78.122628
  0
LINE
  8
型材断面
  6
DASHDOT
 10
-45.888975
 20
76.305075
 11
-45.888975
 21
61.305075
  0
LINE
  8
型材断面
  6
CONTINUOUS
 10
-78.388975
 20
48.055075
 11
-74.138975
 21
48.055075
  0
LINE
  8
型材断面
  6
CONTINUOUS
 10
-74.138975
 20
43.805075
 11
-74.138975
 21
48.055075
  0
LINE
  8
型材断面
  6
CONTINUOUS
 10
-46.507042
 20
78.122628
 11
-76.574595
 21
48.055075
  0
LINE
  8
型材断面
  6
CONTINUOUS
 10
-44.424975
 20
78.122628
 11
-74.492535
 21
48.055075
  0
LINE
  8
型材断面
  6
CONTINUOUS
 10
-44.071422
 20
77.769075
 11
-74.138975
 21
47.701522
  0
LINE
  8
型材断面
  6
CONTINUOUS
 10
-44.071422
 20
75.687008
 11
-74.138975
 21
45.619455
  0
LINE
  8
型材断面
  6
CONTINUOUS
 10
-78.388975
 20
43.805075
 11
-74.138975
 21
48.055075
  0
LINE
  8
型材断面
  6
DASHDOT
 10
-45.888975
 20
76.305075
 11
-74.138975
 21
48.055075
  0
LINE
  8
型材断面
  6
CONTINUOUS
 10
-43.71787
 20
78.47618
 11
-78.388975
 21
78.47618
  0
LINE
  8
型材断面
  6
CONTINUOUS
 10
-44.000713
 20
78.193338
 11
-78.388975
 21
78.193338
  0
LINE
  8
型材断面
  6
CONTINUOUS
 10
-43.010762
 20
79.183288
 11
-78.388975
 21
79.183288
  0
LINE
  8
型材断面
  6
CONTINUOUS
 10
-41.613975
 20
80.580075
 11
-78.388975
 21
80.580075
  0
LINE
  8
型材断面
  6
CONTINUOUS
 10
-42.657208
 20
79.536843
 11
-78.388975
 21
79.536843
  0
LINE
  8
型材断面
  6
CONTINUOUS
 10
-43.71787
 20
78.47618
 11
-43.71787
 21
43.805075
  0
LINE
  8
型材断面
  6
CONTINUOUS
 10
-44.000713
 20
78.193338
 11
-44.000713
 21
43.805075
  0
LINE
  8
型材断面
  6
CONTINUOUS
 10
-43.010762
 20
79.183288
 11
-43.010762
 21
43.805075
  0
LINE
  8
型材断面
  6
CONTINUOUS
 10
-42.657208
 20
79.536843
 11
-42.657208
 21
43.805075
  0
LINE
  8
型材断面
  6
CONTINUOUS
 10
-41.613975
 20
80.580075
 11
-41.613975
 21
43.805075
  0
LINE
  8
型材断面
  6
DOT
 10
-52.102573
 20
76.305077
 11
-52.102573
 21
11.305075
  0
LINE
  8
型材断面
  6
DOT
 10
-50.102573
 20
76.305077
 11
-50.102573
 21
11.305075
  0
LINE
  8
型材断面
  6
CONTINUOUS
 10
-37.8651
 20
43.805075
 11
-33.97934
 21
41.56163
  0
LINE
  8
型材断面
  6
CONTINUOUS
 10
-37.8651
 20
43.805075
 11
-33.97934
 21
46.04852
  0
LINE
  8
型材断面
  6
CONTINUOUS
 10
-33.97934
 20
46.04852
 11
-33.97934
 21
41.56163
  0
LINE
  8
型材断面
  6
CONTINUOUS
 10
-78.388975
 20
84.32895
 11
-80.63242
 21
88.21471
  0
LINE
  8
型材断面
  6
CONTINUOUS
 10
-78.388975
 20
84.32895
 11
-76.14553
 21
88.21471
  0
LINE
  8
型材断面
  6
CONTINUOUS
 10
-76.14553
 20
88.21471
 11
-80.63242
 21
88.21471
  0
LINE
  8
型材断面
  6
CONTINUOUS
 10
-78.388975
 20
3.2812
 11
-80.63242
 21
-0.60456
  0
LINE
  8
型材断面
  6
CONTINUOUS
 10
-78.388975
 20
3.2812
 11
-76.14553
 21
-0.60456
  0
LINE
  8
型材断面
  6
CONTINUOUS
 10
-76.14553
 20
-0.60456
 11
-80.63242
 21
-0.60456
  0
LINE
  8
型材断面
  6
CONTINUOUS
 10
-118.91285
 20
43.805075
 11
-122.79861
 21
41.56163
  0
LINE
  8
型材断面
  6
CONTINUOUS
 10
-118.91285
 20
43.805075
 11
-122.79861
 21
46.04852
  0
LINE
  8
型材断面
  6
CONTINUOUS
 10
-122.79861
 20
46.04852
 11
-122.79861
 21
41.56163
  0
LINE
  8
型材断面
  6
CONTINUOUS
 10
-37.8651
 20
70.455077
 11
-33.97934
 21
69.560993
  0
LINE
  8
型材断面
  6
CONTINUOUS
 10
-37.8651
 20
70.455077
 11
-33.97934
 21
71.349163
  0
LINE
  8
型材断面
  6
CONTINUOUS
 10
-33.97934
 20
71.349163
 11
-33.97934
 21
69.560993
  0
LINE
  8
型材断面
  6
CONTINUOUS
 10
-118.91285
 20
70.455077
 11
-122.79861
 21
69.560993
  0
LINE
  8
型材断面
  6
CONTINUOUS
 10
-118.91285
 20
70.455077
 11
-122.79861
 21
71.349163
  0
LINE
  8
型材断面
  6
CONTINUOUS
 10
-122.79861
 20
71.349163
 11
-122.79861
 21
69.560993
  0
LINE
  8
型材断面
  6
CONTINUOUS
 10
-37.8651
 20
17.155072
 11
-33.97934
 21
18.049158
  0
LINE
  8
型材断面
  6
CONTINUOUS
 10
-37.8651
 20
17.155072
 11
-33.97934
 21
16.260988
  0
LINE
  8
型材断面
  6
CONTINUOUS
 10
-33.97934
 20
16.260988
 11
-33.97934
 21
18.049158
  0
LINE
  8
型材断面
  6
CONTINUOUS
 10
-118.91285
 20
17.155072
 11
-122.79861
 21
18.049158
  0
LINE
  8
型材断面
  6
CONTINUOUS
 10
-118.91285
 20
17.155072
 11
-122.79861
 21
16.260988
  0
LINE
  8
型材断面
  6
CONTINUOUS
 10
-122.79861
 20
16.260988
 11
-122.79861
 21
18.049158
  0
POLYLINE
  8
型材断面
  6
CONTINUOUS
 66
     1
 70
     1
  0
VERTEX
  8
型材断面
 10
-69.048435
 20
94.3231
  0
VERTEX
  8
型材断面
 10
-87.603647
 20
94.3231
  0
VERTEX
  8
型材断面
 10
-87.603647
 20
89.531065
  0
VERTEX
  8
型材断面
 10
-69.048435
 20
89.531065
  0
SEQEND
  0
POLYLINE
  8
型材断面
  6
CONTINUOUS
 66
     1
 70
     1
  0
VERTEX
  8
型材断面
 10
-69.048435
 20
-1.575857
  0
VERTEX
  8
型材断面
 10
-87.603647
 20
-1.575857
  0
VERTEX
  8
型材断面
 10
-87.603647
 20
-6.367893
  0
VERTEX
  8
型材断面
 10
-69.048435
 20
-6.367893
  0
SEQEND
  0
LINE
  8
型材断面
  6
CONTINUOUS
 10
-1.517187
 20
40.028528
 11
-3.760632
 21
36.142768
  0
LINE
  8
型材断面
  6
CONTINUOUS
 10
-1.517187
 20
40.028528
 11
0.726258
 21
36.142768
  0
LINE
  8
型材断面
  6
CONTINUOUS
 10
0.726258
 20
36.142768
 11
-3.760632
 21
36.142768
  0
LINE
  8
型材断面
  6
CONTINUOUS
 10
-1.517187
 20
32.33898
 11
-0.623103
 21
28.45322
  0
LINE
  8
型材断面
  6
CONTINUOUS
 10
-1.517187
 20
32.33898
 11
-2.411272
 21
28.45322
  0
LINE
  8
型材断面
  6
CONTINUOUS
 10
-2.411272
 20
28.45322
 11
-0.623103
 21
28.45322
  0
LINE
  8
型材断面
  6
CONTINUOUS
 10
-10.551068
 20
34.734875
 11
42.105612
 21
34.734875
  0
LINE
  8
型材断面
  6
CONTINUOUS
 10
-10.551068
 20
23.534882
 11
42.105612
 21
23.534882
  0
LINE
  8
型材断面
  6
CONTINUOUS
 10
-10.551068
 20
16.694938
 11
42.105612
 21
16.694938
  0
LINE
  8
型材断面
  6
CONTINUOUS
 62
    47
 10
78.090222
 20
-67.310877
 11
78.090222
 21
-67.879255
  0
LINE
  8
型材断面
  6
CONTINUOUS
 62
    47
 10
77.415222
 20
-68.579255
 11
78.090222
 21
-68.579255
  0
LINE
  8
型材断面
  6
CONTINUOUS
 62
    47
 10
78.090222
 20
-68.579255
 11
78.090222
 21
-67.879255
  0
LINE
  8
型材断面
  6
CONTINUOUS
 62
    47
 10
76.76522
 20
-67.879255
 11
78.090222
 21
-67.879255
  0
LINE
  8
型材断面
  6
CONTINUOUS
 62
    47
 10
77.415222
 20
-68.579255
 11
77.415222
 21
-69.079255
  0
LINE
  8
型材断面
  6
CONTINUOUS
 10
77.340222
 20
-69.079255
 11
77.415222
 21
-69.079255
  0
LINE
  8
型材断面
  6
CONTINUOUS
 62
    47
 10
75.986327
 20
-65.206982
 11
77.04699
 21
-66.267645
  0
LINE
  8
型材断面
  6
CONTINUOUS
 10
75.455998
 20
-64.676653
 11
72.737555
 21
-64.676653
  0
LINE
  8
型材断面
  6
CONTINUOUS
 62
    47
 10
77.235223
 20
-71.363292
 11
77.235223
 21
-70.863292
  0
LINE
  8
型材断面
  6
CONTINUOUS
 62
    47
 10
77.235223
 20
-70.863292
 11
76.060223
 21
-70.713292
  0
LINE
  8
型材断面
  6
CONTINUOUS
 62
    47
 10
76.060223
 20
-70.104255
 11
76.060223
 21
-70.713292
  0
LINE
  8
型材断面
  6
CONTINUOUS
 62
    47
 10
76.76522
 20
-75.304255
 11
76.76522
 21
-71.363292
  0
LINE
  8
型材断面
  6
CONTINUOUS
 62
    47
 10
75.91522
 20
-76.054255
 11
75.91522
 21
-75.304255
  0
LINE
  8
型材断面
  6
CONTINUOUS
 62
    47
 10
76.76522
 20
-70.104255
 11
76.76522
 21
-69.079255
  0
LINE
  8
型材断面
  6
CONTINUOUS
 62
    47
 10
78.090222
 20
-67.310877
 11
41.315222
 21
-30.535877
  0
LINE
  8
型材断面
  6
CONTINUOUS
 10
45.565222
 20
-34.679912
 11
41.315222
 21
-34.679912
  0
LINE
  8
型材断面
  6
CONTINUOUS
 10
37.065225
 20
-34.679912
 11
41.315222
 21
-34.679912
  0
LINE
  8
型材断面
  6
CONTINUOUS
 10
37.118208
 20
-34.732895
 11
41.315222
 21
-34.732895
  0
LINE
  8
型材断面
  6
CONTINUOUS
 10
41.315222
 20
-30.429912
 11
45.565222
 21
-34.679912
  0
LINE
  8
型材断面
  6
CONTINUOUS
 10
41.315222
 20
-30.429912
 11
37.065225
 21
-34.679912
  0
LINE
  8
型材断面
  6
CONTINUOUS
 10
45.512238
 20
-34.732895
 11
41.315222
 21
-34.732895
  0
LINE
  8
型材断面
  6
CONTINUOUS
 10
37.065225
 20
-34.679912
 11
37.118208
 21
-34.732895
  0
LINE
  8
型材断面
  6
CONTINUOUS
 10
45.512238
 20
-34.732895
 11
45.565222
 21
-34.679912
  0
LINE
  8
型材断面
  6
CONTINUOUS
 10
37.065222
 20
-34.679912
 11
41.315222
 21
-34.679912
  0
LINE
  8
型材断面
  6
CONTINUOUS
 10
37.118208
 20
-34.732895
 11
41.315222
 21
-34.732895
  0
LINE
  8
型材断面
  6
CONTINUOUS
 10
37.118208
 20
-34.732895
 11
37.065222
 21
-34.679912
  0
LINE
  8
型材断面
  6
CONTINUOUS
 10
73.020398
 20
-64.676653
 11
43.07664
 21
-34.732895
  0
LINE
  8
型材断面
  6
CONTINUOUS
 10
72.737555
 20
-64.676653
 11
42.79379
 21
-34.732895
  0
LINE
  8
型材断面
  6
CONTINUOUS
 10
75.986327
 20
-65.206982
 11
41.315222
 21
-65.206982
  0
LINE
  8
型材断面
  6
CONTINUOUS
 10
76.693435
 20
-65.91409
 11
41.315222
 21
-65.91409
  0
LINE
  8
型材断面
  6
CONTINUOUS
 10
77.415222
 20
-69.079255
 11
41.315222
 21
-69.079255
  0
LINE
  8
型材断面
  6
CONTINUOUS
 10
77.415222
 20
-68.579255
 11
41.315222
 21
-68.579255
  0
LINE
  8
型材断面
  6
CONTINUOUS
 10
77.235223
 20
-70.863292
 11
41.315222
 21
-70.863292
  0
LINE
  8
型材断面
  6
CONTINUOUS
 62
    47
 10
77.235223
 20
-71.363292
 11
41.315222
 21
-71.363292
  0
LINE
  8
型材断面
  6
CONTINUOUS
 62
    47
 10
76.76522
 20
-70.104255
 11
41.315222
 21
-70.104255
  0
LINE
  8
型材断面
  6
CONTINUOUS
 10
78.090222
 20
-67.879255
 11
41.315222
 21
-67.879255
  0
LINE
  8
型材断面
  6
CONTINUOUS
 10
78.090222
 20
-67.310877
 11
41.315222
 21
-67.310877
  0
LINE
  8
型材断面
  6
CONTINUOUS
 10
77.04699
 20
-66.267645
 11
41.315222
 21
-66.267645
  0
LINE
  8
型材断面
  6
CONTINUOUS
 62
    47
 10
76.76522
 20
-75.304255
 11
41.315222
 21
-75.304255
  0
LINE
  8
型材断面
  6
CONTINUOUS
 62
    47
 10
75.91522
 20
-76.054255
 11
41.315222
 21
-76.054255
  0
LINE
  8
型材断面
  6
CONTINUOUS
 62
    47
 10
4.540222
 20
-67.310877
 11
4.540222
 21
-67.879255
  0
LINE
  8
型材断面
  6
CONTINUOUS
 62
    47
 10
5.215222
 20
-68.579255
 11
4.540222
 21
-68.579255
  0
LINE
  8
型材断面
  6
CONTINUOUS
 62
    47
 10
4.540222
 20
-68.579255
 11
4.540222
 21
-67.879255
  0
LINE
  8
型材断面
  6
CONTINUOUS
 62
    47
 10
5.865225
 20
-67.879255
 11
4.540222
 21
-67.879255
  0
LINE
  8
型材断面
  6
CONTINUOUS
 62
    47
 10
5.215222
 20
-68.579255
 11
5.215222
 21
-69.079255
  0
LINE
  8
型材断面
  6
CONTINUOUS
 10
5.290222
 20
-69.079255
 11
5.215222
 21
-69.079255
  0
LINE
  8
型材断面
  6
CONTINUOUS
 62
    47
 10
6.644117
 20
-65.206982
 11
5.583455
 21
-66.267645
  0
LINE
  8
型材断面
  6
CONTINUOUS
 10
7.174447
 20
-64.676653
 11
9.89289
 21
-64.676653
  0
LINE
  8
型材断面
  6
CONTINUOUS
 62
    47
 10
5.395223
 20
-71.363292
 11
5.395223
 21
-70.863292
  0
LINE
  8
型材断面
  6
CONTINUOUS
 62
    47
 10
5.395223
 20
-70.863292
 11
6.570223
 21
-70.713292
  0
LINE
  8
型材断面
  6
CONTINUOUS
 62
    47
 10
6.570223
 20
-70.104255
 11
6.570223
 21
-70.713292
  0
LINE
  8
型材断面
  6
CONTINUOUS
 62
    47
 10
5.865225
 20
-75.304255
 11
5.865225
 21
-71.363292
  0
LINE
  8
型材断面
  6
CONTINUOUS
 62
    47
 10
6.715225
 20
-76.054255
 11
6.715225
 21
-75.304255
  0
LINE
  8
型材断面
  6
CONTINUOUS
 62
    47
 10
5.865225
 20
-70.104255
 11
5.865225
 21
-69.079255
  0
LINE
  8
型材断面
  6
CONTINUOUS
 62
    47
 10
4.540222
 20
-67.310877
 11
41.315222
 21
-30.535877
  0
LINE
  8
型材断面
  6
CONTINUOUS
 10
9.610047
 20
-64.676653
 11
39.553805
 21
-34.732895
  0
LINE
  8
型材断面
  6
CONTINUOUS
 10
9.89289
 20
-64.676653
 11
39.836655
 21
-34.732895
  0
LINE
  8
型材断面
  6
CONTINUOUS
 10
6.644117
 20
-65.206982
 11
41.315222
 21
-65.206982
  0
LINE
  8
型材断面
  6
CONTINUOUS
 10
5.93701
 20
-65.91409
 11
41.315222
 21
-65.91409
  0
LINE
  8
型材断面
  6
CONTINUOUS
 10
5.215222
 20
-69.079255
 11
41.315222
 21
-69.079255
  0
LINE
  8
型材断面
  6
CONTINUOUS
 10
5.215222
 20
-68.579255
 11
41.315222
 21
-68.579255
  0
LINE
  8
型材断面
  6
CONTINUOUS
 10
5.395223
 20
-70.863292
 11
41.315222
 21
-70.863292
  0
LINE
  8
型材断面
  6
CONTINUOUS
 62
    47
 10
5.395223
 20
-71.363292
 11
41.315222
 21
-71.363292
  0
LINE
  8
型材断面
  6
CONTINUOUS
 62
    47
 10
5.865225
 20
-70.104255
 11
41.315222
 21
-70.104255
  0
LINE
  8
型材断面
  6
CONTINUOUS
 10
4.540222
 20
-67.879255
 11
41.315222
 21
-67.879255
  0
LINE
  8
型材断面
  6
CONTINUOUS
 10
4.540222
 20
-67.310877
 11
41.315222
 21
-67.310877
  0
LINE
  8
型材断面
  6
CONTINUOUS
 10
5.583455
 20
-66.267645
 11
41.315222
 21
-66.267645
  0
LINE
  8
型材断面
  6
CONTINUOUS
 62
    47
 10
5.865225
 20
-75.304255
 11
41.315222
 21
-75.304255
  0
LINE
  8
型材断面
  6
CONTINUOUS
 62
    47
 10
6.715225
 20
-76.054255
 11
41.315222
 21
-76.054255
  0
LINE
  8
型材断面
  6
CONTINUOUS
 10
76.060223
 20
-70.713292
 11
41.315222
 21
-70.713292
  0
LINE
  8
型材断面
  6
CONTINUOUS
 10
6.570223
 20
-70.713292
 11
41.315222
 21
-70.713292
  0
LINE
  8
型材断面
  6
DOT
 62
    47
 10
78.090222
 20
-51.310877
 11
78.090222
 21
-51.879255
  0
LINE
  8
型材断面
  6
DOT
 62
    47
 10
77.415222
 20
-52.579255
 11
78.090222
 21
-52.579255
  0
LINE
  8
型材断面
  6
DOT
 62
    47
 10
78.090222
 20
-52.579255
 11
78.090222
 21
-51.879255
  0
LINE
  8
型材断面
  6
DOT
 62
    47
 10
76.76522
 20
-51.879255
 11
78.090222
 21
-51.879255
  0
LINE
  8
型材断面
  6
DOT
 62
    47
 10
77.415222
 20
-52.579255
 11
77.415222
 21
-53.079255
  0
LINE
  8
型材断面
  6
DOT
 10
77.340222
 20
-53.079255
 11
77.415222
 21
-53.079255
  0
LINE
  8
型材断面
  6
DOT
 62
    47
 10
75.986327
 20
-49.206982
 11
77.04699
 21
-50.267645
  0
LINE
  8
型材断面
  6
DOT
 10
75.455998
 20
-48.676653
 11
72.737555
 21
-48.676653
  0
LINE
  8
型材断面
  6
DOT
 62
    47
 10
77.235223
 20
-55.363292
 11
77.235223
 21
-54.863292
  0
LINE
  8
型材断面
  6
DOT
 62
    47
 10
77.235223
 20
-54.863292
 11
76.060223
 21
-54.713292
  0
LINE
  8
型材断面
  6
DOT
 62
    47
 10
76.060223
 20
-54.104255
 11
76.060223
 21
-54.713292
  0
LINE
  8
型材断面
  6
DOT
 62
    47
 10
76.76522
 20
-54.104255
 11
76.76522
 21
-53.079255
  0
LINE
  8
型材断面
  6
DOT
 62
    47
 10
78.090222
 20
-51.310877
 11
41.315222
 21
-14.535877
  0
LINE
  8
型材断面
  6
DOT
 10
45.565222
 20
-18.679912
 11
41.315222
 21
-18.679912
  0
LINE
  8
型材断面
  6
DOT
 10
37.065225
 20
-18.679912
 11
41.315222
 21
-18.679912
  0
LINE
  8
型材断面
  6
DOT
 10
37.118208
 20
-18.732895
 11
41.315222
 21
-18.732895
  0
LINE
  8
型材断面
  6
DOT
 10
41.315222
 20
-14.429912
 11
45.565222
 21
-18.679912
  0
LINE
  8
型材断面
  6
DOT
 10
41.315222
 20
-14.429912
 11
37.065225
 21
-18.679912
  0
LINE
  8
型材断面
  6
DOT
 10
45.512238
 20
-18.732895
 11
41.315222
 21
-18.732895
  0
LINE
  8
型材断面
  6
DOT
 10
37.065225
 20
-18.679912
 11
37.118208
 21
-18.732895
  0
LINE
  8
型材断面
  6
DOT
 10
45.512238
 20
-18.732895
 11
45.565222
 21
-18.679912
  0
LINE
  8
型材断面
  6
DOT
 10
37.065222
 20
-18.679912
 11
41.315222
 21
-18.679912
  0
LINE
  8
型材断面
  6
DOT
 10
37.118208
 20
-18.732895
 11
41.315222
 21
-18.732895
  0
LINE
  8
型材断面
  6
DOT
 10
37.118208
 20
-18.732895
 11
37.065222
 21
-18.679912
  0
LINE
  8
型材断面
  6
DOT
 10
73.020398
 20
-48.676653
 11
43.07664
 21
-18.732895
  0
LINE
  8
型材断面
  6
DOT
 10
72.737555
 20
-48.676653
 11
42.79379
 21
-18.732895
  0
LINE
  8
型材断面
  6
DOT
 10
75.986327
 20
-49.206982
 11
41.315222
 21
-49.206982
  0
LINE
  8
型材断面
  6
DOT
 10
76.693435
 20
-49.91409
 11
41.315222
 21
-49.91409
  0
LINE
  8
型材断面
  6
DOT
 10
77.415222
 20
-53.079255
 11
41.315222
 21
-53.079255
  0
LINE
  8
型材断面
  6
DOT
 10
77.415222
 20
-52.579255
 11
41.315222
 21
-52.579255
  0
LINE
  8
型材断面
  6
DOT
 10
77.235223
 20
-54.863292
 11
41.315222
 21
-54.863292
  0
LINE
  8
型材断面
  6
DOT
 62
    47
 10
77.235223
 20
-55.363292
 11
41.315222
 21
-55.363292
  0
LINE
  8
型材断面
  6
DOT
 62
    47
 10
76.76522
 20
-54.104255
 11
41.315222
 21
-54.104255
  0
LINE
  8
型材断面
  6
DOT
 10
78.090222
 20
-51.879255
 11
41.315222
 21
-51.879255
  0
LINE
  8
型材断面
  6
DOT
 10
78.090222
 20
-51.310877
 11
41.315222
 21
-51.310877
  0
LINE
  8
型材断面
  6
DOT
 10
77.04699
 20
-50.267645
 11
41.315222
 21
-50.267645
  0
LINE
  8
型材断面
  6
DOT
 62
    47
 10
4.540222
 20
-51.310877
 11
4.540222
 21
-51.879255
  0
LINE
  8
型材断面
  6
DOT
 62
    47
 10
5.215222
 20
-52.579255
 11
4.540222
 21
-52.579255
  0
LINE
  8
型材断面
  6
DOT
 62
    47
 10
4.540222
 20
-52.579255
 11
4.540222
 21
-51.879255
  0
LINE
  8
型材断面
  6
DOT
 62
    47
 10
5.865225
 20
-51.879255
 11
4.540222
 21
-51.879255
  0
LINE
  8
型材断面
  6
DOT
 62
    47
 10
5.215222
 20
-52.579255
 11
5.215222
 21
-53.079255
  0
LINE
  8
型材断面
  6
DOT
 10
5.290222
 20
-53.079255
 11
5.215222
 21
-53.079255
  0
LINE
  8
型材断面
  6
DOT
 62
    47
 10
6.644117
 20
-49.206982
 11
5.583455
 21
-50.267645
  0
LINE
  8
型材断面
  6
DOT
 10
7.174447
 20
-48.676653
 11
9.89289
 21
-48.676653
  0
LINE
  8
型材断面
  6
DOT
 62
    47
 10
5.395223
 20
-55.363292
 11
5.395223
 21
-54.863292
  0
LINE
  8
型材断面
  6
DOT
 62
    47
 10
5.395223
 20
-54.863292
 11
6.570223
 21
-54.713292
  0
LINE
  8
型材断面
  6
DOT
 62
    47
 10
6.570223
 20
-54.104255
 11
6.570223
 21
-54.713292
  0
LINE
  8
型材断面
  6
DOT
 62
    47
 10
5.865225
 20
-54.104255
 11
5.865225
 21
-53.079255
  0
LINE
  8
型材断面
  6
DOT
 62
    47
 10
4.540222
 20
-51.310877
 11
41.315222
 21
-14.535877
  0
LINE
  8
型材断面
  6
DOT
 10
9.610047
 20
-48.676653
 11
39.553805
 21
-18.732895
  0
LINE
  8
型材断面
  6
DOT
 10
9.89289
 20
-48.676653
 11
39.836655
 21
-18.732895
  0
LINE
  8
型材断面
  6
DOT
 10
6.644117
 20
-49.206982
 11
41.315222
 21
-49.206982
  0
LINE
  8
型材断面
  6
DOT
 10
5.93701
 20
-49.91409
 11
41.315222
 21
-49.91409
  0
LINE
  8
型材断面
  6
DOT
 10
5.215222
 20
-53.079255
 11
41.315222
 21
-53.079255
  0
LINE
  8
型材断面
  6
DOT
 10
5.215222
 20
-52.579255
 11
41.315222
 21
-52.579255
  0
LINE
  8
型材断面
  6
DOT
 10
5.395223
 20
-54.863292
 11
41.315222
 21
-54.863292
  0
LINE
  8
型材断面
  6
DOT
 62
    47
 10
5.395223
 20
-55.363292
 11
41.315222
 21
-55.363292
  0
LINE
  8
型材断面
  6
DOT
 62
    47
 10
5.865225
 20
-54.104255
 11
41.315222
 21
-54.104255
  0
LINE
  8
型材断面
  6
DOT
 10
4.540222
 20
-51.879255
 11
41.315222
 21
-51.879255
  0
LINE
  8
型材断面
  6
DOT
 10
4.540222
 20
-51.310877
 11
41.315222
 21
-51.310877
  0
LINE
  8
型材断面
  6
DOT
 10
5.583455
 20
-50.267645
 11
41.315222
 21
-50.267645
  0
LINE
  8
型材断面
  6
DOT
 10
76.060223
 20
-54.713292
 11
41.315222
 21
-54.713292
  0
LINE
  8
型材断面
  6
DOT
 10
6.570223
 20
-54.713292
 11
41.315222
 21
-54.713292
  0
INSERT
  2
*GRP_0014
  8
型材断面
  6
CONTINUOUS
 10
0.0
 20
0.0
  0
INSERT
  2
*GRP_0015
  8
型材断面
  6
CONTINUOUS
 10
0.0
 20
0.0
  0
LINE
  8
型材断面
  6
CONTINUOUS
 10
107.984262
 20
-43.597138
 11
131.915885
 21
-43.597138
  0
LINE
  8
型材断面
  6
CONTINUOUS
 10
-10.551068
 20
9.854992
 11
42.105612
 21
9.854992
  0
LINE
  8
ガラス
  6
CONTINUOUS
 10
-76.222508
 20
-50.202368
 11
-80.095143
 21
-54.075003
  0
LINE
  8
ガラス
  6
CONTINUOUS
 10
-77.10283
 20
-51.800725
 11
-78.496785
 21
-53.19468
  0
LINE
  8
ガラス
  6
CONTINUOUS
 10
-77.820865
 20
-51.08269
 11
-79.21482
 21
-52.476645
  0
LINE
  8
ガラス
  6
CONTINUOUS
 10
-76.57575
 20
68.76479
 11
-80.448385
 21
64.892155
  0
LINE
  8
ガラス
  6
CONTINUOUS
 10
-77.456073
 20
67.166432
 11
-78.850028
 21
65.772478
  0
LINE
  8
ガラス
  6
CONTINUOUS
 10
-78.174107
 20
67.884468
 11
-79.568062
 21
66.490512
  0
LINE
  8
ガラス
  6
CONTINUOUS
 10
-76.57575
 20
25.017523
 11
-80.448385
 21
21.144888
  0
LINE
  8
ガラス
  6
CONTINUOUS
 10
-77.456073
 20
23.419165
 11
-78.850028
 21
22.02521
  0
LINE
  8
ガラス
  6
CONTINUOUS
 10
-78.174107
 20
24.1372
 11
-79.568062
 21
22.743245
  0
LINE
  8
ガラス
  6
CONTINUOUS
 10
-56.424712
 20
45.692778
 11
-60.297347
 21
41.820142
  0
LINE
  8
ガラス
  6
CONTINUOUS
 10
-57.305035
 20
44.09442
 11
-58.69899
 21
42.700465
  0
LINE
  8
ガラス
  6
CONTINUOUS
 10
-58.02307
 20
44.812455
 11
-59.417025
 21
43.4185
  0
LINE
  8
ガラス
  6
CONTINUOUS
 10
-96.283035
 20
45.692778
 11
-100.15567
 21
41.820142
  0
LINE
  8
ガラス
  6
CONTINUOUS
 10
-97.163357
 20
44.09442
 11
-98.557312
 21
42.700465
  0
LINE
  8
ガラス
  6
CONTINUOUS
 10
-97.881393
 20
44.812455
 11
-99.275348
 21
43.4185
  0
TEXT
  7
TextStyle03
  8
文字
  6
CONTINUOUS
 10
-37.2
 20
30.0
  1
ﾊﾞﾗﾝｽｽﾃｰ
 40
3.0
 72
     5
 11
-23.8875
 21
30.0
  0
TEXT
  7
TextStyle03
  8
文字
  6
CONTINUOUS
 10
-86.625
 20
90.5
  1
可動装置側
 40
3.0
 72
     5
 11
-70.125
 21
90.5
  0
TEXT
  7
TextStyle03
  8
文字
  6
CONTINUOUS
 10
-86.625
 20
-5.375
  1
可動装置側
 40
3.0
 72
     5
 11
-70.125
 21
-5.375
  0
TEXT
  7
TextStyle03
  8
文字
  6
CONTINUOUS
 10
68.55
 20
91.775
  1
ＮＳコード：ＮＳ４ＣＳ
 40
5.0
 72
     5
 11
129.8
 21
91.775
  0
TEXT
  7
TextStyle03
  8
文字
  6
CONTINUOUS
 10
-142.375
 20
0.425
  1
アンカーピッチ
 40
3.0
 50
90.0
 72
     5
 11
-142.375
 21
23.675
  0
TEXT
  7
TextStyle03
  8
文字
  6
CONTINUOUS
 10
-125.375
 20
103.225
  1
アンカーピッチ
 40
3.0
 72
     5
 11
-102.125
 21
103.225
  0
TEXT
  7
TextStyle03
  8
文字
  6
CONTINUOUS
 10
2.725
 20
36.45
  1
は排水穴位置を示す
 40
3.0
 72
     5
 11
32.725
 21
36.45
  0
TEXT
  7
TextStyle03
  8
文字
  6
CONTINUOUS
 10
2.725
 20
28.6
  1
はケーシング位置を示す
 40
3.0
 72
     5
 11
39.475
 21
28.6
  0
TEXT
  7
TextStyle03
  8
文字
  6
CONTINUOUS
 10
2.725
 20
25.225
  1
４ヶ所中1ヶ所に設定
 40
3.0
 72
     5
 11
34.4125
 21
25.225
  0
TEXT
  7
TextStyle03
  8
文字
  6
CONTINUOUS
 10
-2.875
 20
18.075
  1
アンカー数量　８ヶ所
 40
3.0
 72
     5
 11
30.5
 21
18.075
  0
TEXT
  7
TextStyle03
  8
文字
  6
CONTINUOUS
 10
151.85
 20
-92.1
  1
×４枚
 40
3.0
 72
     5
 11
161.6
 21
-92.1
  0
TEXT
  7
TextStyle03
  8
文字
  6
CONTINUOUS
 10
111.575
 20
-42.375
  1
ガラス寸法
 40
3.0
 72
     5
 11
128.075
 21
-42.375
  0
TEXT
  7
TextStyle03
  8
文字
  6
CONTINUOUS
 10
-2.875
 20
11.25
  1
アームユニット数　２ヶ所
 40
3.0
 72
     5
 11
37.25
 21
11.25
  0
TEXT
  7
TextStyle03
  8
文字
  6
CONTINUOUS
 10
68.85
 20
118.3
  1
シリーズ：ＳＴＦ４
 40
5.0
 72
     5
 11
118.85
 21
118.3
  0
TEXT
  7
TextStyle03
  8
文字
  6
CONTINUOUS
 10
68.85
 20
112.675
  1
　　　　　四角錘（上下可動）1300×1300タイプ
 40
5.0
 72
     5
 11
191.975
 21
112.675
  0
TEXT
  7
TextStyle03
  8
文字
  6
CONTINUOUS
 10
68.85
 20
107.05
  1
　　　　　シングルガラス仕様
 40
5.0
 72
     5
 11
146.975
 21
107.05
  0
TEXT
  7
TextStyle03
  8
文字
  6
CONTINUOUS
 10
68.85
 20
101.425
  1
図面名　：外観姿図
 40
5.0
 72
     5
 11
118.85
 21
101.425
  0
TEXT
  7
TextStyle03
  8
文字
  6
CONTINUOUS
 10
68.85
 20
95.8
  1
　　　　　　
 40
5.0
 72
     5
 11
101.975
 21
95.8
  0
INSERT
  2
*DIM_0002
  8
寸法
  6
CONTINUOUS
 10
0.0
 20
0.0
  0
INSERT
  2
*DIM_0003
  8
寸法
  6
CONTINUOUS
 10
0.0
 20
0.0
  0
INSERT
  2
*DIM_0004
  8
寸法
  6
CONTINUOUS
 10
0.0
 20
0.0
  0
INSERT
  2
*DIM_0005
  8
寸法
  6
CONTINUOUS
 10
0.0
 20
0.0
  0
INSERT
  2
*DIM_0006
  8
寸法
  6
CONTINUOUS
 10
0.0
 20
0.0
  0
INSERT
  2
*DIM_0007
  8
寸法
  6
CONTINUOUS
 10
0.0
 20
0.0
  0
INSERT
  2
*DIM_0008
  8
寸法
  6
CONTINUOUS
 10
0.0
 20
0.0
  0
INSERT
  2
*GRP_0009
  8
寸法
  6
CONTINUOUS
 10
0.0
 20
0.0
  0
INSERT
  2
*DIM_0010
  8
寸法
  6
CONTINUOUS
 10
0.0
 20
0.0
  0
INSERT
  2
*DIM_0011
  8
寸法
  6
CONTINUOUS
 10
0.0
 20
0.0
  0
INSERT
  2
*DIM_0012
  8
寸法
  6
CONTINUOUS
 10
0.0
 20
0.0
  0
INSERT
  2
*DIM_0013
  8
寸法
  6
CONTINUOUS
 10
0.0
 20
0.0
  0
INSERT
  2
*DIM_0028
  8
寸法
  6
CONTINUOUS
 10
0.0
 20
0.0
  0
INSERT
  2
*DIM_0029
  8
寸法
  6
CONTINUOUS
 10
0.0
 20
0.0
  0
INSERT
  2
*DIM_0030
  8
寸法
  6
CONTINUOUS
 10
0.0
 20
0.0
  0
LINE
  8
曲げ物
  6
CONTINUOUS
 10
173.879352
 20
-95.186538
 11
107.744353
 21
-95.186538
  0
LINE
  8
曲げ物
  6
CONTINUOUS
 10
107.744353
 20
-95.186538
 11
140.811852
 21
-48.422228
  0
LINE
  8
曲げ物
  6
CONTINUOUS
 10
173.879352
 20
-95.186538
 11
140.811852
 21
-48.422228
  0
ENDSEC
  0
EOF
