  0
SECTION
  2
HEADER
  9
$EXTMIN
 10
-210.0
 20
-148.5
  9
$EXTMAX
 10
210.0
 20
148.5
  9
$PDMODE
 70
    32
  9
$PDSIZE
 40
1.5
  9
$LTSCALE
 40
10.0
  0
ENDSEC
  0
SECTION
  2
TABLES
  0
TABLE
  2
LTYPE
 70
    15
  0
LTYPE
  2
CONTINUOUS
 70
    64
  3
実線
 72
    65
 73
     0
 40
0.0
  0
LTYPE
  2
DASHED
 70
    64
  3
破線A
 72
    65
 73
     2
 40
0.6
 49
0.4
 49
-0.2
  0
LTYPE
  2
DASHEDX2
 70
    64
  3
破線B
 72
    65
 73
     2
 40
1.3
 49
0.9
 49
-0.4
  0
LTYPE
  2
DASHDOT
 70
    64
  3
１点鎖線A
 72
    65
 73
     4
 40
0.5375
 49
0.375
 49
-0.05
 49
0.0625
 49
-0.05
  0
LTYPE
  2
DASHDOTX2
 70
    64
  3
１点鎖線B
 72
    65
 73
     4
 40
1.075
 49
0.75
 49
-0.1
 49
0.125
 49
-0.1
  0
LTYPE
  2
DIVIDE2
 70
    64
  3
２点鎖線A
 72
    65
 73
     6
 40
0.5125
 49
0.3
 49
-0.0375
 49
0.05
 49
-0.0375
 49
0.05
 49
-0.0375
  0
LTYPE
  2
DIVIDE
 70
    64
  3
２点鎖線B
 72
    65
 73
     6
 40
1.05
 49
0.55
 49
-0.1
 49
0.1
 49
-0.1
 49
0.1
 49
-0.1
  0
LTYPE
  2
DOT
 70
    64
  3
点線A
 72
    65
 73
     2
 40
0.1125
 49
0.0625
 49
-0.05
  0
LTYPE
  2
DOTX2
 70
    64
  3
点線B
 72
    65
 73
     2
 40
0.275
 49
0.15
 49
-0.125
  0
LTYPE
  2
CONTINUOUS
 70
    64
  3
実線
 72
    65
 73
     0
 40
0.0
  0
LTYPE
  2
CONTINUOUS
 70
    64
  3
実線
 72
    65
 73
     0
 40
0.0
  0
LTYPE
  2
CONTINUOUS
 70
    64
  3
実線
 72
    65
 73
     0
 40
0.0
  0
LTYPE
  2
CONTINUOUS
 70
    64
  3
実線
 72
    65
 73
     0
 40
0.0
  0
LTYPE
  2
CONTINUOUS
 70
    64
  3
実線
 72
    65
 73
     0
 40
0.0
  0
LTYPE
  2
CONTINUOUS
 70
    64
  3
実線
 72
    65
 73
     0
 40
0.0
  0
ENDTAB
  0
TABLE
  2
LAYER
 70
    34
  0
LAYER
  2
通り芯
 70
     0
 62
    15
  6
CONTINUOUS
  0
LAYER
  2
補助線
 70
     0
 62
    16
  6
DOT
  0
LAYER
  2
躯体
 70
     0
 62
    31
  6
CONTINUOUS
  0
LAYER
  2
型材
 70
     0
 62
    32
  6
CONTINUOUS
  0
LAYER
  2
型材断面
 70
     0
 62
    47
  6
CONTINUOUS
  0
LAYER
  2
ガラス
 70
     0
 62
    48
  6
CONTINUOUS
  0
LAYER
  2
ゴム等
 70
     0
 62
    63
  6
CONTINUOUS
  0
LAYER
  2
ボルト／ビス
 70
     0
 62
    64
  6
CONTINUOUS
  0
LAYER
  2
文字
 70
     0
 62
    79
  6
CONTINUOUS
  0
LAYER
  2
寸法
 70
     0
 62
    80
  6
CONTINUOUS
  0
LAYER
  2
ﾊｯﾁﾝｸﾞ
 70
     0
 62
    95
  6
CONTINUOUS
  0
LAYER
  2
別途部材
 70
     0
 62
    96
  6
CONTINUOUS
  0
LAYER
  2
曲げ物
 70
     0
 62
   111
  6
CONTINUOUS
  0
LAYER
  2
鉄骨等
 70
     0
 62
   112
  6
CONTINUOUS
  0
LAYER
  2
St
 70
     0
 62
   127
  6
CONTINUOUS
  0
LAYER
  2
その他部品等
 70
     0
 62
   128
  6
CONTINUOUS
  0
LAYER
  2
ｶﾞｽｹｯﾄ
 70
     0
 62
   143
  6
CONTINUOUS
  0
LAYER
  2
ｽｹｯﾁ
 70
     0
 62
    14
  6
CONTINUOUS
  0
LAYER
  2
0
 70
     0
 62
    17
  6
CONTINUOUS
  0
LAYER
  2
1
 70
     0
 62
    30
  6
CONTINUOUS
  0
LAYER
  2
4
 70
     0
 62
    33
  6
CONTINUOUS
  0
LAYER
  2
ﾚｲﾔ3
 70
     0
 62
    46
  6
CONTINUOUS
  0
LAYER
  2
外形線
 70
     0
 62
    49
  6
CONTINUOUS
  0
LAYER
  2
部品
 70
     0
 62
    14
  6
CONTINUOUS
  0
LAYER
  2
サッシ芯
 70
     0
 62
    17
  6
DASHDOTX2
  0
LAYER
  2
寸法線
 70
     0
 62
    62
  6
CONTINUOUS
  0
LAYER
  2
姿図外形線
 70
     0
 62
    65
  6
CONTINUOUS
  0
LAYER
  2
姿補助線
 70
     0
 62
    30
  6
CONTINUOUS
  0
LAYER
  2
透視線
 70
     0
 62
    78
  6
DOT
  0
LAYER
  2
用紙
 70
     0
 62
    81
  6
CONTINUOUS
  0
LAYER
  2
実線図枠
 70
     0
 62
    94
  6
CONTINUOUS
  0
LAYER
  2
補助図枠
 70
     0
 62
    97
  6
CONTINUOUS
  0
LAYER
  2
建具記号
 70
     0
 62
   110
  6
CONTINUOUS
  0
LAYER
  2
補助文字
 70
     0
 62
   113
  6
CONTINUOUS
  0
ENDTAB
  0
TABLE
  2
STYLE
 70
    10
  0
STYLE
  2
STANDARD
 70
     0
 40
1.0
 41
1.0
 42
1.0
 50
0.0
 71
     0
  3
TXT
  4
BIGFONT
  0
STYLE
  2
TATE
 70
     4
 40
1.0
 41
1.0
 42
1.0
 50
0.0
 71
     0
  3
TXT
  4
BIGFONT
  0
STYLE
  2
TextStyle03
 70
     0
 40
1.0
 41
1.0
 42
1.0
 50
0.0
 71
     0
  3
MONOTXT
  4
BIGFONT
  0
STYLE
  2
TextStyle04
 70
     0
 40
1.0
 41
1.0
 42
1.0
 50
0.0
 71
     0
  3
MONOTXT
  4
BIGFONT
  0
STYLE
  2
TextStyle05
 70
     0
 40
1.0
 41
1.0
 42
1.0
 50
0.0
 71
     0
  3
MONOTXT
  4
BIGFONT
  0
STYLE
  2
TextStyle06
 70
     0
 40
1.0
 41
1.0
 42
1.0
 50
0.0
 71
     0
  3
MONOTXT
  4
BIGFONT
  0
STYLE
  2
TextStyle07
 70
     0
 40
1.0
 41
1.0
 42
1.0
 50
0.0
 71
     0
  3
MONOTXT
  4
BIGFONT
  0
STYLE
  2
TextStyle08
 70
     0
 40
1.0
 41
1.0
 42
1.0
 50
0.0
 71
     0
  3
MONOTXT
  4
BIGFONT
  0
STYLE
  2
TextStyle09
 70
     0
 40
1.0
 41
1.0
 42
1.0
 50
0.0
 71
     0
  3
MONOTXT
  4
BIGFONT
  0
STYLE
  2
TextStyle10
 70
     0
 40
1.0
 41
1.0
 42
1.0
 50
0.0
 71
     0
  3
MONOTXT
  4
BIGFONT
  0
ENDTAB
  0
ENDSEC
  0
SECTION
  2
BLOCKS
  0
BLOCK
  2
*GRP_0001
 70
    65
 10
0.0
 20
0.0
  0
LINE
  8
型材断面
  6
CONTINUOUS
 10
195.0
 20
133.5
 11
195.0
 21
-133.5
  0
LINE
  8
型材断面
  6
CONTINUOUS
 10
195.0
 20
-133.5
 11
-185.0
 21
-133.5
  0
LINE
  8
型材断面
  6
CONTINUOUS
 10
-185.0
 20
-133.5
 11
-185.0
 21
133.5
  0
LINE
  8
型材断面
  6
CONTINUOUS
 10
195.0
 20
133.5
 11
-185.0
 21
133.5
  0
LINE
  8
型材断面
  6
CONTINUOUS
 10
145.0
 20
-133.5
 11
145.0
 21
-118.5
  0
LINE
  8
型材断面
  6
CONTINUOUS
 10
195.0
 20
-118.5
 11
145.0
 21
-118.5
  0
ENDBLK
  0
BLOCK
  2
*GRP_0002
 70
    65
 10
0.0
 20
0.0
  0
LINE
  8
補助線
  6
BYBLOCK
 62
    64
 10
65.490508
 20
-91.48402
 11
65.664198
 21
-91.663825
  0
LINE
  8
補助線
  6
BYBLOCK
 62
    64
 10
65.667255
 20
-91.487078
 11
65.48745
 21
-91.660768
  0
LINE
  8
補助線
  6
BYBLOCK
 62
    64
 10
54.096012
 20
-79.688875
 11
53.922315
 21
-79.509068
  0
LINE
  8
補助線
  6
BYBLOCK
 62
    64
 10
54.099063
 20
-79.512122
 11
53.91926
 21
-79.68582
  0
LINE
  8
補助線
  6
BYBLOCK
 62
    64
 10
42.52776
 20
-67.713977
 11
42.354062
 21
-67.534177
  0
LINE
  8
補助線
  6
BYBLOCK
 62
    64
 10
42.530812
 20
-67.53723
 11
42.35101
 21
-67.710927
  0
LINE
  8
型材断面
  6
CONTINUOUS
 10
66.823768
 20
-91.065048
 11
66.805443
 21
-92.125547
  0
LINE
  8
型材断面
  6
CONTINUOUS
 10
66.805443
 20
-92.125547
 11
66.086227
 21
-92.820338
  0
LINE
  8
型材断面
  6
CONTINUOUS
 10
66.086227
 20
-92.820338
 11
65.025727
 21
-92.802013
  0
LINE
  8
型材断面
  6
CONTINUOUS
 10
42.992533
 20
-66.395982
 11
41.932033
 21
-66.377668
  0
LINE
  8
型材断面
  6
CONTINUOUS
 10
41.932033
 20
-66.377668
 11
41.212815
 21
-67.072458
  0
LINE
  8
型材断面
  6
CONTINUOUS
 10
41.212815
 20
-67.072458
 11
41.1945
 21
-68.132957
  0
LINE
  8
型材断面
  6
CONTINUOUS
 10
66.823768
 20
-91.065048
 11
42.992653
 21
-66.395985
  0
LINE
  8
型材断面
  6
CONTINUOUS
 10
65.025727
 20
-92.802013
 11
41.194503
 21
-68.132848
  0
LINE
  8
ボルト／ビス
  6
CONTINUOUS
 62
    64
 10
65.909542
 20
-91.253013
 11
66.021363
 21
-91.701155
  0
LINE
  8
ボルト／ビス
  6
CONTINUOUS
 62
    64
 10
65.909542
 20
-91.253013
 11
65.465535
 21
-91.125785
  0
LINE
  8
ボルト／ビス
  6
CONTINUOUS
 62
    64
 10
65.245162
 20
-91.894833
 11
65.68917
 21
-92.02206
  0
LINE
  8
ボルト／ビス
  6
CONTINUOUS
 62
    64
 10
65.245162
 20
-91.894833
 11
65.133343
 21
-91.44669
  0
CIRCLE
  8
ボルト／ビス
  6
CONTINUOUS
 62
    64
 10
65.577353
 20
-91.573923
 40
0.4
  0
LINE
  8
ボルト／ビス
  6
CONTINUOUS
 62
    64
 10
65.465535
 20
-91.125785
 11
65.133343
 21
-91.44669
  0
LINE
  8
ボルト／ビス
  6
CONTINUOUS
 62
    64
 10
66.021363
 20
-91.701155
 11
65.68917
 21
-92.02206
  0
LINE
  8
ボルト／ビス
  6
CONTINUOUS
 62
    64
 10
54.341355
 20
-79.278065
 11
53.897343
 21
-79.15083
  0
LINE
  8
ボルト／ビス
  6
CONTINUOUS
 62
    64
 10
54.341355
 20
-79.278065
 11
54.453175
 21
-79.726202
  0
LINE
  8
ボルト／ビス
  6
CONTINUOUS
 62
    64
 10
53.67697
 20
-79.919877
 11
53.565152
 21
-79.471738
  0
LINE
  8
ボルト／ビス
  6
CONTINUOUS
 62
    64
 10
53.67697
 20
-79.919877
 11
54.12098
 21
-80.04711
  0
CIRCLE
  8
ボルト／ビス
  6
CONTINUOUS
 62
    64
 10
54.00916
 20
-79.59897
 40
0.4
  0
LINE
  8
ボルト／ビス
  6
CONTINUOUS
 62
    64
 10
54.453175
 20
-79.726202
 11
54.12098
 21
-80.04711
  0
LINE
  8
ボルト／ビス
  6
CONTINUOUS
 62
    64
 10
53.897343
 20
-79.15083
 11
53.565152
 21
-79.471738
  0
LINE
  8
ボルト／ビス
  6
CONTINUOUS
 62
    64
 10
42.773102
 20
-67.303168
 11
42.32909
 21
-67.175937
  0
LINE
  8
ボルト／ビス
  6
CONTINUOUS
 62
    64
 10
42.773102
 20
-67.303168
 11
42.88492
 21
-67.751307
  0
LINE
  8
ボルト／ビス
  6
CONTINUOUS
 62
    64
 10
42.10872
 20
-67.944988
 11
41.996903
 21
-67.496845
  0
LINE
  8
ボルト／ビス
  6
CONTINUOUS
 62
    64
 10
42.10872
 20
-67.944988
 11
42.552735
 21
-68.072217
  0
CIRCLE
  8
ボルト／ビス
  6
CONTINUOUS
 62
    64
 10
42.440913
 20
-67.624078
 40
0.4
  0
LINE
  8
ボルト／ビス
  6
CONTINUOUS
 62
    64
 10
42.88492
 20
-67.751307
 11
42.552735
 21
-68.072217
  0
LINE
  8
ボルト／ビス
  6
CONTINUOUS
 62
    64
 10
42.32909
 20
-67.175937
 11
41.996903
 21
-67.496845
  0
ENDBLK
  0
BLOCK
  2
*GRP_0003
 70
    65
 10
0.0
 20
0.0
  0
LINE
  8
補助線
  6
BYBLOCK
 62
    64
 10
42.527817
 20
-91.48402
 11
42.354127
 21
-91.663825
  0
LINE
  8
補助線
  6
BYBLOCK
 62
    64
 10
42.35107
 20
-91.487078
 11
42.530875
 21
-91.660768
  0
LINE
  8
補助線
  6
BYBLOCK
 62
    64
 10
53.922313
 20
-79.688875
 11
54.09601
 21
-79.509068
  0
LINE
  8
補助線
  6
BYBLOCK
 62
    64
 10
53.919262
 20
-79.512122
 11
54.099065
 21
-79.68582
  0
LINE
  8
補助線
  6
BYBLOCK
 62
    64
 10
65.490565
 20
-67.713977
 11
65.664263
 21
-67.534177
  0
LINE
  8
補助線
  6
BYBLOCK
 62
    64
 10
65.487513
 20
-67.53723
 11
65.667315
 21
-67.710927
  0
LINE
  8
型材断面
  6
CONTINUOUS
 10
41.194557
 20
-91.065048
 11
41.212882
 21
-92.125547
  0
LINE
  8
型材断面
  6
CONTINUOUS
 10
41.212882
 20
-92.125547
 11
41.932098
 21
-92.820338
  0
LINE
  8
型材断面
  6
CONTINUOUS
 10
41.932098
 20
-92.820338
 11
42.992598
 21
-92.802013
  0
LINE
  8
型材断面
  6
CONTINUOUS
 10
65.025792
 20
-66.395982
 11
66.086292
 21
-66.377668
  0
LINE
  8
型材断面
  6
CONTINUOUS
 10
66.086292
 20
-66.377668
 11
66.80551
 21
-67.072458
  0
LINE
  8
型材断面
  6
CONTINUOUS
 10
66.80551
 20
-67.072458
 11
66.823825
 21
-68.132957
  0
LINE
  8
型材断面
  6
CONTINUOUS
 10
41.194557
 20
-91.065048
 11
65.025672
 21
-66.395985
  0
LINE
  8
型材断面
  6
CONTINUOUS
 10
42.992598
 20
-92.802013
 11
66.823822
 21
-68.132848
  0
LINE
  8
ボルト／ビス
  6
CONTINUOUS
 62
    64
 10
42.108783
 20
-91.253013
 11
41.996962
 21
-91.701155
  0
LINE
  8
ボルト／ビス
  6
CONTINUOUS
 62
    64
 10
42.108783
 20
-91.253013
 11
42.55279
 21
-91.125785
  0
LINE
  8
ボルト／ビス
  6
CONTINUOUS
 62
    64
 10
42.773163
 20
-91.894833
 11
42.329155
 21
-92.02206
  0
LINE
  8
ボルト／ビス
  6
CONTINUOUS
 62
    64
 10
42.773163
 20
-91.894833
 11
42.884982
 21
-91.44669
  0
CIRCLE
  8
ボルト／ビス
  6
CONTINUOUS
 62
    64
 10
42.440972
 20
-91.573923
 40
0.4
  0
LINE
  8
ボルト／ビス
  6
CONTINUOUS
 62
    64
 10
42.55279
 20
-91.125785
 11
42.884982
 21
-91.44669
  0
LINE
  8
ボルト／ビス
  6
CONTINUOUS
 62
    64
 10
41.996962
 20
-91.701155
 11
42.329155
 21
-92.02206
  0
LINE
  8
ボルト／ビス
  6
CONTINUOUS
 62
    64
 10
53.67697
 20
-79.278065
 11
54.120982
 21
-79.15083
  0
LINE
  8
ボルト／ビス
  6
CONTINUOUS
 62
    64
 10
53.67697
 20
-79.278065
 11
53.56515
 21
-79.726202
  0
LINE
  8
ボルト／ビス
  6
CONTINUOUS
 62
    64
 10
54.341355
 20
-79.919877
 11
54.453173
 21
-79.471738
  0
LINE
  8
ボルト／ビス
  6
CONTINUOUS
 62
    64
 10
54.341355
 20
-79.919877
 11
53.897345
 21
-80.04711
  0
CIRCLE
  8
ボルト／ビス
  6
CONTINUOUS
 62
    64
 10
54.009165
 20
-79.59897
 40
0.4
  0
LINE
  8
ボルト／ビス
  6
CONTINUOUS
 62
    64
 10
53.56515
 20
-79.726202
 11
53.897345
 21
-80.04711
  0
LINE
  8
ボルト／ビス
  6
CONTINUOUS
 62
    64
 10
54.120982
 20
-79.15083
 11
54.453173
 21
-79.471738
  0
LINE
  8
ボルト／ビス
  6
CONTINUOUS
 62
    64
 10
65.245223
 20
-67.303168
 11
65.689235
 21
-67.175937
  0
LINE
  8
ボルト／ビス
  6
CONTINUOUS
 62
    64
 10
65.245223
 20
-67.303168
 11
65.133405
 21
-67.751307
  0
LINE
  8
ボルト／ビス
  6
CONTINUOUS
 62
    64
 10
65.909605
 20
-67.944988
 11
66.021422
 21
-67.496845
  0
LINE
  8
ボルト／ビス
  6
CONTINUOUS
 62
    64
 10
65.909605
 20
-67.944988
 11
65.46559
 21
-68.072217
  0
CIRCLE
  8
ボルト／ビス
  6
CONTINUOUS
 62
    64
 10
65.577412
 20
-67.624078
 40
0.4
  0
LINE
  8
ボルト／ビス
  6
CONTINUOUS
 62
    64
 10
65.133405
 20
-67.751307
 11
65.46559
 21
-68.072217
  0
LINE
  8
ボルト／ビス
  6
CONTINUOUS
 62
    64
 10
65.689235
 20
-67.175937
 11
66.021422
 21
-67.496845
  0
ENDBLK
  0
BLOCK
  2
*GRP_0004
 70
    65
 10
0.0
 20
0.0
  0
LINE
  8
補助線
  6
BYBLOCK
 62
    64
 10
-10.335803
 20
-91.48402
 11
-10.509493
 21
-91.663825
  0
LINE
  8
補助線
  6
BYBLOCK
 62
    64
 10
-10.51255
 20
-91.487078
 11
-10.332745
 21
-91.660768
  0
LINE
  8
補助線
  6
BYBLOCK
 62
    64
 10
1.058692
 20
-79.688875
 11
1.23239
 21
-79.509068
  0
LINE
  8
補助線
  6
BYBLOCK
 62
    64
 10
1.055643
 20
-79.512122
 11
1.235445
 21
-79.68582
  0
LINE
  8
補助線
  6
BYBLOCK
 62
    64
 10
12.626945
 20
-67.713977
 11
12.800642
 21
-67.534177
  0
LINE
  8
補助線
  6
BYBLOCK
 62
    64
 10
12.623892
 20
-67.53723
 11
12.803695
 21
-67.710927
  0
LINE
  8
型材断面
  6
CONTINUOUS
 10
-11.669063
 20
-91.065048
 11
-11.650738
 21
-92.125547
  0
LINE
  8
型材断面
  6
CONTINUOUS
 10
-11.650738
 20
-92.125547
 11
-10.931523
 21
-92.820338
  0
LINE
  8
型材断面
  6
CONTINUOUS
 10
-10.931523
 20
-92.820338
 11
-9.871022
 21
-92.802013
  0
LINE
  8
型材断面
  6
CONTINUOUS
 10
12.162173
 20
-66.395982
 11
13.222673
 21
-66.377668
  0
LINE
  8
型材断面
  6
CONTINUOUS
 10
13.222673
 20
-66.377668
 11
13.94189
 21
-67.072458
  0
LINE
  8
型材断面
  6
CONTINUOUS
 10
13.94189
 20
-67.072458
 11
13.960205
 21
-68.132957
  0
LINE
  8
型材断面
  6
CONTINUOUS
 10
-11.669063
 20
-91.065048
 11
12.162053
 21
-66.395985
  0
LINE
  8
型材断面
  6
CONTINUOUS
 10
-9.871022
 20
-92.802013
 11
13.960203
 21
-68.132848
  0
LINE
  8
ボルト／ビス
  6
CONTINUOUS
 62
    64
 10
-10.754838
 20
-91.253013
 11
-10.866658
 21
-91.701155
  0
LINE
  8
ボルト／ビス
  6
CONTINUOUS
 62
    64
 10
-10.754838
 20
-91.253013
 11
-10.31083
 21
-91.125785
  0
LINE
  8
ボルト／ビス
  6
CONTINUOUS
 62
    64
 10
-10.090457
 20
-91.894833
 11
-10.534465
 21
-92.02206
  0
LINE
  8
ボルト／ビス
  6
CONTINUOUS
 62
    64
 10
-10.090457
 20
-91.894833
 11
-9.978637
 21
-91.44669
  0
CIRCLE
  8
ボルト／ビス
  6
CONTINUOUS
 62
    64
 10
-10.422648
 20
-91.573923
 40
0.4
  0
LINE
  8
ボルト／ビス
  6
CONTINUOUS
 62
    64
 10
-10.31083
 20
-91.125785
 11
-9.978637
 21
-91.44669
  0
LINE
  8
ボルト／ビス
  6
CONTINUOUS
 62
    64
 10
-10.866658
 20
-91.701155
 11
-10.534465
 21
-92.02206
  0
LINE
  8
ボルト／ビス
  6
CONTINUOUS
 62
    64
 10
0.81335
 20
-79.278065
 11
1.257363
 21
-79.15083
  0
LINE
  8
ボルト／ビス
  6
CONTINUOUS
 62
    64
 10
0.81335
 20
-79.278065
 11
0.70153
 21
-79.726202
  0
LINE
  8
ボルト／ビス
  6
CONTINUOUS
 62
    64
 10
1.477735
 20
-79.919877
 11
1.589552
 21
-79.471738
  0
LINE
  8
ボルト／ビス
  6
CONTINUOUS
 62
    64
 10
1.477735
 20
-79.919877
 11
1.033725
 21
-80.04711
  0
CIRCLE
  8
ボルト／ビス
  6
CONTINUOUS
 62
    64
 10
1.145545
 20
-79.59897
 40
0.4
  0
LINE
  8
ボルト／ビス
  6
CONTINUOUS
 62
    64
 10
0.70153
 20
-79.726202
 11
1.033725
 21
-80.04711
  0
LINE
  8
ボルト／ビス
  6
CONTINUOUS
 62
    64
 10
1.257363
 20
-79.15083
 11
1.589552
 21
-79.471738
  0
LINE
  8
ボルト／ビス
  6
CONTINUOUS
 62
    64
 10
12.381603
 20
-67.303168
 11
12.825615
 21
-67.175937
  0
LINE
  8
ボルト／ビス
  6
CONTINUOUS
 62
    64
 10
12.381603
 20
-67.303168
 11
12.269785
 21
-67.751307
  0
LINE
  8
ボルト／ビス
  6
CONTINUOUS
 62
    64
 10
13.045985
 20
-67.944988
 11
13.157803
 21
-67.496845
  0
LINE
  8
ボルト／ビス
  6
CONTINUOUS
 62
    64
 10
13.045985
 20
-67.944988
 11
12.60197
 21
-68.072217
  0
CIRCLE
  8
ボルト／ビス
  6
CONTINUOUS
 62
    64
 10
12.713793
 20
-67.624078
 40
0.4
  0
LINE
  8
ボルト／ビス
  6
CONTINUOUS
 62
    64
 10
12.269785
 20
-67.751307
 11
12.60197
 21
-68.072217
  0
LINE
  8
ボルト／ビス
  6
CONTINUOUS
 62
    64
 10
12.825615
 20
-67.175937
 11
13.157803
 21
-67.496845
  0
ENDBLK
  0
BLOCK
  2
*GRP_0005
 70
    65
 10
0.0
 20
0.0
  0
LINE
  8
補助線
  6
BYBLOCK
 62
    64
 10
12.626887
 20
-91.48402
 11
12.800577
 21
-91.663825
  0
LINE
  8
補助線
  6
BYBLOCK
 62
    64
 10
12.803635
 20
-91.487078
 11
12.62383
 21
-91.660768
  0
LINE
  8
補助線
  6
BYBLOCK
 62
    64
 10
1.232393
 20
-79.688875
 11
1.058695
 21
-79.509068
  0
LINE
  8
補助線
  6
BYBLOCK
 62
    64
 10
1.235442
 20
-79.512122
 11
1.05564
 21
-79.68582
  0
LINE
  8
補助線
  6
BYBLOCK
 62
    64
 10
-10.33586
 20
-67.713977
 11
-10.509558
 21
-67.534177
  0
LINE
  8
補助線
  6
BYBLOCK
 62
    64
 10
-10.332808
 20
-67.53723
 11
-10.51261
 21
-67.710927
  0
LINE
  8
型材断面
  6
CONTINUOUS
 10
13.960147
 20
-91.065048
 11
13.941822
 21
-92.125547
  0
LINE
  8
型材断面
  6
CONTINUOUS
 10
13.941822
 20
-92.125547
 11
13.222608
 21
-92.820338
  0
LINE
  8
型材断面
  6
CONTINUOUS
 10
13.222608
 20
-92.820338
 11
12.162107
 21
-92.802013
  0
LINE
  8
型材断面
  6
CONTINUOUS
 10
-9.871087
 20
-66.395982
 11
-10.931588
 21
-66.377668
  0
LINE
  8
型材断面
  6
CONTINUOUS
 10
-10.931588
 20
-66.377668
 11
-11.650805
 21
-67.072458
  0
LINE
  8
型材断面
  6
CONTINUOUS
 10
-11.650805
 20
-67.072458
 11
-11.66912
 21
-68.132957
  0
LINE
  8
型材断面
  6
CONTINUOUS
 10
13.960147
 20
-91.065048
 11
-9.870968
 21
-66.395985
  0
LINE
  8
型材断面
  6
CONTINUOUS
 10
12.162107
 20
-92.802013
 11
-11.669117
 21
-68.132848
  0
LINE
  8
ボルト／ビス
  6
CONTINUOUS
 62
    64
 10
13.045923
 20
-91.253013
 11
13.157742
 21
-91.701155
  0
LINE
  8
ボルト／ビス
  6
CONTINUOUS
 62
    64
 10
13.045923
 20
-91.253013
 11
12.601915
 21
-91.125785
  0
LINE
  8
ボルト／ビス
  6
CONTINUOUS
 62
    64
 10
12.381543
 20
-91.894833
 11
12.82555
 21
-92.02206
  0
LINE
  8
ボルト／ビス
  6
CONTINUOUS
 62
    64
 10
12.381543
 20
-91.894833
 11
12.269722
 21
-91.44669
  0
CIRCLE
  8
ボルト／ビス
  6
CONTINUOUS
 62
    64
 10
12.713732
 20
-91.573923
 40
0.4
  0
LINE
  8
ボルト／ビス
  6
CONTINUOUS
 62
    64
 10
12.601915
 20
-91.125785
 11
12.269722
 21
-91.44669
  0
LINE
  8
ボルト／ビス
  6
CONTINUOUS
 62
    64
 10
13.157742
 20
-91.701155
 11
12.82555
 21
-92.02206
  0
LINE
  8
ボルト／ビス
  6
CONTINUOUS
 62
    64
 10
1.477735
 20
-79.278065
 11
1.033722
 21
-79.15083
  0
LINE
  8
ボルト／ビス
  6
CONTINUOUS
 62
    64
 10
1.477735
 20
-79.278065
 11
1.589555
 21
-79.726202
  0
LINE
  8
ボルト／ビス
  6
CONTINUOUS
 62
    64
 10
0.81335
 20
-79.919877
 11
0.701533
 21
-79.471738
  0
LINE
  8
ボルト／ビス
  6
CONTINUOUS
 62
    64
 10
0.81335
 20
-79.919877
 11
1.25736
 21
-80.04711
  0
CIRCLE
  8
ボルト／ビス
  6
CONTINUOUS
 62
    64
 10
1.14554
 20
-79.59897
 40
0.4
  0
LINE
  8
ボルト／ビス
  6
CONTINUOUS
 62
    64
 10
1.589555
 20
-79.726202
 11
1.25736
 21
-80.04711
  0
LINE
  8
ボルト／ビス
  6
CONTINUOUS
 62
    64
 10
1.033722
 20
-79.15083
 11
0.701533
 21
-79.471738
  0
LINE
  8
ボルト／ビス
  6
CONTINUOUS
 62
    64
 10
-10.090517
 20
-67.303168
 11
-10.53453
 21
-67.175937
  0
LINE
  8
ボルト／ビス
  6
CONTINUOUS
 62
    64
 10
-10.090517
 20
-67.303168
 11
-9.9787
 21
-67.751307
  0
LINE
  8
ボルト／ビス
  6
CONTINUOUS
 62
    64
 10
-10.7549
 20
-67.944988
 11
-10.866717
 21
-67.496845
  0
LINE
  8
ボルト／ビス
  6
CONTINUOUS
 62
    64
 10
-10.7549
 20
-67.944988
 11
-10.310885
 21
-68.072217
  0
CIRCLE
  8
ボルト／ビス
  6
CONTINUOUS
 62
    64
 10
-10.422707
 20
-67.624078
 40
0.4
  0
LINE
  8
ボルト／ビス
  6
CONTINUOUS
 62
    64
 10
-9.9787
 20
-67.751307
 11
-10.310885
 21
-68.072217
  0
LINE
  8
ボルト／ビス
  6
CONTINUOUS
 62
    64
 10
-10.53453
 20
-67.175937
 11
-10.866717
 21
-67.496845
  0
ENDBLK
  0
BLOCK
  2
*DIM_0006
 70
    65
 10
0.0
 20
0.0
  0
LINE
  8
寸法
  6
BYBLOCK
 62
     0
 10
-52.830745
 20
-93.998923
 11
-35.109883
 21
-93.998923
  0
LINE
  8
寸法
  6
BYBLOCK
 62
     0
 10
-51.505742
 20
-85.227728
 11
-35.109883
 21
-85.227728
  0
LINE
  8
寸法
  6
BYBLOCK
 62
     0
 10
-35.109883
 20
-93.998923
 11
-35.109883
 21
-85.227728
  0
POINT
  8
寸法
 62
     0
 10
-35.109883
 20
-93.998923
  0
POINT
  8
寸法
 62
     0
 10
-35.109883
 20
-85.227728
  0
TEXT
  7
TextStyle03
  8
寸法
  6
CONTINUOUS
 62
     0
 10
-35.475
 20
-93.775
  1
175.4
 40
3.0
 50
90.0
 72
     5
 11
-35.475
 21
-85.525
  0
ENDBLK
  0
BLOCK
  2
*DIM_0007
 70
    65
 10
0.0
 20
0.0
  0
LINE
  8
寸法
  6
BYBLOCK
 62
     0
 10
-101.03074
 20
-44.096763
 11
-101.03074
 21
-36.435443
  0
LINE
  8
寸法
  6
BYBLOCK
 62
     0
 10
-92.530743
 20
-44.096763
 11
-92.530743
 21
-36.435443
  0
LINE
  8
寸法
  6
BYBLOCK
 62
     0
 10
-101.03074
 20
-36.435443
 11
-92.530743
 21
-36.435443
  0
POINT
  8
寸法
 62
     0
 10
-101.03074
 20
-36.435443
  0
POINT
  8
寸法
 62
     0
 10
-92.530743
 20
-36.435443
  0
TEXT
  7
TextStyle03
  8
寸法
  6
CONTINUOUS
 62
     0
 10
-99.2125
 20
-36.075
  1
170
 40
3.0
 72
     5
 11
-94.3375
 21
-36.075
  0
ENDBLK
  0
BLOCK
  2
*DIM_0008
 70
    65
 10
0.0
 20
0.0
  0
LINE
  8
寸法
  6
BYBLOCK
 62
     0
 10
-86.039607
 20
-40.846763
 11
-85.429658
 21
-40.846763
  0
LINE
  8
寸法
  6
BYBLOCK
 62
     0
 10
-91.530743
 20
-45.096763
 11
-85.429658
 21
-45.096763
  0
LINE
  8
寸法
  6
BYBLOCK
 62
     0
 10
-85.429658
 20
-40.846763
 11
-85.429658
 21
-45.096763
  0
POINT
  8
寸法
 62
     0
 10
-85.429658
 20
-40.846763
  0
POINT
  8
寸法
 62
     0
 10
-85.429658
 20
-45.096763
  0
TEXT
  7
TextStyle03
  8
寸法
  6
CONTINUOUS
 62
     0
 10
-85.775
 20
-44.56875
  1
85
 40
3.0
 50
90.0
 72
     5
 11
-85.775
 21
-41.38125
  0
ENDBLK
  0
BLOCK
  2
*DIM_0009
 70
    65
 10
0.0
 20
0.0
  0
LINE
  8
寸法
  6
BYBLOCK
 62
     0
 10
-95.780743
 20
-40.846763
 11
-35.109883
 21
-40.846763
  0
LINE
  8
寸法
  6
BYBLOCK
 62
     0
 10
-35.109883
 20
-85.227728
 11
-35.109883
 21
-40.846763
  0
POINT
  8
寸法
 62
     0
 10
-35.109883
 20
-85.227728
  0
POINT
  8
寸法
 62
     0
 10
-35.109883
 20
-40.846763
  0
TEXT
  7
TextStyle03
  8
寸法
  6
CONTINUOUS
 62
     0
 10
-35.475
 20
-67.175
  1
887.6
 40
3.0
 50
90.0
 72
     5
 11
-35.475
 21
-58.925
  0
ENDBLK
  0
BLOCK
  2
*DIM_0010
 70
    65
 10
0.0
 20
0.0
  0
LINE
  8
寸法
  6
BYBLOCK
 62
     0
 10
-136.780743
 20
-29.00814
 11
-136.780743
 21
-28.581628
  0
LINE
  8
寸法
  6
BYBLOCK
 62
     0
 10
-56.780742
 20
-29.00814
 11
-56.780742
 21
-28.581628
  0
LINE
  8
寸法
  6
BYBLOCK
 62
     0
 10
-136.780743
 20
-28.581628
 11
-56.780742
 21
-28.581628
  0
POINT
  8
寸法
 62
     0
 10
-136.780743
 20
-28.581628
  0
POINT
  8
寸法
 62
     0
 10
-56.780742
 20
-28.581628
  0
TEXT
  7
TextStyle03
  8
寸法
  6
CONTINUOUS
 62
     0
 10
-108.49375
 20
-28.225
  1
呼称寸法　1600
 40
3.0
 72
     5
 11
-85.05625
 21
-28.225
  0
ENDBLK
  0
BLOCK
  2
*DIM_0011
 70
    65
 10
0.0
 20
0.0
  0
LINE
  8
寸法
  6
BYBLOCK
 62
     0
 10
-52.505742
 20
-84.227728
 11
-52.505742
 21
-28.581628
  0
LINE
  8
寸法
  6
BYBLOCK
 62
     0
 10
-56.780742
 20
-28.581628
 11
-52.505742
 21
-28.581628
  0
POINT
  8
寸法
 62
     0
 10
-52.505742
 20
-28.581628
  0
TEXT
  7
TextStyle03
  8
寸法
  6
CONTINUOUS
 62
     0
 10
-51.15625
 20
-28.225
  1
85.5
 40
3.0
 72
     5
 11
-44.59375
 21
-28.225
  0
ENDBLK
  0
BLOCK
  2
*DIM_0012
 70
    65
 10
0.0
 20
0.0
  0
LINE
  8
寸法
  6
BYBLOCK
 62
     0
 10
-141.055743
 20
-84.227728
 11
-141.055743
 21
-28.581628
  0
LINE
  8
寸法
  6
BYBLOCK
 62
     0
 10
-136.780743
 20
-28.581628
 11
-141.055743
 21
-28.581628
  0
POINT
  8
寸法
 62
     0
 10
-136.780743
 20
-28.581628
  0
POINT
  8
寸法
 62
     0
 10
-141.055743
 20
-28.581628
  0
TEXT
  7
TextStyle03
  8
寸法
  6
CONTINUOUS
 62
     0
 10
-148.93125
 20
-28.225
  1
85.5
 40
3.0
 72
     5
 11
-142.36875
 21
-28.225
  0
ENDBLK
  0
BLOCK
  2
*GRP_0013
 70
    65
 10
0.0
 20
0.0
  0
POLYLINE
  8
寸法
  6
BYBLOCK
 62
     0
 66
     1
  0
VERTEX
  8
寸法
 10
-60.020082
 20
24.059722
  0
VERTEX
  8
寸法
 10
-53.60358
 20
17.64322
  0
VERTEX
  8
寸法
 10
-47.696453
 20
17.64322
  0
SEQEND
  0
ENDBLK
  0
BLOCK
  2
*DIM_0014
 70
    65
 10
0.0
 20
0.0
  0
LINE
  8
寸法
  6
BYBLOCK
 62
     0
 10
-55.780742
 20
77.775753
 11
-38.20147
 21
77.775753
  0
LINE
  8
寸法
  6
BYBLOCK
 62
     0
 10
-47.756868
 20
71.925755
 11
-38.20147
 21
71.925755
  0
LINE
  8
寸法
  6
BYBLOCK
 62
     0
 10
-38.20147
 20
77.775753
 11
-38.20147
 21
71.925755
  0
POINT
  8
寸法
 62
     0
 10
-38.20147
 20
77.775753
  0
POINT
  8
寸法
 62
     0
 10
-38.20147
 20
71.925755
  0
TEXT
  7
TextStyle03
  8
寸法
  6
CONTINUOUS
 62
     0
 10
-38.575
 20
72.3625
  1
117
 40
3.0
 50
90.0
 72
     5
 11
-38.575
 21
77.2375
  0
ENDBLK
  0
BLOCK
  2
*DIM_0015
 70
    65
 10
0.0
 20
0.0
  0
LINE
  8
寸法
  6
BYBLOCK
 62
     0
 10
-55.780742
 20
-2.224248
 11
-38.20147
 21
-2.224248
  0
LINE
  8
寸法
  6
BYBLOCK
 62
     0
 10
-47.756868
 20
3.62575
 11
-38.20147
 21
3.62575
  0
LINE
  8
寸法
  6
BYBLOCK
 62
     0
 10
-38.20147
 20
-2.224248
 11
-38.20147
 21
3.62575
  0
POINT
  8
寸法
 62
     0
 10
-38.20147
 20
-2.224248
  0
POINT
  8
寸法
 62
     0
 10
-38.20147
 20
3.62575
  0
TEXT
  7
TextStyle03
  8
寸法
  6
CONTINUOUS
 62
     0
 10
-38.575
 20
-1.7625
  1
117
 40
3.0
 50
90.0
 72
     5
 11
-38.575
 21
3.1125
  0
ENDBLK
  0
BLOCK
  2
*GRP_0016
 70
    65
 10
0.0
 20
0.0
  0
POLYLINE
  8
寸法
  6
BYBLOCK
 62
     0
 66
     1
  0
VERTEX
  8
寸法
 10
-133.541403
 20
58.916783
  0
VERTEX
  8
寸法
 10
-139.957905
 20
65.333285
  0
VERTEX
  8
寸法
 10
-145.865032
 20
65.333285
  0
SEQEND
  0
ENDBLK
  0
BLOCK
  2
*DIM_0017
 70
    65
 10
0.0
 20
0.0
  0
LINE
  8
寸法
  6
BYBLOCK
 62
     0
 10
-161.375742
 20
55.275753
 11
-172.199042
 21
55.275753
  0
LINE
  8
寸法
  6
BYBLOCK
 62
     0
 10
-161.375742
 20
20.275753
 11
-172.199042
 21
20.275753
  0
LINE
  8
寸法
  6
BYBLOCK
 62
     0
 10
-172.199042
 20
55.275753
 11
-172.199042
 21
20.275753
  0
POINT
  8
寸法
 62
     0
 10
-172.199042
 20
55.275753
  0
POINT
  8
寸法
 62
     0
 10
-172.199042
 20
20.275753
  0
TEXT
  7
TextStyle03
  8
寸法
  6
CONTINUOUS
 62
     0
 10
-172.5
 20
35.3125
  1
700
 40
3.0
 50
90.0
 72
     5
 11
-172.5
 21
40.1875
  0
ENDBLK
  0
BLOCK
  2
*DIM_0018
 70
    65
 10
0.0
 20
0.0
  0
LINE
  8
寸法
  6
BYBLOCK
 62
     0
 10
-126.780743
 20
106.877578
 11
-126.780743
 21
114.653088
  0
LINE
  8
寸法
  6
BYBLOCK
 62
     0
 10
-96.780743
 20
106.877578
 11
-96.780743
 21
114.653088
  0
LINE
  8
寸法
  6
BYBLOCK
 62
     0
 10
-126.780743
 20
114.653088
 11
-96.780743
 21
114.653088
  0
POINT
  8
寸法
 62
     0
 10
-126.780743
 20
114.653088
  0
POINT
  8
寸法
 62
     0
 10
-96.780743
 20
114.653088
  0
TEXT
  7
TextStyle03
  8
寸法
  6
CONTINUOUS
 62
     0
 10
-114.2125
 20
115.0
  1
600
 40
3.0
 72
     5
 11
-109.3375
 21
115.0
  0
ENDBLK
  0
BLOCK
  2
*DIM_0019
 70
    65
 10
0.0
 20
0.0
  0
LINE
  8
寸法
  6
BYBLOCK
 62
     0
 10
-66.780743
 20
106.877578
 11
-66.780743
 21
114.653088
  0
LINE
  8
寸法
  6
BYBLOCK
 62
     0
 10
-96.780743
 20
114.653088
 11
-66.780743
 21
114.653088
  0
POINT
  8
寸法
 62
     0
 10
-66.780743
 20
114.653088
  0
TEXT
  7
TextStyle03
  8
寸法
  6
CONTINUOUS
 62
     0
 10
-84.2125
 20
115.0
  1
600
 40
3.0
 72
     5
 11
-79.3375
 21
115.0
  0
ENDBLK
  0
BLOCK
  2
*DIM_0020
 70
    65
 10
0.0
 20
0.0
  0
LINE
  8
寸法
  6
BYBLOCK
 62
     0
 10
81.206107
 20
-1.53553
 11
81.206107
 21
-15.801567
  0
LINE
  8
寸法
  6
BYBLOCK
 62
     0
 10
162.826108
 20
-1.53553
 11
162.826108
 21
-15.801567
  0
LINE
  8
寸法
  6
BYBLOCK
 62
     0
 10
81.206107
 20
-15.801567
 11
162.826108
 21
-15.801567
  0
POINT
  8
寸法
 62
     0
 10
81.206107
 20
-15.801567
  0
POINT
  8
寸法
 62
     0
 10
162.826108
 20
-15.801567
  0
TEXT
  7
TextStyle03
  8
寸法
  6
CONTINUOUS
 62
     0
 10
117.03125
 20
-15.45
  1
1632.4
 40
3.0
 72
     5
 11
126.96875
 21
-15.45
  0
ENDBLK
  0
BLOCK
  2
*DIM_0021
 70
    65
 10
0.0
 20
0.0
  0
LINE
  8
寸法
  6
BYBLOCK
 62
     0
 10
165.826108
 20
1.46447
 11
177.796735
 21
1.46447
  0
LINE
  8
寸法
  6
BYBLOCK
 62
     0
 10
125.016108
 20
59.178283
 11
177.796735
 21
59.178283
  0
LINE
  8
寸法
  6
BYBLOCK
 62
     0
 10
177.796735
 20
1.46447
 11
177.796735
 21
59.178283
  0
POINT
  8
寸法
 62
     0
 10
177.796735
 20
1.46447
  0
POINT
  8
寸法
 62
     0
 10
177.796735
 20
59.178283
  0
TEXT
  7
TextStyle03
  8
寸法
  6
CONTINUOUS
 62
     0
 10
177.4
 20
25.33125
  1
1154.3
 40
3.0
 50
90.0
 72
     5
 11
177.4
 21
35.26875
  0
ENDBLK
  0
BLOCK
  2
*DIM_0022
 70
    65
 10
0.0
 20
0.0
  0
LINE
  8
寸法
  6
BYBLOCK
 62
     0
 10
71.997352
 20
-70.05796
 11
83.632323
 21
-70.05796
  0
LINE
  8
寸法
  6
BYBLOCK
 62
     0
 10
71.997352
 20
-90.05796
 11
83.632323
 21
-90.05796
  0
LINE
  8
寸法
  6
BYBLOCK
 62
     0
 10
83.632323
 20
-70.05796
 11
83.632323
 21
-90.05796
  0
POINT
  8
寸法
 62
     0
 10
83.632323
 20
-70.05796
  0
POINT
  8
寸法
 62
     0
 10
83.632323
 20
-90.05796
  0
TEXT
  7
TextStyle03
  8
寸法
  6
CONTINUOUS
 62
     0
 10
83.25
 20
-89.16875
  1
上昇335以上
 40
3.0
 50
90.0
 72
     5
 11
83.25
 21
-70.98125
  0
ENDBLK
  0
ENDSEC
  0
SECTION
  2
ENTITIES
  0
POLYLINE
  8
通り芯
  6
CONTINUOUS
 66
     1
 70
     1
  0
VERTEX
  8
通り芯
 10
-210.0
 20
-148.5
  0
VERTEX
  8
通り芯
 10
210.0
 20
-148.5
  0
VERTEX
  8
通り芯
 10
210.0
 20
148.5
  0
VERTEX
  8
通り芯
 10
-210.0
 20
148.5
  0
SEQEND
  0
INSERT
  2
*GRP_0001
  8
型材断面
  6
CONTINUOUS
 10
0.0
 20
0.0
  0
LINE
  8
型材断面
  6
CONTINUOUS
 10
-52.806513
 20
-84.926955
 11
-52.505742
 21
-85.227728
  0
LINE
  8
型材断面
  6
CONTINUOUS
 10
-52.505742
 20
-86.573923
 11
-52.505742
 21
-85.227728
  0
LINE
  8
型材断面
  6
CONTINUOUS
 62
    47
 10
-52.505742
 20
-87.273923
 11
-52.505742
 21
-86.573923
  0
LINE
  8
型材断面
  6
CONTINUOUS
 62
    47
 10
-53.180742
 20
-87.273923
 11
-53.180742
 21
-87.773923
  0
LINE
  8
型材断面
  6
CONTINUOUS
 62
    47
 10
-54.150018
 20
-83.583453
 11
-52.806513
 21
-84.926955
  0
LINE
  8
型材断面
  6
CONTINUOUS
 10
-54.50357
 20
-83.2299
 11
-58.053475
 21
-83.2299
  0
LINE
  8
型材断面
  6
CONTINUOUS
 62
    47
 10
-53.360743
 20
-90.05796
 11
-53.360743
 21
-89.55796
  0
LINE
  8
型材断面
  6
CONTINUOUS
 62
    47
 10
-53.360743
 20
-89.55796
 11
-54.535743
 21
-89.40796
  0
LINE
  8
型材断面
  6
CONTINUOUS
 62
    47
 10
-54.535743
 20
-88.798923
 11
-54.535743
 21
-89.40796
  0
LINE
  8
型材断面
  6
CONTINUOUS
 62
    47
 10
-53.830745
 20
-88.798923
 11
-53.830745
 21
-87.773923
  0
LINE
  8
型材断面
  6
CONTINUOUS
 62
    47
 10
-53.830745
 20
-93.998923
 11
-53.830745
 21
-90.05796
  0
LINE
  8
型材断面
  6
CONTINUOUS
 62
    47
 10
-54.680745
 20
-94.748923
 11
-54.680745
 21
-93.998923
  0
LINE
  8
型材断面
  6
CONTINUOUS
 10
-57.77063
 20
-4.501422
 11
-54.50357
 21
-4.501422
  0
LINE
  8
型材断面
  6
CONTINUOUS
 10
-54.50357
 20
-4.501422
 11
-54.50357
 21
-1.234363
  0
LINE
  8
型材断面
  6
CONTINUOUS
 10
-54.150018
 20
-83.583453
 11
-96.780743
 21
-40.952728
  0
LINE
  8
型材断面
  6
CONTINUOUS
 10
-92.530743
 20
-45.096763
 11
-96.780743
 21
-45.096763
  0
LINE
  8
型材断面
  6
CONTINUOUS
 10
-101.03074
 20
-45.096763
 11
-96.780743
 21
-45.096763
  0
LINE
  8
型材断面
  6
CONTINUOUS
 10
-100.977758
 20
-45.149745
 11
-96.780743
 21
-45.149745
  0
LINE
  8
型材断面
  6
CONTINUOUS
 10
-96.780743
 20
-40.846763
 11
-92.530743
 21
-45.096763
  0
LINE
  8
型材断面
  6
CONTINUOUS
 10
-96.780743
 20
-40.846763
 11
-101.03074
 21
-45.096763
  0
LINE
  8
型材断面
  6
CONTINUOUS
 10
-92.583727
 20
-45.149745
 11
-96.780743
 21
-45.149745
  0
LINE
  8
型材断面
  6
CONTINUOUS
 10
-101.03074
 20
-45.096763
 11
-100.977758
 21
-45.149745
  0
LINE
  8
型材断面
  6
CONTINUOUS
 10
-92.583727
 20
-45.149745
 11
-92.530743
 21
-45.096763
  0
LINE
  8
型材断面
  6
CONTINUOUS
 10
-57.770633
 20
-83.2299
 11
-95.850778
 21
-45.149745
  0
LINE
  8
型材断面
  6
CONTINUOUS
 10
-58.053475
 20
-83.2299
 11
-96.13362
 21
-45.149745
  0
LINE
  8
型材断面
  6
CONTINUOUS
 10
-54.857125
 20
-83.2299
 11
-92.93728
 21
-45.149745
  0
LINE
  8
型材断面
  6
CONTINUOUS
 62
    47
 10
-54.680745
 20
-94.748923
 11
-96.780743
 21
-94.748923
  0
LINE
  8
型材断面
  6
CONTINUOUS
 62
    47
 10
-53.830745
 20
-93.998923
 11
-96.780743
 21
-93.998923
  0
LINE
  8
型材断面
  6
CONTINUOUS
 62
    47
 10
-53.360743
 20
-90.05796
 11
-96.780743
 21
-90.05796
  0
LINE
  8
型材断面
  6
CONTINUOUS
 10
-54.535743
 20
-89.40796
 11
-96.780743
 21
-89.40796
  0
LINE
  8
型材断面
  6
CONTINUOUS
 10
-53.360743
 20
-89.55796
 11
-96.780743
 21
-89.55796
  0
LINE
  8
型材断面
  6
CONTINUOUS
 62
    47
 10
-53.830745
 20
-88.798923
 11
-96.780743
 21
-88.798923
  0
LINE
  8
型材断面
  6
CONTINUOUS
 10
-52.505742
 20
-87.273923
 11
-96.780743
 21
-87.273923
  0
LINE
  8
型材断面
  6
CONTINUOUS
 10
-52.505742
 20
-86.573923
 11
-96.780743
 21
-86.573923
  0
LINE
  8
型材断面
  6
CONTINUOUS
 10
-53.180742
 20
-87.773923
 11
-96.780743
 21
-87.773923
  0
LINE
  8
型材断面
  6
CONTINUOUS
 10
-52.505742
 20
-85.227728
 11
-96.780743
 21
-85.227728
  0
LINE
  8
型材断面
  6
CONTINUOUS
 10
-52.806513
 20
-84.926955
 11
-96.780743
 21
-84.926955
  0
LINE
  8
型材断面
  6
CONTINUOUS
 10
-53.160067
 20
-84.573402
 11
-96.780743
 21
-84.573402
  0
LINE
  8
型材断面
  6
CONTINUOUS
 10
-54.150018
 20
-83.583453
 11
-96.780743
 21
-83.583453
  0
LINE
  8
型材断面
  6
CONTINUOUS
 10
-140.754972
 20
-84.926955
 11
-141.055743
 21
-85.227728
  0
LINE
  8
型材断面
  6
CONTINUOUS
 10
-141.055743
 20
-86.573923
 11
-141.055743
 21
-85.227728
  0
LINE
  8
型材断面
  6
CONTINUOUS
 62
    47
 10
-141.055743
 20
-87.273923
 11
-141.055743
 21
-86.573923
  0
LINE
  8
型材断面
  6
CONTINUOUS
 62
    47
 10
-140.380743
 20
-87.273923
 11
-140.380743
 21
-87.773923
  0
LINE
  8
型材断面
  6
CONTINUOUS
 62
    47
 10
-139.411467
 20
-83.583453
 11
-140.754972
 21
-84.926955
  0
LINE
  8
型材断面
  6
CONTINUOUS
 10
-139.057915
 20
-83.2299
 11
-135.50801
 21
-83.2299
  0
LINE
  8
型材断面
  6
CONTINUOUS
 62
    47
 10
-140.200742
 20
-90.05796
 11
-140.200742
 21
-89.55796
  0
LINE
  8
型材断面
  6
CONTINUOUS
 62
    47
 10
-140.200742
 20
-89.55796
 11
-139.025742
 21
-89.40796
  0
LINE
  8
型材断面
  6
CONTINUOUS
 62
    47
 10
-139.025742
 20
-88.798923
 11
-139.025742
 21
-89.40796
  0
LINE
  8
型材断面
  6
CONTINUOUS
 62
    47
 10
-139.73074
 20
-88.798923
 11
-139.73074
 21
-87.773923
  0
LINE
  8
型材断面
  6
CONTINUOUS
 62
    47
 10
-139.73074
 20
-93.998923
 11
-139.73074
 21
-90.05796
  0
LINE
  8
型材断面
  6
CONTINUOUS
 62
    47
 10
-138.88074
 20
-94.748923
 11
-138.88074
 21
-93.998923
  0
LINE
  8
型材断面
  6
CONTINUOUS
 10
-139.411467
 20
-83.583453
 11
-96.780743
 21
-40.952728
  0
LINE
  8
型材断面
  6
CONTINUOUS
 10
-135.790852
 20
-83.2299
 11
-97.710707
 21
-45.149745
  0
LINE
  8
型材断面
  6
CONTINUOUS
 10
-135.50801
 20
-83.2299
 11
-97.427865
 21
-45.149745
  0
LINE
  8
型材断面
  6
CONTINUOUS
 10
-138.70436
 20
-83.2299
 11
-100.624205
 21
-45.149745
  0
LINE
  8
型材断面
  6
CONTINUOUS
 62
    47
 10
-138.88074
 20
-94.748923
 11
-96.780743
 21
-94.748923
  0
LINE
  8
型材断面
  6
CONTINUOUS
 62
    47
 10
-139.73074
 20
-93.998923
 11
-96.780743
 21
-93.998923
  0
LINE
  8
型材断面
  6
CONTINUOUS
 62
    47
 10
-140.200742
 20
-90.05796
 11
-96.780743
 21
-90.05796
  0
LINE
  8
型材断面
  6
CONTINUOUS
 10
-139.025742
 20
-89.40796
 11
-96.780743
 21
-89.40796
  0
LINE
  8
型材断面
  6
CONTINUOUS
 10
-140.200742
 20
-89.55796
 11
-96.780743
 21
-89.55796
  0
LINE
  8
型材断面
  6
CONTINUOUS
 62
    47
 10
-139.73074
 20
-88.798923
 11
-96.780743
 21
-88.798923
  0
LINE
  8
型材断面
  6
CONTINUOUS
 10
-141.055743
 20
-87.273923
 11
-96.780743
 21
-87.273923
  0
LINE
  8
型材断面
  6
CONTINUOUS
 10
-141.055743
 20
-86.573923
 11
-96.780743
 21
-86.573923
  0
LINE
  8
型材断面
  6
CONTINUOUS
 10
-140.380743
 20
-87.773923
 11
-96.780743
 21
-87.773923
  0
LINE
  8
型材断面
  6
CONTINUOUS
 10
-141.055743
 20
-85.227728
 11
-96.780743
 21
-85.227728
  0
LINE
  8
型材断面
  6
CONTINUOUS
 10
-140.754972
 20
-84.926955
 11
-96.780743
 21
-84.926955
  0
LINE
  8
型材断面
  6
CONTINUOUS
 10
-140.401418
 20
-84.573402
 11
-96.780743
 21
-84.573402
  0
LINE
  8
型材断面
  6
CONTINUOUS
 10
-139.411467
 20
-83.583453
 11
-96.780743
 21
-83.583453
  0
LINE
  8
型材断面
  6
DASHDOT
 10
-56.780742
 20
-2.224248
 11
-136.780743
 21
-2.224248
  0
LINE
  8
型材断面
  6
DASHDOT
 10
-136.780743
 20
-94.748923
 11
-136.780743
 21
77.775753
  0
LINE
  8
型材断面
  6
DASHDOT
 10
-96.780743
 20
-94.748923
 11
-96.780743
 21
77.775753
  0
LINE
  8
型材断面
  6
DASHDOT
 10
-56.780742
 20
-94.748923
 11
-56.780742
 21
77.775753
  0
LINE
  8
型材断面
  6
DASHDOT
 10
-56.780742
 20
37.775753
 11
-136.780743
 21
37.775753
  0
LINE
  8
型材断面
  6
DASHDOT
 10
-56.780742
 20
77.775753
 11
-136.780743
 21
77.775753
  0
LINE
  8
型材断面
  6
CONTINUOUS
 10
-54.150018
 20
-4.854975
 11
-54.150018
 21
37.775753
  0
LINE
  8
型材断面
  6
CONTINUOUS
 10
-54.43286
 20
-4.572133
 11
-54.43286
 21
37.775753
  0
LINE
  8
型材断面
  6
CONTINUOUS
 10
-52.505742
 20
-6.499248
 11
-52.505742
 21
37.775753
  0
LINE
  8
型材断面
  6
CONTINUOUS
 10
-52.806513
 20
-6.198477
 11
-52.806513
 21
37.775753
  0
LINE
  8
型材断面
  6
CONTINUOUS
 10
-53.160067
 20
-5.844925
 11
-53.160067
 21
37.775753
  0
LINE
  8
型材断面
  6
CONTINUOUS
 10
-53.160067
 20
-5.844925
 11
-96.780743
 21
-5.844925
  0
LINE
  8
型材断面
  6
CONTINUOUS
 10
-54.43286
 20
-4.572133
 11
-96.780743
 21
-4.572133
  0
LINE
  8
型材断面
  6
CONTINUOUS
 10
-54.150018
 20
-4.854975
 11
-96.780743
 21
-4.854975
  0
LINE
  8
型材断面
  6
CONTINUOUS
 10
-52.806513
 20
-6.198477
 11
-96.780743
 21
-6.198477
  0
LINE
  8
型材断面
  6
CONTINUOUS
 10
-52.505742
 20
-6.499248
 11
-96.780743
 21
-6.499248
  0
LINE
  8
型材断面
  6
CONTINUOUS
 10
-96.780743
 20
33.525753
 11
-92.530743
 21
33.525753
  0
LINE
  8
型材断面
  6
CONTINUOUS
 10
-92.530743
 20
37.775753
 11
-92.530743
 21
33.525753
  0
LINE
  8
型材断面
  6
CONTINUOUS
 10
-92.530743
 20
33.525753
 11
-96.780743
 21
37.775753
  0
LINE
  8
型材断面
  6
CONTINUOUS
 10
-57.77063
 20
-4.501422
 11
-95.797795
 21
33.525753
  0
LINE
  8
型材断面
  6
CONTINUOUS
 10
-54.857122
 20
-4.501422
 11
-92.884288
 21
33.525753
  0
LINE
  8
型材断面
  6
DASHDOT
 10
-52.505742
 20
-6.499248
 11
-92.530743
 21
33.525753
  0
LINE
  8
型材断面
  6
CONTINUOUS
 10
-54.50357
 20
-4.147868
 11
-92.530743
 21
33.879315
  0
LINE
  8
型材断面
  6
CONTINUOUS
 10
-54.50357
 20
-1.234363
 11
-92.530743
 21
36.792817
  0
LINE
  8
型材断面
  6
CONTINUOUS
 10
-57.77063
 20
80.052928
 11
-54.50357
 21
80.052928
  0
LINE
  8
型材断面
  6
CONTINUOUS
 10
-54.50357
 20
80.052928
 11
-54.50357
 21
76.785867
  0
LINE
  8
型材断面
  6
CONTINUOUS
 10
-54.150018
 20
80.40648
 11
-54.150018
 21
37.775753
  0
LINE
  8
型材断面
  6
CONTINUOUS
 10
-54.43286
 20
80.123638
 11
-54.43286
 21
37.775753
  0
LINE
  8
型材断面
  6
CONTINUOUS
 10
-52.505742
 20
82.050753
 11
-52.505742
 21
37.775753
  0
LINE
  8
型材断面
  6
CONTINUOUS
 10
-52.806513
 20
81.749983
 11
-52.806513
 21
37.775753
  0
LINE
  8
型材断面
  6
CONTINUOUS
 10
-53.160067
 20
81.39643
 11
-53.160067
 21
37.775753
  0
LINE
  8
型材断面
  6
CONTINUOUS
 10
-53.160067
 20
81.39643
 11
-96.780743
 21
81.39643
  0
LINE
  8
型材断面
  6
CONTINUOUS
 10
-54.43286
 20
80.123638
 11
-96.780743
 21
80.123638
  0
LINE
  8
型材断面
  6
CONTINUOUS
 10
-54.150018
 20
80.40648
 11
-96.780743
 21
80.40648
  0
LINE
  8
型材断面
  6
CONTINUOUS
 10
-52.806513
 20
81.749983
 11
-96.780743
 21
81.749983
  0
LINE
  8
型材断面
  6
CONTINUOUS
 10
-52.505742
 20
82.050753
 11
-96.780743
 21
82.050753
  0
LINE
  8
型材断面
  6
CONTINUOUS
 10
-96.780743
 20
42.025753
 11
-92.530743
 21
42.025753
  0
LINE
  8
型材断面
  6
CONTINUOUS
 10
-92.530743
 20
37.775753
 11
-92.530743
 21
42.025753
  0
LINE
  8
型材断面
  6
CONTINUOUS
 10
-92.530743
 20
42.025753
 11
-96.780743
 21
37.775753
  0
LINE
  8
型材断面
  6
CONTINUOUS
 10
-57.77063
 20
80.052928
 11
-95.797795
 21
42.025753
  0
LINE
  8
型材断面
  6
CONTINUOUS
 10
-54.857122
 20
80.052928
 11
-92.884288
 21
42.025753
  0
LINE
  8
型材断面
  6
DASHDOT
 10
-52.505742
 20
82.050753
 11
-92.530743
 21
42.025753
  0
LINE
  8
型材断面
  6
CONTINUOUS
 10
-54.50357
 20
79.699373
 11
-92.530743
 21
41.67219
  0
LINE
  8
型材断面
  6
CONTINUOUS
 10
-54.50357
 20
76.785867
 11
-92.530743
 21
38.758688
  0
LINE
  8
型材断面
  6
CONTINUOUS
 10
-135.790855
 20
80.052928
 11
-139.057915
 21
80.052928
  0
LINE
  8
型材断面
  6
CONTINUOUS
 10
-139.057915
 20
80.052928
 11
-139.057915
 21
76.785867
  0
LINE
  8
型材断面
  6
CONTINUOUS
 10
-139.411467
 20
80.40648
 11
-139.411467
 21
37.775753
  0
LINE
  8
型材断面
  6
CONTINUOUS
 10
-139.128625
 20
80.123638
 11
-139.128625
 21
37.775753
  0
LINE
  8
型材断面
  6
CONTINUOUS
 10
-141.055743
 20
82.050753
 11
-141.055743
 21
37.775753
  0
LINE
  8
型材断面
  6
CONTINUOUS
 10
-140.754972
 20
81.749983
 11
-140.754972
 21
37.775753
  0
LINE
  8
型材断面
  6
CONTINUOUS
 10
-140.401418
 20
81.39643
 11
-140.401418
 21
37.775753
  0
LINE
  8
型材断面
  6
CONTINUOUS
 10
-140.401418
 20
81.39643
 11
-96.780743
 21
81.39643
  0
LINE
  8
型材断面
  6
CONTINUOUS
 10
-139.128625
 20
80.123638
 11
-96.780743
 21
80.123638
  0
LINE
  8
型材断面
  6
CONTINUOUS
 10
-139.411467
 20
80.40648
 11
-96.780743
 21
80.40648
  0
LINE
  8
型材断面
  6
CONTINUOUS
 10
-140.754972
 20
81.749983
 11
-96.780743
 21
81.749983
  0
LINE
  8
型材断面
  6
CONTINUOUS
 10
-141.055743
 20
82.050753
 11
-96.780743
 21
82.050753
  0
LINE
  8
型材断面
  6
CONTINUOUS
 10
-96.780743
 20
42.025753
 11
-101.030743
 21
42.025753
  0
LINE
  8
型材断面
  6
CONTINUOUS
 10
-101.030743
 20
37.775753
 11
-101.030743
 21
42.025753
  0
LINE
  8
型材断面
  6
CONTINUOUS
 10
-101.030743
 20
42.025753
 11
-96.780743
 21
37.775753
  0
LINE
  8
型材断面
  6
CONTINUOUS
 10
-135.790855
 20
80.052928
 11
-97.76369
 21
42.025753
  0
LINE
  8
型材断面
  6
CONTINUOUS
 10
-138.704363
 20
80.052928
 11
-100.677197
 21
42.025753
  0
LINE
  8
型材断面
  6
DASHDOT
 10
-141.055743
 20
82.050753
 11
-101.030743
 21
42.025753
  0
LINE
  8
型材断面
  6
CONTINUOUS
 10
-139.057915
 20
79.699373
 11
-101.030743
 21
41.67219
  0
LINE
  8
型材断面
  6
CONTINUOUS
 10
-139.057915
 20
76.785867
 11
-101.030743
 21
38.758688
  0
LINE
  8
型材断面
  6
CONTINUOUS
 10
-135.790855
 20
-4.501422
 11
-139.057915
 21
-4.501422
  0
LINE
  8
型材断面
  6
CONTINUOUS
 10
-139.057915
 20
-4.501422
 11
-139.057915
 21
-1.234363
  0
LINE
  8
型材断面
  6
CONTINUOUS
 10
-139.411467
 20
-4.854975
 11
-139.411467
 21
37.775753
  0
LINE
  8
型材断面
  6
CONTINUOUS
 10
-139.128625
 20
-4.572133
 11
-139.128625
 21
37.775753
  0
LINE
  8
型材断面
  6
CONTINUOUS
 10
-141.055743
 20
-6.499248
 11
-141.055743
 21
37.775753
  0
LINE
  8
型材断面
  6
CONTINUOUS
 10
-140.754972
 20
-6.198477
 11
-140.754972
 21
37.775753
  0
LINE
  8
型材断面
  6
CONTINUOUS
 10
-140.401418
 20
-5.844925
 11
-140.401418
 21
37.775753
  0
LINE
  8
型材断面
  6
CONTINUOUS
 10
-140.401418
 20
-5.844925
 11
-96.780743
 21
-5.844925
  0
LINE
  8
型材断面
  6
CONTINUOUS
 10
-139.128625
 20
-4.572133
 11
-96.780743
 21
-4.572133
  0
LINE
  8
型材断面
  6
CONTINUOUS
 10
-139.411467
 20
-4.854975
 11
-96.780743
 21
-4.854975
  0
LINE
  8
型材断面
  6
CONTINUOUS
 10
-140.754972
 20
-6.198477
 11
-96.780743
 21
-6.198477
  0
LINE
  8
型材断面
  6
CONTINUOUS
 10
-141.055743
 20
-6.499248
 11
-96.780743
 21
-6.499248
  0
LINE
  8
型材断面
  6
CONTINUOUS
 10
-96.780743
 20
33.525753
 11
-101.030743
 21
33.525753
  0
LINE
  8
型材断面
  6
CONTINUOUS
 10
-101.030743
 20
37.775753
 11
-101.030743
 21
33.525753
  0
LINE
  8
型材断面
  6
CONTINUOUS
 10
-101.030743
 20
33.525753
 11
-96.780743
 21
37.775753
  0
LINE
  8
型材断面
  6
CONTINUOUS
 10
-135.790855
 20
-4.501422
 11
-97.76369
 21
33.525753
  0
LINE
  8
型材断面
  6
CONTINUOUS
 10
-138.704363
 20
-4.501422
 11
-100.677197
 21
33.525753
  0
LINE
  8
型材断面
  6
DASHDOT
 10
-141.055743
 20
-6.499248
 11
-101.030743
 21
33.525753
  0
LINE
  8
型材断面
  6
CONTINUOUS
 10
-139.057915
 20
-4.147868
 11
-101.030743
 21
33.879315
  0
LINE
  8
型材断面
  6
CONTINUOUS
 10
-139.057915
 20
-1.234363
 11
-101.030743
 21
36.792817
  0
LINE
  8
型材断面
  6
CONTINUOUS
 10
-96.780743
 20
-10.248125
 11
-99.024187
 21
-14.133885
  0
LINE
  8
型材断面
  6
CONTINUOUS
 10
-96.780743
 20
-10.248125
 11
-94.537298
 21
-14.133885
  0
LINE
  8
型材断面
  6
CONTINUOUS
 10
-94.537298
 20
-14.133885
 11
-99.024187
 21
-14.133885
  0
LINE
  8
型材断面
  6
CONTINUOUS
 10
-96.780743
 20
85.79963
 11
-99.024187
 21
89.68539
  0
LINE
  8
型材断面
  6
CONTINUOUS
 10
-96.780743
 20
85.79963
 11
-94.537298
 21
89.68539
  0
LINE
  8
型材断面
  6
CONTINUOUS
 10
-94.537298
 20
89.68539
 11
-99.024187
 21
89.68539
  0
LINE
  8
型材断面
  6
CONTINUOUS
 10
-48.756865
 20
37.775755
 11
-44.871105
 21
35.53231
  0
LINE
  8
型材断面
  6
CONTINUOUS
 10
-48.756865
 20
37.775755
 11
-44.871105
 21
40.0192
  0
LINE
  8
型材断面
  6
CONTINUOUS
 10
-44.871105
 20
40.0192
 11
-44.871105
 21
35.53231
  0
LINE
  8
型材断面
  6
CONTINUOUS
 10
-144.80462
 20
37.775755
 11
-148.69038
 21
35.53231
  0
LINE
  8
型材断面
  6
CONTINUOUS
 10
-144.80462
 20
37.775755
 11
-148.69038
 21
40.0192
  0
LINE
  8
型材断面
  6
CONTINUOUS
 10
-148.69038
 20
40.0192
 11
-148.69038
 21
35.53231
  0
LINE
  8
型材断面
  6
DOT
 10
-62.020082
 20
77.775755
 11
-62.020082
 21
-2.22425
  0
LINE
  8
型材断面
  6
DOT
 10
-60.020082
 20
77.775755
 11
-60.020082
 21
-2.22425
  0
LINE
  8
型材断面
  6
DOT
 10
-131.541403
 20
77.775755
 11
-131.541403
 21
-2.22425
  0
LINE
  8
型材断面
  6
DOT
 10
-133.541403
 20
77.775755
 11
-133.541403
 21
-2.22425
  0
LINE
  8
型材断面
  6
CONTINUOUS
 10
-48.756868
 20
71.925755
 11
-44.871108
 21
71.03167
  0
LINE
  8
型材断面
  6
CONTINUOUS
 10
-48.756868
 20
71.925755
 11
-44.871108
 21
72.81984
  0
LINE
  8
型材断面
  6
CONTINUOUS
 10
-44.871108
 20
72.81984
 11
-44.871108
 21
71.03167
  0
LINE
  8
型材断面
  6
CONTINUOUS
 10
-48.756868
 20
3.62575
 11
-44.871108
 21
4.519835
  0
LINE
  8
型材断面
  6
CONTINUOUS
 10
-48.756868
 20
3.62575
 11
-44.871108
 21
2.731665
  0
LINE
  8
型材断面
  6
CONTINUOUS
 10
-44.871108
 20
2.731665
 11
-44.871108
 21
4.519835
  0
LINE
  8
型材断面
  6
CONTINUOUS
 10
-144.804618
 20
3.62575
 11
-148.690377
 21
4.519835
  0
LINE
  8
型材断面
  6
CONTINUOUS
 10
-144.804618
 20
3.62575
 11
-148.690377
 21
2.731665
  0
LINE
  8
型材断面
  6
CONTINUOUS
 10
-148.690377
 20
2.731665
 11
-148.690377
 21
4.519835
  0
LINE
  8
型材断面
  6
CONTINUOUS
 10
-144.804618
 20
71.925755
 11
-148.690377
 21
71.03167
  0
LINE
  8
型材断面
  6
CONTINUOUS
 10
-144.804618
 20
71.925755
 11
-148.690377
 21
72.81984
  0
LINE
  8
型材断面
  6
CONTINUOUS
 10
-148.690377
 20
72.81984
 11
-148.690377
 21
71.03167
  0
POLYLINE
  8
型材断面
  6
CONTINUOUS
 66
     1
 70
     1
  0
VERTEX
  8
型材断面
 10
-87.445425
 20
-15.453982
  0
VERTEX
  8
型材断面
 10
-106.000638
 20
-15.453982
  0
VERTEX
  8
型材断面
 10
-106.000638
 20
-20.246018
  0
VERTEX
  8
型材断面
 10
-87.445425
 20
-20.246018
  0
SEQEND
  0
POLYLINE
  8
型材断面
  6
CONTINUOUS
 66
     1
 70
     1
  0
VERTEX
  8
型材断面
 10
-87.445425
 20
96.461643
  0
VERTEX
  8
型材断面
 10
-106.000638
 20
96.461643
  0
VERTEX
  8
型材断面
 10
-106.000638
 20
91.669607
  0
VERTEX
  8
型材断面
 10
-87.445425
 20
91.669607
  0
SEQEND
  0
LINE
  8
型材断面
  6
CONTINUOUS
 10
71.551583
 20
-84.926955
 11
71.852353
 21
-85.227728
  0
LINE
  8
型材断面
  6
CONTINUOUS
 10
71.852353
 20
-86.573923
 11
71.852353
 21
-85.227728
  0
LINE
  8
型材断面
  6
CONTINUOUS
 62
    47
 10
71.852353
 20
-87.273923
 11
71.852353
 21
-86.573923
  0
LINE
  8
型材断面
  6
CONTINUOUS
 62
    47
 10
71.177353
 20
-87.273923
 11
71.177353
 21
-87.773923
  0
LINE
  8
型材断面
  6
CONTINUOUS
 62
    47
 10
70.208078
 20
-83.583453
 11
71.551583
 21
-84.926955
  0
LINE
  8
型材断面
  6
CONTINUOUS
 10
69.854525
 20
-83.2299
 11
66.30462
 21
-83.2299
  0
LINE
  8
型材断面
  6
CONTINUOUS
 62
    47
 10
70.997352
 20
-90.05796
 11
70.997352
 21
-89.55796
  0
LINE
  8
型材断面
  6
CONTINUOUS
 62
    47
 10
70.997352
 20
-89.55796
 11
69.822352
 21
-89.40796
  0
LINE
  8
型材断面
  6
CONTINUOUS
 62
    47
 10
69.822352
 20
-88.798923
 11
69.822352
 21
-89.40796
  0
LINE
  8
型材断面
  6
CONTINUOUS
 62
    47
 10
70.52735
 20
-88.798923
 11
70.52735
 21
-87.773923
  0
LINE
  8
型材断面
  6
CONTINUOUS
 62
    47
 10
70.52735
 20
-93.998923
 11
70.52735
 21
-90.05796
  0
LINE
  8
型材断面
  6
CONTINUOUS
 62
    47
 10
69.67735
 20
-94.748923
 11
69.67735
 21
-93.998923
  0
LINE
  8
型材断面
  6
CONTINUOUS
 10
70.208078
 20
-83.583453
 11
27.577353
 21
-40.952728
  0
LINE
  8
型材断面
  6
CONTINUOUS
 10
31.827353
 20
-45.096763
 11
27.577353
 21
-45.096763
  0
LINE
  8
型材断面
  6
CONTINUOUS
 10
23.327355
 20
-45.096763
 11
27.577353
 21
-45.096763
  0
LINE
  8
型材断面
  6
CONTINUOUS
 10
23.380337
 20
-45.149745
 11
27.577353
 21
-45.149745
  0
LINE
  8
型材断面
  6
CONTINUOUS
 10
27.577353
 20
-40.846763
 11
31.827353
 21
-45.096763
  0
LINE
  8
型材断面
  6
CONTINUOUS
 10
27.577353
 20
-40.846763
 11
23.327355
 21
-45.096763
  0
LINE
  8
型材断面
  6
CONTINUOUS
 10
31.774367
 20
-45.149745
 11
27.577353
 21
-45.149745
  0
LINE
  8
型材断面
  6
CONTINUOUS
 10
23.327355
 20
-45.096763
 11
23.380337
 21
-45.149745
  0
LINE
  8
型材断面
  6
CONTINUOUS
 10
31.774367
 20
-45.149745
 11
31.827353
 21
-45.096763
  0
LINE
  8
型材断面
  6
CONTINUOUS
 10
66.587463
 20
-83.2299
 11
28.507317
 21
-45.149745
  0
LINE
  8
型材断面
  6
CONTINUOUS
 10
66.30462
 20
-83.2299
 11
28.224475
 21
-45.149745
  0
LINE
  8
型材断面
  6
CONTINUOUS
 10
69.50097
 20
-83.2299
 11
31.420815
 21
-45.149745
  0
LINE
  8
型材断面
  6
CONTINUOUS
 62
    47
 10
69.67735
 20
-94.748923
 11
27.577353
 21
-94.748923
  0
LINE
  8
型材断面
  6
CONTINUOUS
 62
    47
 10
70.52735
 20
-93.998923
 11
27.577353
 21
-93.998923
  0
LINE
  8
型材断面
  6
CONTINUOUS
 62
    47
 10
70.997352
 20
-90.05796
 11
27.577353
 21
-90.05796
  0
LINE
  8
型材断面
  6
CONTINUOUS
 10
69.822352
 20
-89.40796
 11
27.577353
 21
-89.40796
  0
LINE
  8
型材断面
  6
CONTINUOUS
 10
70.997352
 20
-89.55796
 11
27.577353
 21
-89.55796
  0
LINE
  8
型材断面
  6
CONTINUOUS
 62
    47
 10
70.52735
 20
-88.798923
 11
27.577353
 21
-88.798923
  0
LINE
  8
型材断面
  6
CONTINUOUS
 10
71.852353
 20
-87.273923
 11
27.577353
 21
-87.273923
  0
LINE
  8
型材断面
  6
CONTINUOUS
 10
71.852353
 20
-86.573923
 11
27.577353
 21
-86.573923
  0
LINE
  8
型材断面
  6
CONTINUOUS
 10
71.177353
 20
-87.773923
 11
27.577353
 21
-87.773923
  0
LINE
  8
型材断面
  6
CONTINUOUS
 10
71.852353
 20
-85.227728
 11
27.577353
 21
-85.227728
  0
LINE
  8
型材断面
  6
CONTINUOUS
 10
71.551583
 20
-84.926955
 11
27.577353
 21
-84.926955
  0
LINE
  8
型材断面
  6
CONTINUOUS
 10
71.198027
 20
-84.573402
 11
27.577353
 21
-84.573402
  0
LINE
  8
型材断面
  6
CONTINUOUS
 10
70.208078
 20
-83.583453
 11
27.577353
 21
-83.583453
  0
LINE
  8
型材断面
  6
CONTINUOUS
 10
-16.396878
 20
-84.926955
 11
-16.697648
 21
-85.227728
  0
LINE
  8
型材断面
  6
CONTINUOUS
 10
-16.697648
 20
-86.573923
 11
-16.697648
 21
-85.227728
  0
LINE
  8
型材断面
  6
CONTINUOUS
 62
    47
 10
-16.697648
 20
-87.273923
 11
-16.697648
 21
-86.573923
  0
LINE
  8
型材断面
  6
CONTINUOUS
 62
    47
 10
-16.022648
 20
-87.273923
 11
-16.022648
 21
-87.773923
  0
LINE
  8
型材断面
  6
CONTINUOUS
 62
    47
 10
-15.053373
 20
-83.583453
 11
-16.396878
 21
-84.926955
  0
LINE
  8
型材断面
  6
CONTINUOUS
 10
-14.69982
 20
-83.2299
 11
-11.149915
 21
-83.2299
  0
LINE
  8
型材断面
  6
CONTINUOUS
 62
    47
 10
-15.842648
 20
-90.05796
 11
-15.842648
 21
-89.55796
  0
LINE
  8
型材断面
  6
CONTINUOUS
 62
    47
 10
-15.842648
 20
-89.55796
 11
-14.667648
 21
-89.40796
  0
LINE
  8
型材断面
  6
CONTINUOUS
 62
    47
 10
-14.667648
 20
-88.798923
 11
-14.667648
 21
-89.40796
  0
LINE
  8
型材断面
  6
CONTINUOUS
 62
    47
 10
-15.372645
 20
-88.798923
 11
-15.372645
 21
-87.773923
  0
LINE
  8
型材断面
  6
CONTINUOUS
 62
    47
 10
-15.372645
 20
-93.998923
 11
-15.372645
 21
-90.05796
  0
LINE
  8
型材断面
  6
CONTINUOUS
 62
    47
 10
-14.522645
 20
-94.748923
 11
-14.522645
 21
-93.998923
  0
LINE
  8
型材断面
  6
CONTINUOUS
 10
-15.053373
 20
-83.583453
 11
27.577353
 21
-40.952728
  0
LINE
  8
型材断面
  6
CONTINUOUS
 10
-11.432758
 20
-83.2299
 11
26.647387
 21
-45.149745
  0
LINE
  8
型材断面
  6
CONTINUOUS
 10
-11.149915
 20
-83.2299
 11
26.93023
 21
-45.149745
  0
LINE
  8
型材断面
  6
CONTINUOUS
 10
-14.346265
 20
-83.2299
 11
23.73389
 21
-45.149745
  0
LINE
  8
型材断面
  6
CONTINUOUS
 62
    47
 10
-14.522645
 20
-94.748923
 11
27.577353
 21
-94.748923
  0
LINE
  8
型材断面
  6
CONTINUOUS
 62
    47
 10
-15.372645
 20
-93.998923
 11
27.577353
 21
-93.998923
  0
LINE
  8
型材断面
  6
CONTINUOUS
 62
    47
 10
-15.842648
 20
-90.05796
 11
27.577353
 21
-90.05796
  0
LINE
  8
型材断面
  6
CONTINUOUS
 10
-14.667648
 20
-89.40796
 11
27.577353
 21
-89.40796
  0
LINE
  8
型材断面
  6
CONTINUOUS
 10
-15.842648
 20
-89.55796
 11
27.577353
 21
-89.55796
  0
LINE
  8
型材断面
  6
CONTINUOUS
 62
    47
 10
-15.372645
 20
-88.798923
 11
27.577353
 21
-88.798923
  0
LINE
  8
型材断面
  6
CONTINUOUS
 10
-16.697648
 20
-87.273923
 11
27.577353
 21
-87.273923
  0
LINE
  8
型材断面
  6
CONTINUOUS
 10
-16.697648
 20
-86.573923
 11
27.577353
 21
-86.573923
  0
LINE
  8
型材断面
  6
CONTINUOUS
 10
-16.022648
 20
-87.773923
 11
27.577353
 21
-87.773923
  0
LINE
  8
型材断面
  6
CONTINUOUS
 10
-16.697648
 20
-85.227728
 11
27.577353
 21
-85.227728
  0
LINE
  8
型材断面
  6
CONTINUOUS
 10
-16.396878
 20
-84.926955
 11
27.577353
 21
-84.926955
  0
LINE
  8
型材断面
  6
CONTINUOUS
 10
-16.043322
 20
-84.573402
 11
27.577353
 21
-84.573402
  0
LINE
  8
型材断面
  6
CONTINUOUS
 10
-15.053373
 20
-83.583453
 11
27.577353
 21
-83.583453
  0
LINE
  8
型材断面
  6
DOT
 10
71.551583
 20
-64.926955
 11
71.852353
 21
-65.227728
  0
LINE
  8
型材断面
  6
DOT
 10
71.852353
 20
-66.573923
 11
71.852353
 21
-65.227728
  0
LINE
  8
型材断面
  6
DOT
 62
    47
 10
71.852353
 20
-67.273923
 11
71.852353
 21
-66.573923
  0
LINE
  8
型材断面
  6
DOT
 62
    47
 10
71.177353
 20
-67.273923
 11
71.177353
 21
-67.773923
  0
LINE
  8
型材断面
  6
DOT
 62
    47
 10
70.208078
 20
-63.583453
 11
71.551583
 21
-64.926955
  0
LINE
  8
型材断面
  6
DOT
 10
69.854525
 20
-63.2299
 11
66.30462
 21
-63.2299
  0
LINE
  8
型材断面
  6
DOT
 62
    47
 10
70.997352
 20
-70.05796
 11
70.997352
 21
-69.55796
  0
LINE
  8
型材断面
  6
DOT
 62
    47
 10
70.997352
 20
-69.55796
 11
69.822352
 21
-69.40796
  0
LINE
  8
型材断面
  6
DOT
 62
    47
 10
69.822352
 20
-68.798923
 11
69.822352
 21
-69.40796
  0
LINE
  8
型材断面
  6
DOT
 62
    47
 10
70.52735
 20
-68.798923
 11
70.52735
 21
-67.773923
  0
LINE
  8
型材断面
  6
DOT
 10
70.208078
 20
-63.583453
 11
27.577353
 21
-20.952728
  0
LINE
  8
型材断面
  6
DOT
 10
31.827353
 20
-25.096763
 11
27.577353
 21
-25.096763
  0
LINE
  8
型材断面
  6
DOT
 10
23.327355
 20
-25.096763
 11
27.577353
 21
-25.096763
  0
LINE
  8
型材断面
  6
DOT
 10
23.380337
 20
-25.149745
 11
27.577353
 21
-25.149745
  0
LINE
  8
型材断面
  6
DOT
 10
27.577353
 20
-20.846763
 11
31.827353
 21
-25.096763
  0
LINE
  8
型材断面
  6
DOT
 10
27.577353
 20
-20.846763
 11
23.327355
 21
-25.096763
  0
LINE
  8
型材断面
  6
DOT
 10
31.774367
 20
-25.149745
 11
27.577353
 21
-25.149745
  0
LINE
  8
型材断面
  6
DOT
 10
23.327355
 20
-25.096763
 11
23.380337
 21
-25.149745
  0
LINE
  8
型材断面
  6
DOT
 10
31.774367
 20
-25.149745
 11
31.827353
 21
-25.096763
  0
LINE
  8
型材断面
  6
DOT
 10
66.587463
 20
-63.2299
 11
28.507317
 21
-25.149745
  0
LINE
  8
型材断面
  6
DOT
 10
66.30462
 20
-63.2299
 11
28.224475
 21
-25.149745
  0
LINE
  8
型材断面
  6
DOT
 10
69.50097
 20
-63.2299
 11
31.420815
 21
-25.149745
  0
LINE
  8
型材断面
  6
DOT
 62
    47
 10
70.997352
 20
-70.05796
 11
27.577353
 21
-70.05796
  0
LINE
  8
型材断面
  6
DOT
 10
69.822352
 20
-69.40796
 11
27.577353
 21
-69.40796
  0
LINE
  8
型材断面
  6
DOT
 10
70.997352
 20
-69.55796
 11
27.577353
 21
-69.55796
  0
LINE
  8
型材断面
  6
DOT
 62
    47
 10
70.52735
 20
-68.798923
 11
27.577353
 21
-68.798923
  0
LINE
  8
型材断面
  6
DOT
 10
71.852353
 20
-67.273923
 11
27.577353
 21
-67.273923
  0
LINE
  8
型材断面
  6
DOT
 10
71.852353
 20
-66.573923
 11
27.577353
 21
-66.573923
  0
LINE
  8
型材断面
  6
DOT
 10
71.177353
 20
-67.773923
 11
27.577353
 21
-67.773923
  0
LINE
  8
型材断面
  6
DOT
 10
71.852353
 20
-65.227728
 11
27.577353
 21
-65.227728
  0
LINE
  8
型材断面
  6
DOT
 10
71.551583
 20
-64.926955
 11
27.577353
 21
-64.926955
  0
LINE
  8
型材断面
  6
DOT
 10
71.198027
 20
-64.573402
 11
27.577353
 21
-64.573402
  0
LINE
  8
型材断面
  6
DOT
 10
70.208078
 20
-63.583453
 11
27.577353
 21
-63.583453
  0
LINE
  8
型材断面
  6
DOT
 10
-16.396878
 20
-64.926955
 11
-16.697648
 21
-65.227728
  0
LINE
  8
型材断面
  6
DOT
 10
-16.697648
 20
-66.573923
 11
-16.697648
 21
-65.227728
  0
LINE
  8
型材断面
  6
DOT
 62
    47
 10
-16.697648
 20
-67.273923
 11
-16.697648
 21
-66.573923
  0
LINE
  8
型材断面
  6
DOT
 62
    47
 10
-16.022648
 20
-67.273923
 11
-16.022648
 21
-67.773923
  0
LINE
  8
型材断面
  6
DOT
 62
    47
 10
-15.053373
 20
-63.583453
 11
-16.396878
 21
-64.926955
  0
LINE
  8
型材断面
  6
DOT
 10
-14.69982
 20
-63.2299
 11
-11.149915
 21
-63.2299
  0
LINE
  8
型材断面
  6
DOT
 62
    47
 10
-15.842648
 20
-70.05796
 11
-15.842648
 21
-69.55796
  0
LINE
  8
型材断面
  6
DOT
 62
    47
 10
-15.842648
 20
-69.55796
 11
-14.667648
 21
-69.40796
  0
LINE
  8
型材断面
  6
DOT
 62
    47
 10
-14.667648
 20
-68.798923
 11
-14.667648
 21
-69.40796
  0
LINE
  8
型材断面
  6
DOT
 62
    47
 10
-15.372645
 20
-68.798923
 11
-15.372645
 21
-67.773923
  0
LINE
  8
型材断面
  6
DOT
 10
-15.053373
 20
-63.583453
 11
27.577353
 21
-20.952728
  0
LINE
  8
型材断面
  6
DOT
 10
-11.432758
 20
-63.2299
 11
26.647387
 21
-25.149745
  0
LINE
  8
型材断面
  6
DOT
 10
-11.149915
 20
-63.2299
 11
26.93023
 21
-25.149745
  0
LINE
  8
型材断面
  6
DOT
 10
-14.346265
 20
-63.2299
 11
23.73389
 21
-25.149745
  0
LINE
  8
型材断面
  6
DOT
 62
    47
 10
-15.842648
 20
-70.05796
 11
27.577353
 21
-70.05796
  0
LINE
  8
型材断面
  6
DOT
 10
-14.667648
 20
-69.40796
 11
27.577353
 21
-69.40796
  0
LINE
  8
型材断面
  6
DOT
 10
-15.842648
 20
-69.55796
 11
27.577353
 21
-69.55796
  0
LINE
  8
型材断面
  6
DOT
 62
    47
 10
-15.372645
 20
-68.798923
 11
27.577353
 21
-68.798923
  0
LINE
  8
型材断面
  6
DOT
 10
-16.697648
 20
-67.273923
 11
27.577353
 21
-67.273923
  0
LINE
  8
型材断面
  6
DOT
 10
-16.697648
 20
-66.573923
 11
27.577353
 21
-66.573923
  0
LINE
  8
型材断面
  6
DOT
 10
-16.022648
 20
-67.773923
 11
27.577353
 21
-67.773923
  0
LINE
  8
型材断面
  6
DOT
 10
-16.697648
 20
-65.227728
 11
27.577353
 21
-65.227728
  0
LINE
  8
型材断面
  6
DOT
 10
-16.396878
 20
-64.926955
 11
27.577353
 21
-64.926955
  0
LINE
  8
型材断面
  6
DOT
 10
-16.043322
 20
-64.573402
 11
27.577353
 21
-64.573402
  0
LINE
  8
型材断面
  6
DOT
 10
-15.053373
 20
-63.583453
 11
27.577353
 21
-63.583453
  0
INSERT
  2
*GRP_0002
  8
型材断面
  6
CONTINUOUS
 10
0.0
 20
0.0
  0
INSERT
  2
*GRP_0003
  8
型材断面
  6
CONTINUOUS
 10
0.0
 20
0.0
  0
INSERT
  2
*GRP_0004
  8
型材断面
  6
CONTINUOUS
 10
0.0
 20
0.0
  0
INSERT
  2
*GRP_0005
  8
型材断面
  6
CONTINUOUS
 10
0.0
 20
0.0
  0
LINE
  8
型材断面
  6
CONTINUOUS
 10
96.931018
 20
64.620823
 11
120.86264
 21
64.620823
  0
LINE
  8
型材断面
  6
CONTINUOUS
 10
-18.48907
 20
25.33835
 11
-20.732515
 21
21.45259
  0
LINE
  8
型材断面
  6
CONTINUOUS
 10
-18.48907
 20
25.33835
 11
-16.245625
 21
21.45259
  0
LINE
  8
型材断面
  6
CONTINUOUS
 10
-16.245625
 20
21.45259
 11
-20.732515
 21
21.45259
  0
LINE
  8
型材断面
  6
CONTINUOUS
 10
-18.48907
 20
17.648803
 11
-17.594985
 21
13.763042
  0
LINE
  8
型材断面
  6
CONTINUOUS
 10
-18.48907
 20
17.648803
 11
-19.383155
 21
13.763042
  0
LINE
  8
型材断面
  6
CONTINUOUS
 10
-19.383155
 20
13.763042
 11
-17.594985
 21
13.763042
  0
LINE
  8
型材断面
  6
CONTINUOUS
 10
-27.52295
 20
20.044698
 11
25.13373
 21
20.044698
  0
LINE
  8
型材断面
  6
CONTINUOUS
 10
-27.52295
 20
8.844705
 11
25.13373
 21
8.844705
  0
LINE
  8
型材断面
  6
CONTINUOUS
 10
-27.52295
 20
2.00476
 11
25.13373
 21
2.00476
  0
LINE
  8
型材断面
  6
CONTINUOUS
 10
-27.52295
 20
-4.835185
 11
25.13373
 21
-4.835185
  0
LINE
  8
ガラス
  6
CONTINUOUS
 10
-94.927008
 20
-70.472257
 11
-98.799643
 21
-74.344892
  0
LINE
  8
ガラス
  6
CONTINUOUS
 10
-95.80733
 20
-72.070615
 11
-97.201285
 21
-73.46457
  0
LINE
  8
ガラス
  6
CONTINUOUS
 10
-96.525365
 20
-71.35258
 11
-97.91932
 21
-72.746535
  0
LINE
  8
ガラス
  6
CONTINUOUS
 10
-94.443642
 20
11.488198
 11
-98.316277
 21
7.615562
  0
LINE
  8
ガラス
  6
CONTINUOUS
 10
-96.042
 20
10.607875
 11
-97.435955
 21
9.21392
  0
LINE
  8
ガラス
  6
CONTINUOUS
 10
-94.443642
 20
64.58522
 11
-98.316277
 21
60.712585
  0
LINE
  8
ガラス
  6
CONTINUOUS
 10
-96.042
 20
63.704897
 11
-97.435955
 21
62.310943
  0
LINE
  8
ガラス
  6
CONTINUOUS
 10
-118.8636
 20
39.844938
 11
-122.736235
 21
35.972302
  0
LINE
  8
ガラス
  6
CONTINUOUS
 10
-120.461957
 20
38.964615
 11
-121.855912
 21
37.57066
  0
LINE
  8
ガラス
  6
CONTINUOUS
 10
-68.71438
 20
39.844938
 11
-72.587015
 21
35.972302
  0
LINE
  8
ガラス
  6
CONTINUOUS
 10
-70.312737
 20
38.964615
 11
-71.706693
 21
37.57066
  0
LINE
  8
ガラス
  6
CONTINUOUS
 10
-95.323965
 20
9.88984
 11
-96.71792
 21
8.495885
  0
LINE
  8
ガラス
  6
CONTINUOUS
 10
-69.594703
 20
38.24658
 11
-70.988658
 21
36.852625
  0
LINE
  8
ガラス
  6
CONTINUOUS
 10
-119.743923
 20
38.24658
 11
-121.137878
 21
36.852625
  0
LINE
  8
ガラス
  6
CONTINUOUS
 10
-95.323965
 20
62.986862
 11
-96.71792
 21
61.592908
  0
TEXT
  7
TextStyle03
  8
文字
  6
CONTINUOUS
 10
66.05
 20
92.8
  1
ＮＳコード：ＮＳ４ＣＳ
 40
5.0
 72
     5
 11
127.3
 21
92.8
  0
TEXT
  7
TextStyle03
  8
文字
  6
CONTINUOUS
 10
-47.125
 20
16.45
  1
ﾊﾞﾗﾝｽｽﾃｰ
 40
3.0
 72
     5
 11
-33.8125
 21
16.45
  0
TEXT
  7
TextStyle03
  8
文字
  6
CONTINUOUS
 10
-105.0
 20
-19.225
  1
可動装置側
 40
3.0
 72
     5
 11
-88.5
 21
-19.225
  0
TEXT
  7
TextStyle03
  8
文字
  6
CONTINUOUS
 10
-105.0
 20
92.675
  1
可動装置側
 40
3.0
 72
     5
 11
-88.5
 21
92.675
  0
TEXT
  7
TextStyle03
  8
文字
  6
CONTINUOUS
 10
-159.6875
 20
63.525
  1
ﾊﾞﾗﾝｽｽﾃｰ
 40
3.0
 72
     5
 11
-146.375
 21
63.525
  0
TEXT
  7
TextStyle03
  8
文字
  6
CONTINUOUS
 10
-169.0
 20
-5.325
  1
アンカーピッチ
 40
3.0
 50
90.0
 72
     5
 11
-169.0
 21
17.925
  0
TEXT
  7
TextStyle03
  8
文字
  6
CONTINUOUS
 10
-157.0
 20
110.7
  1
アンカーピッチ
 40
3.0
 72
     5
 11
-133.75
 21
110.7
  0
TEXT
  7
TextStyle03
  8
文字
  6
CONTINUOUS
 10
140.8
 20
4.525
  1
×４枚
 40
3.0
 72
     5
 11
150.55
 21
4.525
  0
TEXT
  7
TextStyle03
  8
文字
  6
CONTINUOUS
 10
100.525
 20
65.8
  1
ガラス寸法
 40
3.0
 72
     5
 11
117.025
 21
65.8
  0
TEXT
  7
TextStyle03
  8
文字
  6
CONTINUOUS
 10
-14.225
 20
21.775
  1
は排水穴位置を示す
 40
3.0
 72
     5
 11
15.775
 21
21.775
  0
TEXT
  7
TextStyle03
  8
文字
  6
CONTINUOUS
 10
-14.225
 20
13.925
  1
はケーシング位置を示す
 40
3.0
 72
     5
 11
22.525
 21
13.925
  0
TEXT
  7
TextStyle03
  8
文字
  6
CONTINUOUS
 10
-14.225
 20
10.55
  1
４ヶ所中1ヶ所に設定
 40
3.0
 72
     5
 11
17.4625
 21
10.55
  0
TEXT
  7
TextStyle03
  8
文字
  6
CONTINUOUS
 10
-19.825
 20
3.4
  1
アンカー数量　１０ヶ所
 40
3.0
 72
     5
 11
16.925
 21
3.4
  0
TEXT
  7
TextStyle03
  8
文字
  6
CONTINUOUS
 10
-19.85
 20
-3.425
  1
アームユニット数　４ヶ所
 40
3.0
 72
     5
 11
20.275
 21
-3.425
  0
TEXT
  7
TextStyle03
  8
文字
  6
CONTINUOUS
 10
66.225
 20
120.625
  1
シリーズ：ＳＴＦ４
 40
5.0
 72
     5
 11
116.225
 21
120.625
  0
TEXT
  7
TextStyle03
  8
文字
  6
CONTINUOUS
 10
66.225
 20
115.0
  1
　　　　　四角錘（上下可動）1600×1600タイプ
 40
5.0
 72
     5
 11
189.35
 21
115.0
  0
TEXT
  7
TextStyle03
  8
文字
  6
CONTINUOUS
 10
66.225
 20
109.375
  1
　　　　　ペアガラス仕様
 40
5.0
 72
     5
 11
133.1
 21
109.375
  0
TEXT
  7
TextStyle03
  8
文字
  6
CONTINUOUS
 10
66.225
 20
103.75
  1
図面名　：外観姿図
 40
5.0
 72
     5
 11
116.225
 21
103.75
  0
TEXT
  7
TextStyle03
  8
文字
  6
CONTINUOUS
 10
66.225
 20
98.125
  1
　　　　　　
 40
5.0
 72
     5
 11
99.35
 21
98.125
  0
INSERT
  2
*DIM_0006
  8
寸法
  6
CONTINUOUS
 10
0.0
 20
0.0
  0
INSERT
  2
*DIM_0007
  8
寸法
  6
CONTINUOUS
 10
0.0
 20
0.0
  0
INSERT
  2
*DIM_0008
  8
寸法
  6
CONTINUOUS
 10
0.0
 20
0.0
  0
INSERT
  2
*DIM_0009
  8
寸法
  6
CONTINUOUS
 10
0.0
 20
0.0
  0
INSERT
  2
*DIM_0010
  8
寸法
  6
CONTINUOUS
 10
0.0
 20
0.0
  0
INSERT
  2
*DIM_0011
  8
寸法
  6
CONTINUOUS
 10
0.0
 20
0.0
  0
INSERT
  2
*DIM_0012
  8
寸法
  6
CONTINUOUS
 10
0.0
 20
0.0
  0
INSERT
  2
*GRP_0013
  8
寸法
  6
CONTINUOUS
 10
0.0
 20
0.0
  0
INSERT
  2
*DIM_0014
  8
寸法
  6
CONTINUOUS
 10
0.0
 20
0.0
  0
INSERT
  2
*DIM_0015
  8
寸法
  6
CONTINUOUS
 10
0.0
 20
0.0
  0
INSERT
  2
*GRP_0016
  8
寸法
  6
CONTINUOUS
 10
0.0
 20
0.0
  0
INSERT
  2
*DIM_0017
  8
寸法
  6
CONTINUOUS
 10
0.0
 20
0.0
  0
INSERT
  2
*DIM_0018
  8
寸法
  6
CONTINUOUS
 10
0.0
 20
0.0
  0
INSERT
  2
*DIM_0019
  8
寸法
  6
CONTINUOUS
 10
0.0
 20
0.0
  0
INSERT
  2
*DIM_0020
  8
寸法
  6
CONTINUOUS
 10
0.0
 20
0.0
  0
INSERT
  2
*DIM_0021
  8
寸法
  6
CONTINUOUS
 10
0.0
 20
0.0
  0
INSERT
  2
*DIM_0022
  8
寸法
  6
CONTINUOUS
 10
0.0
 20
0.0
  0
LINE
  8
曲げ物
  6
CONTINUOUS
 10
162.826108
 20
1.46447
 11
81.206107
 21
1.46447
  0
LINE
  8
曲げ物
  6
CONTINUOUS
 10
81.206107
 20
1.46447
 11
122.016108
 21
59.178283
  0
LINE
  8
曲げ物
  6
CONTINUOUS
 10
162.826108
 20
1.46447
 11
122.016108
 21
59.178283
  0
ENDSEC
  0
EOF
