  0
SECTION
  2
HEADER
  9
$EXTMIN
 10
-210.0
 20
-148.5
  9
$EXTMAX
 10
210.0
 20
148.5
  9
$PDMODE
 70
    32
  9
$PDSIZE
 40
1.5
  9
$LTSCALE
 40
10.0
  0
ENDSEC
  0
SECTION
  2
TABLES
  0
TABLE
  2
LTYPE
 70
    15
  0
LTYPE
  2
CONTINUOUS
 70
    64
  3
実線
 72
    65
 73
     0
 40
0.0
  0
LTYPE
  2
DASHED
 70
    64
  3
破線A
 72
    65
 73
     2
 40
0.6
 49
0.4
 49
-0.2
  0
LTYPE
  2
DASHEDX2
 70
    64
  3
破線B
 72
    65
 73
     2
 40
1.3
 49
0.9
 49
-0.4
  0
LTYPE
  2
DASHDOT
 70
    64
  3
１点鎖線A
 72
    65
 73
     4
 40
0.5375
 49
0.375
 49
-0.05
 49
0.0625
 49
-0.05
  0
LTYPE
  2
DASHDOTX2
 70
    64
  3
１点鎖線B
 72
    65
 73
     4
 40
1.075
 49
0.75
 49
-0.1
 49
0.125
 49
-0.1
  0
LTYPE
  2
DIVIDE2
 70
    64
  3
２点鎖線A
 72
    65
 73
     6
 40
0.5125
 49
0.3
 49
-0.0375
 49
0.05
 49
-0.0375
 49
0.05
 49
-0.0375
  0
LTYPE
  2
DIVIDE
 70
    64
  3
２点鎖線B
 72
    65
 73
     6
 40
1.05
 49
0.55
 49
-0.1
 49
0.1
 49
-0.1
 49
0.1
 49
-0.1
  0
LTYPE
  2
DOT
 70
    64
  3
点線A
 72
    65
 73
     2
 40
0.1125
 49
0.0625
 49
-0.05
  0
LTYPE
  2
DOTX2
 70
    64
  3
点線B
 72
    65
 73
     2
 40
0.275
 49
0.15
 49
-0.125
  0
LTYPE
  2
CONTINUOUS
 70
    64
  3
実線
 72
    65
 73
     0
 40
0.0
  0
LTYPE
  2
CONTINUOUS
 70
    64
  3
実線
 72
    65
 73
     0
 40
0.0
  0
LTYPE
  2
CONTINUOUS
 70
    64
  3
実線
 72
    65
 73
     0
 40
0.0
  0
LTYPE
  2
CONTINUOUS
 70
    64
  3
実線
 72
    65
 73
     0
 40
0.0
  0
LTYPE
  2
CONTINUOUS
 70
    64
  3
実線
 72
    65
 73
     0
 40
0.0
  0
LTYPE
  2
CONTINUOUS
 70
    64
  3
実線
 72
    65
 73
     0
 40
0.0
  0
ENDTAB
  0
TABLE
  2
LAYER
 70
    34
  0
LAYER
  2
通り芯
 70
     0
 62
    15
  6
CONTINUOUS
  0
LAYER
  2
補助線
 70
     0
 62
    16
  6
DOT
  0
LAYER
  2
躯体
 70
     0
 62
    31
  6
CONTINUOUS
  0
LAYER
  2
型材
 70
     0
 62
    32
  6
CONTINUOUS
  0
LAYER
  2
型材断面
 70
     0
 62
    47
  6
CONTINUOUS
  0
LAYER
  2
ガラス
 70
     0
 62
    48
  6
CONTINUOUS
  0
LAYER
  2
ゴム等
 70
     0
 62
    63
  6
CONTINUOUS
  0
LAYER
  2
ボルト／ビス
 70
     0
 62
    64
  6
CONTINUOUS
  0
LAYER
  2
文字
 70
     0
 62
    79
  6
CONTINUOUS
  0
LAYER
  2
寸法
 70
     0
 62
    80
  6
CONTINUOUS
  0
LAYER
  2
ﾊｯﾁﾝｸﾞ
 70
     0
 62
    95
  6
CONTINUOUS
  0
LAYER
  2
別途部材
 70
     0
 62
    96
  6
CONTINUOUS
  0
LAYER
  2
曲げ物
 70
     0
 62
   111
  6
CONTINUOUS
  0
LAYER
  2
鉄骨等
 70
     0
 62
   112
  6
CONTINUOUS
  0
LAYER
  2
St
 70
     0
 62
   127
  6
CONTINUOUS
  0
LAYER
  2
その他部品等
 70
     0
 62
   128
  6
CONTINUOUS
  0
LAYER
  2
ｶﾞｽｹｯﾄ
 70
     0
 62
   143
  6
CONTINUOUS
  0
LAYER
  2
ｽｹｯﾁ
 70
     0
 62
    14
  6
CONTINUOUS
  0
LAYER
  2
0
 70
     0
 62
    17
  6
CONTINUOUS
  0
LAYER
  2
1
 70
     0
 62
    30
  6
CONTINUOUS
  0
LAYER
  2
4
 70
     0
 62
    33
  6
CONTINUOUS
  0
LAYER
  2
ﾚｲﾔ3
 70
     0
 62
    46
  6
CONTINUOUS
  0
LAYER
  2
外形線
 70
     0
 62
    49
  6
CONTINUOUS
  0
LAYER
  2
部品
 70
     0
 62
    14
  6
CONTINUOUS
  0
LAYER
  2
サッシ芯
 70
     0
 62
    17
  6
DASHDOTX2
  0
LAYER
  2
寸法線
 70
     0
 62
    62
  6
CONTINUOUS
  0
LAYER
  2
姿図外形線
 70
     0
 62
    65
  6
CONTINUOUS
  0
LAYER
  2
姿補助線
 70
     0
 62
    30
  6
CONTINUOUS
  0
LAYER
  2
透視線
 70
     0
 62
    78
  6
DOT
  0
LAYER
  2
用紙
 70
     0
 62
    81
  6
CONTINUOUS
  0
LAYER
  2
実線図枠
 70
     0
 62
    94
  6
CONTINUOUS
  0
LAYER
  2
補助図枠
 70
     0
 62
    97
  6
CONTINUOUS
  0
LAYER
  2
建具記号
 70
     0
 62
   110
  6
CONTINUOUS
  0
LAYER
  2
補助文字
 70
     0
 62
   113
  6
CONTINUOUS
  0
ENDTAB
  0
TABLE
  2
STYLE
 70
    10
  0
STYLE
  2
STANDARD
 70
     0
 40
1.0
 41
1.0
 42
1.0
 50
0.0
 71
     0
  3
TXT
  4
BIGFONT
  0
STYLE
  2
TATE
 70
     4
 40
1.0
 41
1.0
 42
1.0
 50
0.0
 71
     0
  3
TXT
  4
BIGFONT
  0
STYLE
  2
TextStyle03
 70
     0
 40
1.0
 41
1.0
 42
1.0
 50
0.0
 71
     0
  3
MONOTXT
  4
BIGFONT
  0
STYLE
  2
TextStyle04
 70
     0
 40
1.0
 41
1.0
 42
1.0
 50
0.0
 71
     0
  3
MONOTXT
  4
BIGFONT
  0
STYLE
  2
TextStyle05
 70
     0
 40
1.0
 41
1.0
 42
1.0
 50
0.0
 71
     0
  3
MONOTXT
  4
BIGFONT
  0
STYLE
  2
TextStyle06
 70
     0
 40
1.0
 41
1.0
 42
1.0
 50
0.0
 71
     0
  3
MONOTXT
  4
BIGFONT
  0
STYLE
  2
TextStyle07
 70
     0
 40
1.0
 41
1.0
 42
1.0
 50
0.0
 71
     0
  3
MONOTXT
  4
BIGFONT
  0
STYLE
  2
TextStyle08
 70
     0
 40
1.0
 41
1.0
 42
1.0
 50
0.0
 71
     0
  3
MONOTXT
  4
BIGFONT
  0
STYLE
  2
TextStyle09
 70
     0
 40
1.0
 41
1.0
 42
1.0
 50
0.0
 71
     0
  3
MONOTXT
  4
BIGFONT
  0
STYLE
  2
TextStyle10
 70
     0
 40
1.0
 41
1.0
 42
1.0
 50
0.0
 71
     0
  3
MONOTXT
  4
BIGFONT
  0
ENDTAB
  0
ENDSEC
  0
SECTION
  2
BLOCKS
  0
BLOCK
  2
*GRP_0001
 70
    65
 10
0.0
 20
0.0
  0
LINE
  8
型材断面
  6
CONTINUOUS
 10
195.0
 20
133.5
 11
195.0
 21
-133.5
  0
LINE
  8
型材断面
  6
CONTINUOUS
 10
195.0
 20
-133.5
 11
-185.0
 21
-133.5
  0
LINE
  8
型材断面
  6
CONTINUOUS
 10
-185.0
 20
-133.5
 11
-185.0
 21
133.5
  0
LINE
  8
型材断面
  6
CONTINUOUS
 10
195.0
 20
133.5
 11
-185.0
 21
133.5
  0
LINE
  8
型材断面
  6
CONTINUOUS
 10
145.0
 20
-133.5
 11
145.0
 21
-118.5
  0
LINE
  8
型材断面
  6
CONTINUOUS
 10
195.0
 20
-118.5
 11
145.0
 21
-118.5
  0
ENDBLK
  0
BLOCK
  2
*DIM_0002
 70
    65
 10
0.0
 20
0.0
  0
LINE
  8
寸法
  6
BYBLOCK
 62
     0
 10
-38.788962
 20
-114.560103
 11
-21.0681
 21
-114.560103
  0
LINE
  8
寸法
  6
BYBLOCK
 62
     0
 10
-37.46396
 20
-105.788908
 11
-21.0681
 21
-105.788908
  0
LINE
  8
寸法
  6
BYBLOCK
 62
     0
 10
-21.0681
 20
-114.560103
 11
-21.0681
 21
-105.788908
  0
POINT
  8
寸法
 62
     0
 10
-21.0681
 20
-114.560103
  0
POINT
  8
寸法
 62
     0
 10
-21.0681
 20
-105.788908
  0
TEXT
  7
TextStyle03
  8
寸法
  6
CONTINUOUS
 62
     0
 10
-21.45
 20
-114.3
  1
175.4
 40
3.0
 50
90.0
 72
     5
 11
-21.45
 21
-106.05
  0
ENDBLK
  0
BLOCK
  2
*DIM_0003
 70
    65
 10
0.0
 20
0.0
  0
LINE
  8
寸法
  6
BYBLOCK
 62
     0
 10
-91.73896
 20
-51.407942
 11
-21.0681
 21
-51.407942
  0
LINE
  8
寸法
  6
BYBLOCK
 62
     0
 10
-21.0681
 20
-105.788908
 11
-21.0681
 21
-51.407942
  0
POINT
  8
寸法
 62
     0
 10
-21.0681
 20
-105.788908
  0
POINT
  8
寸法
 62
     0
 10
-21.0681
 20
-51.407942
  0
TEXT
  7
TextStyle03
  8
寸法
  6
CONTINUOUS
 62
     0
 10
-21.45
 20
-83.54375
  1
1087.6
 40
3.0
 50
90.0
 72
     5
 11
-21.45
 21
-73.60625
  0
ENDBLK
  0
BLOCK
  2
*DIM_0004
 70
    65
 10
0.0
 20
0.0
  0
LINE
  8
寸法
  6
BYBLOCK
 62
     0
 10
-142.73896
 20
-36.2959
 11
-142.73896
 21
-36.46008
  0
LINE
  8
寸法
  6
BYBLOCK
 62
     0
 10
-42.73896
 20
-36.2959
 11
-42.73896
 21
-36.46008
  0
LINE
  8
寸法
  6
BYBLOCK
 62
     0
 10
-142.73896
 20
-36.46008
 11
-42.73896
 21
-36.46008
  0
POINT
  8
寸法
 62
     0
 10
-142.73896
 20
-36.46008
  0
POINT
  8
寸法
 62
     0
 10
-42.73896
 20
-36.46008
  0
TEXT
  7
TextStyle03
  8
寸法
  6
CONTINUOUS
 62
     0
 10
-104.46875
 20
-36.075
  1
呼称寸法　2000
 40
3.0
 72
     5
 11
-81.03125
 21
-36.075
  0
ENDBLK
  0
BLOCK
  2
*DIM_0005
 70
    65
 10
0.0
 20
0.0
  0
LINE
  8
寸法
  6
BYBLOCK
 62
     0
 10
-38.46396
 20
-104.788908
 11
-38.46396
 21
-36.46008
  0
LINE
  8
寸法
  6
BYBLOCK
 62
     0
 10
-42.73896
 20
-36.46008
 11
-38.46396
 21
-36.46008
  0
POINT
  8
寸法
 62
     0
 10
-38.46396
 20
-36.46008
  0
TEXT
  7
TextStyle03
  8
寸法
  6
CONTINUOUS
 62
     0
 10
-37.15625
 20
-36.075
  1
85.5
 40
3.0
 72
     5
 11
-30.59375
 21
-36.075
  0
ENDBLK
  0
BLOCK
  2
*DIM_0006
 70
    65
 10
0.0
 20
0.0
  0
LINE
  8
寸法
  6
BYBLOCK
 62
     0
 10
-147.01396
 20
-104.788908
 11
-147.01396
 21
-36.46008
  0
LINE
  8
寸法
  6
BYBLOCK
 62
     0
 10
-142.73896
 20
-36.46008
 11
-147.01396
 21
-36.46008
  0
POINT
  8
寸法
 62
     0
 10
-142.73896
 20
-36.46008
  0
POINT
  8
寸法
 62
     0
 10
-147.01396
 20
-36.46008
  0
TEXT
  7
TextStyle03
  8
寸法
  6
CONTINUOUS
 62
     0
 10
-154.93125
 20
-36.075
  1
85.5
 40
3.0
 72
     5
 11
-148.36875
 21
-36.075
  0
ENDBLK
  0
BLOCK
  2
*GRP_0007
 70
    65
 10
0.0
 20
0.0
  0
POLYLINE
  8
寸法
  6
BYBLOCK
 62
     0
 66
     1
  0
VERTEX
  8
寸法
 10
-45.9783
 20
18.54331
  0
VERTEX
  8
寸法
 10
-39.561798
 20
12.126807
  0
VERTEX
  8
寸法
 10
-33.65467
 20
12.126807
  0
SEQEND
  0
ENDBLK
  0
BLOCK
  2
*DIM_0008
 70
    65
 10
0.0
 20
0.0
  0
LINE
  8
寸法
  6
BYBLOCK
 62
     0
 10
-41.73896
 20
92.259338
 11
-21.18953
 21
92.259338
  0
LINE
  8
寸法
  6
BYBLOCK
 62
     0
 10
-33.715082
 20
86.40934
 11
-21.18953
 21
86.40934
  0
LINE
  8
寸法
  6
BYBLOCK
 62
     0
 10
-21.18953
 20
92.259338
 11
-21.18953
 21
86.40934
  0
POINT
  8
寸法
 62
     0
 10
-21.18953
 20
92.259338
  0
POINT
  8
寸法
 62
     0
 10
-21.18953
 20
86.40934
  0
TEXT
  7
TextStyle03
  8
寸法
  6
CONTINUOUS
 62
     0
 10
-21.55
 20
86.8875
  1
117
 40
3.0
 50
90.0
 72
     5
 11
-21.55
 21
91.7625
  0
ENDBLK
  0
BLOCK
  2
*DIM_0009
 70
    65
 10
0.0
 20
0.0
  0
LINE
  8
寸法
  6
BYBLOCK
 62
     0
 10
-41.73896
 20
-7.740662
 11
-21.18953
 21
-7.740662
  0
LINE
  8
寸法
  6
BYBLOCK
 62
     0
 10
-33.715082
 20
-1.890665
 11
-21.18953
 21
-1.890665
  0
LINE
  8
寸法
  6
BYBLOCK
 62
     0
 10
-21.18953
 20
-7.740662
 11
-21.18953
 21
-1.890665
  0
POINT
  8
寸法
 62
     0
 10
-21.18953
 20
-7.740662
  0
POINT
  8
寸法
 62
     0
 10
-21.18953
 20
-1.890665
  0
TEXT
  7
TextStyle03
  8
寸法
  6
CONTINUOUS
 62
     0
 10
-21.575
 20
-7.2375
  1
117
 40
3.0
 50
90.0
 72
     5
 11
-21.575
 21
-2.3625
  0
ENDBLK
  0
BLOCK
  2
*DIM_0010
 70
    65
 10
0.0
 20
0.0
  0
LINE
  8
寸法
  6
BYBLOCK
 62
     0
 10
-100.23896
 20
-57.907947
 11
-100.23896
 21
-42.437085
  0
LINE
  8
寸法
  6
BYBLOCK
 62
     0
 10
-85.23896
 20
-57.907947
 11
-85.23896
 21
-42.437085
  0
LINE
  8
寸法
  6
BYBLOCK
 62
     0
 10
-100.23896
 20
-42.437085
 11
-85.23896
 21
-42.437085
  0
POINT
  8
寸法
 62
     0
 10
-100.23896
 20
-42.437085
  0
POINT
  8
寸法
 62
     0
 10
-85.23896
 20
-42.437085
  0
TEXT
  7
TextStyle03
  8
寸法
  6
CONTINUOUS
 62
     0
 10
-96.0
 20
-42.075
  1
300
 40
4.0
 72
     5
 11
-89.5
 21
-42.075
  0
ENDBLK
  0
BLOCK
  2
*DIM_0011
 70
    65
 10
0.0
 20
0.0
  0
LINE
  8
寸法
  6
BYBLOCK
 62
     0
 10
-77.279985
 20
-51.407942
 11
-76.334985
 21
-51.407942
  0
LINE
  8
寸法
  6
BYBLOCK
 62
     0
 10
-84.23896
 20
-58.907947
 11
-76.334985
 21
-58.907947
  0
LINE
  8
寸法
  6
BYBLOCK
 62
     0
 10
-76.334985
 20
-51.407942
 11
-76.334985
 21
-58.907947
  0
POINT
  8
寸法
 62
     0
 10
-76.334985
 20
-51.407942
  0
POINT
  8
寸法
 62
     0
 10
-76.334985
 20
-58.907947
  0
TEXT
  7
TextStyle03
  8
寸法
  6
CONTINUOUS
 62
     0
 10
-76.725
 20
-58.425
  1
150
 40
4.0
 50
90.0
 72
     5
 11
-76.725
 21
-51.925
  0
ENDBLK
  0
BLOCK
  2
*GRP_0012
 70
    65
 10
0.0
 20
0.0
  0
POLYLINE
  8
寸法
  6
BYBLOCK
 62
     0
 66
     1
  0
VERTEX
  8
寸法
 10
-139.49962
 20
75.710365
  0
VERTEX
  8
寸法
 10
-145.916122
 20
82.126867
  0
VERTEX
  8
寸法
 10
-151.82325
 20
82.126867
  0
SEQEND
  0
ENDBLK
  0
BLOCK
  2
*DIM_0013
 70
    65
 10
0.0
 20
0.0
  0
LINE
  8
寸法
  6
BYBLOCK
 62
     0
 10
-127.73896
 20
117.514337
 11
-127.73896
 21
128.445092
  0
LINE
  8
寸法
  6
BYBLOCK
 62
     0
 10
-92.73896
 20
117.514337
 11
-92.73896
 21
128.445092
  0
LINE
  8
寸法
  6
BYBLOCK
 62
     0
 10
-127.73896
 20
128.445092
 11
-92.73896
 21
128.445092
  0
POINT
  8
寸法
 62
     0
 10
-127.73896
 20
128.445092
  0
POINT
  8
寸法
 62
     0
 10
-92.73896
 20
128.445092
  0
TEXT
  7
TextStyle03
  8
寸法
  6
CONTINUOUS
 62
     0
 10
-112.6875
 20
128.8
  1
700
 40
3.0
 72
     5
 11
-107.8125
 21
128.8
  0
ENDBLK
  0
BLOCK
  2
*DIM_0014
 70
    65
 10
0.0
 20
0.0
  0
LINE
  8
寸法
  6
BYBLOCK
 62
     0
 10
-57.73896
 20
117.514337
 11
-57.73896
 21
128.445092
  0
LINE
  8
寸法
  6
BYBLOCK
 62
     0
 10
-92.73896
 20
128.445092
 11
-57.73896
 21
128.445092
  0
POINT
  8
寸法
 62
     0
 10
-57.73896
 20
128.445092
  0
TEXT
  7
TextStyle03
  8
寸法
  6
CONTINUOUS
 62
     0
 10
-77.6875
 20
128.8
  1
700
 40
3.0
 72
     5
 11
-72.8125
 21
128.8
  0
ENDBLK
  0
BLOCK
  2
*DIM_0015
 70
    65
 10
0.0
 20
0.0
  0
LINE
  8
寸法
  6
BYBLOCK
 62
     0
 10
-167.99396
 20
77.259338
 11
-178.924715
 21
77.25934
  0
LINE
  8
寸法
  6
BYBLOCK
 62
     0
 10
-167.993963
 20
42.259338
 11
-178.924718
 21
42.25934
  0
LINE
  8
寸法
  6
BYBLOCK
 62
     0
 10
-178.924715
 20
77.25934
 11
-178.924718
 21
42.25934
  0
POINT
  8
寸法
 62
     0
 10
-178.924715
 20
77.25934
  0
POINT
  8
寸法
 62
     0
 10
-178.924718
 20
42.25934
  0
TEXT
  7
TextStyle03
  8
寸法
  6
CONTINUOUS
 62
     0
 10
-179.3
 20
57.2875
  1
700
 40
3.0
 50
90.0
 72
     5
 11
-179.3
 21
62.1625
  0
ENDBLK
  0
BLOCK
  2
*DIM_0016
 70
    65
 10
0.0
 20
0.0
  0
LINE
  8
寸法
  6
BYBLOCK
 62
     0
 10
-167.993963
 20
42.259338
 11
-178.924718
 21
42.259342
  0
LINE
  8
寸法
  6
BYBLOCK
 62
     0
 10
-167.993965
 20
7.259338
 11
-178.92472
 21
7.259342
  0
LINE
  8
寸法
  6
BYBLOCK
 62
     0
 10
-178.924718
 20
42.259342
 11
-178.92472
 21
7.259342
  0
POINT
  8
寸法
 62
     0
 10
-178.92472
 20
7.259342
  0
TEXT
  7
TextStyle03
  8
寸法
  6
CONTINUOUS
 62
     0
 10
-179.3
 20
22.2875
  1
700
 40
3.0
 50
90.0
 72
     5
 11
-179.3
 21
27.1625
  0
ENDBLK
  0
BLOCK
  2
*GRP_0017
 70
    65
 10
0.0
 20
0.0
  0
LINE
  8
補助線
  6
BYBLOCK
 62
    64
 10
97.32633
 20
-112.05145
 11
97.51209
 21
-112.218755
  0
LINE
  8
補助線
  6
BYBLOCK
 62
    64
 10
97.502863
 20
-112.042223
 11
97.335557
 21
-112.227982
  0
LINE
  8
補助線
  6
BYBLOCK
 62
    64
 10
81.43944
 20
-97.74372
 11
81.253672
 21
-97.576415
  0
LINE
  8
補助線
  6
BYBLOCK
 62
    64
 10
81.430205
 20
-97.567183
 11
81.262903
 21
-97.752952
  0
LINE
  8
補助線
  6
BYBLOCK
 62
    64
 10
65.366583
 20
-83.268902
 11
65.180812
 21
-83.101607
  0
LINE
  8
補助線
  6
BYBLOCK
 62
    64
 10
65.357345
 20
-83.09237
 11
65.190052
 21
-83.27814
  0
LINE
  8
型材断面
  6
CONTINUOUS
 10
98.627262
 20
-111.540867
 11
98.682655
 21
-112.600078
  0
LINE
  8
型材断面
  6
CONTINUOUS
 10
98.682655
 20
-112.600078
 11
98.013445
 21
-113.343155
  0
LINE
  8
型材断面
  6
CONTINUOUS
 10
98.013445
 20
-113.343155
 11
96.954235
 21
-113.398548
  0
LINE
  8
型材断面
  6
CONTINUOUS
 10
65.738658
 20
-81.9218
 11
64.679448
 21
-81.977215
  0
LINE
  8
型材断面
  6
CONTINUOUS
 10
64.679448
 20
-81.977215
 11
64.010245
 21
-82.720295
  0
LINE
  8
型材断面
  6
CONTINUOUS
 10
64.010245
 20
-82.720295
 11
64.065658
 21
-83.779505
  0
LINE
  8
型材断面
  6
CONTINUOUS
 10
98.627262
 20
-111.540867
 11
65.739098
 21
-81.921778
  0
LINE
  8
型材断面
  6
CONTINUOUS
 10
96.954235
 20
-113.398548
 11
64.065635
 21
-83.77908
  0
LINE
  8
ボルト／ビス
  6
CONTINUOUS
 62
    64
 10
97.728303
 20
-111.79189
 11
97.870985
 21
-112.231182
  0
LINE
  8
ボルト／ビス
  6
CONTINUOUS
 62
    64
 10
97.728303
 20
-111.79189
 11
97.27653
 21
-111.695815
  0
LINE
  8
ボルト／ビス
  6
CONTINUOUS
 62
    64
 10
97.110117
 20
-112.478315
 11
97.56189
 21
-112.57439
  0
LINE
  8
ボルト／ビス
  6
CONTINUOUS
 62
    64
 10
97.110117
 20
-112.478315
 11
96.967435
 21
-112.039023
  0
CIRCLE
  8
ボルト／ビス
  6
CONTINUOUS
 62
    64
 10
97.41921
 20
-112.135102
 40
0.4
  0
LINE
  8
ボルト／ビス
  6
CONTINUOUS
 62
    64
 10
97.27653
 20
-111.695815
 11
96.967435
 21
-112.039023
  0
LINE
  8
ボルト／ビス
  6
CONTINUOUS
 62
    64
 10
97.870985
 20
-112.231182
 11
97.56189
 21
-112.57439
  0
LINE
  8
ボルト／ビス
  6
CONTINUOUS
 62
    64
 10
81.655653
 20
-97.31686
 11
81.203873
 21
-97.220777
  0
LINE
  8
ボルト／ビス
  6
CONTINUOUS
 62
    64
 10
81.655653
 20
-97.31686
 11
81.798335
 21
-97.756145
  0
LINE
  8
ボルト／ビス
  6
CONTINUOUS
 62
    64
 10
81.03746
 20
-98.003277
 11
80.89478
 21
-97.563987
  0
LINE
  8
ボルト／ビス
  6
CONTINUOUS
 62
    64
 10
81.03746
 20
-98.003277
 11
81.489235
 21
-98.099355
  0
CIRCLE
  8
ボルト／ビス
  6
CONTINUOUS
 62
    64
 10
81.346552
 20
-97.660067
 40
0.4
  0
LINE
  8
ボルト／ビス
  6
CONTINUOUS
 62
    64
 10
81.798335
 20
-97.756145
 11
81.489235
 21
-98.099355
  0
LINE
  8
ボルト／ビス
  6
CONTINUOUS
 62
    64
 10
81.203873
 20
-97.220777
 11
80.89478
 21
-97.563987
  0
LINE
  8
ボルト／ビス
  6
CONTINUOUS
 62
    64
 10
65.58279
 20
-82.842043
 11
65.13101
 21
-82.745968
  0
LINE
  8
ボルト／ビス
  6
CONTINUOUS
 62
    64
 10
65.58279
 20
-82.842043
 11
65.72547
 21
-83.281328
  0
LINE
  8
ボルト／ビス
  6
CONTINUOUS
 62
    64
 10
64.964605
 20
-83.52847
 11
64.821923
 21
-83.089182
  0
LINE
  8
ボルト／ビス
  6
CONTINUOUS
 62
    64
 10
64.964605
 20
-83.52847
 11
65.416385
 21
-83.624543
  0
CIRCLE
  8
ボルト／ビス
  6
CONTINUOUS
 62
    64
 10
65.273697
 20
-83.185255
 40
0.4
  0
LINE
  8
ボルト／ビス
  6
CONTINUOUS
 62
    64
 10
65.72547
 20
-83.281328
 11
65.416385
 21
-83.624543
  0
LINE
  8
ボルト／ビス
  6
CONTINUOUS
 62
    64
 10
65.13101
 20
-82.745968
 11
64.821923
 21
-83.089182
  0
ENDBLK
  0
BLOCK
  2
*GRP_0018
 70
    65
 10
0.0
 20
0.0
  0
LINE
  8
補助線
  6
BYBLOCK
 62
    64
 10
65.36678
 20
-112.05145
 11
65.18102
 21
-112.218755
  0
LINE
  8
補助線
  6
BYBLOCK
 62
    64
 10
65.190248
 20
-112.042223
 11
65.357553
 21
-112.227982
  0
LINE
  8
補助線
  6
BYBLOCK
 62
    64
 10
81.25367
 20
-97.74372
 11
81.439437
 21
-97.576415
  0
LINE
  8
補助線
  6
BYBLOCK
 62
    64
 10
81.262905
 20
-97.567183
 11
81.430207
 21
-97.752952
  0
LINE
  8
補助線
  6
BYBLOCK
 62
    64
 10
97.326527
 20
-83.268902
 11
97.512298
 21
-83.101607
  0
LINE
  8
補助線
  6
BYBLOCK
 62
    64
 10
97.335765
 20
-83.09237
 11
97.503058
 21
-83.27814
  0
LINE
  8
型材断面
  6
CONTINUOUS
 10
64.065848
 20
-111.540867
 11
64.010455
 21
-112.600078
  0
LINE
  8
型材断面
  6
CONTINUOUS
 10
64.010455
 20
-112.600078
 11
64.679665
 21
-113.343155
  0
LINE
  8
型材断面
  6
CONTINUOUS
 10
64.679665
 20
-113.343155
 11
65.738875
 21
-113.398548
  0
LINE
  8
型材断面
  6
CONTINUOUS
 10
96.954452
 20
-81.9218
 11
98.013662
 21
-81.977215
  0
LINE
  8
型材断面
  6
CONTINUOUS
 10
98.013662
 20
-81.977215
 11
98.682865
 21
-82.720295
  0
LINE
  8
型材断面
  6
CONTINUOUS
 10
98.682865
 20
-82.720295
 11
98.627453
 21
-83.779505
  0
LINE
  8
型材断面
  6
CONTINUOUS
 10
64.065848
 20
-111.540867
 11
96.954012
 21
-81.921778
  0
LINE
  8
型材断面
  6
CONTINUOUS
 10
65.738875
 20
-113.398548
 11
98.627475
 21
-83.77908
  0
LINE
  8
ボルト／ビス
  6
CONTINUOUS
 62
    64
 10
64.964807
 20
-111.79189
 11
64.822125
 21
-112.231182
  0
LINE
  8
ボルト／ビス
  6
CONTINUOUS
 62
    64
 10
64.964807
 20
-111.79189
 11
65.41658
 21
-111.695815
  0
LINE
  8
ボルト／ビス
  6
CONTINUOUS
 62
    64
 10
65.582993
 20
-112.478315
 11
65.13122
 21
-112.57439
  0
LINE
  8
ボルト／ビス
  6
CONTINUOUS
 62
    64
 10
65.582993
 20
-112.478315
 11
65.725675
 21
-112.039023
  0
CIRCLE
  8
ボルト／ビス
  6
CONTINUOUS
 62
    64
 10
65.2739
 20
-112.135102
 40
0.4
  0
LINE
  8
ボルト／ビス
  6
CONTINUOUS
 62
    64
 10
65.41658
 20
-111.695815
 11
65.725675
 21
-112.039023
  0
LINE
  8
ボルト／ビス
  6
CONTINUOUS
 62
    64
 10
64.822125
 20
-112.231182
 11
65.13122
 21
-112.57439
  0
LINE
  8
ボルト／ビス
  6
CONTINUOUS
 62
    64
 10
81.037457
 20
-97.31686
 11
81.489237
 21
-97.220777
  0
LINE
  8
ボルト／ビス
  6
CONTINUOUS
 62
    64
 10
81.037457
 20
-97.31686
 11
80.894775
 21
-97.756145
  0
LINE
  8
ボルト／ビス
  6
CONTINUOUS
 62
    64
 10
81.65565
 20
-98.003277
 11
81.79833
 21
-97.563987
  0
LINE
  8
ボルト／ビス
  6
CONTINUOUS
 62
    64
 10
81.65565
 20
-98.003277
 11
81.203875
 21
-98.099355
  0
CIRCLE
  8
ボルト／ビス
  6
CONTINUOUS
 62
    64
 10
81.346558
 20
-97.660067
 40
0.4
  0
LINE
  8
ボルト／ビス
  6
CONTINUOUS
 62
    64
 10
80.894775
 20
-97.756145
 11
81.203875
 21
-98.099355
  0
LINE
  8
ボルト／ビス
  6
CONTINUOUS
 62
    64
 10
81.489237
 20
-97.220777
 11
81.79833
 21
-97.563987
  0
LINE
  8
ボルト／ビス
  6
CONTINUOUS
 62
    64
 10
97.11032
 20
-82.842043
 11
97.5621
 21
-82.745968
  0
LINE
  8
ボルト／ビス
  6
CONTINUOUS
 62
    64
 10
97.11032
 20
-82.842043
 11
96.96764
 21
-83.281328
  0
LINE
  8
ボルト／ビス
  6
CONTINUOUS
 62
    64
 10
97.728505
 20
-83.52847
 11
97.871188
 21
-83.089182
  0
LINE
  8
ボルト／ビス
  6
CONTINUOUS
 62
    64
 10
97.728505
 20
-83.52847
 11
97.276725
 21
-83.624543
  0
CIRCLE
  8
ボルト／ビス
  6
CONTINUOUS
 62
    64
 10
97.419412
 20
-83.185255
 40
0.4
  0
LINE
  8
ボルト／ビス
  6
CONTINUOUS
 62
    64
 10
96.96764
 20
-83.281328
 11
97.276725
 21
-83.624543
  0
LINE
  8
ボルト／ビス
  6
CONTINUOUS
 62
    64
 10
97.5621
 20
-82.745968
 11
97.871188
 21
-83.089182
  0
ENDBLK
  0
BLOCK
  2
*GRP_0019
 70
    65
 10
0.0
 20
0.0
  0
LINE
  8
補助線
  6
BYBLOCK
 62
    64
 10
1.51221
 20
-112.05145
 11
1.32645
 21
-112.218755
  0
LINE
  8
補助線
  6
BYBLOCK
 62
    64
 10
1.335678
 20
-112.042223
 11
1.502982
 21
-112.227982
  0
LINE
  8
補助線
  6
BYBLOCK
 62
    64
 10
17.3991
 20
-97.74372
 11
17.584867
 21
-97.576415
  0
LINE
  8
補助線
  6
BYBLOCK
 62
    64
 10
17.408335
 20
-97.567183
 11
17.575638
 21
-97.752952
  0
LINE
  8
補助線
  6
BYBLOCK
 62
    64
 10
33.471957
 20
-83.268902
 11
33.657727
 21
-83.101607
  0
LINE
  8
補助線
  6
BYBLOCK
 62
    64
 10
33.481195
 20
-83.09237
 11
33.648488
 21
-83.27814
  0
LINE
  8
型材断面
  6
CONTINUOUS
 10
0.211277
 20
-111.540867
 11
0.155885
 21
-112.600078
  0
LINE
  8
型材断面
  6
CONTINUOUS
 10
0.155885
 20
-112.600078
 11
0.825095
 21
-113.343155
  0
LINE
  8
型材断面
  6
CONTINUOUS
 10
0.825095
 20
-113.343155
 11
1.884305
 21
-113.398548
  0
LINE
  8
型材断面
  6
CONTINUOUS
 10
33.099883
 20
-81.9218
 11
34.159093
 21
-81.977215
  0
LINE
  8
型材断面
  6
CONTINUOUS
 10
34.159093
 20
-81.977215
 11
34.828295
 21
-82.720295
  0
LINE
  8
型材断面
  6
CONTINUOUS
 10
34.828295
 20
-82.720295
 11
34.772883
 21
-83.779505
  0
LINE
  8
型材断面
  6
CONTINUOUS
 10
0.211277
 20
-111.540867
 11
33.099443
 21
-81.921778
  0
LINE
  8
型材断面
  6
CONTINUOUS
 10
1.884305
 20
-113.398548
 11
34.772905
 21
-83.77908
  0
LINE
  8
ボルト／ビス
  6
CONTINUOUS
 62
    64
 10
1.110238
 20
-111.79189
 11
0.967555
 21
-112.231182
  0
LINE
  8
ボルト／ビス
  6
CONTINUOUS
 62
    64
 10
1.110238
 20
-111.79189
 11
1.56201
 21
-111.695815
  0
LINE
  8
ボルト／ビス
  6
CONTINUOUS
 62
    64
 10
1.728422
 20
-112.478315
 11
1.27665
 21
-112.57439
  0
LINE
  8
ボルト／ビス
  6
CONTINUOUS
 62
    64
 10
1.728422
 20
-112.478315
 11
1.871105
 21
-112.039023
  0
CIRCLE
  8
ボルト／ビス
  6
CONTINUOUS
 62
    64
 10
1.41933
 20
-112.135102
 40
0.4
  0
LINE
  8
ボルト／ビス
  6
CONTINUOUS
 62
    64
 10
1.56201
 20
-111.695815
 11
1.871105
 21
-112.039023
  0
LINE
  8
ボルト／ビス
  6
CONTINUOUS
 62
    64
 10
0.967555
 20
-112.231182
 11
1.27665
 21
-112.57439
  0
LINE
  8
ボルト／ビス
  6
CONTINUOUS
 62
    64
 10
17.182887
 20
-97.31686
 11
17.634668
 21
-97.220777
  0
LINE
  8
ボルト／ビス
  6
CONTINUOUS
 62
    64
 10
17.182887
 20
-97.31686
 11
17.040205
 21
-97.756145
  0
LINE
  8
ボルト／ビス
  6
CONTINUOUS
 62
    64
 10
17.80108
 20
-98.003277
 11
17.94376
 21
-97.563987
  0
LINE
  8
ボルト／ビス
  6
CONTINUOUS
 62
    64
 10
17.80108
 20
-98.003277
 11
17.349305
 21
-98.099355
  0
CIRCLE
  8
ボルト／ビス
  6
CONTINUOUS
 62
    64
 10
17.491987
 20
-97.660067
 40
0.4
  0
LINE
  8
ボルト／ビス
  6
CONTINUOUS
 62
    64
 10
17.040205
 20
-97.756145
 11
17.349305
 21
-98.099355
  0
LINE
  8
ボルト／ビス
  6
CONTINUOUS
 62
    64
 10
17.634668
 20
-97.220777
 11
17.94376
 21
-97.563987
  0
LINE
  8
ボルト／ビス
  6
CONTINUOUS
 62
    64
 10
33.25575
 20
-82.842043
 11
33.70753
 21
-82.745968
  0
LINE
  8
ボルト／ビス
  6
CONTINUOUS
 62
    64
 10
33.25575
 20
-82.842043
 11
33.11307
 21
-83.281328
  0
LINE
  8
ボルト／ビス
  6
CONTINUOUS
 62
    64
 10
33.873935
 20
-83.52847
 11
34.016618
 21
-83.089182
  0
LINE
  8
ボルト／ビス
  6
CONTINUOUS
 62
    64
 10
33.873935
 20
-83.52847
 11
33.422155
 21
-83.624543
  0
CIRCLE
  8
ボルト／ビス
  6
CONTINUOUS
 62
    64
 10
33.564842
 20
-83.185255
 40
0.4
  0
LINE
  8
ボルト／ビス
  6
CONTINUOUS
 62
    64
 10
33.11307
 20
-83.281328
 11
33.422155
 21
-83.624543
  0
LINE
  8
ボルト／ビス
  6
CONTINUOUS
 62
    64
 10
33.70753
 20
-82.745968
 11
34.016618
 21
-83.089182
  0
ENDBLK
  0
BLOCK
  2
*GRP_0020
 70
    65
 10
0.0
 20
0.0
  0
LINE
  8
補助線
  6
BYBLOCK
 62
    64
 10
33.47176
 20
-112.05145
 11
33.65752
 21
-112.218755
  0
LINE
  8
補助線
  6
BYBLOCK
 62
    64
 10
33.648293
 20
-112.042223
 11
33.480988
 21
-112.227982
  0
LINE
  8
補助線
  6
BYBLOCK
 62
    64
 10
17.58487
 20
-97.74372
 11
17.399102
 21
-97.576415
  0
LINE
  8
補助線
  6
BYBLOCK
 62
    64
 10
17.575635
 20
-97.567183
 11
17.408332
 21
-97.752952
  0
LINE
  8
補助線
  6
BYBLOCK
 62
    64
 10
1.512012
 20
-83.268902
 11
1.326243
 21
-83.101607
  0
LINE
  8
補助線
  6
BYBLOCK
 62
    64
 10
1.502775
 20
-83.09237
 11
1.335483
 21
-83.27814
  0
LINE
  8
型材断面
  6
CONTINUOUS
 10
34.772693
 20
-111.540867
 11
34.828085
 21
-112.600078
  0
LINE
  8
型材断面
  6
CONTINUOUS
 10
34.828085
 20
-112.600078
 11
34.158875
 21
-113.343155
  0
LINE
  8
型材断面
  6
CONTINUOUS
 10
34.158875
 20
-113.343155
 11
33.099665
 21
-113.398548
  0
LINE
  8
型材断面
  6
CONTINUOUS
 10
1.884087
 20
-81.9218
 11
0.824878
 21
-81.977215
  0
LINE
  8
型材断面
  6
CONTINUOUS
 10
0.824878
 20
-81.977215
 11
0.155675
 21
-82.720295
  0
LINE
  8
型材断面
  6
CONTINUOUS
 10
0.155675
 20
-82.720295
 11
0.211088
 21
-83.779505
  0
LINE
  8
型材断面
  6
CONTINUOUS
 10
34.772693
 20
-111.540867
 11
1.884527
 21
-81.921778
  0
LINE
  8
型材断面
  6
CONTINUOUS
 10
33.099665
 20
-113.398548
 11
0.211065
 21
-83.77908
  0
LINE
  8
ボルト／ビス
  6
CONTINUOUS
 62
    64
 10
33.873733
 20
-111.79189
 11
34.016415
 21
-112.231182
  0
LINE
  8
ボルト／ビス
  6
CONTINUOUS
 62
    64
 10
33.873733
 20
-111.79189
 11
33.42196
 21
-111.695815
  0
LINE
  8
ボルト／ビス
  6
CONTINUOUS
 62
    64
 10
33.255547
 20
-112.478315
 11
33.70732
 21
-112.57439
  0
LINE
  8
ボルト／ビス
  6
CONTINUOUS
 62
    64
 10
33.255547
 20
-112.478315
 11
33.112865
 21
-112.039023
  0
CIRCLE
  8
ボルト／ビス
  6
CONTINUOUS
 62
    64
 10
33.56464
 20
-112.135102
 40
0.4
  0
LINE
  8
ボルト／ビス
  6
CONTINUOUS
 62
    64
 10
33.42196
 20
-111.695815
 11
33.112865
 21
-112.039023
  0
LINE
  8
ボルト／ビス
  6
CONTINUOUS
 62
    64
 10
34.016415
 20
-112.231182
 11
33.70732
 21
-112.57439
  0
LINE
  8
ボルト／ビス
  6
CONTINUOUS
 62
    64
 10
17.801082
 20
-97.31686
 11
17.349302
 21
-97.220777
  0
LINE
  8
ボルト／ビス
  6
CONTINUOUS
 62
    64
 10
17.801082
 20
-97.31686
 11
17.943765
 21
-97.756145
  0
LINE
  8
ボルト／ビス
  6
CONTINUOUS
 62
    64
 10
17.18289
 20
-98.003277
 11
17.04021
 21
-97.563987
  0
LINE
  8
ボルト／ビス
  6
CONTINUOUS
 62
    64
 10
17.18289
 20
-98.003277
 11
17.634665
 21
-98.099355
  0
CIRCLE
  8
ボルト／ビス
  6
CONTINUOUS
 62
    64
 10
17.491983
 20
-97.660067
 40
0.4
  0
LINE
  8
ボルト／ビス
  6
CONTINUOUS
 62
    64
 10
17.943765
 20
-97.756145
 11
17.634665
 21
-98.099355
  0
LINE
  8
ボルト／ビス
  6
CONTINUOUS
 62
    64
 10
17.349302
 20
-97.220777
 11
17.04021
 21
-97.563987
  0
LINE
  8
ボルト／ビス
  6
CONTINUOUS
 62
    64
 10
1.72822
 20
-82.842043
 11
1.27644
 21
-82.745968
  0
LINE
  8
ボルト／ビス
  6
CONTINUOUS
 62
    64
 10
1.72822
 20
-82.842043
 11
1.8709
 21
-83.281328
  0
LINE
  8
ボルト／ビス
  6
CONTINUOUS
 62
    64
 10
1.110035
 20
-83.52847
 11
0.967353
 21
-83.089182
  0
LINE
  8
ボルト／ビス
  6
CONTINUOUS
 62
    64
 10
1.110035
 20
-83.52847
 11
1.561815
 21
-83.624543
  0
CIRCLE
  8
ボルト／ビス
  6
CONTINUOUS
 62
    64
 10
1.419127
 20
-83.185255
 40
0.4
  0
LINE
  8
ボルト／ビス
  6
CONTINUOUS
 62
    64
 10
1.8709
 20
-83.281328
 11
1.561815
 21
-83.624543
  0
LINE
  8
ボルト／ビス
  6
CONTINUOUS
 62
    64
 10
1.27644
 20
-82.745968
 11
0.967353
 21
-83.089182
  0
ENDBLK
  0
BLOCK
  2
*DIM_0021
 70
    65
 10
0.0
 20
0.0
  0
LINE
  8
寸法
  6
BYBLOCK
 62
     0
 10
116.722378
 20
-38.114055
 11
116.722378
 21
-51.272847
  0
LINE
  8
寸法
  6
BYBLOCK
 62
     0
 10
166.707378
 20
-38.114055
 11
166.707378
 21
-51.272847
  0
LINE
  8
寸法
  6
BYBLOCK
 62
     0
 10
116.722378
 20
-51.272847
 11
166.707378
 21
-51.272847
  0
POINT
  8
寸法
 62
     0
 10
116.722378
 20
-51.272847
  0
POINT
  8
寸法
 62
     0
 10
166.707378
 20
-51.272847
  0
TEXT
  7
TextStyle03
  8
寸法
  6
CONTINUOUS
 62
     0
 10
137.575
 20
-50.925
  1
999.7
 40
3.0
 72
     5
 11
145.825
 21
-50.925
  0
ENDBLK
  0
BLOCK
  2
*DIM_0022
 70
    65
 10
0.0
 20
0.0
  0
LINE
  8
寸法
  6
BYBLOCK
 62
     0
 10
169.707378
 20
-35.114055
 11
178.701678
 21
-35.114055
  0
LINE
  8
寸法
  6
BYBLOCK
 62
     0
 10
169.707378
 20
35.575105
 11
178.701678
 21
35.575105
  0
LINE
  8
寸法
  6
BYBLOCK
 62
     0
 10
178.701678
 20
-35.114055
 11
178.701678
 21
35.575105
  0
POINT
  8
寸法
 62
     0
 10
178.701678
 20
-35.114055
  0
POINT
  8
寸法
 62
     0
 10
178.701678
 20
35.575105
  0
TEXT
  7
TextStyle03
  8
寸法
  6
CONTINUOUS
 62
     0
 10
178.3
 20
-4.74375
  1
1413.8
 40
3.0
 50
90.0
 72
     5
 11
178.3
 21
5.19375
  0
ENDBLK
  0
BLOCK
  2
*DIM_0023
 70
    65
 10
0.0
 20
0.0
  0
LINE
  8
寸法
  6
BYBLOCK
 62
     0
 10
103.83921
 20
-85.61914
 11
119.13414
 21
-85.61914
  0
LINE
  8
寸法
  6
BYBLOCK
 62
     0
 10
103.83921
 20
-110.61914
 11
119.13414
 21
-110.61914
  0
LINE
  8
寸法
  6
BYBLOCK
 62
     0
 10
119.13414
 20
-85.61914
 11
119.13414
 21
-110.61914
  0
POINT
  8
寸法
 62
     0
 10
119.13414
 20
-85.61914
  0
POINT
  8
寸法
 62
     0
 10
119.13414
 20
-110.61914
  0
TEXT
  7
TextStyle03
  8
寸法
  6
CONTINUOUS
 62
     0
 10
118.75
 20
-107.21875
  1
上昇436以上
 40
3.0
 50
90.0
 72
     5
 11
118.75
 21
-89.03125
  0
ENDBLK
  0
ENDSEC
  0
SECTION
  2
ENTITIES
  0
POLYLINE
  8
通り芯
  6
CONTINUOUS
 66
     1
 70
     1
  0
VERTEX
  8
通り芯
 10
-210.0
 20
-148.5
  0
VERTEX
  8
通り芯
 10
210.0
 20
-148.5
  0
VERTEX
  8
通り芯
 10
210.0
 20
148.5
  0
VERTEX
  8
通り芯
 10
-210.0
 20
148.5
  0
SEQEND
  0
INSERT
  2
*GRP_0001
  8
型材断面
  6
CONTINUOUS
 10
0.0
 20
0.0
  0
LINE
  8
型材断面
  6
CONTINUOUS
 10
-43.728848
 20
-10.017838
 11
-40.461787
 21
-10.017838
  0
LINE
  8
型材断面
  6
CONTINUOUS
 10
-40.461787
 20
-10.017838
 11
-40.461787
 21
-6.750778
  0
LINE
  8
型材断面
  6
CONTINUOUS
 10
-39.118285
 20
-11.36134
 11
-92.73896
 21
-11.36134
  0
LINE
  8
型材断面
  6
CONTINUOUS
 10
-38.76473
 20
-11.714893
 11
-92.73896
 21
-11.714893
  0
LINE
  8
型材断面
  6
CONTINUOUS
 10
-40.108235
 20
-10.37139
 11
-92.73896
 21
-10.37139
  0
LINE
  8
型材断面
  6
CONTINUOUS
 10
-40.391078
 20
-10.088548
 11
-92.73896
 21
-10.088548
  0
LINE
  8
型材断面
  6
CONTINUOUS
 10
-38.46396
 20
-12.015662
 11
-92.73896
 21
-12.015662
  0
LINE
  8
型材断面
  6
DASHDOT
 10
-42.73896
 20
-7.740662
 11
-142.73896
 21
-7.740662
  0
LINE
  8
型材断面
  6
DASHDOT
 10
-42.73896
 20
42.259338
 11
-142.73896
 21
42.259338
  0
LINE
  8
型材断面
  6
DASHDOT
 10
-42.73896
 20
92.259338
 11
-142.73896
 21
92.259338
  0
LINE
  8
型材断面
  6
CONTINUOUS
 10
-40.108235
 20
-10.37139
 11
-40.108235
 21
42.259338
  0
LINE
  8
型材断面
  6
CONTINUOUS
 10
-40.391078
 20
-10.088548
 11
-40.391078
 21
42.259338
  0
LINE
  8
型材断面
  6
CONTINUOUS
 10
-38.46396
 20
-12.015662
 11
-38.46396
 21
42.259338
  0
LINE
  8
型材断面
  6
CONTINUOUS
 10
-38.76473
 20
-11.714893
 11
-38.76473
 21
42.259338
  0
LINE
  8
型材断面
  6
CONTINUOUS
 10
-39.118285
 20
-11.36134
 11
-39.118285
 21
42.259338
  0
LINE
  8
型材断面
  6
DASHDOT
 10
-38.46396
 20
-12.015662
 11
-88.48896
 21
38.009338
  0
LINE
  8
型材断面
  6
CONTINUOUS
 10
-43.728848
 20
94.536513
 11
-40.461787
 21
94.536513
  0
LINE
  8
型材断面
  6
CONTINUOUS
 10
-40.461787
 20
94.536513
 11
-40.461787
 21
91.269453
  0
LINE
  8
型材断面
  6
CONTINUOUS
 10
-39.118285
 20
95.880015
 11
-92.73896
 21
95.880015
  0
LINE
  8
型材断面
  6
CONTINUOUS
 10
-38.76473
 20
96.233568
 11
-92.73896
 21
96.233568
  0
LINE
  8
型材断面
  6
CONTINUOUS
 10
-40.108235
 20
94.890065
 11
-92.73896
 21
94.890065
  0
LINE
  8
型材断面
  6
CONTINUOUS
 10
-40.391078
 20
94.607222
 11
-92.73896
 21
94.607222
  0
LINE
  8
型材断面
  6
CONTINUOUS
 10
-38.46396
 20
96.534338
 11
-92.73896
 21
96.534338
  0
LINE
  8
型材断面
  6
CONTINUOUS
 10
-40.108235
 20
94.890065
 11
-40.108235
 21
42.259338
  0
LINE
  8
型材断面
  6
CONTINUOUS
 10
-40.391078
 20
94.607222
 11
-40.391078
 21
42.259338
  0
LINE
  8
型材断面
  6
CONTINUOUS
 10
-38.46396
 20
96.534338
 11
-38.46396
 21
42.259338
  0
LINE
  8
型材断面
  6
CONTINUOUS
 10
-38.76473
 20
96.233568
 11
-38.76473
 21
42.259338
  0
LINE
  8
型材断面
  6
CONTINUOUS
 10
-39.118285
 20
95.880015
 11
-39.118285
 21
42.259338
  0
LINE
  8
型材断面
  6
DASHDOT
 10
-38.46396
 20
96.534338
 11
-88.48896
 21
46.509338
  0
LINE
  8
型材断面
  6
CONTINUOUS
 10
-141.749072
 20
94.536513
 11
-145.016133
 21
94.536513
  0
LINE
  8
型材断面
  6
CONTINUOUS
 10
-145.016133
 20
94.536513
 11
-145.016133
 21
91.269453
  0
LINE
  8
型材断面
  6
CONTINUOUS
 10
-146.359635
 20
95.880015
 11
-92.73896
 21
95.880015
  0
LINE
  8
型材断面
  6
CONTINUOUS
 10
-146.71319
 20
96.233568
 11
-92.73896
 21
96.233568
  0
LINE
  8
型材断面
  6
CONTINUOUS
 10
-145.369685
 20
94.890065
 11
-92.73896
 21
94.890065
  0
LINE
  8
型材断面
  6
CONTINUOUS
 10
-145.086842
 20
94.607222
 11
-92.73896
 21
94.607222
  0
LINE
  8
型材断面
  6
CONTINUOUS
 10
-147.01396
 20
96.534338
 11
-92.73896
 21
96.534338
  0
LINE
  8
型材断面
  6
CONTINUOUS
 10
-145.369685
 20
94.890065
 11
-145.369685
 21
42.259338
  0
LINE
  8
型材断面
  6
CONTINUOUS
 10
-145.086842
 20
94.607222
 11
-145.086842
 21
42.259338
  0
LINE
  8
型材断面
  6
CONTINUOUS
 10
-147.01396
 20
96.534338
 11
-147.01396
 21
42.259338
  0
LINE
  8
型材断面
  6
CONTINUOUS
 10
-146.71319
 20
96.233568
 11
-146.71319
 21
42.259338
  0
LINE
  8
型材断面
  6
CONTINUOUS
 10
-146.359635
 20
95.880015
 11
-146.359635
 21
42.259338
  0
LINE
  8
型材断面
  6
DASHDOT
 10
-147.01396
 20
96.534338
 11
-96.98896
 21
46.509338
  0
LINE
  8
型材断面
  6
CONTINUOUS
 10
-141.749072
 20
-10.017838
 11
-145.016133
 21
-10.017838
  0
LINE
  8
型材断面
  6
CONTINUOUS
 10
-145.016133
 20
-10.017838
 11
-145.016133
 21
-6.750778
  0
LINE
  8
型材断面
  6
CONTINUOUS
 10
-146.359635
 20
-11.36134
 11
-92.73896
 21
-11.36134
  0
LINE
  8
型材断面
  6
CONTINUOUS
 10
-146.71319
 20
-11.714893
 11
-92.73896
 21
-11.714893
  0
LINE
  8
型材断面
  6
CONTINUOUS
 10
-145.369685
 20
-10.37139
 11
-92.73896
 21
-10.37139
  0
LINE
  8
型材断面
  6
CONTINUOUS
 10
-145.086842
 20
-10.088548
 11
-92.73896
 21
-10.088548
  0
LINE
  8
型材断面
  6
CONTINUOUS
 10
-147.01396
 20
-12.015662
 11
-92.73896
 21
-12.015662
  0
LINE
  8
型材断面
  6
CONTINUOUS
 10
-145.369685
 20
-10.37139
 11
-145.369685
 21
42.259338
  0
LINE
  8
型材断面
  6
CONTINUOUS
 10
-145.086842
 20
-10.088548
 11
-145.086842
 21
42.259338
  0
LINE
  8
型材断面
  6
CONTINUOUS
 10
-147.01396
 20
-12.015662
 11
-147.01396
 21
42.259338
  0
LINE
  8
型材断面
  6
CONTINUOUS
 10
-146.71319
 20
-11.714893
 11
-146.71319
 21
42.259338
  0
LINE
  8
型材断面
  6
CONTINUOUS
 10
-146.359635
 20
-11.36134
 11
-146.359635
 21
42.259338
  0
LINE
  8
型材断面
  6
DASHDOT
 10
-147.01396
 20
-12.015662
 11
-96.98896
 21
38.009338
  0
LINE
  8
型材断面
  6
CONTINUOUS
 10
-38.76473
 20
-105.488135
 11
-38.46396
 21
-105.788908
  0
LINE
  8
型材断面
  6
CONTINUOUS
 10
-38.46396
 20
-107.135102
 11
-38.46396
 21
-105.788908
  0
LINE
  8
型材断面
  6
CONTINUOUS
 62
    47
 10
-38.46396
 20
-107.835102
 11
-38.46396
 21
-107.135102
  0
LINE
  8
型材断面
  6
CONTINUOUS
 62
    47
 10
-39.13896
 20
-107.835102
 11
-39.13896
 21
-108.335102
  0
LINE
  8
型材断面
  6
CONTINUOUS
 62
    47
 10
-40.108235
 20
-104.144632
 11
-38.76473
 21
-105.488135
  0
LINE
  8
型材断面
  6
CONTINUOUS
 10
-40.461787
 20
-103.79108
 11
-44.011693
 21
-103.79108
  0
LINE
  8
型材断面
  6
CONTINUOUS
 62
    47
 10
-39.31896
 20
-110.61914
 11
-39.31896
 21
-110.11914
  0
LINE
  8
型材断面
  6
CONTINUOUS
 62
    47
 10
-39.31896
 20
-110.11914
 11
-40.49396
 21
-109.96914
  0
LINE
  8
型材断面
  6
CONTINUOUS
 62
    47
 10
-40.49396
 20
-109.360103
 11
-40.49396
 21
-109.96914
  0
LINE
  8
型材断面
  6
CONTINUOUS
 62
    47
 10
-39.788962
 20
-109.360103
 11
-39.788962
 21
-108.335102
  0
LINE
  8
型材断面
  6
CONTINUOUS
 62
    47
 10
-39.788962
 20
-114.560103
 11
-39.788962
 21
-110.61914
  0
LINE
  8
型材断面
  6
CONTINUOUS
 62
    47
 10
-40.638962
 20
-115.310103
 11
-40.638962
 21
-114.560103
  0
LINE
  8
型材断面
  6
CONTINUOUS
 62
    47
 10
-40.638962
 20
-115.310103
 11
-92.73896
 21
-115.310103
  0
LINE
  8
型材断面
  6
CONTINUOUS
 62
    47
 10
-39.788962
 20
-114.560103
 11
-92.73896
 21
-114.560103
  0
LINE
  8
型材断面
  6
CONTINUOUS
 62
    47
 10
-39.31896
 20
-110.61914
 11
-92.73896
 21
-110.61914
  0
LINE
  8
型材断面
  6
CONTINUOUS
 10
-40.49396
 20
-109.96914
 11
-92.73896
 21
-109.96914
  0
LINE
  8
型材断面
  6
CONTINUOUS
 10
-39.31896
 20
-110.11914
 11
-92.73896
 21
-110.11914
  0
LINE
  8
型材断面
  6
CONTINUOUS
 62
    47
 10
-39.788962
 20
-109.360103
 11
-92.73896
 21
-109.360103
  0
LINE
  8
型材断面
  6
CONTINUOUS
 10
-38.46396
 20
-107.135102
 11
-92.73896
 21
-107.135102
  0
LINE
  8
型材断面
  6
CONTINUOUS
 10
-39.13896
 20
-108.335102
 11
-92.73896
 21
-108.335102
  0
LINE
  8
型材断面
  6
CONTINUOUS
 10
-38.46396
 20
-107.835102
 11
-92.73896
 21
-107.835102
  0
LINE
  8
型材断面
  6
CONTINUOUS
 10
-38.76473
 20
-105.488135
 11
-92.73896
 21
-105.488135
  0
LINE
  8
型材断面
  6
CONTINUOUS
 10
-39.118285
 20
-105.134583
 11
-92.73896
 21
-105.134583
  0
LINE
  8
型材断面
  6
CONTINUOUS
 10
-40.108235
 20
-104.144632
 11
-92.73896
 21
-104.144632
  0
LINE
  8
型材断面
  6
CONTINUOUS
 10
-38.46396
 20
-105.788908
 11
-92.73896
 21
-105.788908
  0
LINE
  8
型材断面
  6
CONTINUOUS
 10
-146.71319
 20
-105.488135
 11
-147.01396
 21
-105.788908
  0
LINE
  8
型材断面
  6
CONTINUOUS
 10
-147.01396
 20
-107.135102
 11
-147.01396
 21
-105.788908
  0
LINE
  8
型材断面
  6
CONTINUOUS
 62
    47
 10
-147.01396
 20
-107.835102
 11
-147.01396
 21
-107.135102
  0
LINE
  8
型材断面
  6
CONTINUOUS
 62
    47
 10
-146.33896
 20
-107.835102
 11
-146.33896
 21
-108.335102
  0
LINE
  8
型材断面
  6
CONTINUOUS
 62
    47
 10
-145.369685
 20
-104.144632
 11
-146.71319
 21
-105.488135
  0
LINE
  8
型材断面
  6
CONTINUOUS
 10
-145.016133
 20
-103.79108
 11
-141.466227
 21
-103.79108
  0
LINE
  8
型材断面
  6
CONTINUOUS
 62
    47
 10
-146.15896
 20
-110.61914
 11
-146.15896
 21
-110.11914
  0
LINE
  8
型材断面
  6
CONTINUOUS
 62
    47
 10
-146.15896
 20
-110.11914
 11
-144.98396
 21
-109.96914
  0
LINE
  8
型材断面
  6
CONTINUOUS
 62
    47
 10
-144.98396
 20
-109.360103
 11
-144.98396
 21
-109.96914
  0
LINE
  8
型材断面
  6
CONTINUOUS
 62
    47
 10
-145.688958
 20
-109.360103
 11
-145.688958
 21
-108.335102
  0
LINE
  8
型材断面
  6
CONTINUOUS
 62
    47
 10
-145.688958
 20
-114.560103
 11
-145.688958
 21
-110.61914
  0
LINE
  8
型材断面
  6
CONTINUOUS
 62
    47
 10
-144.838958
 20
-115.310103
 11
-144.838958
 21
-114.560103
  0
LINE
  8
型材断面
  6
CONTINUOUS
 62
    47
 10
-144.838958
 20
-115.310103
 11
-92.73896
 21
-115.310103
  0
LINE
  8
型材断面
  6
CONTINUOUS
 62
    47
 10
-145.688958
 20
-114.560103
 11
-92.73896
 21
-114.560103
  0
LINE
  8
型材断面
  6
CONTINUOUS
 62
    47
 10
-146.15896
 20
-110.61914
 11
-92.73896
 21
-110.61914
  0
LINE
  8
型材断面
  6
CONTINUOUS
 10
-144.98396
 20
-109.96914
 11
-92.73896
 21
-109.96914
  0
LINE
  8
型材断面
  6
CONTINUOUS
 10
-146.15896
 20
-110.11914
 11
-92.73896
 21
-110.11914
  0
LINE
  8
型材断面
  6
CONTINUOUS
 62
    47
 10
-145.688958
 20
-109.360103
 11
-92.73896
 21
-109.360103
  0
LINE
  8
型材断面
  6
CONTINUOUS
 10
-147.01396
 20
-107.135102
 11
-92.73896
 21
-107.135102
  0
LINE
  8
型材断面
  6
CONTINUOUS
 10
-146.33896
 20
-108.335102
 11
-92.73896
 21
-108.335102
  0
LINE
  8
型材断面
  6
CONTINUOUS
 10
-147.01396
 20
-107.835102
 11
-92.73896
 21
-107.835102
  0
LINE
  8
型材断面
  6
CONTINUOUS
 10
-146.71319
 20
-105.488135
 11
-92.73896
 21
-105.488135
  0
LINE
  8
型材断面
  6
CONTINUOUS
 10
-146.359635
 20
-105.134583
 11
-92.73896
 21
-105.134583
  0
LINE
  8
型材断面
  6
CONTINUOUS
 10
-145.369685
 20
-104.144632
 11
-92.73896
 21
-104.144632
  0
LINE
  8
型材断面
  6
CONTINUOUS
 10
-147.01396
 20
-105.788908
 11
-92.73896
 21
-105.788908
  0
LINE
  8
型材断面
  6
DASHDOT
 10
-142.73896
 20
92.259338
 11
-142.73896
 21
-115.310103
  0
LINE
  8
型材断面
  6
DASHDOT
 10
-42.73896
 20
92.259338
 11
-42.73896
 21
-115.310103
  0
LINE
  8
型材断面
  6
DASHDOT
 10
-92.73896
 20
92.259338
 11
-92.73896
 21
-115.310103
  0
LINE
  8
型材断面
  6
CONTINUOUS
 10
-92.73896
 20
-15.764538
 11
-94.982405
 21
-19.650298
  0
LINE
  8
型材断面
  6
CONTINUOUS
 10
-92.73896
 20
-15.764538
 11
-90.495515
 21
-19.650298
  0
LINE
  8
型材断面
  6
CONTINUOUS
 10
-90.495515
 20
-19.650298
 11
-94.982405
 21
-19.650298
  0
LINE
  8
型材断面
  6
CONTINUOUS
 10
-150.762838
 20
42.259338
 11
-154.648597
 21
40.015892
  0
LINE
  8
型材断面
  6
CONTINUOUS
 10
-150.762838
 20
42.259338
 11
-154.648597
 21
44.502782
  0
LINE
  8
型材断面
  6
CONTINUOUS
 10
-154.648597
 20
44.502782
 11
-154.648597
 21
40.015892
  0
LINE
  8
型材断面
  6
CONTINUOUS
 10
-92.73896
 20
100.283213
 11
-94.982405
 21
104.168973
  0
LINE
  8
型材断面
  6
CONTINUOUS
 10
-92.73896
 20
100.283213
 11
-90.495515
 21
104.168973
  0
LINE
  8
型材断面
  6
CONTINUOUS
 10
-90.495515
 20
104.168973
 11
-94.982405
 21
104.168973
  0
LINE
  8
型材断面
  6
CONTINUOUS
 10
-34.715082
 20
42.259338
 11
-30.829323
 21
40.015892
  0
LINE
  8
型材断面
  6
CONTINUOUS
 10
-34.715082
 20
42.259338
 11
-30.829323
 21
44.502782
  0
LINE
  8
型材断面
  6
CONTINUOUS
 10
-30.829323
 20
44.502782
 11
-30.829323
 21
40.015892
  0
LINE
  8
型材断面
  6
DOT
 10
-47.755198
 20
92.259338
 11
-47.755198
 21
-7.740662
  0
LINE
  8
型材断面
  6
DOT
 10
-45.755198
 20
92.259338
 11
-45.755198
 21
-7.740662
  0
LINE
  8
型材断面
  6
DOT
 10
-137.722722
 20
92.259338
 11
-137.722722
 21
-7.740662
  0
LINE
  8
型材断面
  6
DOT
 10
-139.722722
 20
92.259338
 11
-139.722722
 21
-7.740662
  0
LINE
  8
型材断面
  6
CONTINUOUS
 10
-34.715082
 20
86.40934
 11
-30.829323
 21
85.515255
  0
LINE
  8
型材断面
  6
CONTINUOUS
 10
-34.715082
 20
86.40934
 11
-30.829323
 21
87.303425
  0
LINE
  8
型材断面
  6
CONTINUOUS
 10
-30.829323
 20
87.303425
 11
-30.829323
 21
85.515255
  0
LINE
  8
型材断面
  6
CONTINUOUS
 10
-34.715082
 20
-1.890665
 11
-30.829323
 21
-0.99658
  0
LINE
  8
型材断面
  6
CONTINUOUS
 10
-34.715082
 20
-1.890665
 11
-30.829323
 21
-2.78475
  0
LINE
  8
型材断面
  6
CONTINUOUS
 10
-30.829323
 20
-2.78475
 11
-30.829323
 21
-0.99658
  0
LINE
  8
型材断面
  6
CONTINUOUS
 10
-150.762838
 20
86.40934
 11
-154.648597
 21
85.515255
  0
LINE
  8
型材断面
  6
CONTINUOUS
 10
-150.762838
 20
86.40934
 11
-154.648597
 21
87.303425
  0
LINE
  8
型材断面
  6
CONTINUOUS
 10
-154.648597
 20
87.303425
 11
-154.648597
 21
85.515255
  0
LINE
  8
型材断面
  6
CONTINUOUS
 10
-150.762838
 20
-1.890665
 11
-154.648597
 21
-0.99658
  0
LINE
  8
型材断面
  6
CONTINUOUS
 10
-150.762838
 20
-1.890665
 11
-154.648597
 21
-2.78475
  0
LINE
  8
型材断面
  6
CONTINUOUS
 10
-154.648597
 20
-2.78475
 11
-154.648597
 21
-0.99658
  0
LINE
  8
型材断面
  6
CONTINUOUS
 10
-91.51396
 20
-10.017838
 11
-93.96396
 21
-10.017838
  0
LINE
  8
型材断面
  6
CONTINUOUS
 10
-40.461785
 20
41.034338
 11
-40.461785
 21
43.484338
  0
LINE
  8
型材断面
  6
CONTINUOUS
 10
-93.96396
 20
94.536513
 11
-91.51396
 21
94.536513
  0
LINE
  8
型材断面
  6
CONTINUOUS
 10
-145.016135
 20
43.484338
 11
-145.016135
 21
41.034338
  0
LINE
  8
型材断面
  6
CONTINUOUS
 10
-93.96396
 20
-103.79108
 11
-91.51396
 21
-103.79108
  0
POLYLINE
  8
型材断面
  6
CONTINUOUS
 66
     1
 70
     1
  0
VERTEX
  8
型材断面
 10
-83.200518
 20
-20.845398
  0
VERTEX
  8
型材断面
 10
-101.75573
 20
-20.845398
  0
VERTEX
  8
型材断面
 10
-101.75573
 20
-25.637432
  0
VERTEX
  8
型材断面
 10
-83.200518
 20
-25.637432
  0
SEQEND
  0
POLYLINE
  8
型材断面
  6
CONTINUOUS
 66
     1
 70
     1
  0
VERTEX
  8
型材断面
 10
-83.200518
 20
110.288977
  0
VERTEX
  8
型材断面
 10
-101.75573
 20
110.288977
  0
VERTEX
  8
型材断面
 10
-101.75573
 20
105.496942
  0
VERTEX
  8
型材断面
 10
-83.200518
 20
105.496942
  0
SEQEND
  0
LINE
  8
型材断面
  6
CONTINUOUS
 10
-100.23896
 20
49.759338
 11
-100.23896
 21
34.759338
  0
LINE
  8
型材断面
  6
CONTINUOUS
 10
-100.23896
 20
34.759338
 11
-85.23896
 21
34.759338
  0
LINE
  8
型材断面
  6
CONTINUOUS
 10
-85.23896
 20
34.759338
 11
-85.23896
 21
49.759338
  0
LINE
  8
型材断面
  6
CONTINUOUS
 10
-100.23896
 20
49.759338
 11
-85.23896
 21
49.759338
  0
LINE
  8
型材断面
  6
CONTINUOUS
 10
-85.23896
 20
49.759338
 11
-100.23896
 21
34.759338
  0
LINE
  8
型材断面
  6
CONTINUOUS
 10
-100.23896
 20
49.759338
 11
-85.23896
 21
34.759338
  0
LINE
  8
型材断面
  6
CONTINUOUS
 10
-141.749072
 20
94.536513
 11
-96.97191
 21
49.759338
  0
LINE
  8
型材断面
  6
CONTINUOUS
 10
-144.66258
 20
94.536513
 11
-99.885418
 21
49.759338
  0
LINE
  8
型材断面
  6
CONTINUOUS
 10
-93.96396
 20
94.536513
 11
-93.96396
 21
49.759338
  0
LINE
  8
型材断面
  6
CONTINUOUS
 10
-92.98896
 20
94.536513
 11
-92.98896
 21
49.759338
  0
LINE
  8
型材断面
  6
CONTINUOUS
 10
-92.48896
 20
94.536513
 11
-92.48896
 21
49.759338
  0
LINE
  8
型材断面
  6
CONTINUOUS
 10
-91.51396
 20
94.536513
 11
-91.51396
 21
49.759338
  0
LINE
  8
型材断面
  6
CONTINUOUS
 10
-43.728848
 20
94.536513
 11
-88.50601
 21
49.759338
  0
LINE
  8
型材断面
  6
CONTINUOUS
 10
-40.81534
 20
94.536513
 11
-85.592502
 21
49.759338
  0
LINE
  8
型材断面
  6
CONTINUOUS
 10
-40.461787
 20
94.182957
 11
-85.23896
 21
49.405773
  0
LINE
  8
型材断面
  6
CONTINUOUS
 10
-40.461787
 20
91.269453
 11
-85.23896
 21
46.49227
  0
LINE
  8
型材断面
  6
CONTINUOUS
 10
-40.461785
 20
43.484338
 11
-85.23896
 21
43.484338
  0
LINE
  8
型材断面
  6
CONTINUOUS
 10
-40.461785
 20
42.509338
 11
-85.23896
 21
42.509338
  0
LINE
  8
型材断面
  6
CONTINUOUS
 10
-40.461785
 20
42.009338
 11
-85.23896
 21
42.009338
  0
LINE
  8
型材断面
  6
CONTINUOUS
 10
-40.461785
 20
41.034338
 11
-85.23896
 21
41.034338
  0
LINE
  8
型材断面
  6
CONTINUOUS
 10
-40.461787
 20
-6.750778
 11
-85.23896
 21
38.026405
  0
LINE
  8
型材断面
  6
CONTINUOUS
 10
-40.461787
 20
-9.664282
 11
-85.23896
 21
35.112903
  0
LINE
  8
型材断面
  6
CONTINUOUS
 10
-40.81534
 20
-10.017838
 11
-85.592502
 21
34.759338
  0
LINE
  8
型材断面
  6
CONTINUOUS
 10
-43.728848
 20
-10.017838
 11
-88.50601
 21
34.759338
  0
LINE
  8
型材断面
  6
CONTINUOUS
 10
-91.51396
 20
-10.017838
 11
-91.51396
 21
34.759338
  0
LINE
  8
型材断面
  6
CONTINUOUS
 10
-92.48896
 20
-10.017838
 11
-92.48896
 21
34.759338
  0
LINE
  8
型材断面
  6
CONTINUOUS
 10
-92.98896
 20
-10.017838
 11
-92.98896
 21
34.759338
  0
LINE
  8
型材断面
  6
CONTINUOUS
 10
-93.96396
 20
-10.017838
 11
-93.96396
 21
34.759338
  0
LINE
  8
型材断面
  6
CONTINUOUS
 10
-141.749072
 20
-10.017838
 11
-96.97191
 21
34.759338
  0
LINE
  8
型材断面
  6
CONTINUOUS
 10
-144.66258
 20
-10.017838
 11
-99.885418
 21
34.759338
  0
LINE
  8
型材断面
  6
CONTINUOUS
 10
-145.016133
 20
-9.664282
 11
-100.23896
 21
35.112903
  0
LINE
  8
型材断面
  6
CONTINUOUS
 10
-145.016133
 20
-6.750778
 11
-100.23896
 21
38.026405
  0
LINE
  8
型材断面
  6
CONTINUOUS
 10
-145.016135
 20
41.034338
 11
-100.23896
 21
41.034338
  0
LINE
  8
型材断面
  6
CONTINUOUS
 10
-145.016135
 20
43.484338
 11
-100.23896
 21
43.484338
  0
LINE
  8
型材断面
  6
CONTINUOUS
 10
-145.016135
 20
42.509338
 11
-100.23896
 21
42.509338
  0
LINE
  8
型材断面
  6
CONTINUOUS
 10
-145.016135
 20
42.009338
 11
-100.23896
 21
42.009338
  0
LINE
  8
型材断面
  6
CONTINUOUS
 10
-145.016133
 20
91.269453
 11
-100.23896
 21
46.49227
  0
LINE
  8
型材断面
  6
CONTINUOUS
 10
-145.016133
 20
94.182957
 11
-100.23896
 21
49.405773
  0
LINE
  8
型材断面
  6
CONTINUOUS
 10
-92.73896
 20
-51.407942
 11
-100.23896
 21
-58.907947
  0
LINE
  8
型材断面
  6
CONTINUOUS
 10
-100.23896
 20
-58.907947
 11
-100.185977
 21
-58.96093
  0
LINE
  8
型材断面
  6
CONTINUOUS
 10
-100.238962
 20
-58.907947
 11
-95.988962
 21
-58.907947
  0
LINE
  8
型材断面
  6
CONTINUOUS
 10
-100.185977
 20
-58.96093
 11
-95.988962
 21
-58.96093
  0
LINE
  8
型材断面
  6
CONTINUOUS
 10
-100.185977
 20
-58.96093
 11
-100.238962
 21
-58.907947
  0
LINE
  8
型材断面
  6
CONTINUOUS
 10
-100.23896
 20
-58.907947
 11
-92.73896
 21
-58.907947
  0
LINE
  8
型材断面
  6
CONTINUOUS
 10
-100.185977
 20
-58.96093
 11
-92.73896
 21
-58.96093
  0
LINE
  8
型材断面
  6
CONTINUOUS
 10
-85.23896
 20
-58.907947
 11
-85.291943
 21
-58.96093
  0
LINE
  8
型材断面
  6
CONTINUOUS
 10
-85.238958
 20
-58.907947
 11
-89.488958
 21
-58.907947
  0
LINE
  8
型材断面
  6
CONTINUOUS
 10
-85.291943
 20
-58.96093
 11
-89.488958
 21
-58.96093
  0
LINE
  8
型材断面
  6
CONTINUOUS
 10
-85.291943
 20
-58.96093
 11
-85.238958
 21
-58.907947
  0
LINE
  8
型材断面
  6
CONTINUOUS
 10
-85.23896
 20
-58.907947
 11
-92.73896
 21
-58.907947
  0
LINE
  8
型材断面
  6
CONTINUOUS
 10
-85.291943
 20
-58.96093
 11
-92.73896
 21
-58.96093
  0
LINE
  8
型材断面
  6
CONTINUOUS
 10
-92.73896
 20
-51.407942
 11
-85.238955
 21
-58.907947
  0
LINE
  8
型材断面
  6
CONTINUOUS
 10
-144.662578
 20
-103.79108
 11
-99.832427
 21
-58.96093
  0
LINE
  8
型材断面
  6
CONTINUOUS
 10
-141.74907
 20
-103.79108
 11
-96.918933
 21
-58.96093
  0
LINE
  8
型材断面
  6
CONTINUOUS
 10
-141.466227
 20
-103.79108
 11
-96.63609
 21
-58.96093
  0
LINE
  8
型材断面
  6
CONTINUOUS
 10
-93.96396
 20
-103.79108
 11
-93.96396
 21
-58.96093
  0
LINE
  8
型材断面
  6
CONTINUOUS
 10
-92.98896
 20
-103.79108
 11
-92.98896
 21
-58.96093
  0
LINE
  8
型材断面
  6
CONTINUOUS
 10
-92.48896
 20
-103.79108
 11
-92.48896
 21
-58.96093
  0
LINE
  8
型材断面
  6
CONTINUOUS
 10
-91.51396
 20
-103.79108
 11
-91.51396
 21
-58.96093
  0
LINE
  8
型材断面
  6
CONTINUOUS
 10
-43.72885
 20
-103.79108
 11
-88.558987
 21
-58.96093
  0
LINE
  8
型材断面
  6
CONTINUOUS
 10
-44.011693
 20
-103.79108
 11
-88.84183
 21
-58.96093
  0
LINE
  8
型材断面
  6
CONTINUOUS
 10
-40.815343
 20
-103.79108
 11
-85.645493
 21
-58.96093
  0
LINE
  8
型材断面
  6
CONTINUOUS
 10
-145.369685
 20
-104.144632
 11
-92.73896
 21
-51.513908
  0
LINE
  8
型材断面
  6
CONTINUOUS
 10
-40.108235
 20
-104.144632
 11
-92.73896
 21
-51.513908
  0
LINE
  8
型材断面
  6
CONTINUOUS
 10
103.39344
 20
-105.488135
 11
103.69421
 21
-105.788908
  0
LINE
  8
型材断面
  6
CONTINUOUS
 10
103.69421
 20
-107.135102
 11
103.69421
 21
-105.788908
  0
LINE
  8
型材断面
  6
CONTINUOUS
 62
    47
 10
103.69421
 20
-107.835102
 11
103.69421
 21
-107.135102
  0
LINE
  8
型材断面
  6
CONTINUOUS
 62
    47
 10
103.01921
 20
-107.835102
 11
103.01921
 21
-108.335102
  0
LINE
  8
型材断面
  6
CONTINUOUS
 62
    47
 10
102.049935
 20
-104.144632
 11
103.39344
 21
-105.488135
  0
LINE
  8
型材断面
  6
CONTINUOUS
 10
101.696383
 20
-103.79108
 11
98.146478
 21
-103.79108
  0
LINE
  8
型材断面
  6
CONTINUOUS
 62
    47
 10
102.83921
 20
-110.61914
 11
102.83921
 21
-110.11914
  0
LINE
  8
型材断面
  6
CONTINUOUS
 62
    47
 10
102.83921
 20
-110.11914
 11
101.66421
 21
-109.96914
  0
LINE
  8
型材断面
  6
CONTINUOUS
 62
    47
 10
101.66421
 20
-109.360103
 11
101.66421
 21
-109.96914
  0
LINE
  8
型材断面
  6
CONTINUOUS
 62
    47
 10
102.369208
 20
-109.360103
 11
102.369208
 21
-108.335102
  0
LINE
  8
型材断面
  6
CONTINUOUS
 62
    47
 10
102.369208
 20
-114.560103
 11
102.369208
 21
-110.61914
  0
LINE
  8
型材断面
  6
CONTINUOUS
 62
    47
 10
101.519208
 20
-115.310103
 11
101.519208
 21
-114.560103
  0
LINE
  8
型材断面
  6
CONTINUOUS
 62
    47
 10
101.519208
 20
-115.310103
 11
49.41921
 21
-115.310103
  0
LINE
  8
型材断面
  6
CONTINUOUS
 62
    47
 10
102.369208
 20
-114.560103
 11
49.41921
 21
-114.560103
  0
LINE
  8
型材断面
  6
CONTINUOUS
 62
    47
 10
102.83921
 20
-110.61914
 11
49.41921
 21
-110.61914
  0
LINE
  8
型材断面
  6
CONTINUOUS
 10
101.66421
 20
-109.96914
 11
49.41921
 21
-109.96914
  0
LINE
  8
型材断面
  6
CONTINUOUS
 10
102.83921
 20
-110.11914
 11
49.41921
 21
-110.11914
  0
LINE
  8
型材断面
  6
CONTINUOUS
 62
    47
 10
102.369208
 20
-109.360103
 11
49.41921
 21
-109.360103
  0
LINE
  8
型材断面
  6
CONTINUOUS
 10
103.69421
 20
-107.135102
 11
49.41921
 21
-107.135102
  0
LINE
  8
型材断面
  6
CONTINUOUS
 10
103.01921
 20
-108.335102
 11
49.41921
 21
-108.335102
  0
LINE
  8
型材断面
  6
CONTINUOUS
 10
103.69421
 20
-107.835102
 11
49.41921
 21
-107.835102
  0
LINE
  8
型材断面
  6
CONTINUOUS
 10
103.39344
 20
-105.488135
 11
49.41921
 21
-105.488135
  0
LINE
  8
型材断面
  6
CONTINUOUS
 10
103.039885
 20
-105.134583
 11
49.41921
 21
-105.134583
  0
LINE
  8
型材断面
  6
CONTINUOUS
 10
102.049935
 20
-104.144632
 11
49.41921
 21
-104.144632
  0
LINE
  8
型材断面
  6
CONTINUOUS
 10
103.69421
 20
-105.788908
 11
49.41921
 21
-105.788908
  0
LINE
  8
型材断面
  6
CONTINUOUS
 10
-4.55502
 20
-105.488135
 11
-4.85579
 21
-105.788908
  0
LINE
  8
型材断面
  6
CONTINUOUS
 10
-4.85579
 20
-107.135102
 11
-4.85579
 21
-105.788908
  0
LINE
  8
型材断面
  6
CONTINUOUS
 62
    47
 10
-4.85579
 20
-107.835102
 11
-4.85579
 21
-107.135102
  0
LINE
  8
型材断面
  6
CONTINUOUS
 62
    47
 10
-4.18079
 20
-107.835102
 11
-4.18079
 21
-108.335102
  0
LINE
  8
型材断面
  6
CONTINUOUS
 62
    47
 10
-3.211515
 20
-104.144632
 11
-4.55502
 21
-105.488135
  0
LINE
  8
型材断面
  6
CONTINUOUS
 10
-2.857963
 20
-103.79108
 11
0.691943
 21
-103.79108
  0
LINE
  8
型材断面
  6
CONTINUOUS
 62
    47
 10
-4.00079
 20
-110.61914
 11
-4.00079
 21
-110.11914
  0
LINE
  8
型材断面
  6
CONTINUOUS
 62
    47
 10
-4.00079
 20
-110.11914
 11
-2.82579
 21
-109.96914
  0
LINE
  8
型材断面
  6
CONTINUOUS
 62
    47
 10
-2.82579
 20
-109.360103
 11
-2.82579
 21
-109.96914
  0
LINE
  8
型材断面
  6
CONTINUOUS
 62
    47
 10
-3.530788
 20
-109.360103
 11
-3.530788
 21
-108.335102
  0
LINE
  8
型材断面
  6
CONTINUOUS
 62
    47
 10
-3.530788
 20
-114.560103
 11
-3.530788
 21
-110.61914
  0
LINE
  8
型材断面
  6
CONTINUOUS
 62
    47
 10
-2.680788
 20
-115.310103
 11
-2.680788
 21
-114.560103
  0
LINE
  8
型材断面
  6
CONTINUOUS
 62
    47
 10
-2.680788
 20
-115.310103
 11
49.41921
 21
-115.310103
  0
LINE
  8
型材断面
  6
CONTINUOUS
 62
    47
 10
-3.530788
 20
-114.560103
 11
49.41921
 21
-114.560103
  0
LINE
  8
型材断面
  6
CONTINUOUS
 62
    47
 10
-4.00079
 20
-110.61914
 11
49.41921
 21
-110.61914
  0
LINE
  8
型材断面
  6
CONTINUOUS
 10
-2.82579
 20
-109.96914
 11
49.41921
 21
-109.96914
  0
LINE
  8
型材断面
  6
CONTINUOUS
 10
-4.00079
 20
-110.11914
 11
49.41921
 21
-110.11914
  0
LINE
  8
型材断面
  6
CONTINUOUS
 62
    47
 10
-3.530788
 20
-109.360103
 11
49.41921
 21
-109.360103
  0
LINE
  8
型材断面
  6
CONTINUOUS
 10
-4.85579
 20
-107.135102
 11
49.41921
 21
-107.135102
  0
LINE
  8
型材断面
  6
CONTINUOUS
 10
-4.18079
 20
-108.335102
 11
49.41921
 21
-108.335102
  0
LINE
  8
型材断面
  6
CONTINUOUS
 10
-4.85579
 20
-107.835102
 11
49.41921
 21
-107.835102
  0
LINE
  8
型材断面
  6
CONTINUOUS
 10
-4.55502
 20
-105.488135
 11
49.41921
 21
-105.488135
  0
LINE
  8
型材断面
  6
CONTINUOUS
 10
-4.201465
 20
-105.134583
 11
49.41921
 21
-105.134583
  0
LINE
  8
型材断面
  6
CONTINUOUS
 10
-3.211515
 20
-104.144632
 11
49.41921
 21
-104.144632
  0
LINE
  8
型材断面
  6
CONTINUOUS
 10
-4.85579
 20
-105.788908
 11
49.41921
 21
-105.788908
  0
LINE
  8
型材断面
  6
CONTINUOUS
 10
48.19421
 20
-103.79108
 11
50.64421
 21
-103.79108
  0
LINE
  8
型材断面
  6
CONTINUOUS
 10
49.41921
 20
-51.407942
 11
41.91921
 21
-58.907947
  0
LINE
  8
型材断面
  6
CONTINUOUS
 10
41.91921
 20
-58.907947
 11
41.972192
 21
-58.96093
  0
LINE
  8
型材断面
  6
CONTINUOUS
 10
41.919208
 20
-58.907947
 11
46.169208
 21
-58.907947
  0
LINE
  8
型材断面
  6
CONTINUOUS
 10
41.972192
 20
-58.96093
 11
46.169208
 21
-58.96093
  0
LINE
  8
型材断面
  6
CONTINUOUS
 10
41.972192
 20
-58.96093
 11
41.919208
 21
-58.907947
  0
LINE
  8
型材断面
  6
CONTINUOUS
 10
41.91921
 20
-58.907947
 11
49.41921
 21
-58.907947
  0
LINE
  8
型材断面
  6
CONTINUOUS
 10
41.972192
 20
-58.96093
 11
49.41921
 21
-58.96093
  0
LINE
  8
型材断面
  6
CONTINUOUS
 10
56.91921
 20
-58.907947
 11
56.866228
 21
-58.96093
  0
LINE
  8
型材断面
  6
CONTINUOUS
 10
56.919212
 20
-58.907947
 11
52.669212
 21
-58.907947
  0
LINE
  8
型材断面
  6
CONTINUOUS
 10
56.866228
 20
-58.96093
 11
52.669212
 21
-58.96093
  0
LINE
  8
型材断面
  6
CONTINUOUS
 10
56.866228
 20
-58.96093
 11
56.919212
 21
-58.907947
  0
LINE
  8
型材断面
  6
CONTINUOUS
 10
56.91921
 20
-58.907947
 11
49.41921
 21
-58.907947
  0
LINE
  8
型材断面
  6
CONTINUOUS
 10
56.866228
 20
-58.96093
 11
49.41921
 21
-58.96093
  0
LINE
  8
型材断面
  6
CONTINUOUS
 10
49.41921
 20
-51.407942
 11
56.919215
 21
-58.907947
  0
LINE
  8
型材断面
  6
CONTINUOUS
 10
-2.504407
 20
-103.79108
 11
42.325742
 21
-58.96093
  0
LINE
  8
型材断面
  6
CONTINUOUS
 10
0.4091
 20
-103.79108
 11
45.239237
 21
-58.96093
  0
LINE
  8
型材断面
  6
CONTINUOUS
 10
0.691943
 20
-103.79108
 11
45.52208
 21
-58.96093
  0
LINE
  8
型材断面
  6
CONTINUOUS
 10
48.19421
 20
-103.79108
 11
48.19421
 21
-58.96093
  0
LINE
  8
型材断面
  6
CONTINUOUS
 10
49.16921
 20
-103.79108
 11
49.16921
 21
-58.96093
  0
LINE
  8
型材断面
  6
CONTINUOUS
 10
49.66921
 20
-103.79108
 11
49.66921
 21
-58.96093
  0
LINE
  8
型材断面
  6
CONTINUOUS
 10
50.64421
 20
-103.79108
 11
50.64421
 21
-58.96093
  0
LINE
  8
型材断面
  6
CONTINUOUS
 10
98.42932
 20
-103.79108
 11
53.599182
 21
-58.96093
  0
LINE
  8
型材断面
  6
CONTINUOUS
 10
98.146478
 20
-103.79108
 11
53.31634
 21
-58.96093
  0
LINE
  8
型材断面
  6
CONTINUOUS
 10
101.342828
 20
-103.79108
 11
56.512678
 21
-58.96093
  0
LINE
  8
型材断面
  6
CONTINUOUS
 10
-3.211515
 20
-104.144632
 11
49.41921
 21
-51.513908
  0
LINE
  8
型材断面
  6
CONTINUOUS
 10
102.049935
 20
-104.144632
 11
49.41921
 21
-51.513908
  0
LINE
  8
型材断面
  6
DOT
 10
103.39344
 20
-80.488135
 11
103.69421
 21
-80.788908
  0
LINE
  8
型材断面
  6
DOT
 10
103.69421
 20
-82.135102
 11
103.69421
 21
-80.788908
  0
LINE
  8
型材断面
  6
DOT
 62
    47
 10
103.69421
 20
-82.835102
 11
103.69421
 21
-82.135102
  0
LINE
  8
型材断面
  6
DOT
 62
    47
 10
103.01921
 20
-82.835102
 11
103.01921
 21
-83.335102
  0
LINE
  8
型材断面
  6
DOT
 62
    47
 10
102.049935
 20
-79.144632
 11
103.39344
 21
-80.488135
  0
LINE
  8
型材断面
  6
DOT
 10
101.696383
 20
-78.79108
 11
98.146478
 21
-78.79108
  0
LINE
  8
型材断面
  6
DOT
 62
    47
 10
102.83921
 20
-85.61914
 11
102.83921
 21
-85.11914
  0
LINE
  8
型材断面
  6
DOT
 62
    47
 10
102.83921
 20
-85.11914
 11
101.66421
 21
-84.96914
  0
LINE
  8
型材断面
  6
DOT
 62
    47
 10
101.66421
 20
-84.360102
 11
101.66421
 21
-84.96914
  0
LINE
  8
型材断面
  6
DOT
 62
    47
 10
102.369208
 20
-84.360102
 11
102.369208
 21
-83.335102
  0
LINE
  8
型材断面
  6
DOT
 62
    47
 10
102.83921
 20
-85.61914
 11
49.41921
 21
-85.61914
  0
LINE
  8
型材断面
  6
DOT
 10
101.66421
 20
-84.96914
 11
49.41921
 21
-84.96914
  0
LINE
  8
型材断面
  6
DOT
 10
102.83921
 20
-85.11914
 11
49.41921
 21
-85.11914
  0
LINE
  8
型材断面
  6
DOT
 62
    47
 10
102.369208
 20
-84.360102
 11
49.41921
 21
-84.360102
  0
LINE
  8
型材断面
  6
DOT
 10
103.69421
 20
-82.135102
 11
49.41921
 21
-82.135102
  0
LINE
  8
型材断面
  6
DOT
 10
103.01921
 20
-83.335102
 11
49.41921
 21
-83.335102
  0
LINE
  8
型材断面
  6
DOT
 10
103.69421
 20
-82.835102
 11
49.41921
 21
-82.835102
  0
LINE
  8
型材断面
  6
DOT
 10
103.39344
 20
-80.488135
 11
49.41921
 21
-80.488135
  0
LINE
  8
型材断面
  6
DOT
 10
103.039885
 20
-80.134583
 11
49.41921
 21
-80.134583
  0
LINE
  8
型材断面
  6
DOT
 10
102.049935
 20
-79.144632
 11
49.41921
 21
-79.144632
  0
LINE
  8
型材断面
  6
DOT
 10
103.69421
 20
-80.788908
 11
49.41921
 21
-80.788908
  0
LINE
  8
型材断面
  6
DOT
 10
-4.55502
 20
-80.488135
 11
-4.85579
 21
-80.788908
  0
LINE
  8
型材断面
  6
DOT
 10
-4.85579
 20
-82.135102
 11
-4.85579
 21
-80.788908
  0
LINE
  8
型材断面
  6
DOT
 62
    47
 10
-4.85579
 20
-82.835102
 11
-4.85579
 21
-82.135102
  0
LINE
  8
型材断面
  6
DOT
 62
    47
 10
-4.18079
 20
-82.835102
 11
-4.18079
 21
-83.335102
  0
LINE
  8
型材断面
  6
DOT
 62
    47
 10
-3.211515
 20
-79.144632
 11
-4.55502
 21
-80.488135
  0
LINE
  8
型材断面
  6
DOT
 10
-2.857963
 20
-78.79108
 11
0.691943
 21
-78.79108
  0
LINE
  8
型材断面
  6
DOT
 62
    47
 10
-4.00079
 20
-85.61914
 11
-4.00079
 21
-85.11914
  0
LINE
  8
型材断面
  6
DOT
 62
    47
 10
-4.00079
 20
-85.11914
 11
-2.82579
 21
-84.96914
  0
LINE
  8
型材断面
  6
DOT
 62
    47
 10
-2.82579
 20
-84.360102
 11
-2.82579
 21
-84.96914
  0
LINE
  8
型材断面
  6
DOT
 62
    47
 10
-3.530788
 20
-84.360102
 11
-3.530788
 21
-83.335102
  0
LINE
  8
型材断面
  6
DOT
 62
    47
 10
-4.00079
 20
-85.61914
 11
49.41921
 21
-85.61914
  0
LINE
  8
型材断面
  6
DOT
 10
-2.82579
 20
-84.96914
 11
49.41921
 21
-84.96914
  0
LINE
  8
型材断面
  6
DOT
 10
-4.00079
 20
-85.11914
 11
49.41921
 21
-85.11914
  0
LINE
  8
型材断面
  6
DOT
 62
    47
 10
-3.530788
 20
-84.360102
 11
49.41921
 21
-84.360102
  0
LINE
  8
型材断面
  6
DOT
 10
-4.85579
 20
-82.135102
 11
49.41921
 21
-82.135102
  0
LINE
  8
型材断面
  6
DOT
 10
-4.18079
 20
-83.335102
 11
49.41921
 21
-83.335102
  0
LINE
  8
型材断面
  6
DOT
 10
-4.85579
 20
-82.835102
 11
49.41921
 21
-82.835102
  0
LINE
  8
型材断面
  6
DOT
 10
-4.55502
 20
-80.488135
 11
49.41921
 21
-80.488135
  0
LINE
  8
型材断面
  6
DOT
 10
-4.201465
 20
-80.134583
 11
49.41921
 21
-80.134583
  0
LINE
  8
型材断面
  6
DOT
 10
-3.211515
 20
-79.144632
 11
49.41921
 21
-79.144632
  0
LINE
  8
型材断面
  6
DOT
 10
-4.85579
 20
-80.788908
 11
49.41921
 21
-80.788908
  0
LINE
  8
型材断面
  6
DOT
 10
48.19421
 20
-78.79108
 11
50.64421
 21
-78.79108
  0
LINE
  8
型材断面
  6
DOT
 10
49.41921
 20
-26.407942
 11
41.91921
 21
-33.907947
  0
LINE
  8
型材断面
  6
DOT
 10
41.91921
 20
-33.907947
 11
41.972192
 21
-33.96093
  0
LINE
  8
型材断面
  6
DOT
 10
41.919208
 20
-33.907947
 11
46.169208
 21
-33.907947
  0
LINE
  8
型材断面
  6
DOT
 10
41.972192
 20
-33.96093
 11
46.169208
 21
-33.96093
  0
LINE
  8
型材断面
  6
DOT
 10
41.972192
 20
-33.96093
 11
41.919208
 21
-33.907947
  0
LINE
  8
型材断面
  6
DOT
 10
41.91921
 20
-33.907947
 11
49.41921
 21
-33.907947
  0
LINE
  8
型材断面
  6
DOT
 10
41.972192
 20
-33.96093
 11
49.41921
 21
-33.96093
  0
LINE
  8
型材断面
  6
DOT
 10
56.91921
 20
-33.907947
 11
56.866228
 21
-33.96093
  0
LINE
  8
型材断面
  6
DOT
 10
56.919212
 20
-33.907947
 11
52.669212
 21
-33.907947
  0
LINE
  8
型材断面
  6
DOT
 10
56.866228
 20
-33.96093
 11
52.669212
 21
-33.96093
  0
LINE
  8
型材断面
  6
DOT
 10
56.866228
 20
-33.96093
 11
56.919212
 21
-33.907947
  0
LINE
  8
型材断面
  6
DOT
 10
56.91921
 20
-33.907947
 11
49.41921
 21
-33.907947
  0
LINE
  8
型材断面
  6
DOT
 10
56.866228
 20
-33.96093
 11
49.41921
 21
-33.96093
  0
LINE
  8
型材断面
  6
DOT
 10
49.41921
 20
-26.407942
 11
56.919215
 21
-33.907947
  0
LINE
  8
型材断面
  6
DOT
 10
-2.504407
 20
-78.79108
 11
42.325742
 21
-33.96093
  0
LINE
  8
型材断面
  6
DOT
 10
0.4091
 20
-78.79108
 11
45.239237
 21
-33.96093
  0
LINE
  8
型材断面
  6
DOT
 10
0.691943
 20
-78.79108
 11
45.52208
 21
-33.96093
  0
LINE
  8
型材断面
  6
DOT
 10
48.19421
 20
-78.79108
 11
48.19421
 21
-33.96093
  0
LINE
  8
型材断面
  6
DOT
 10
49.16921
 20
-78.79108
 11
49.16921
 21
-33.96093
  0
LINE
  8
型材断面
  6
DOT
 10
49.66921
 20
-78.79108
 11
49.66921
 21
-33.96093
  0
LINE
  8
型材断面
  6
DOT
 10
50.64421
 20
-78.79108
 11
50.64421
 21
-33.96093
  0
LINE
  8
型材断面
  6
DOT
 10
98.42932
 20
-78.79108
 11
53.599182
 21
-33.96093
  0
LINE
  8
型材断面
  6
DOT
 10
98.146478
 20
-78.79108
 11
53.31634
 21
-33.96093
  0
LINE
  8
型材断面
  6
DOT
 10
101.342828
 20
-78.79108
 11
56.512678
 21
-33.96093
  0
LINE
  8
型材断面
  6
DOT
 10
-3.211515
 20
-79.144632
 11
49.41921
 21
-26.513908
  0
LINE
  8
型材断面
  6
DOT
 10
102.049935
 20
-79.144632
 11
49.41921
 21
-26.513908
  0
INSERT
  2
*GRP_0017
  8
型材断面
  6
CONTINUOUS
 10
0.0
 20
0.0
  0
INSERT
  2
*GRP_0018
  8
型材断面
  6
CONTINUOUS
 10
0.0
 20
0.0
  0
INSERT
  2
*GRP_0019
  8
型材断面
  6
CONTINUOUS
 10
0.0
 20
0.0
  0
INSERT
  2
*GRP_0020
  8
型材断面
  6
CONTINUOUS
 10
0.0
 20
0.0
  0
LINE
  8
型材断面
  6
CONTINUOUS
 10
118.056735
 20
22.000562
 11
141.988357
 21
22.000562
  0
LINE
  8
型材断面
  6
CONTINUOUS
 10
-7.115798
 20
11.59318
 11
-9.359242
 21
7.70742
  0
LINE
  8
型材断面
  6
CONTINUOUS
 10
-7.115798
 20
11.59318
 11
-4.872353
 21
7.70742
  0
LINE
  8
型材断面
  6
CONTINUOUS
 10
-4.872353
 20
7.70742
 11
-9.359242
 21
7.70742
  0
LINE
  8
型材断面
  6
CONTINUOUS
 10
-7.115798
 20
3.903632
 11
-6.221713
 21
0.017872
  0
LINE
  8
型材断面
  6
CONTINUOUS
 10
-7.115798
 20
3.903632
 11
-8.009883
 21
0.017872
  0
LINE
  8
型材断面
  6
CONTINUOUS
 10
-8.009883
 20
0.017872
 11
-6.221713
 21
0.017872
  0
LINE
  8
型材断面
  6
CONTINUOUS
 10
-16.149677
 20
6.299527
 11
36.507003
 21
6.299527
  0
LINE
  8
型材断面
  6
CONTINUOUS
 10
-16.149677
 20
-4.900465
 11
36.507003
 21
-4.900465
  0
LINE
  8
型材断面
  6
CONTINUOUS
 10
-16.149677
 20
-11.74041
 11
36.507003
 21
-11.74041
  0
LINE
  8
型材断面
  6
CONTINUOUS
 10
-16.149677
 20
-18.580355
 11
36.507003
 21
-18.580355
  0
LINE
  8
ガラス
  6
CONTINUOUS
 10
-101.9191
 20
73.620285
 11
-105.791735
 21
69.74765
  0
LINE
  8
ガラス
  6
CONTINUOUS
 10
-103.517458
 20
72.739963
 11
-104.911413
 21
71.346008
  0
LINE
  8
ガラス
  6
CONTINUOUS
 10
-79.665498
 20
73.620285
 11
-83.538133
 21
69.74765
  0
LINE
  8
ガラス
  6
CONTINUOUS
 10
-81.263855
 20
72.739963
 11
-82.65781
 21
71.346008
  0
LINE
  8
ガラス
  6
CONTINUOUS
 10
-101.9191
 20
13.2101
 11
-105.791735
 21
9.337465
  0
LINE
  8
ガラス
  6
CONTINUOUS
 10
-103.517458
 20
12.329777
 11
-104.911413
 21
10.935822
  0
LINE
  8
ガラス
  6
CONTINUOUS
 10
-79.665498
 20
13.2101
 11
-83.538133
 21
9.337465
  0
LINE
  8
ガラス
  6
CONTINUOUS
 10
-81.263855
 20
12.329777
 11
-82.65781
 21
10.935822
  0
LINE
  8
ガラス
  6
CONTINUOUS
 10
-59.6327
 20
31.763107
 11
-63.505335
 21
27.890473
  0
LINE
  8
ガラス
  6
CONTINUOUS
 10
-61.231058
 20
30.882785
 11
-62.625012
 21
29.48883
  0
LINE
  8
ガラス
  6
CONTINUOUS
 10
-59.6327
 20
55.85556
 11
-63.505335
 21
51.982925
  0
LINE
  8
ガラス
  6
CONTINUOUS
 10
-61.231058
 20
54.975238
 11
-62.625012
 21
53.581283
  0
LINE
  8
ガラス
  6
CONTINUOUS
 10
-124.874865
 20
31.763107
 11
-128.7475
 21
27.890473
  0
LINE
  8
ガラス
  6
CONTINUOUS
 10
-126.473222
 20
30.882785
 11
-127.867177
 21
29.48883
  0
LINE
  8
ガラス
  6
CONTINUOUS
 10
-124.874865
 20
55.85556
 11
-128.7475
 21
51.982925
  0
LINE
  8
ガラス
  6
CONTINUOUS
 10
-126.473222
 20
54.975238
 11
-127.867177
 21
53.581283
  0
LINE
  8
ガラス
  6
CONTINUOUS
 10
-80.54582
 20
72.021927
 11
-81.939775
 21
70.627973
  0
LINE
  8
ガラス
  6
CONTINUOUS
 10
-102.799423
 20
72.021927
 11
-104.193378
 21
70.627973
  0
LINE
  8
ガラス
  6
CONTINUOUS
 10
-125.755188
 20
54.257202
 11
-127.149143
 21
52.863248
  0
LINE
  8
ガラス
  6
CONTINUOUS
 10
-125.755188
 20
30.16475
 11
-127.149143
 21
28.770795
  0
LINE
  8
ガラス
  6
CONTINUOUS
 10
-102.799423
 20
11.611743
 11
-104.193378
 21
10.217787
  0
LINE
  8
ガラス
  6
CONTINUOUS
 10
-80.54582
 20
11.611743
 11
-81.939775
 21
10.217787
  0
LINE
  8
ガラス
  6
CONTINUOUS
 10
-60.513022
 20
30.16475
 11
-61.906977
 21
28.770795
  0
LINE
  8
ガラス
  6
CONTINUOUS
 10
-60.513022
 20
54.257202
 11
-61.906977
 21
52.863248
  0
LINE
  8
ガラス
  6
CONTINUOUS
 10
-106.134565
 20
-83.418902
 11
-110.0072
 21
-87.291537
  0
LINE
  8
ガラス
  6
CONTINUOUS
 10
-107.014887
 20
-85.01726
 11
-108.408842
 21
-86.411215
  0
LINE
  8
ガラス
  6
CONTINUOUS
 10
-107.732923
 20
-84.299225
 11
-109.126877
 21
-85.69318
  0
LINE
  8
ガラス
  6
CONTINUOUS
 10
-76.379363
 20
-83.418902
 11
-80.251998
 21
-87.291537
  0
LINE
  8
ガラス
  6
CONTINUOUS
 10
-77.259685
 20
-85.01726
 11
-78.65364
 21
-86.411215
  0
LINE
  8
ガラス
  6
CONTINUOUS
 10
-77.97772
 20
-84.299225
 11
-79.371675
 21
-85.69318
  0
TEXT
  7
TextStyle03
  8
文字
  6
CONTINUOUS
 10
-33.125
 20
11.0
  1
ﾊﾞﾗﾝｽｽﾃｰ
 40
3.0
 72
     5
 11
-19.8125
 21
11.0
  0
TEXT
  7
TextStyle03
  8
文字
  6
CONTINUOUS
 10
-100.75
 20
-24.6
  1
可動装置側
 40
3.0
 72
     5
 11
-84.25
 21
-24.6
  0
TEXT
  7
TextStyle03
  8
文字
  6
CONTINUOUS
 10
-100.75
 20
106.525
  1
可動装置側
 40
3.0
 72
     5
 11
-84.25
 21
106.525
  0
TEXT
  7
TextStyle03
  8
文字
  6
CONTINUOUS
 10
-165.6375
 20
80.275
  1
ﾊﾞﾗﾝｽｽﾃｰ
 40
3.0
 72
     5
 11
-152.325
 21
80.275
  0
TEXT
  7
TextStyle03
  8
文字
  6
CONTINUOUS
 10
65.475
 20
92.875
  1
ＮＳコード：ＮＳ４ＣＳ
 40
5.0
 72
     5
 11
126.725
 21
92.875
  0
TEXT
  7
TextStyle03
  8
文字
  6
CONTINUOUS
 10
-175.7
 20
-17.5
  1
アンカーピッチ
 40
3.0
 50
90.0
 72
     5
 11
-175.7
 21
5.75
  0
TEXT
  7
TextStyle03
  8
文字
  6
CONTINUOUS
 10
-154.975
 20
124.0
  1
アンカーピッチ
 40
3.0
 72
     5
 11
-131.725
 21
124.0
  0
TEXT
  7
TextStyle03
  8
文字
  6
CONTINUOUS
 10
121.625
 20
23.2
  1
ガラス寸法
 40
3.0
 72
     5
 11
138.125
 21
23.2
  0
TEXT
  7
TextStyle03
  8
文字
  6
CONTINUOUS
 10
145.125
 20
-27.875
  1
本図×４枚
 40
3.0
 72
     5
 11
161.625
 21
-27.875
  0
TEXT
  7
TextStyle03
  8
文字
  6
CONTINUOUS
 10
145.125
 20
-31.25
  1
逆図×４枚
 40
3.0
 72
     5
 11
161.625
 21
-31.25
  0
TEXT
  7
TextStyle03
  8
文字
  6
CONTINUOUS
 10
-2.8
 20
8.025
  1
は排水穴位置を示す
 40
3.0
 72
     5
 11
27.2
 21
8.025
  0
TEXT
  7
TextStyle03
  8
文字
  6
CONTINUOUS
 10
-2.8
 20
0.175
  1
はケーシング位置を示す
 40
3.0
 72
     5
 11
33.95
 21
0.175
  0
TEXT
  7
TextStyle03
  8
文字
  6
CONTINUOUS
 10
-2.8
 20
-3.2
  1
４ヶ所中1ヶ所に設定
 40
3.0
 72
     5
 11
28.8875
 21
-3.2
  0
TEXT
  7
TextStyle03
  8
文字
  6
CONTINUOUS
 10
-8.4
 20
-10.35
  1
アンカー数量　１２ヶ所
 40
3.0
 72
     5
 11
28.35
 21
-10.35
  0
TEXT
  7
TextStyle03
  8
文字
  6
CONTINUOUS
 10
-8.45
 20
-17.15
  1
アームユニット数　４ヶ所
 40
3.0
 72
     5
 11
31.675
 21
-17.15
  0
TEXT
  7
TextStyle03
  8
文字
  6
CONTINUOUS
 10
65.925
 20
120.625
  1
シリーズ：ＳＴＦ４
 40
5.0
 72
     5
 11
115.925
 21
120.625
  0
TEXT
  7
TextStyle03
  8
文字
  6
CONTINUOUS
 10
65.925
 20
115.0
  1
　　　　　四角錘（上下可動）2000×2000タイプ
 40
5.0
 72
     5
 11
189.05
 21
115.0
  0
TEXT
  7
TextStyle03
  8
文字
  6
CONTINUOUS
 10
65.925
 20
109.375
  1
　　　　　ペアガラス仕様
 40
5.0
 72
     5
 11
132.8
 21
109.375
  0
TEXT
  7
TextStyle03
  8
文字
  6
CONTINUOUS
 10
65.925
 20
103.75
  1
図面名　：外観姿図
 40
5.0
 72
     5
 11
115.925
 21
103.75
  0
TEXT
  7
TextStyle03
  8
文字
  6
CONTINUOUS
 10
65.925
 20
98.125
  1
　　　　　　
 40
5.0
 72
     5
 11
99.05
 21
98.125
  0
INSERT
  2
*DIM_0002
  8
寸法
  6
CONTINUOUS
 10
0.0
 20
0.0
  0
INSERT
  2
*DIM_0003
  8
寸法
  6
CONTINUOUS
 10
0.0
 20
0.0
  0
INSERT
  2
*DIM_0004
  8
寸法
  6
CONTINUOUS
 10
0.0
 20
0.0
  0
INSERT
  2
*DIM_0005
  8
寸法
  6
CONTINUOUS
 10
0.0
 20
0.0
  0
INSERT
  2
*DIM_0006
  8
寸法
  6
CONTINUOUS
 10
0.0
 20
0.0
  0
INSERT
  2
*GRP_0007
  8
寸法
  6
CONTINUOUS
 10
0.0
 20
0.0
  0
INSERT
  2
*DIM_0008
  8
寸法
  6
CONTINUOUS
 10
0.0
 20
0.0
  0
INSERT
  2
*DIM_0009
  8
寸法
  6
CONTINUOUS
 10
0.0
 20
0.0
  0
INSERT
  2
*DIM_0010
  8
寸法
  6
CONTINUOUS
 10
0.0
 20
0.0
  0
INSERT
  2
*DIM_0011
  8
寸法
  6
CONTINUOUS
 10
0.0
 20
0.0
  0
INSERT
  2
*GRP_0012
  8
寸法
  6
CONTINUOUS
 10
0.0
 20
0.0
  0
INSERT
  2
*DIM_0013
  8
寸法
  6
CONTINUOUS
 10
0.0
 20
0.0
  0
INSERT
  2
*DIM_0014
  8
寸法
  6
CONTINUOUS
 10
0.0
 20
0.0
  0
INSERT
  2
*DIM_0015
  8
寸法
  6
CONTINUOUS
 10
0.0
 20
0.0
  0
INSERT
  2
*DIM_0016
  8
寸法
  6
CONTINUOUS
 10
0.0
 20
0.0
  0
INSERT
  2
*DIM_0021
  8
寸法
  6
CONTINUOUS
 10
0.0
 20
0.0
  0
INSERT
  2
*DIM_0022
  8
寸法
  6
CONTINUOUS
 10
0.0
 20
0.0
  0
INSERT
  2
*DIM_0023
  8
寸法
  6
CONTINUOUS
 10
0.0
 20
0.0
  0
LINE
  8
曲げ物
  6
CONTINUOUS
 10
166.707378
 20
-35.114055
 11
116.722378
 21
-35.114055
  0
LINE
  8
曲げ物
  6
CONTINUOUS
 10
116.722378
 20
-35.114055
 11
166.707378
 21
35.575105
  0
LINE
  8
曲げ物
  6
CONTINUOUS
 10
166.707378
 20
-35.114055
 11
166.707378
 21
35.575105
  0
ENDSEC
  0
EOF
