  0
SECTION
  2
HEADER
  9
$EXTMIN
 10
-210.0
 20
-148.5
  9
$EXTMAX
 10
210.0
 20
148.5
  9
$PDMODE
 70
    32
  9
$PDSIZE
 40
1.5
  9
$LTSCALE
 40
10.0
  0
ENDSEC
  0
SECTION
  2
TABLES
  0
TABLE
  2
LTYPE
 70
    15
  0
LTYPE
  2
CONTINUOUS
 70
    64
  3
実線
 72
    65
 73
     0
 40
0.0
  0
LTYPE
  2
DASHED
 70
    64
  3
破線A
 72
    65
 73
     2
 40
0.6
 49
0.4
 49
-0.2
  0
LTYPE
  2
DASHEDX2
 70
    64
  3
破線B
 72
    65
 73
     2
 40
1.3
 49
0.9
 49
-0.4
  0
LTYPE
  2
DASHDOT
 70
    64
  3
１点鎖線A
 72
    65
 73
     4
 40
0.5375
 49
0.375
 49
-0.05
 49
0.0625
 49
-0.05
  0
LTYPE
  2
DASHDOTX2
 70
    64
  3
１点鎖線B
 72
    65
 73
     4
 40
1.075
 49
0.75
 49
-0.1
 49
0.125
 49
-0.1
  0
LTYPE
  2
DIVIDE2
 70
    64
  3
２点鎖線A
 72
    65
 73
     6
 40
0.5125
 49
0.3
 49
-0.0375
 49
0.05
 49
-0.0375
 49
0.05
 49
-0.0375
  0
LTYPE
  2
DIVIDE
 70
    64
  3
２点鎖線B
 72
    65
 73
     6
 40
1.05
 49
0.55
 49
-0.1
 49
0.1
 49
-0.1
 49
0.1
 49
-0.1
  0
LTYPE
  2
DOT
 70
    64
  3
点線A
 72
    65
 73
     2
 40
0.1125
 49
0.0625
 49
-0.05
  0
LTYPE
  2
DOTX2
 70
    64
  3
点線B
 72
    65
 73
     2
 40
0.275
 49
0.15
 49
-0.125
  0
LTYPE
  2
CONTINUOUS
 70
    64
  3
実線
 72
    65
 73
     0
 40
0.0
  0
LTYPE
  2
CONTINUOUS
 70
    64
  3
実線
 72
    65
 73
     0
 40
0.0
  0
LTYPE
  2
CONTINUOUS
 70
    64
  3
実線
 72
    65
 73
     0
 40
0.0
  0
LTYPE
  2
CONTINUOUS
 70
    64
  3
実線
 72
    65
 73
     0
 40
0.0
  0
LTYPE
  2
CONTINUOUS
 70
    64
  3
実線
 72
    65
 73
     0
 40
0.0
  0
LTYPE
  2
CONTINUOUS
 70
    64
  3
実線
 72
    65
 73
     0
 40
0.0
  0
ENDTAB
  0
TABLE
  2
LAYER
 70
    34
  0
LAYER
  2
通り芯
 70
     0
 62
    15
  6
CONTINUOUS
  0
LAYER
  2
補助線
 70
     0
 62
    16
  6
DOT
  0
LAYER
  2
躯体
 70
     0
 62
    31
  6
CONTINUOUS
  0
LAYER
  2
型材
 70
     0
 62
    32
  6
CONTINUOUS
  0
LAYER
  2
型材断面
 70
     0
 62
    47
  6
CONTINUOUS
  0
LAYER
  2
ガラス
 70
     0
 62
    48
  6
CONTINUOUS
  0
LAYER
  2
ゴム等
 70
     0
 62
    63
  6
CONTINUOUS
  0
LAYER
  2
ボルト／ビス
 70
     0
 62
    64
  6
CONTINUOUS
  0
LAYER
  2
文字
 70
     0
 62
    79
  6
CONTINUOUS
  0
LAYER
  2
寸法
 70
     0
 62
    80
  6
CONTINUOUS
  0
LAYER
  2
ﾊｯﾁﾝｸﾞ
 70
     0
 62
    95
  6
CONTINUOUS
  0
LAYER
  2
別途部材
 70
     0
 62
    96
  6
CONTINUOUS
  0
LAYER
  2
曲げ物
 70
     0
 62
   111
  6
CONTINUOUS
  0
LAYER
  2
鉄骨等
 70
     0
 62
   112
  6
CONTINUOUS
  0
LAYER
  2
St
 70
     0
 62
   127
  6
CONTINUOUS
  0
LAYER
  2
その他部品等
 70
     0
 62
   128
  6
CONTINUOUS
  0
LAYER
  2
ｶﾞｽｹｯﾄ
 70
     0
 62
   143
  6
CONTINUOUS
  0
LAYER
  2
ｽｹｯﾁ
 70
     0
 62
    14
  6
CONTINUOUS
  0
LAYER
  2
0
 70
     0
 62
    17
  6
CONTINUOUS
  0
LAYER
  2
1
 70
     0
 62
    30
  6
CONTINUOUS
  0
LAYER
  2
4
 70
     0
 62
    33
  6
CONTINUOUS
  0
LAYER
  2
ﾚｲﾔ3
 70
     0
 62
    46
  6
CONTINUOUS
  0
LAYER
  2
外形線
 70
     0
 62
    49
  6
CONTINUOUS
  0
LAYER
  2
部品
 70
     0
 62
    14
  6
CONTINUOUS
  0
LAYER
  2
サッシ芯
 70
     0
 62
    17
  6
DASHDOTX2
  0
LAYER
  2
寸法線
 70
     0
 62
    62
  6
CONTINUOUS
  0
LAYER
  2
姿図外形線
 70
     0
 62
    65
  6
CONTINUOUS
  0
LAYER
  2
姿補助線
 70
     0
 62
    30
  6
CONTINUOUS
  0
LAYER
  2
透視線
 70
     0
 62
    78
  6
DOT
  0
LAYER
  2
用紙
 70
     0
 62
    81
  6
CONTINUOUS
  0
LAYER
  2
実線図枠
 70
     0
 62
    94
  6
CONTINUOUS
  0
LAYER
  2
補助図枠
 70
     0
 62
    97
  6
CONTINUOUS
  0
LAYER
  2
建具記号
 70
     0
 62
   110
  6
CONTINUOUS
  0
LAYER
  2
補助文字
 70
     0
 62
   113
  6
CONTINUOUS
  0
ENDTAB
  0
TABLE
  2
STYLE
 70
    10
  0
STYLE
  2
STANDARD
 70
     0
 40
1.0
 41
1.0
 42
1.0
 50
0.0
 71
     0
  3
TXT
  4
BIGFONT
  0
STYLE
  2
TATE
 70
     4
 40
1.0
 41
1.0
 42
1.0
 50
0.0
 71
     0
  3
TXT
  4
BIGFONT
  0
STYLE
  2
TextStyle03
 70
     0
 40
1.0
 41
1.0
 42
1.0
 50
0.0
 71
     0
  3
MONOTXT
  4
BIGFONT
  0
STYLE
  2
TextStyle04
 70
     0
 40
1.0
 41
1.0
 42
1.0
 50
0.0
 71
     0
  3
MONOTXT
  4
BIGFONT
  0
STYLE
  2
TextStyle05
 70
     0
 40
1.0
 41
1.0
 42
1.0
 50
0.0
 71
     0
  3
MONOTXT
  4
BIGFONT
  0
STYLE
  2
TextStyle06
 70
     0
 40
1.0
 41
1.0
 42
1.0
 50
0.0
 71
     0
  3
MONOTXT
  4
BIGFONT
  0
STYLE
  2
TextStyle07
 70
     0
 40
1.0
 41
1.0
 42
1.0
 50
0.0
 71
     0
  3
MONOTXT
  4
BIGFONT
  0
STYLE
  2
TextStyle08
 70
     0
 40
1.0
 41
1.0
 42
1.0
 50
0.0
 71
     0
  3
MONOTXT
  4
BIGFONT
  0
STYLE
  2
TextStyle09
 70
     0
 40
1.0
 41
1.0
 42
1.0
 50
0.0
 71
     0
  3
MONOTXT
  4
BIGFONT
  0
STYLE
  2
TextStyle10
 70
     0
 40
1.0
 41
1.0
 42
1.0
 50
0.0
 71
     0
  3
MONOTXT
  4
BIGFONT
  0
ENDTAB
  0
ENDSEC
  0
SECTION
  2
BLOCKS
  0
BLOCK
  2
*GRP_0001
 70
    65
 10
0.0
 20
0.0
  0
LINE
  8
型材断面
  6
CONTINUOUS
 10
195.0
 20
133.5
 11
195.0
 21
-133.5
  0
LINE
  8
型材断面
  6
CONTINUOUS
 10
195.0
 20
-133.5
 11
-185.0
 21
-133.5
  0
LINE
  8
型材断面
  6
CONTINUOUS
 10
-185.0
 20
-133.5
 11
-185.0
 21
133.5
  0
LINE
  8
型材断面
  6
CONTINUOUS
 10
195.0
 20
133.5
 11
-185.0
 21
133.5
  0
LINE
  8
型材断面
  6
CONTINUOUS
 10
145.0
 20
-133.5
 11
145.0
 21
-118.5
  0
LINE
  8
型材断面
  6
CONTINUOUS
 10
195.0
 20
-118.5
 11
145.0
 21
-118.5
  0
ENDBLK
  0
BLOCK
  2
*GRP_0002
 70
    65
 10
0.0
 20
0.0
  0
POLYLINE
  8
寸法
  6
CONTINUOUS
 62
     0
 66
     1
  0
VERTEX
  8
寸法
 10
-32.002588
 20
10.00298
  0
VERTEX
  8
寸法
 10
-28.321393
 20
6.321785
  0
VERTEX
  8
寸法
 10
-5.478815
 20
6.321785
  0
SEQEND
  0
ENDBLK
  0
BLOCK
  2
*DIM_0003
 70
    65
 10
0.0
 20
0.0
  0
LINE
  8
寸法
  6
BYBLOCK
 62
     0
 10
-67.400342
 20
43.506688
 11
-67.400342
 21
61.445702
  0
LINE
  8
寸法
  6
BYBLOCK
 62
     0
 10
-37.400342
 20
43.506688
 11
-37.400342
 21
61.445702
  0
LINE
  8
寸法
  6
BYBLOCK
 62
     0
 10
-67.400342
 20
61.445702
 11
-37.400342
 21
61.445702
  0
POINT
  8
寸法
 62
     0
 10
-67.400342
 20
61.445702
  0
POINT
  8
寸法
 62
     0
 10
-37.400342
 20
61.445702
  0
TEXT
  7
TextStyle03
  8
寸法
  6
CONTINUOUS
 62
     0
 10
-54.8625
 20
61.85
  1
600
 40
3.0
 72
     5
 11
-49.9875
 21
61.85
  0
ENDBLK
  0
BLOCK
  2
*DIM_0004
 70
    65
 10
0.0
 20
0.0
  0
LINE
  8
寸法
  6
BYBLOCK
 62
     0
 10
-75.900342
 20
42.506688
 11
-98.808585
 21
42.506688
  0
LINE
  8
寸法
  6
BYBLOCK
 62
     0
 10
-75.900342
 20
20.006688
 11
-98.808585
 21
20.006688
  0
LINE
  8
寸法
  6
BYBLOCK
 62
     0
 10
-98.808585
 20
42.506688
 11
-98.808585
 21
20.006688
  0
POINT
  8
寸法
 62
     0
 10
-98.808585
 20
42.506688
  0
POINT
  8
寸法
 62
     0
 10
-98.808585
 20
20.006688
  0
TEXT
  7
TextStyle03
  8
寸法
  6
CONTINUOUS
 62
     0
 10
-99.2
 20
28.8375
  1
450
 40
3.0
 50
90.0
 72
     5
 11
-99.2
 21
33.7125
  0
ENDBLK
  0
BLOCK
  2
*DIM_0005
 70
    65
 10
0.0
 20
0.0
  0
LINE
  8
寸法
  6
BYBLOCK
 62
     0
 10
-75.900342
 20
-2.493312
 11
-98.808585
 21
-2.493312
  0
LINE
  8
寸法
  6
BYBLOCK
 62
     0
 10
-98.808585
 20
20.006688
 11
-98.808585
 21
-2.493312
  0
POINT
  8
寸法
 62
     0
 10
-98.808585
 20
-2.493312
  0
TEXT
  7
TextStyle03
  8
寸法
  6
CONTINUOUS
 62
     0
 10
-99.2
 20
6.3375
  1
450
 40
3.0
 50
90.0
 72
     5
 11
-99.2
 21
11.2125
  0
ENDBLK
  0
BLOCK
  2
*DIM_0006
 70
    65
 10
0.0
 20
0.0
  0
LINE
  8
寸法
  6
BYBLOCK
 62
     0
 10
-28.900342
 20
42.506688
 11
-11.179075
 21
42.506688
  0
LINE
  8
寸法
  6
BYBLOCK
 62
     0
 10
-20.876468
 20
36.656688
 11
-11.179075
 21
36.656688
  0
LINE
  8
寸法
  6
BYBLOCK
 62
     0
 10
-11.179075
 20
42.506688
 11
-11.179075
 21
36.656688
  0
POINT
  8
寸法
 62
     0
 10
-11.179075
 20
42.506688
  0
POINT
  8
寸法
 62
     0
 10
-11.179075
 20
36.656688
  0
TEXT
  7
TextStyle03
  8
寸法
  6
CONTINUOUS
 62
     0
 10
-11.575
 20
37.1625
  1
117
 40
3.0
 50
90.0
 72
     5
 11
-11.575
 21
42.0375
  0
ENDBLK
  0
BLOCK
  2
*DIM_0007
 70
    65
 10
0.0
 20
0.0
  0
LINE
  8
寸法
  6
BYBLOCK
 62
     0
 10
-28.900342
 20
-2.493312
 11
-11.179075
 21
-2.493312
  0
LINE
  8
寸法
  6
BYBLOCK
 62
     0
 10
-20.876468
 20
3.356688
 11
-11.179075
 21
3.356688
  0
LINE
  8
寸法
  6
BYBLOCK
 62
     0
 10
-11.179075
 20
-2.493312
 11
-11.179075
 21
3.356688
  0
POINT
  8
寸法
 62
     0
 10
-11.179075
 20
-2.493312
  0
POINT
  8
寸法
 62
     0
 10
-11.179075
 20
3.356688
  0
TEXT
  7
TextStyle03
  8
寸法
  6
CONTINUOUS
 62
     0
 10
-11.575
 20
-1.9875
  1
117
 40
3.0
 50
90.0
 72
     5
 11
-11.575
 21
2.8875
  0
ENDBLK
  0
BLOCK
  2
*DIM_0008
 70
    65
 10
0.0
 20
0.0
  0
LINE
  8
寸法
  6
BYBLOCK
 62
     0
 10
-25.950345
 20
-80.69669
 11
-8.229482
 21
-80.69669
  0
LINE
  8
寸法
  6
BYBLOCK
 62
     0
 10
-24.625342
 20
-71.925495
 11
-8.229482
 21
-71.925495
  0
LINE
  8
寸法
  6
BYBLOCK
 62
     0
 10
-8.229482
 20
-80.69669
 11
-8.229482
 21
-71.925495
  0
POINT
  8
寸法
 62
     0
 10
-8.229482
 20
-80.69669
  0
POINT
  8
寸法
 62
     0
 10
-8.229482
 20
-71.925495
  0
TEXT
  7
TextStyle03
  8
寸法
  6
CONTINUOUS
 62
     0
 10
-8.625
 20
-80.475
  1
175.4
 40
3.0
 50
90.0
 72
     5
 11
-8.625
 21
-72.225
  0
ENDBLK
  0
BLOCK
  2
*DIM_0009
 70
    65
 10
0.0
 20
0.0
  0
LINE
  8
寸法
  6
BYBLOCK
 62
     0
 10
-74.900342
 20
-34.672765
 11
-74.900342
 21
-34.174258
  0
LINE
  8
寸法
  6
BYBLOCK
 62
     0
 10
-29.900342
 20
-34.672765
 11
-29.900342
 21
-34.174258
  0
LINE
  8
寸法
  6
BYBLOCK
 62
     0
 10
-74.900342
 20
-34.174258
 11
-29.900342
 21
-34.174258
  0
POINT
  8
寸法
 62
     0
 10
-74.900342
 20
-34.174258
  0
POINT
  8
寸法
 62
     0
 10
-29.900342
 20
-34.174258
  0
TEXT
  7
TextStyle03
  8
寸法
  6
CONTINUOUS
 62
     0
 10
-63.3
 20
-33.8
  1
呼称寸法　900
 40
3.0
 72
     5
 11
-41.55
 21
-33.8
  0
ENDBLK
  0
BLOCK
  2
*DIM_0010
 70
    65
 10
0.0
 20
0.0
  0
LINE
  8
寸法
  6
BYBLOCK
 62
     0
 10
-25.625342
 20
-70.925495
 11
-25.625342
 21
-34.174258
  0
LINE
  8
寸法
  6
BYBLOCK
 62
     0
 10
-29.900342
 20
-34.174258
 11
-25.625342
 21
-34.174258
  0
POINT
  8
寸法
 62
     0
 10
-25.625342
 20
-34.174258
  0
TEXT
  7
TextStyle03
  8
寸法
  6
CONTINUOUS
 62
     0
 10
-24.30625
 20
-33.8
  1
85.5
 40
3.0
 72
     5
 11
-17.74375
 21
-33.8
  0
ENDBLK
  0
BLOCK
  2
*DIM_0011
 70
    65
 10
0.0
 20
0.0
  0
LINE
  8
寸法
  6
BYBLOCK
 62
     0
 10
-79.175342
 20
-70.925495
 11
-79.175342
 21
-34.174258
  0
LINE
  8
寸法
  6
BYBLOCK
 62
     0
 10
-74.900342
 20
-34.174258
 11
-79.175342
 21
-34.174258
  0
POINT
  8
寸法
 62
     0
 10
-74.900342
 20
-34.174258
  0
POINT
  8
寸法
 62
     0
 10
-79.175342
 20
-34.174258
  0
TEXT
  7
TextStyle03
  8
寸法
  6
CONTINUOUS
 62
     0
 10
-87.08125
 20
-33.8
  1
85.5
 40
3.0
 72
     5
 11
-80.51875
 21
-33.8
  0
ENDBLK
  0
BLOCK
  2
*DIM_0012
 70
    65
 10
0.0
 20
0.0
  0
LINE
  8
寸法
  6
BYBLOCK
 62
     0
 10
-51.400342
 20
-45.04453
 11
-8.229482
 21
-45.04453
  0
LINE
  8
寸法
  6
BYBLOCK
 62
     0
 10
-8.229482
 20
-71.925495
 11
-8.229482
 21
-45.04453
  0
POINT
  8
寸法
 62
     0
 10
-8.229482
 20
-71.925495
  0
POINT
  8
寸法
 62
     0
 10
-8.229482
 20
-45.04453
  0
TEXT
  7
TextStyle03
  8
寸法
  6
CONTINUOUS
 62
     0
 10
-8.625
 20
-62.625
  1
537.6
 40
3.0
 50
90.0
 72
     5
 11
-8.625
 21
-54.375
  0
ENDBLK
  0
BLOCK
  2
*DIM_0013
 70
    65
 10
0.0
 20
0.0
  0
LINE
  8
寸法
  6
BYBLOCK
 62
     0
 10
-56.65034
 20
-48.29453
 11
-56.65034
 21
-40.63321
  0
LINE
  8
寸法
  6
BYBLOCK
 62
     0
 10
-48.150342
 20
-48.29453
 11
-48.150342
 21
-40.63321
  0
LINE
  8
寸法
  6
BYBLOCK
 62
     0
 10
-56.65034
 20
-40.63321
 11
-48.150342
 21
-40.63321
  0
POINT
  8
寸法
 62
     0
 10
-56.65034
 20
-40.63321
  0
POINT
  8
寸法
 62
     0
 10
-48.150342
 20
-40.63321
  0
TEXT
  7
TextStyle03
  8
寸法
  6
CONTINUOUS
 62
     0
 10
-54.8625
 20
-40.275
  1
170
 40
3.0
 72
     5
 11
-49.9875
 21
-40.275
  0
ENDBLK
  0
BLOCK
  2
*DIM_0014
 70
    65
 10
0.0
 20
0.0
  0
LINE
  8
寸法
  6
BYBLOCK
 62
     0
 10
-41.659207
 20
-45.04453
 11
-41.049258
 21
-45.04453
  0
LINE
  8
寸法
  6
BYBLOCK
 62
     0
 10
-47.150342
 20
-49.29453
 11
-41.049258
 21
-49.29453
  0
LINE
  8
寸法
  6
BYBLOCK
 62
     0
 10
-41.049258
 20
-45.04453
 11
-41.049258
 21
-49.29453
  0
POINT
  8
寸法
 62
     0
 10
-41.049258
 20
-45.04453
  0
POINT
  8
寸法
 62
     0
 10
-41.049258
 20
-49.29453
  0
TEXT
  7
TextStyle03
  8
寸法
  6
CONTINUOUS
 62
     0
 10
-41.425
 20
-48.76875
  1
85
 40
3.0
 50
90.0
 72
     5
 11
-41.425
 21
-45.58125
  0
ENDBLK
  0
BLOCK
  2
*DIM_0015
 70
    65
 10
0.0
 20
0.0
  0
LINE
  8
寸法
  6
BYBLOCK
 62
     0
 10
133.710815
 20
-73.6379
 11
133.710815
 21
-79.777175
  0
LINE
  8
寸法
  6
BYBLOCK
 62
     0
 10
180.496395
 20
-73.6379
 11
180.496395
 21
-79.777175
  0
LINE
  8
寸法
  6
BYBLOCK
 62
     0
 10
133.710815
 20
-79.777175
 11
180.496395
 21
-79.777175
  0
POINT
  8
寸法
 62
     0
 10
133.710815
 20
-79.777175
  0
POINT
  8
寸法
 62
     0
 10
180.496395
 20
-79.777175
  0
TEXT
  7
TextStyle03
  8
寸法
  6
CONTINUOUS
 62
     0
 10
152.975
 20
-79.425
  1
935.7
 40
3.0
 72
     5
 11
161.225
 21
-79.425
  0
ENDBLK
  0
BLOCK
  2
*DIM_0016
 70
    65
 10
0.0
 20
0.0
  0
LINE
  8
寸法
  6
BYBLOCK
 62
     0
 10
183.496395
 20
-70.6379
 11
187.97826
 21
-70.6379
  0
LINE
  8
寸法
  6
BYBLOCK
 62
     0
 10
160.103605
 20
-37.555498
 11
187.97826
 21
-37.555498
  0
LINE
  8
寸法
  6
BYBLOCK
 62
     0
 10
187.97826
 20
-70.6379
 11
187.97826
 21
-37.555498
  0
POINT
  8
寸法
 62
     0
 10
187.97826
 20
-70.6379
  0
POINT
  8
寸法
 62
     0
 10
187.97826
 20
-37.555498
  0
TEXT
  7
TextStyle03
  8
寸法
  6
CONTINUOUS
 62
     0
 10
187.6
 20
-58.225
  1
661.6
 40
3.0
 50
90.0
 72
     5
 11
187.6
 21
-49.975
  0
ENDBLK
  0
BLOCK
  2
*DIM_0017
 70
    65
 10
0.0
 20
0.0
  0
LINE
  8
寸法
  6
BYBLOCK
 62
     0
 10
98.848305
 20
-65.755728
 11
109.73125
 21
-65.755728
  0
LINE
  8
寸法
  6
BYBLOCK
 62
     0
 10
98.848305
 20
-76.755728
 11
109.73125
 21
-76.755728
  0
LINE
  8
寸法
  6
BYBLOCK
 62
     0
 10
109.73125
 20
-65.755728
 11
109.73125
 21
-76.755728
  0
POINT
  8
寸法
 62
     0
 10
109.73125
 20
-65.755728
  0
POINT
  8
寸法
 62
     0
 10
109.73125
 20
-76.755728
  0
TEXT
  7
TextStyle03
  8
寸法
  6
CONTINUOUS
 62
     0
 10
114.6
 20
-79.96875
  1
上昇159以上
 40
3.0
 50
90.0
 72
     5
 11
114.6
 21
-61.78125
  0
ENDBLK
  0
ENDSEC
  0
SECTION
  2
ENTITIES
  0
POLYLINE
  8
通り芯
  6
CONTINUOUS
 66
     1
 70
     1
  0
VERTEX
  8
通り芯
 10
-210.0
 20
-148.5
  0
VERTEX
  8
通り芯
 10
210.0
 20
-148.5
  0
VERTEX
  8
通り芯
 10
210.0
 20
148.5
  0
VERTEX
  8
通り芯
 10
-210.0
 20
148.5
  0
SEQEND
  0
INSERT
  2
*GRP_0001
  8
型材断面
  6
CONTINUOUS
 10
0.0
 20
0.0
  0
LINE
  8
型材断面
  6
CONTINUOUS
 10
-30.89023
 20
-4.770488
 11
-27.62317
 21
-4.770488
  0
LINE
  8
型材断面
  6
CONTINUOUS
 10
-27.62317
 20
-4.770488
 11
-27.62317
 21
-1.503427
  0
LINE
  8
型材断面
  6
DASHDOT
 10
-29.900342
 20
-2.493312
 11
-29.900342
 21
12.506688
  0
LINE
  8
型材断面
  6
DASHDOT
 10
-29.900342
 20
-2.493312
 11
-74.900342
 21
-2.493312
  0
LINE
  8
型材断面
  6
DASHDOT
 10
-25.625342
 20
-6.768312
 11
-52.400342
 21
20.006688
  0
LINE
  8
型材断面
  6
CONTINUOUS
 10
-52.400342
 20
15.756688
 11
-48.150342
 21
15.756688
  0
LINE
  8
型材断面
  6
CONTINUOUS
 10
-48.150342
 20
20.006688
 11
-48.150342
 21
15.756688
  0
LINE
  8
型材断面
  6
CONTINUOUS
 10
-48.150342
 20
15.756688
 11
-52.400342
 21
20.006688
  0
LINE
  8
型材断面
  6
CONTINUOUS
 10
-30.89023
 20
-4.770488
 11
-51.4174
 21
15.756688
  0
LINE
  8
型材断面
  6
CONTINUOUS
 10
-27.976722
 20
-4.770488
 11
-48.503892
 21
15.756688
  0
LINE
  8
型材断面
  6
CONTINUOUS
 10
-27.62317
 20
-4.416932
 11
-48.150342
 21
16.110245
  0
LINE
  8
型材断面
  6
CONTINUOUS
 10
-27.62317
 20
-1.503427
 11
-48.150342
 21
19.02375
  0
LINE
  8
型材断面
  6
DASHDOT
 10
-29.900342
 20
42.506688
 11
-74.900342
 21
42.506688
  0
LINE
  8
型材断面
  6
DASHDOT
 10
-29.900342
 20
20.006688
 11
-74.900342
 21
20.006688
  0
LINE
  8
型材断面
  6
CONTINUOUS
 10
-25.926112
 20
-6.467543
 11
-52.400342
 21
-6.467543
  0
LINE
  8
型材断面
  6
CONTINUOUS
 10
-25.625342
 20
-6.768312
 11
-52.400342
 21
-6.768312
  0
LINE
  8
型材断面
  6
CONTINUOUS
 10
-26.279667
 20
-6.11399
 11
-52.400342
 21
-6.11399
  0
LINE
  8
型材断面
  6
CONTINUOUS
 10
-27.269618
 20
-5.12404
 11
-52.400342
 21
-5.12404
  0
LINE
  8
型材断面
  6
CONTINUOUS
 10
-27.55246
 20
-4.841197
 11
-52.400342
 21
-4.841197
  0
LINE
  8
型材断面
  6
CONTINUOUS
 10
-27.269618
 20
-5.12404
 11
-27.269618
 21
20.006688
  0
LINE
  8
型材断面
  6
CONTINUOUS
 10
-27.55246
 20
-4.841197
 11
-27.55246
 21
20.006688
  0
LINE
  8
型材断面
  6
CONTINUOUS
 10
-25.625342
 20
-6.768312
 11
-25.625342
 21
20.006688
  0
LINE
  8
型材断面
  6
CONTINUOUS
 10
-26.279667
 20
-6.11399
 11
-26.279667
 21
20.006688
  0
LINE
  8
型材断面
  6
CONTINUOUS
 10
-25.926112
 20
-6.467543
 11
-25.926112
 21
20.006688
  0
LINE
  8
型材断面
  6
CONTINUOUS
 10
-73.910455
 20
44.783863
 11
-77.177515
 21
44.783863
  0
LINE
  8
型材断面
  6
CONTINUOUS
 10
-77.177515
 20
44.783863
 11
-77.177515
 21
41.516803
  0
LINE
  8
型材断面
  6
DASHDOT
 10
-74.900342
 20
42.506688
 11
-74.900342
 21
27.506688
  0
LINE
  8
型材断面
  6
DASHDOT
 10
-79.175342
 20
46.781688
 11
-52.400342
 21
20.006688
  0
LINE
  8
型材断面
  6
CONTINUOUS
 10
-52.400342
 20
24.256688
 11
-56.650342
 21
24.256688
  0
LINE
  8
型材断面
  6
CONTINUOUS
 10
-56.650342
 20
20.006688
 11
-56.650342
 21
24.256688
  0
LINE
  8
型材断面
  6
CONTINUOUS
 10
-56.650342
 20
24.256688
 11
-52.400342
 21
20.006688
  0
LINE
  8
型材断面
  6
CONTINUOUS
 10
-73.910455
 20
44.783863
 11
-53.383285
 21
24.256688
  0
LINE
  8
型材断面
  6
CONTINUOUS
 10
-76.823963
 20
44.783863
 11
-56.296792
 21
24.256688
  0
LINE
  8
型材断面
  6
CONTINUOUS
 10
-77.177515
 20
44.430307
 11
-56.650342
 21
23.90313
  0
LINE
  8
型材断面
  6
CONTINUOUS
 10
-77.177515
 20
41.516803
 11
-56.650342
 21
20.989625
  0
LINE
  8
型材断面
  6
CONTINUOUS
 10
-78.874572
 20
46.480918
 11
-52.400342
 21
46.480918
  0
LINE
  8
型材断面
  6
CONTINUOUS
 10
-79.175342
 20
46.781688
 11
-52.400342
 21
46.781688
  0
LINE
  8
型材断面
  6
CONTINUOUS
 10
-78.521018
 20
46.127365
 11
-52.400342
 21
46.127365
  0
LINE
  8
型材断面
  6
CONTINUOUS
 10
-77.531067
 20
45.137415
 11
-52.400342
 21
45.137415
  0
LINE
  8
型材断面
  6
CONTINUOUS
 10
-77.248225
 20
44.854572
 11
-52.400342
 21
44.854572
  0
LINE
  8
型材断面
  6
CONTINUOUS
 10
-77.531067
 20
45.137415
 11
-77.531067
 21
20.006688
  0
LINE
  8
型材断面
  6
CONTINUOUS
 10
-77.248225
 20
44.854572
 11
-77.248225
 21
20.006688
  0
LINE
  8
型材断面
  6
CONTINUOUS
 10
-79.175342
 20
46.781688
 11
-79.175342
 21
20.006688
  0
LINE
  8
型材断面
  6
CONTINUOUS
 10
-78.521018
 20
46.127365
 11
-78.521018
 21
20.006688
  0
LINE
  8
型材断面
  6
CONTINUOUS
 10
-78.874572
 20
46.480918
 11
-78.874572
 21
20.006688
  0
LINE
  8
型材断面
  6
CONTINUOUS
 10
-73.910455
 20
-4.770488
 11
-77.177515
 21
-4.770488
  0
LINE
  8
型材断面
  6
CONTINUOUS
 10
-77.177515
 20
-4.770488
 11
-77.177515
 21
-1.503427
  0
LINE
  8
型材断面
  6
DASHDOT
 10
-74.900342
 20
-2.493312
 11
-74.900342
 21
12.506688
  0
LINE
  8
型材断面
  6
DASHDOT
 10
-79.175342
 20
-6.768312
 11
-52.400342
 21
20.006688
  0
LINE
  8
型材断面
  6
CONTINUOUS
 10
-52.400342
 20
15.756688
 11
-56.650342
 21
15.756688
  0
LINE
  8
型材断面
  6
CONTINUOUS
 10
-56.650342
 20
20.006688
 11
-56.650342
 21
15.756688
  0
LINE
  8
型材断面
  6
CONTINUOUS
 10
-56.650342
 20
15.756688
 11
-52.400342
 21
20.006688
  0
LINE
  8
型材断面
  6
CONTINUOUS
 10
-73.910455
 20
-4.770488
 11
-53.383285
 21
15.756688
  0
LINE
  8
型材断面
  6
CONTINUOUS
 10
-76.823963
 20
-4.770488
 11
-56.296792
 21
15.756688
  0
LINE
  8
型材断面
  6
CONTINUOUS
 10
-77.177515
 20
-4.416932
 11
-56.650342
 21
16.110245
  0
LINE
  8
型材断面
  6
CONTINUOUS
 10
-77.177515
 20
-1.503427
 11
-56.650342
 21
19.02375
  0
LINE
  8
型材断面
  6
CONTINUOUS
 10
-78.874572
 20
-6.467543
 11
-52.400342
 21
-6.467543
  0
LINE
  8
型材断面
  6
CONTINUOUS
 10
-79.175342
 20
-6.768312
 11
-52.400342
 21
-6.768312
  0
LINE
  8
型材断面
  6
CONTINUOUS
 10
-78.521018
 20
-6.11399
 11
-52.400342
 21
-6.11399
  0
LINE
  8
型材断面
  6
CONTINUOUS
 10
-77.531067
 20
-5.12404
 11
-52.400342
 21
-5.12404
  0
LINE
  8
型材断面
  6
CONTINUOUS
 10
-77.248225
 20
-4.841197
 11
-52.400342
 21
-4.841197
  0
LINE
  8
型材断面
  6
CONTINUOUS
 10
-77.531067
 20
-5.12404
 11
-77.531067
 21
20.006688
  0
LINE
  8
型材断面
  6
CONTINUOUS
 10
-77.248225
 20
-4.841197
 11
-77.248225
 21
20.006688
  0
LINE
  8
型材断面
  6
CONTINUOUS
 10
-79.175342
 20
-6.768312
 11
-79.175342
 21
20.006688
  0
LINE
  8
型材断面
  6
CONTINUOUS
 10
-78.521018
 20
-6.11399
 11
-78.521018
 21
20.006688
  0
LINE
  8
型材断面
  6
CONTINUOUS
 10
-78.874572
 20
-6.467543
 11
-78.874572
 21
20.006688
  0
LINE
  8
型材断面
  6
CONTINUOUS
 10
-27.623168
 20
41.5168
 11
-27.623168
 21
44.78386
  0
LINE
  8
型材断面
  6
CONTINUOUS
 10
-27.623168
 20
44.78386
 11
-30.890228
 21
44.78386
  0
LINE
  8
型材断面
  6
DASHDOT
 10
-29.900342
 20
42.506688
 11
-44.900342
 21
42.506688
  0
LINE
  8
型材断面
  6
DASHDOT
 10
-25.625342
 20
46.781688
 11
-52.400342
 21
20.006688
  0
LINE
  8
型材断面
  6
CONTINUOUS
 10
-48.150342
 20
20.006688
 11
-48.150342
 21
24.256688
  0
LINE
  8
型材断面
  6
CONTINUOUS
 10
-52.400342
 20
24.256688
 11
-48.150342
 21
24.256688
  0
LINE
  8
型材断面
  6
CONTINUOUS
 10
-48.150342
 20
24.256688
 11
-52.400342
 21
20.006688
  0
LINE
  8
型材断面
  6
CONTINUOUS
 10
-27.623168
 20
41.5168
 11
-48.150342
 21
20.98963
  0
LINE
  8
型材断面
  6
CONTINUOUS
 10
-27.623168
 20
44.430307
 11
-48.150342
 21
23.903138
  0
LINE
  8
型材断面
  6
CONTINUOUS
 10
-27.976722
 20
44.78386
 11
-48.5039
 21
24.256688
  0
LINE
  8
型材断面
  6
CONTINUOUS
 10
-30.890228
 20
44.78386
 11
-51.417405
 21
24.256688
  0
LINE
  8
型材断面
  6
CONTINUOUS
 10
-25.926112
 20
46.480918
 11
-25.926112
 21
20.006688
  0
LINE
  8
型材断面
  6
CONTINUOUS
 10
-25.625342
 20
46.781688
 11
-25.625342
 21
20.006688
  0
LINE
  8
型材断面
  6
CONTINUOUS
 10
-26.279665
 20
46.127362
 11
-26.279665
 21
20.006688
  0
LINE
  8
型材断面
  6
CONTINUOUS
 10
-27.269615
 20
45.137413
 11
-27.269615
 21
20.006688
  0
LINE
  8
型材断面
  6
CONTINUOUS
 10
-27.552458
 20
44.85457
 11
-27.552458
 21
20.006688
  0
LINE
  8
型材断面
  6
CONTINUOUS
 10
-27.269615
 20
45.137413
 11
-52.400342
 21
45.137413
  0
LINE
  8
型材断面
  6
CONTINUOUS
 10
-27.552458
 20
44.85457
 11
-52.400342
 21
44.85457
  0
LINE
  8
型材断面
  6
CONTINUOUS
 10
-25.625342
 20
46.781688
 11
-52.400342
 21
46.781688
  0
LINE
  8
型材断面
  6
CONTINUOUS
 10
-26.279665
 20
46.127362
 11
-52.400342
 21
46.127362
  0
LINE
  8
型材断面
  6
CONTINUOUS
 10
-25.926112
 20
46.480918
 11
-52.400342
 21
46.480918
  0
LINE
  8
型材断面
  6
DOT
 10
-34.002588
 20
42.506688
 11
-34.002588
 21
-2.493312
  0
LINE
  8
型材断面
  6
DOT
 10
-32.002588
 20
42.506688
 11
-32.002588
 21
-2.493312
  0
LINE
  8
型材断面
  6
CONTINUOUS
 10
-52.400342
 20
50.530563
 11
-54.643787
 21
54.416323
  0
LINE
  8
型材断面
  6
CONTINUOUS
 10
-52.400342
 20
50.530563
 11
-50.156898
 21
54.416323
  0
LINE
  8
型材断面
  6
CONTINUOUS
 10
-50.156898
 20
54.416323
 11
-54.643787
 21
54.416323
  0
LINE
  8
型材断面
  6
CONTINUOUS
 10
-52.400342
 20
-10.517188
 11
-54.643787
 21
-14.402948
  0
LINE
  8
型材断面
  6
CONTINUOUS
 10
-52.400342
 20
-10.517188
 11
-50.156898
 21
-14.402948
  0
LINE
  8
型材断面
  6
CONTINUOUS
 10
-50.156898
 20
-14.402948
 11
-54.643787
 21
-14.402948
  0
LINE
  8
型材断面
  6
CONTINUOUS
 10
-21.876468
 20
20.006688
 11
-17.990708
 21
22.250132
  0
LINE
  8
型材断面
  6
CONTINUOUS
 10
-21.876468
 20
20.006688
 11
-17.990708
 21
17.763242
  0
LINE
  8
型材断面
  6
CONTINUOUS
 10
-17.990708
 20
17.763242
 11
-17.990708
 21
22.250132
  0
LINE
  8
型材断面
  6
CONTINUOUS
 10
-82.924218
 20
20.006688
 11
-86.809977
 21
22.250132
  0
LINE
  8
型材断面
  6
CONTINUOUS
 10
-82.924218
 20
20.006688
 11
-86.809977
 21
17.763242
  0
LINE
  8
型材断面
  6
CONTINUOUS
 10
-86.809977
 20
17.763242
 11
-86.809977
 21
22.250132
  0
LINE
  8
型材断面
  6
CONTINUOUS
 10
-21.876468
 20
36.656688
 11
-17.990708
 21
35.762602
  0
LINE
  8
型材断面
  6
CONTINUOUS
 10
-21.876468
 20
36.656688
 11
-17.990708
 21
37.550772
  0
LINE
  8
型材断面
  6
CONTINUOUS
 10
-17.990708
 20
37.550772
 11
-17.990708
 21
35.762602
  0
LINE
  8
型材断面
  6
CONTINUOUS
 10
-21.876468
 20
3.356688
 11
-17.990708
 21
4.250772
  0
LINE
  8
型材断面
  6
CONTINUOUS
 10
-21.876468
 20
3.356688
 11
-17.990708
 21
2.462602
  0
LINE
  8
型材断面
  6
CONTINUOUS
 10
-17.990708
 20
2.462602
 11
-17.990708
 21
4.250772
  0
LINE
  8
型材断面
  6
CONTINUOUS
 10
-82.924218
 20
36.656688
 11
-86.809977
 21
35.762602
  0
LINE
  8
型材断面
  6
CONTINUOUS
 10
-82.924218
 20
36.656688
 11
-86.809977
 21
37.550772
  0
LINE
  8
型材断面
  6
CONTINUOUS
 10
-86.809977
 20
37.550772
 11
-86.809977
 21
35.762602
  0
LINE
  8
型材断面
  6
CONTINUOUS
 10
-82.924218
 20
3.356688
 11
-86.809977
 21
4.250772
  0
LINE
  8
型材断面
  6
CONTINUOUS
 10
-82.924218
 20
3.356688
 11
-86.809977
 21
2.462602
  0
LINE
  8
型材断面
  6
CONTINUOUS
 10
-86.809977
 20
2.462602
 11
-86.809977
 21
4.250772
  0
LINE
  8
型材断面
  6
CONTINUOUS
 10
-25.926112
 20
-71.624723
 11
-25.625342
 21
-71.925495
  0
LINE
  8
型材断面
  6
CONTINUOUS
 10
-25.625342
 20
-73.27169
 11
-25.625342
 21
-71.925495
  0
LINE
  8
型材断面
  6
CONTINUOUS
 62
    47
 10
-25.625342
 20
-73.97169
 11
-25.625342
 21
-73.27169
  0
LINE
  8
型材断面
  6
CONTINUOUS
 62
    47
 10
-26.300342
 20
-73.97169
 11
-26.300342
 21
-74.47169
  0
LINE
  8
型材断面
  6
CONTINUOUS
 62
    47
 10
-27.269618
 20
-70.28122
 11
-25.926112
 21
-71.624723
  0
LINE
  8
型材断面
  6
CONTINUOUS
 10
-27.62317
 20
-69.927668
 11
-31.173075
 21
-69.927668
  0
LINE
  8
型材断面
  6
CONTINUOUS
 62
    47
 10
-26.480343
 20
-76.755728
 11
-26.480343
 21
-76.255728
  0
LINE
  8
型材断面
  6
CONTINUOUS
 62
    47
 10
-26.480343
 20
-76.255728
 11
-27.655343
 21
-76.105728
  0
LINE
  8
型材断面
  6
CONTINUOUS
 62
    47
 10
-27.655343
 20
-75.49669
 11
-27.655343
 21
-76.105728
  0
LINE
  8
型材断面
  6
CONTINUOUS
 62
    47
 10
-26.950345
 20
-75.49669
 11
-26.950345
 21
-74.47169
  0
LINE
  8
型材断面
  6
CONTINUOUS
 62
    47
 10
-26.950345
 20
-80.69669
 11
-26.950345
 21
-76.755728
  0
LINE
  8
型材断面
  6
CONTINUOUS
 62
    47
 10
-27.800345
 20
-81.44669
 11
-27.800345
 21
-80.69669
  0
LINE
  8
型材断面
  6
CONTINUOUS
 10
-27.269618
 20
-70.28122
 11
-52.400342
 21
-45.150495
  0
LINE
  8
型材断面
  6
CONTINUOUS
 10
-48.150342
 20
-49.29453
 11
-52.400342
 21
-49.29453
  0
LINE
  8
型材断面
  6
CONTINUOUS
 10
-56.65034
 20
-49.29453
 11
-52.400342
 21
-49.29453
  0
LINE
  8
型材断面
  6
CONTINUOUS
 10
-56.597358
 20
-49.347512
 11
-52.400342
 21
-49.347512
  0
LINE
  8
型材断面
  6
CONTINUOUS
 10
-52.400342
 20
-45.04453
 11
-48.150342
 21
-49.29453
  0
LINE
  8
型材断面
  6
CONTINUOUS
 10
-52.400342
 20
-45.04453
 11
-56.65034
 21
-49.29453
  0
LINE
  8
型材断面
  6
CONTINUOUS
 10
-48.203327
 20
-49.347512
 11
-52.400342
 21
-49.347512
  0
LINE
  8
型材断面
  6
CONTINUOUS
 10
-56.65034
 20
-49.29453
 11
-56.597358
 21
-49.347512
  0
LINE
  8
型材断面
  6
CONTINUOUS
 10
-48.203327
 20
-49.347512
 11
-48.150342
 21
-49.29453
  0
LINE
  8
型材断面
  6
CONTINUOUS
 10
-30.890233
 20
-69.927668
 11
-51.470382
 21
-49.347512
  0
LINE
  8
型材断面
  6
CONTINUOUS
 10
-31.173075
 20
-69.927668
 11
-51.753225
 21
-49.347512
  0
LINE
  8
型材断面
  6
CONTINUOUS
 10
-27.976725
 20
-69.927668
 11
-48.55688
 21
-49.347512
  0
LINE
  8
型材断面
  6
CONTINUOUS
 10
-27.269618
 20
-70.28122
 11
-52.400342
 21
-70.28122
  0
LINE
  8
型材断面
  6
CONTINUOUS
 10
-25.926112
 20
-71.624723
 11
-52.400342
 21
-71.624723
  0
LINE
  8
型材断面
  6
CONTINUOUS
 10
-25.625342
 20
-71.925495
 11
-52.400342
 21
-71.925495
  0
LINE
  8
型材断面
  6
CONTINUOUS
 10
-26.279667
 20
-71.27117
 11
-52.400342
 21
-71.27117
  0
LINE
  8
型材断面
  6
CONTINUOUS
 10
-25.625342
 20
-73.27169
 11
-52.400342
 21
-73.27169
  0
LINE
  8
型材断面
  6
CONTINUOUS
 10
-25.625342
 20
-73.97169
 11
-52.400342
 21
-73.97169
  0
LINE
  8
型材断面
  6
CONTINUOUS
 10
-26.300342
 20
-74.47169
 11
-52.400342
 21
-74.47169
  0
LINE
  8
型材断面
  6
CONTINUOUS
 62
    47
 10
-26.950345
 20
-75.49669
 11
-52.400342
 21
-75.49669
  0
LINE
  8
型材断面
  6
CONTINUOUS
 10
-26.480343
 20
-76.255728
 11
-52.400342
 21
-76.255728
  0
LINE
  8
型材断面
  6
CONTINUOUS
 62
    47
 10
-26.480343
 20
-76.755728
 11
-52.400342
 21
-76.755728
  0
LINE
  8
型材断面
  6
CONTINUOUS
 10
-27.655343
 20
-76.105728
 11
-52.400342
 21
-76.105728
  0
LINE
  8
型材断面
  6
CONTINUOUS
 62
    47
 10
-26.950345
 20
-80.69669
 11
-52.400342
 21
-80.69669
  0
LINE
  8
型材断面
  6
CONTINUOUS
 62
    47
 10
-27.800345
 20
-81.44669
 11
-52.400342
 21
-81.44669
  0
LINE
  8
型材断面
  6
CONTINUOUS
 10
-78.874572
 20
-71.624723
 11
-79.175342
 21
-71.925495
  0
LINE
  8
型材断面
  6
CONTINUOUS
 10
-79.175342
 20
-73.27169
 11
-79.175342
 21
-71.925495
  0
LINE
  8
型材断面
  6
CONTINUOUS
 62
    47
 10
-79.175342
 20
-73.97169
 11
-79.175342
 21
-73.27169
  0
LINE
  8
型材断面
  6
CONTINUOUS
 62
    47
 10
-78.500342
 20
-73.97169
 11
-78.500342
 21
-74.47169
  0
LINE
  8
型材断面
  6
CONTINUOUS
 62
    47
 10
-77.531067
 20
-70.28122
 11
-78.874572
 21
-71.624723
  0
LINE
  8
型材断面
  6
CONTINUOUS
 10
-77.177515
 20
-69.927668
 11
-73.62761
 21
-69.927668
  0
LINE
  8
型材断面
  6
CONTINUOUS
 62
    47
 10
-78.320342
 20
-76.755728
 11
-78.320342
 21
-76.255728
  0
LINE
  8
型材断面
  6
CONTINUOUS
 62
    47
 10
-78.320342
 20
-76.255728
 11
-77.145342
 21
-76.105728
  0
LINE
  8
型材断面
  6
CONTINUOUS
 62
    47
 10
-77.145342
 20
-75.49669
 11
-77.145342
 21
-76.105728
  0
LINE
  8
型材断面
  6
CONTINUOUS
 62
    47
 10
-77.85034
 20
-75.49669
 11
-77.85034
 21
-74.47169
  0
LINE
  8
型材断面
  6
CONTINUOUS
 62
    47
 10
-77.85034
 20
-80.69669
 11
-77.85034
 21
-76.755728
  0
LINE
  8
型材断面
  6
CONTINUOUS
 62
    47
 10
-77.00034
 20
-81.44669
 11
-77.00034
 21
-80.69669
  0
LINE
  8
型材断面
  6
CONTINUOUS
 10
-77.531067
 20
-70.28122
 11
-52.400342
 21
-45.150495
  0
LINE
  8
型材断面
  6
CONTINUOUS
 10
-73.910452
 20
-69.927668
 11
-53.330303
 21
-49.347512
  0
LINE
  8
型材断面
  6
CONTINUOUS
 10
-73.62761
 20
-69.927668
 11
-53.04746
 21
-49.347512
  0
LINE
  8
型材断面
  6
CONTINUOUS
 10
-76.82396
 20
-69.927668
 11
-56.243805
 21
-49.347512
  0
LINE
  8
型材断面
  6
CONTINUOUS
 10
-77.531067
 20
-70.28122
 11
-52.400342
 21
-70.28122
  0
LINE
  8
型材断面
  6
CONTINUOUS
 10
-78.874572
 20
-71.624723
 11
-52.400342
 21
-71.624723
  0
LINE
  8
型材断面
  6
CONTINUOUS
 10
-79.175342
 20
-71.925495
 11
-52.400342
 21
-71.925495
  0
LINE
  8
型材断面
  6
CONTINUOUS
 10
-78.521018
 20
-71.27117
 11
-52.400342
 21
-71.27117
  0
LINE
  8
型材断面
  6
CONTINUOUS
 10
-79.175342
 20
-73.27169
 11
-52.400342
 21
-73.27169
  0
LINE
  8
型材断面
  6
CONTINUOUS
 10
-79.175342
 20
-73.97169
 11
-52.400342
 21
-73.97169
  0
LINE
  8
型材断面
  6
CONTINUOUS
 10
-78.500342
 20
-74.47169
 11
-52.400342
 21
-74.47169
  0
LINE
  8
型材断面
  6
CONTINUOUS
 62
    47
 10
-77.85034
 20
-75.49669
 11
-52.400342
 21
-75.49669
  0
LINE
  8
型材断面
  6
CONTINUOUS
 10
-78.320342
 20
-76.255728
 11
-52.400342
 21
-76.255728
  0
LINE
  8
型材断面
  6
CONTINUOUS
 62
    47
 10
-78.320342
 20
-76.755728
 11
-52.400342
 21
-76.755728
  0
LINE
  8
型材断面
  6
CONTINUOUS
 10
-77.145342
 20
-76.105728
 11
-52.400342
 21
-76.105728
  0
LINE
  8
型材断面
  6
CONTINUOUS
 62
    47
 10
-77.85034
 20
-80.69669
 11
-52.400342
 21
-80.69669
  0
LINE
  8
型材断面
  6
CONTINUOUS
 62
    47
 10
-77.00034
 20
-81.44669
 11
-52.400342
 21
-81.44669
  0
LINE
  8
型材断面
  6
CONTINUOUS
 10
96.402535
 20
-71.624723
 11
96.703305
 21
-71.925495
  0
LINE
  8
型材断面
  6
CONTINUOUS
 10
96.703305
 20
-73.27169
 11
96.703305
 21
-71.925495
  0
LINE
  8
型材断面
  6
CONTINUOUS
 62
    47
 10
96.703305
 20
-73.97169
 11
96.703305
 21
-73.27169
  0
LINE
  8
型材断面
  6
CONTINUOUS
 62
    47
 10
96.028305
 20
-73.97169
 11
96.028305
 21
-74.47169
  0
LINE
  8
型材断面
  6
CONTINUOUS
 62
    47
 10
95.05903
 20
-70.28122
 11
96.402535
 21
-71.624723
  0
LINE
  8
型材断面
  6
CONTINUOUS
 10
94.705478
 20
-69.927668
 11
91.155573
 21
-69.927668
  0
LINE
  8
型材断面
  6
CONTINUOUS
 62
    47
 10
95.848305
 20
-76.755728
 11
95.848305
 21
-76.255728
  0
LINE
  8
型材断面
  6
CONTINUOUS
 62
    47
 10
95.848305
 20
-76.255728
 11
94.673305
 21
-76.105728
  0
LINE
  8
型材断面
  6
CONTINUOUS
 62
    47
 10
94.673305
 20
-75.49669
 11
94.673305
 21
-76.105728
  0
LINE
  8
型材断面
  6
CONTINUOUS
 62
    47
 10
95.378303
 20
-75.49669
 11
95.378303
 21
-74.47169
  0
LINE
  8
型材断面
  6
CONTINUOUS
 62
    47
 10
95.378303
 20
-80.69669
 11
95.378303
 21
-76.755728
  0
LINE
  8
型材断面
  6
CONTINUOUS
 62
    47
 10
94.528303
 20
-81.44669
 11
94.528303
 21
-80.69669
  0
LINE
  8
型材断面
  6
CONTINUOUS
 10
95.05903
 20
-70.28122
 11
69.928305
 21
-45.150495
  0
LINE
  8
型材断面
  6
CONTINUOUS
 10
74.178305
 20
-49.29453
 11
69.928305
 21
-49.29453
  0
LINE
  8
型材断面
  6
CONTINUOUS
 10
65.678307
 20
-49.29453
 11
69.928305
 21
-49.29453
  0
LINE
  8
型材断面
  6
CONTINUOUS
 10
65.73129
 20
-49.347512
 11
69.928305
 21
-49.347512
  0
LINE
  8
型材断面
  6
CONTINUOUS
 10
69.928305
 20
-45.04453
 11
74.178305
 21
-49.29453
  0
LINE
  8
型材断面
  6
CONTINUOUS
 10
69.928305
 20
-45.04453
 11
65.678307
 21
-49.29453
  0
LINE
  8
型材断面
  6
CONTINUOUS
 10
74.12532
 20
-49.347512
 11
69.928305
 21
-49.347512
  0
LINE
  8
型材断面
  6
CONTINUOUS
 10
65.678307
 20
-49.29453
 11
65.73129
 21
-49.347512
  0
LINE
  8
型材断面
  6
CONTINUOUS
 10
74.12532
 20
-49.347512
 11
74.178305
 21
-49.29453
  0
LINE
  8
型材断面
  6
CONTINUOUS
 10
91.438415
 20
-69.927668
 11
70.858265
 21
-49.347512
  0
LINE
  8
型材断面
  6
CONTINUOUS
 10
91.155573
 20
-69.927668
 11
70.575423
 21
-49.347512
  0
LINE
  8
型材断面
  6
CONTINUOUS
 10
94.351923
 20
-69.927668
 11
73.771767
 21
-49.347512
  0
LINE
  8
型材断面
  6
CONTINUOUS
 10
95.05903
 20
-70.28122
 11
69.928305
 21
-70.28122
  0
LINE
  8
型材断面
  6
CONTINUOUS
 10
96.402535
 20
-71.624723
 11
69.928305
 21
-71.624723
  0
LINE
  8
型材断面
  6
CONTINUOUS
 10
96.703305
 20
-71.925495
 11
69.928305
 21
-71.925495
  0
LINE
  8
型材断面
  6
CONTINUOUS
 10
96.04898
 20
-71.27117
 11
69.928305
 21
-71.27117
  0
LINE
  8
型材断面
  6
CONTINUOUS
 10
96.703305
 20
-73.27169
 11
69.928305
 21
-73.27169
  0
LINE
  8
型材断面
  6
CONTINUOUS
 10
96.703305
 20
-73.97169
 11
69.928305
 21
-73.97169
  0
LINE
  8
型材断面
  6
CONTINUOUS
 10
96.028305
 20
-74.47169
 11
69.928305
 21
-74.47169
  0
LINE
  8
型材断面
  6
CONTINUOUS
 62
    47
 10
95.378303
 20
-75.49669
 11
69.928305
 21
-75.49669
  0
LINE
  8
型材断面
  6
CONTINUOUS
 10
95.848305
 20
-76.255728
 11
69.928305
 21
-76.255728
  0
LINE
  8
型材断面
  6
CONTINUOUS
 62
    47
 10
95.848305
 20
-76.755728
 11
69.928305
 21
-76.755728
  0
LINE
  8
型材断面
  6
CONTINUOUS
 10
94.673305
 20
-76.105728
 11
69.928305
 21
-76.105728
  0
LINE
  8
型材断面
  6
CONTINUOUS
 62
    47
 10
95.378303
 20
-80.69669
 11
69.928305
 21
-80.69669
  0
LINE
  8
型材断面
  6
CONTINUOUS
 62
    47
 10
94.528303
 20
-81.44669
 11
69.928305
 21
-81.44669
  0
LINE
  8
型材断面
  6
CONTINUOUS
 10
43.454075
 20
-71.624723
 11
43.153305
 21
-71.925495
  0
LINE
  8
型材断面
  6
CONTINUOUS
 10
43.153305
 20
-73.27169
 11
43.153305
 21
-71.925495
  0
LINE
  8
型材断面
  6
CONTINUOUS
 62
    47
 10
43.153305
 20
-73.97169
 11
43.153305
 21
-73.27169
  0
LINE
  8
型材断面
  6
CONTINUOUS
 62
    47
 10
43.828305
 20
-73.97169
 11
43.828305
 21
-74.47169
  0
LINE
  8
型材断面
  6
CONTINUOUS
 62
    47
 10
44.79758
 20
-70.28122
 11
43.454075
 21
-71.624723
  0
LINE
  8
型材断面
  6
CONTINUOUS
 10
45.151132
 20
-69.927668
 11
48.701037
 21
-69.927668
  0
LINE
  8
型材断面
  6
CONTINUOUS
 62
    47
 10
44.008305
 20
-76.755728
 11
44.008305
 21
-76.255728
  0
LINE
  8
型材断面
  6
CONTINUOUS
 62
    47
 10
44.008305
 20
-76.255728
 11
45.183305
 21
-76.105728
  0
LINE
  8
型材断面
  6
CONTINUOUS
 62
    47
 10
45.183305
 20
-75.49669
 11
45.183305
 21
-76.105728
  0
LINE
  8
型材断面
  6
CONTINUOUS
 62
    47
 10
44.478307
 20
-75.49669
 11
44.478307
 21
-74.47169
  0
LINE
  8
型材断面
  6
CONTINUOUS
 62
    47
 10
44.478307
 20
-80.69669
 11
44.478307
 21
-76.755728
  0
LINE
  8
型材断面
  6
CONTINUOUS
 62
    47
 10
45.328307
 20
-81.44669
 11
45.328307
 21
-80.69669
  0
LINE
  8
型材断面
  6
CONTINUOUS
 10
44.79758
 20
-70.28122
 11
69.928305
 21
-45.150495
  0
LINE
  8
型材断面
  6
CONTINUOUS
 10
48.418195
 20
-69.927668
 11
68.998345
 21
-49.347512
  0
LINE
  8
型材断面
  6
CONTINUOUS
 10
48.701037
 20
-69.927668
 11
69.281187
 21
-49.347512
  0
LINE
  8
型材断面
  6
CONTINUOUS
 10
45.504688
 20
-69.927668
 11
66.084843
 21
-49.347512
  0
LINE
  8
型材断面
  6
CONTINUOUS
 10
44.79758
 20
-70.28122
 11
69.928305
 21
-70.28122
  0
LINE
  8
型材断面
  6
CONTINUOUS
 10
43.454075
 20
-71.624723
 11
69.928305
 21
-71.624723
  0
LINE
  8
型材断面
  6
CONTINUOUS
 10
43.153305
 20
-71.925495
 11
69.928305
 21
-71.925495
  0
LINE
  8
型材断面
  6
CONTINUOUS
 10
43.80763
 20
-71.27117
 11
69.928305
 21
-71.27117
  0
LINE
  8
型材断面
  6
CONTINUOUS
 10
43.153305
 20
-73.27169
 11
69.928305
 21
-73.27169
  0
LINE
  8
型材断面
  6
CONTINUOUS
 10
43.153305
 20
-73.97169
 11
69.928305
 21
-73.97169
  0
LINE
  8
型材断面
  6
CONTINUOUS
 10
43.828305
 20
-74.47169
 11
69.928305
 21
-74.47169
  0
LINE
  8
型材断面
  6
CONTINUOUS
 62
    47
 10
44.478307
 20
-75.49669
 11
69.928305
 21
-75.49669
  0
LINE
  8
型材断面
  6
CONTINUOUS
 10
44.008305
 20
-76.255728
 11
69.928305
 21
-76.255728
  0
LINE
  8
型材断面
  6
CONTINUOUS
 62
    47
 10
44.008305
 20
-76.755728
 11
69.928305
 21
-76.755728
  0
LINE
  8
型材断面
  6
CONTINUOUS
 10
45.183305
 20
-76.105728
 11
69.928305
 21
-76.105728
  0
LINE
  8
型材断面
  6
CONTINUOUS
 62
    47
 10
44.478307
 20
-80.69669
 11
69.928305
 21
-80.69669
  0
LINE
  8
型材断面
  6
CONTINUOUS
 62
    47
 10
45.328307
 20
-81.44669
 11
69.928305
 21
-81.44669
  0
LINE
  8
型材断面
  6
DOT
 10
96.402535
 20
-60.624723
 11
96.703305
 21
-60.925495
  0
LINE
  8
型材断面
  6
DOT
 10
96.703305
 20
-62.27169
 11
96.703305
 21
-60.925495
  0
LINE
  8
型材断面
  6
DOT
 62
    47
 10
96.703305
 20
-62.97169
 11
96.703305
 21
-62.27169
  0
LINE
  8
型材断面
  6
DOT
 62
    47
 10
96.028305
 20
-62.97169
 11
96.028305
 21
-63.47169
  0
LINE
  8
型材断面
  6
DOT
 62
    47
 10
95.05903
 20
-59.28122
 11
96.402535
 21
-60.624723
  0
LINE
  8
型材断面
  6
DOT
 10
94.705478
 20
-58.927668
 11
91.155573
 21
-58.927668
  0
LINE
  8
型材断面
  6
DOT
 62
    47
 10
95.848305
 20
-65.755728
 11
95.848305
 21
-65.255728
  0
LINE
  8
型材断面
  6
DOT
 62
    47
 10
95.848305
 20
-65.255728
 11
94.673305
 21
-65.105728
  0
LINE
  8
型材断面
  6
DOT
 62
    47
 10
94.673305
 20
-64.49669
 11
94.673305
 21
-65.105728
  0
LINE
  8
型材断面
  6
DOT
 62
    47
 10
95.378303
 20
-64.49669
 11
95.378303
 21
-63.47169
  0
LINE
  8
型材断面
  6
DOT
 10
95.05903
 20
-59.28122
 11
69.928305
 21
-34.150495
  0
LINE
  8
型材断面
  6
DOT
 10
74.178305
 20
-38.29453
 11
69.928305
 21
-38.29453
  0
LINE
  8
型材断面
  6
DOT
 10
65.678307
 20
-38.29453
 11
69.928305
 21
-38.29453
  0
LINE
  8
型材断面
  6
DOT
 10
65.73129
 20
-38.347512
 11
69.928305
 21
-38.347512
  0
LINE
  8
型材断面
  6
DOT
 10
69.928305
 20
-34.04453
 11
74.178305
 21
-38.29453
  0
LINE
  8
型材断面
  6
DOT
 10
69.928305
 20
-34.04453
 11
65.678307
 21
-38.29453
  0
LINE
  8
型材断面
  6
DOT
 10
74.12532
 20
-38.347512
 11
69.928305
 21
-38.347512
  0
LINE
  8
型材断面
  6
DOT
 10
65.678307
 20
-38.29453
 11
65.73129
 21
-38.347512
  0
LINE
  8
型材断面
  6
DOT
 10
74.12532
 20
-38.347512
 11
74.178305
 21
-38.29453
  0
LINE
  8
型材断面
  6
DOT
 10
91.438415
 20
-58.927668
 11
70.858265
 21
-38.347512
  0
LINE
  8
型材断面
  6
DOT
 10
91.155573
 20
-58.927668
 11
70.575423
 21
-38.347512
  0
LINE
  8
型材断面
  6
DOT
 10
94.351923
 20
-58.927668
 11
73.771767
 21
-38.347512
  0
LINE
  8
型材断面
  6
DOT
 10
95.05903
 20
-59.28122
 11
69.928305
 21
-59.28122
  0
LINE
  8
型材断面
  6
DOT
 10
96.402535
 20
-60.624723
 11
69.928305
 21
-60.624723
  0
LINE
  8
型材断面
  6
DOT
 10
96.703305
 20
-60.925495
 11
69.928305
 21
-60.925495
  0
LINE
  8
型材断面
  6
DOT
 10
96.04898
 20
-60.27117
 11
69.928305
 21
-60.27117
  0
LINE
  8
型材断面
  6
DOT
 10
96.703305
 20
-62.27169
 11
69.928305
 21
-62.27169
  0
LINE
  8
型材断面
  6
DOT
 10
96.703305
 20
-62.97169
 11
69.928305
 21
-62.97169
  0
LINE
  8
型材断面
  6
DOT
 10
96.028305
 20
-63.47169
 11
69.928305
 21
-63.47169
  0
LINE
  8
型材断面
  6
DOT
 62
    47
 10
95.378303
 20
-64.49669
 11
69.928305
 21
-64.49669
  0
LINE
  8
型材断面
  6
DOT
 10
95.848305
 20
-65.255728
 11
69.928305
 21
-65.255728
  0
LINE
  8
型材断面
  6
DOT
 62
    47
 10
95.848305
 20
-65.755728
 11
69.928305
 21
-65.755728
  0
LINE
  8
型材断面
  6
DOT
 10
94.673305
 20
-65.105728
 11
69.928305
 21
-65.105728
  0
LINE
  8
型材断面
  6
DOT
 10
43.454075
 20
-60.624723
 11
43.153305
 21
-60.925495
  0
LINE
  8
型材断面
  6
DOT
 10
43.153305
 20
-62.27169
 11
43.153305
 21
-60.925495
  0
LINE
  8
型材断面
  6
DOT
 62
    47
 10
43.153305
 20
-62.97169
 11
43.153305
 21
-62.27169
  0
LINE
  8
型材断面
  6
DOT
 62
    47
 10
43.828305
 20
-62.97169
 11
43.828305
 21
-63.47169
  0
LINE
  8
型材断面
  6
DOT
 62
    47
 10
44.79758
 20
-59.28122
 11
43.454075
 21
-60.624723
  0
LINE
  8
型材断面
  6
DOT
 10
45.151132
 20
-58.927668
 11
48.701037
 21
-58.927668
  0
LINE
  8
型材断面
  6
DOT
 62
    47
 10
44.008305
 20
-65.755728
 11
44.008305
 21
-65.255728
  0
LINE
  8
型材断面
  6
DOT
 62
    47
 10
44.008305
 20
-65.255728
 11
45.183305
 21
-65.105728
  0
LINE
  8
型材断面
  6
DOT
 62
    47
 10
45.183305
 20
-64.49669
 11
45.183305
 21
-65.105728
  0
LINE
  8
型材断面
  6
DOT
 62
    47
 10
44.478307
 20
-64.49669
 11
44.478307
 21
-63.47169
  0
LINE
  8
型材断面
  6
DOT
 10
44.79758
 20
-59.28122
 11
69.928305
 21
-34.150495
  0
LINE
  8
型材断面
  6
DOT
 10
48.418195
 20
-58.927668
 11
68.998345
 21
-38.347512
  0
LINE
  8
型材断面
  6
DOT
 10
48.701037
 20
-58.927668
 11
69.281187
 21
-38.347512
  0
LINE
  8
型材断面
  6
DOT
 10
45.504688
 20
-58.927668
 11
66.084843
 21
-38.347512
  0
LINE
  8
型材断面
  6
DOT
 10
44.79758
 20
-59.28122
 11
69.928305
 21
-59.28122
  0
LINE
  8
型材断面
  6
DOT
 10
43.454075
 20
-60.624723
 11
69.928305
 21
-60.624723
  0
LINE
  8
型材断面
  6
DOT
 10
43.153305
 20
-60.925495
 11
69.928305
 21
-60.925495
  0
LINE
  8
型材断面
  6
DOT
 10
43.80763
 20
-60.27117
 11
69.928305
 21
-60.27117
  0
LINE
  8
型材断面
  6
DOT
 10
43.153305
 20
-62.27169
 11
69.928305
 21
-62.27169
  0
LINE
  8
型材断面
  6
DOT
 10
43.153305
 20
-62.97169
 11
69.928305
 21
-62.97169
  0
LINE
  8
型材断面
  6
DOT
 10
43.828305
 20
-63.47169
 11
69.928305
 21
-63.47169
  0
LINE
  8
型材断面
  6
DOT
 62
    47
 10
44.478307
 20
-64.49669
 11
69.928305
 21
-64.49669
  0
LINE
  8
型材断面
  6
DOT
 10
44.008305
 20
-65.255728
 11
69.928305
 21
-65.255728
  0
LINE
  8
型材断面
  6
DOT
 62
    47
 10
44.008305
 20
-65.755728
 11
69.928305
 21
-65.755728
  0
LINE
  8
型材断面
  6
DOT
 10
45.183305
 20
-65.105728
 11
69.928305
 21
-65.105728
  0
LINE
  8
型材断面
  6
DASHDOT
 10
-29.900342
 20
42.506688
 11
-29.900342
 21
-80.69669
  0
LINE
  8
型材断面
  6
DASHDOT
 10
-52.400342
 20
42.506688
 11
-52.400342
 21
-80.69669
  0
LINE
  8
型材断面
  6
DASHDOT
 10
-74.900342
 20
42.506688
 11
-74.900342
 21
-80.69669
  0
POLYLINE
  8
型材断面
  6
CONTINUOUS
 66
     1
 70
     1
  0
VERTEX
  8
型材断面
 10
-43.609893
 20
-16.211275
  0
VERTEX
  8
型材断面
 10
-62.165105
 20
-16.211275
  0
VERTEX
  8
型材断面
 10
-62.165105
 20
-21.00331
  0
VERTEX
  8
型材断面
 10
-43.609893
 20
-21.00331
  0
SEQEND
  0
POLYLINE
  8
型材断面
  6
CONTINUOUS
 66
     1
 70
     1
  0
VERTEX
  8
型材断面
 10
-43.609893
 20
60.352268
  0
VERTEX
  8
型材断面
 10
-62.165105
 20
60.352268
  0
VERTEX
  8
型材断面
 10
-62.165105
 20
55.560232
  0
VERTEX
  8
型材断面
 10
-43.609893
 20
55.560232
  0
SEQEND
  0
LINE
  8
型材断面
  6
CONTINUOUS
 10
7.91441
 20
-0.029155
 11
5.670965
 21
-3.914915
  0
LINE
  8
型材断面
  6
CONTINUOUS
 10
7.91441
 20
-0.029155
 11
10.157855
 21
-3.914915
  0
LINE
  8
型材断面
  6
CONTINUOUS
 10
10.157855
 20
-3.914915
 11
5.670965
 21
-3.914915
  0
LINE
  8
型材断面
  6
CONTINUOUS
 10
7.91441
 20
-7.718703
 11
8.808495
 21
-11.604463
  0
LINE
  8
型材断面
  6
CONTINUOUS
 10
7.91441
 20
-7.718703
 11
7.020325
 21
-11.604463
  0
LINE
  8
型材断面
  6
CONTINUOUS
 10
7.020325
 20
-11.604463
 11
8.808495
 21
-11.604463
  0
LINE
  8
型材断面
  6
CONTINUOUS
 10
-1.11947
 20
-5.322807
 11
51.53721
 21
-5.322807
  0
LINE
  8
型材断面
  6
CONTINUOUS
 10
-1.11947
 20
-16.5228
 11
51.53721
 21
-16.5228
  0
LINE
  8
型材断面
  6
CONTINUOUS
 10
-1.11947
 20
-23.362745
 11
51.53721
 21
-23.362745
  0
LINE
  8
型材断面
  6
CONTINUOUS
 10
-1.11947
 20
-30.20269
 11
51.53721
 21
-30.20269
  0
LINE
  8
型材断面
  6
CONTINUOUS
 10
121.211362
 20
-38.757607
 11
145.142985
 21
-38.757607
  0
LINE
  8
ガラス
  6
CONTINUOUS
 10
-50.355472
 20
7.458828
 11
-54.228107
 21
3.586192
  0
LINE
  8
ガラス
  6
CONTINUOUS
 10
-51.235795
 20
5.86047
 11
-52.62975
 21
4.466515
  0
LINE
  8
ガラス
  6
CONTINUOUS
 10
-51.95383
 20
6.578505
 11
-53.347785
 21
5.18455
  0
LINE
  8
ガラス
  6
CONTINUOUS
 10
-50.355472
 20
36.263537
 11
-54.228107
 21
32.390903
  0
LINE
  8
ガラス
  6
CONTINUOUS
 10
-51.235795
 20
34.66518
 11
-52.62975
 21
33.271225
  0
LINE
  8
ガラス
  6
CONTINUOUS
 10
-51.95383
 20
35.383215
 11
-53.347785
 21
33.98926
  0
LINE
  8
ガラス
  6
CONTINUOUS
 10
-34.37463
 20
21.937563
 11
-38.247265
 21
18.064927
  0
LINE
  8
ガラス
  6
CONTINUOUS
 10
-35.254953
 20
20.339205
 11
-36.648908
 21
18.94525
  0
LINE
  8
ガラス
  6
CONTINUOUS
 10
-35.972988
 20
21.05724
 11
-37.366943
 21
19.663285
  0
LINE
  8
ガラス
  6
CONTINUOUS
 10
-65.86132
 20
21.937563
 11
-69.733955
 21
18.064927
  0
LINE
  8
ガラス
  6
CONTINUOUS
 10
-66.741643
 20
20.339205
 11
-68.135598
 21
18.94525
  0
LINE
  8
ガラス
  6
CONTINUOUS
 10
-67.459677
 20
21.05724
 11
-68.853633
 21
19.663285
  0
LINE
  8
ガラス
  6
CONTINUOUS
 10
-50.403075
 20
6.520555
 11
-54.27571
 21
2.64792
  0
LINE
  8
ガラス
  6
CONTINUOUS
 10
-51.283397
 20
4.922198
 11
-52.677352
 21
3.528242
  0
LINE
  8
ガラス
  6
CONTINUOUS
 10
-52.001433
 20
5.640232
 11
-53.395388
 21
4.246277
  0
LINE
  8
ガラス
  6
CONTINUOUS
 10
-34.347
 20
21.93236
 11
-38.219635
 21
18.059725
  0
LINE
  8
ガラス
  6
CONTINUOUS
 10
-35.227322
 20
20.334002
 11
-36.621277
 21
18.940048
  0
LINE
  8
ガラス
  6
CONTINUOUS
 10
-35.945357
 20
21.052038
 11
-37.339312
 21
19.658082
  0
LINE
  8
ガラス
  6
CONTINUOUS
 10
-66.591097
 20
21.93236
 11
-70.463732
 21
18.059725
  0
LINE
  8
ガラス
  6
CONTINUOUS
 10
-67.47142
 20
20.334002
 11
-68.865375
 21
18.940048
  0
LINE
  8
ガラス
  6
CONTINUOUS
 10
-68.189455
 20
21.052038
 11
-69.58341
 21
19.658082
  0
LINE
  8
ガラス
  6
CONTINUOUS
 10
-50.403075
 20
38.69434
 11
-54.27571
 21
34.821705
  0
LINE
  8
ガラス
  6
CONTINUOUS
 10
-51.283397
 20
37.095982
 11
-52.677352
 21
35.702028
  0
LINE
  8
ガラス
  6
CONTINUOUS
 10
-52.001433
 20
37.814018
 11
-53.395388
 21
36.420062
  0
LINE
  8
ガラス
  6
CONTINUOUS
 10
-50.355472
 20
-58.957093
 11
-54.228107
 21
-62.829727
  0
LINE
  8
ガラス
  6
CONTINUOUS
 10
-51.235795
 20
-60.55545
 11
-52.62975
 21
-61.949405
  0
LINE
  8
ガラス
  6
CONTINUOUS
 10
-51.95383
 20
-59.837415
 11
-53.347785
 21
-61.23137
  0
TEXT
  7
TextStyle03
  8
文字
  6
CONTINUOUS
 10
-4.725
 20
4.925
  1
ﾊﾞﾗﾝｽｽﾃｰ
 40
3.0
 72
     5
 11
8.5875
 21
4.925
  0
TEXT
  7
TextStyle03
  8
文字
  6
CONTINUOUS
 10
-81.3
 20
65.75
  1
アンカーピッチ
 40
3.0
 72
     5
 11
-58.05
 21
65.75
  0
TEXT
  7
TextStyle03
  8
文字
  6
CONTINUOUS
 10
-104.95
 20
-12.35
  1
アンカーピッチ
 40
3.0
 50
90.0
 72
     5
 11
-104.95
 21
10.9
  0
TEXT
  7
TextStyle03
  8
文字
  6
CONTINUOUS
 10
-61.2
 20
-19.975
  1
可動装置側
 40
3.0
 72
     5
 11
-44.7
 21
-19.975
  0
TEXT
  7
TextStyle03
  8
文字
  6
CONTINUOUS
 10
-61.2
 20
56.575
  1
可動装置側
 40
3.0
 72
     5
 11
-44.7
 21
56.575
  0
TEXT
  7
TextStyle03
  8
文字
  6
CONTINUOUS
 10
66.3
 20
94.0
  1
ＮＳコード：ＮＳ４ＣＳ
 40
5.0
 72
     5
 11
127.55
 21
94.0
  0
TEXT
  7
TextStyle03
  8
文字
  6
CONTINUOUS
 10
12.175
 20
-3.575
  1
は排水穴位置を示す
 40
3.0
 72
     5
 11
42.175
 21
-3.575
  0
TEXT
  7
TextStyle03
  8
文字
  6
CONTINUOUS
 10
12.175
 20
-11.425
  1
はケーシング位置を示す
 40
3.0
 72
     5
 11
48.925
 21
-11.425
  0
TEXT
  7
TextStyle03
  8
文字
  6
CONTINUOUS
 10
12.175
 20
-14.8
  1
４ヶ所中1ヶ所に設定
 40
3.0
 72
     5
 11
43.8625
 21
-14.8
  0
TEXT
  7
TextStyle03
  8
文字
  6
CONTINUOUS
 10
6.575
 20
-21.95
  1
アンカー数量　６ヶ所
 40
3.0
 72
     5
 11
39.95
 21
-21.95
  0
TEXT
  7
TextStyle03
  8
文字
  6
CONTINUOUS
 10
6.55
 20
-28.75
  1
アームユニット数　２ヶ所
 40
3.0
 72
     5
 11
46.675
 21
-28.75
  0
TEXT
  7
TextStyle03
  8
文字
  6
CONTINUOUS
 10
124.8
 20
-37.525
  1
ガラス寸法
 40
3.0
 72
     5
 11
141.3
 21
-37.525
  0
TEXT
  7
TextStyle03
  8
文字
  6
CONTINUOUS
 10
160.725
 20
-68.025
  1
×４枚
 40
3.0
 72
     5
 11
170.475
 21
-68.025
  0
TEXT
  7
TextStyle03
  8
文字
  6
CONTINUOUS
 10
66.275
 20
120.975
  1
シリーズ：ＳＴＦ４
 40
5.0
 72
     5
 11
116.275
 21
120.975
  0
TEXT
  7
TextStyle03
  8
文字
  6
CONTINUOUS
 10
66.275
 20
115.35
  1
　　　　　四角錘（上下可動）900×900タイプ
 40
5.0
 72
     5
 11
183.775
 21
115.35
  0
TEXT
  7
TextStyle03
  8
文字
  6
CONTINUOUS
 10
66.275
 20
109.725
  1
　　　　　ペアガラス仕様
 40
5.0
 72
     5
 11
133.15
 21
109.725
  0
TEXT
  7
TextStyle03
  8
文字
  6
CONTINUOUS
 10
66.275
 20
104.1
  1
図面名　：外観姿図
 40
5.0
 72
     5
 11
116.275
 21
104.1
  0
TEXT
  7
TextStyle03
  8
文字
  6
CONTINUOUS
 10
66.275
 20
98.475
  1
　　　　　　
 40
5.0
 72
     5
 11
99.4
 21
98.475
  0
INSERT
  2
*GRP_0002
  8
寸法
  6
CONTINUOUS
 10
0.0
 20
0.0
  0
INSERT
  2
*DIM_0003
  8
寸法
  6
CONTINUOUS
 10
0.0
 20
0.0
  0
INSERT
  2
*DIM_0004
  8
寸法
  6
CONTINUOUS
 10
0.0
 20
0.0
  0
INSERT
  2
*DIM_0005
  8
寸法
  6
CONTINUOUS
 10
0.0
 20
0.0
  0
INSERT
  2
*DIM_0006
  8
寸法
  6
CONTINUOUS
 10
0.0
 20
0.0
  0
INSERT
  2
*DIM_0007
  8
寸法
  6
CONTINUOUS
 10
0.0
 20
0.0
  0
INSERT
  2
*DIM_0008
  8
寸法
  6
CONTINUOUS
 10
0.0
 20
0.0
  0
INSERT
  2
*DIM_0009
  8
寸法
  6
CONTINUOUS
 10
0.0
 20
0.0
  0
INSERT
  2
*DIM_0010
  8
寸法
  6
CONTINUOUS
 10
0.0
 20
0.0
  0
INSERT
  2
*DIM_0011
  8
寸法
  6
CONTINUOUS
 10
0.0
 20
0.0
  0
INSERT
  2
*DIM_0012
  8
寸法
  6
CONTINUOUS
 10
0.0
 20
0.0
  0
INSERT
  2
*DIM_0013
  8
寸法
  6
CONTINUOUS
 10
0.0
 20
0.0
  0
INSERT
  2
*DIM_0014
  8
寸法
  6
CONTINUOUS
 10
0.0
 20
0.0
  0
INSERT
  2
*DIM_0015
  8
寸法
  6
CONTINUOUS
 10
0.0
 20
0.0
  0
INSERT
  2
*DIM_0016
  8
寸法
  6
CONTINUOUS
 10
0.0
 20
0.0
  0
INSERT
  2
*DIM_0017
  8
寸法
  6
CONTINUOUS
 10
0.0
 20
0.0
  0
LINE
  8
曲げ物
  6
CONTINUOUS
 10
133.710815
 20
-70.6379
 11
157.103605
 21
-37.555498
  0
LINE
  8
曲げ物
  6
CONTINUOUS
 10
157.103605
 20
-37.555498
 11
180.496395
 21
-70.6379
  0
LINE
  8
曲げ物
  6
CONTINUOUS
 10
133.710815
 20
-70.6379
 11
180.496395
 21
-70.6379
  0
ENDSEC
  0
EOF
