  0
SECTION
  2
HEADER
  9
$EXTMIN
 10
-210.0
 20
-148.5
  9
$EXTMAX
 10
210.0
 20
148.5
  9
$PDMODE
 70
    32
  9
$PDSIZE
 40
1.5
  9
$LTSCALE
 40
10.0
  0
ENDSEC
  0
SECTION
  2
TABLES
  0
TABLE
  2
LTYPE
 70
    15
  0
LTYPE
  2
CONTINUOUS
 70
    64
  3
実線
 72
    65
 73
     0
 40
0.0
  0
LTYPE
  2
DASHED
 70
    64
  3
破線A
 72
    65
 73
     2
 40
0.6
 49
0.4
 49
-0.2
  0
LTYPE
  2
DASHEDX2
 70
    64
  3
破線B
 72
    65
 73
     2
 40
1.3
 49
0.9
 49
-0.4
  0
LTYPE
  2
DASHDOT
 70
    64
  3
１点鎖線A
 72
    65
 73
     4
 40
0.5375
 49
0.375
 49
-0.05
 49
0.0625
 49
-0.05
  0
LTYPE
  2
DASHDOTX2
 70
    64
  3
１点鎖線B
 72
    65
 73
     4
 40
1.075
 49
0.75
 49
-0.1
 49
0.125
 49
-0.1
  0
LTYPE
  2
DIVIDE2
 70
    64
  3
２点鎖線A
 72
    65
 73
     6
 40
0.5125
 49
0.3
 49
-0.0375
 49
0.05
 49
-0.0375
 49
0.05
 49
-0.0375
  0
LTYPE
  2
DIVIDE
 70
    64
  3
２点鎖線B
 72
    65
 73
     6
 40
1.05
 49
0.55
 49
-0.1
 49
0.1
 49
-0.1
 49
0.1
 49
-0.1
  0
LTYPE
  2
DOT
 70
    64
  3
点線A
 72
    65
 73
     2
 40
0.1125
 49
0.0625
 49
-0.05
  0
LTYPE
  2
DOTX2
 70
    64
  3
点線B
 72
    65
 73
     2
 40
0.275
 49
0.15
 49
-0.125
  0
LTYPE
  2
CONTINUOUS
 70
    64
  3
実線
 72
    65
 73
     0
 40
0.0
  0
LTYPE
  2
CONTINUOUS
 70
    64
  3
実線
 72
    65
 73
     0
 40
0.0
  0
LTYPE
  2
CONTINUOUS
 70
    64
  3
実線
 72
    65
 73
     0
 40
0.0
  0
LTYPE
  2
CONTINUOUS
 70
    64
  3
実線
 72
    65
 73
     0
 40
0.0
  0
LTYPE
  2
CONTINUOUS
 70
    64
  3
実線
 72
    65
 73
     0
 40
0.0
  0
LTYPE
  2
CONTINUOUS
 70
    64
  3
実線
 72
    65
 73
     0
 40
0.0
  0
ENDTAB
  0
TABLE
  2
LAYER
 70
    34
  0
LAYER
  2
通り芯
 70
     0
 62
    15
  6
CONTINUOUS
  0
LAYER
  2
補助線
 70
     0
 62
    16
  6
DOT
  0
LAYER
  2
躯体
 70
     0
 62
    31
  6
CONTINUOUS
  0
LAYER
  2
型材
 70
     0
 62
    32
  6
CONTINUOUS
  0
LAYER
  2
型材断面
 70
     0
 62
    47
  6
CONTINUOUS
  0
LAYER
  2
ガラス
 70
     0
 62
    48
  6
CONTINUOUS
  0
LAYER
  2
ゴム等
 70
     0
 62
    63
  6
CONTINUOUS
  0
LAYER
  2
ボルト／ビス
 70
     0
 62
    64
  6
CONTINUOUS
  0
LAYER
  2
文字
 70
     0
 62
    79
  6
CONTINUOUS
  0
LAYER
  2
寸法
 70
     0
 62
    80
  6
CONTINUOUS
  0
LAYER
  2
ﾊｯﾁﾝｸﾞ
 70
     0
 62
    95
  6
CONTINUOUS
  0
LAYER
  2
別途部材
 70
     0
 62
    96
  6
CONTINUOUS
  0
LAYER
  2
曲げ物
 70
     0
 62
   111
  6
CONTINUOUS
  0
LAYER
  2
鉄骨等
 70
     0
 62
   112
  6
CONTINUOUS
  0
LAYER
  2
St
 70
     0
 62
   127
  6
CONTINUOUS
  0
LAYER
  2
その他部品等
 70
     0
 62
   128
  6
CONTINUOUS
  0
LAYER
  2
ｶﾞｽｹｯﾄ
 70
     0
 62
   143
  6
CONTINUOUS
  0
LAYER
  2
ｽｹｯﾁ
 70
     0
 62
    14
  6
CONTINUOUS
  0
LAYER
  2
0
 70
     0
 62
    17
  6
CONTINUOUS
  0
LAYER
  2
1
 70
     0
 62
    30
  6
CONTINUOUS
  0
LAYER
  2
4
 70
     0
 62
    33
  6
CONTINUOUS
  0
LAYER
  2
ﾚｲﾔ3
 70
     0
 62
    46
  6
CONTINUOUS
  0
LAYER
  2
外形線
 70
     0
 62
    49
  6
CONTINUOUS
  0
LAYER
  2
部品
 70
     0
 62
    14
  6
CONTINUOUS
  0
LAYER
  2
サッシ芯
 70
     0
 62
    17
  6
DASHDOTX2
  0
LAYER
  2
寸法線
 70
     0
 62
    62
  6
CONTINUOUS
  0
LAYER
  2
姿図外形線
 70
     0
 62
    65
  6
CONTINUOUS
  0
LAYER
  2
姿補助線
 70
     0
 62
    30
  6
CONTINUOUS
  0
LAYER
  2
透視線
 70
     0
 62
    78
  6
DOT
  0
LAYER
  2
用紙
 70
     0
 62
    81
  6
CONTINUOUS
  0
LAYER
  2
実線図枠
 70
     0
 62
    94
  6
CONTINUOUS
  0
LAYER
  2
補助図枠
 70
     0
 62
    97
  6
CONTINUOUS
  0
LAYER
  2
建具記号
 70
     0
 62
   110
  6
CONTINUOUS
  0
LAYER
  2
補助文字
 70
     0
 62
   113
  6
CONTINUOUS
  0
ENDTAB
  0
TABLE
  2
STYLE
 70
    10
  0
STYLE
  2
STANDARD
 70
     0
 40
1.0
 41
1.0
 42
1.0
 50
0.0
 71
     0
  3
TXT
  4
BIGFONT
  0
STYLE
  2
TATE
 70
     4
 40
1.0
 41
1.0
 42
1.0
 50
0.0
 71
     0
  3
TXT
  4
BIGFONT
  0
STYLE
  2
TextStyle03
 70
     0
 40
1.0
 41
1.0
 42
1.0
 50
0.0
 71
     0
  3
MONOTXT
  4
BIGFONT
  0
STYLE
  2
TextStyle04
 70
     0
 40
1.0
 41
1.0
 42
1.0
 50
0.0
 71
     0
  3
MONOTXT
  4
BIGFONT
  0
STYLE
  2
TextStyle05
 70
     0
 40
1.0
 41
1.0
 42
1.0
 50
0.0
 71
     0
  3
MONOTXT
  4
BIGFONT
  0
STYLE
  2
TextStyle06
 70
     0
 40
1.0
 41
1.0
 42
1.0
 50
0.0
 71
     0
  3
MONOTXT
  4
BIGFONT
  0
STYLE
  2
TextStyle07
 70
     0
 40
1.0
 41
1.0
 42
1.0
 50
0.0
 71
     0
  3
MONOTXT
  4
BIGFONT
  0
STYLE
  2
TextStyle08
 70
     0
 40
1.0
 41
1.0
 42
1.0
 50
0.0
 71
     0
  3
MONOTXT
  4
BIGFONT
  0
STYLE
  2
TextStyle09
 70
     0
 40
1.0
 41
1.0
 42
1.0
 50
0.0
 71
     0
  3
MONOTXT
  4
BIGFONT
  0
STYLE
  2
TextStyle10
 70
     0
 40
1.0
 41
1.0
 42
1.0
 50
0.0
 71
     0
  3
MONOTXT
  4
BIGFONT
  0
ENDTAB
  0
ENDSEC
  0
SECTION
  2
BLOCKS
  0
BLOCK
  2
*HAT_0001
 70
    65
 10
0.0
 20
0.0
  0
LINE
  8
型材断面
 10
-8.275
 20
53.575
 11
-7.025
 21
54.825
  0
LINE
  8
型材断面
 10
-8.525
 20
54.775
 11
-7.025
 21
56.275
  0
LINE
  8
型材断面
 10
-8.525
 20
56.175
 11
-7.025
 21
57.675
  0
LINE
  8
型材断面
 10
-0.625
 20
64.075
 11
2.925
 21
67.625
  0
LINE
  8
型材断面
 10
-8.525
 20
57.575
 11
-7.025
 21
59.075
  0
LINE
  8
型材断面
 10
-8.525
 20
58.975
 11
-7.025
 21
60.475
  0
LINE
  8
型材断面
 10
-8.525
 20
60.425
 11
-7.025
 21
61.925
  0
LINE
  8
型材断面
 10
-8.525
 20
61.825
 11
-7.025
 21
63.325
  0
LINE
  8
型材断面
 10
-2.025
 20
64.075
 11
-0.525
 21
65.575
  0
LINE
  8
型材断面
 10
-3.425
 20
64.075
 11
-1.925
 21
65.575
  0
LINE
  8
型材断面
 10
-4.825
 20
64.075
 11
-3.325
 21
65.575
  0
LINE
  8
型材断面
 10
-6.225
 20
64.075
 11
-4.725
 21
65.575
  0
LINE
  8
型材断面
 10
-8.525
 20
63.225
 11
-6.175
 21
65.575
  0
LINE
  8
型材断面
 10
-8.525
 20
64.625
 11
-7.575
 21
65.575
  0
ENDBLK
  0
BLOCK
  2
*HAT_0002
 70
    65
 10
0.0
 20
0.0
  0
LINE
  8
ゴム等
 10
3.75
 20
-22.375
 11
3.85
 21
-22.325
  0
LINE
  8
ゴム等
 10
2.35
 20
-22.375
 11
3.85
 21
-20.925
  0
LINE
  8
ゴム等
 10
0.95
 20
-22.375
 11
3.85
 21
-19.475
  0
LINE
  8
ゴム等
 10
-0.45
 20
-22.375
 11
3.85
 21
-18.075
  0
LINE
  8
ゴム等
 10
-1.9
 20
-22.375
 11
3.85
 21
-16.675
  0
LINE
  8
ゴム等
 10
-3.3
 20
-22.375
 11
2.7
 21
-16.375
  0
LINE
  8
ゴム等
 10
-4.7
 20
-22.375
 11
1.3
 21
-16.375
  0
LINE
  8
ゴム等
 10
-6.1
 20
-22.375
 11
-1.1
 21
-17.375
  0
LINE
  8
ゴム等
 10
-0.15
 20
-16.425
 11
-0.1
 21
-16.375
  0
LINE
  8
ゴム等
 10
-7.55
 20
-22.375
 11
-2.55
 21
-17.375
  0
LINE
  8
ゴム等
 10
-8.95
 20
-22.375
 11
-3.95
 21
-17.375
  0
LINE
  8
ゴム等
 10
-9.15
 20
-21.225
 11
-4.4
 21
-16.425
  0
LINE
  8
ゴム等
 10
-9.15
 20
-19.775
 11
-5.95
 21
-16.575
  0
LINE
  8
ゴム等
 10
-9.2
 20
-18.425
 11
-7.5
 21
-16.725
  0
LINE
  8
ゴム等
 10
-10.3
 20
-18.075
 11
-9.35
 21
-17.125
  0
LINE
  8
ゴム等
 10
-11.65
 20
-18.075
 11
-10.8
 21
-17.175
  0
LINE
  8
ゴム等
 10
-12.65
 20
-17.625
 11
-12.25
 21
-17.225
  0
ENDBLK
  0
BLOCK
  2
*HAT_0003
 70
    65
 10
0.0
 20
0.0
  0
LINE
  8
ゴム等
 10
11.075
 20
74.5
 11
11.075
 21
76.975
  0
LINE
  8
ゴム等
 10
9.725
 20
75.3
 11
9.725
 21
78.325
  0
LINE
  8
ゴム等
 10
8.375
 20
73.95
 11
8.375
 21
78.2
  0
LINE
  8
ゴム等
 10
7.075
 20
72.65
 11
7.075
 21
76.875
  0
LINE
  8
ゴム等
 10
5.725
 20
72.425
 11
5.725
 21
75.55
  0
LINE
  8
ゴム等
 10
4.4
 20
73.775
 11
4.4
 21
74.2
  0
ENDBLK
  0
BLOCK
  2
*HAT_0004
 70
    65
 10
0.0
 20
0.0
  0
LINE
  8
ゴム等
 10
-3.075
 20
65.6
 11
-2.375
 21
66.3
  0
LINE
  8
ゴム等
 10
-4.975
 20
65.6
 11
-3.325
 21
67.25
  0
LINE
  8
ゴム等
 10
-6.825
 20
65.6
 11
-4.275
 21
68.2
  0
LINE
  8
ゴム等
 10
-10.225
 20
64.1
 11
-9.575
 21
64.8
  0
LINE
  8
ゴム等
 10
-8.725
 20
65.6
 11
-5.225
 21
69.15
  0
LINE
  8
ゴム等
 10
-12.125
 20
64.1
 11
-6.175
 21
70.1
  0
LINE
  8
ゴム等
 10
-13.975
 20
64.1
 11
-7.075
 21
71.0
  0
LINE
  8
ゴム等
 10
-15.875
 20
64.1
 11
-8.025
 21
71.95
  0
LINE
  8
ゴム等
 10
-17.775
 20
64.1
 11
-8.975
 21
72.9
  0
LINE
  8
ゴム等
 10
-19.675
 20
64.1
 11
-9.925
 21
73.85
  0
LINE
  8
ゴム等
 10
-21.525
 20
64.1
 11
-10.875
 21
74.8
  0
LINE
  8
ゴム等
 10
-23.425
 20
64.1
 11
-11.825
 21
75.75
  0
LINE
  8
ゴム等
 10
-25.325
 20
64.1
 11
-12.725
 21
76.7
  0
LINE
  8
ゴム等
 10
-27.175
 20
64.1
 11
-13.675
 21
77.6
  0
LINE
  8
ゴム等
 10
-29.075
 20
64.1
 11
-14.625
 21
78.55
  0
LINE
  8
ゴム等
 10
-29.325
 20
65.75
 11
-15.575
 21
79.5
  0
LINE
  8
ゴム等
 10
-29.325
 20
67.65
 11
-16.525
 21
80.45
  0
ENDBLK
  0
BLOCK
  2
*HAT_0005
 70
    65
 10
0.0
 20
0.0
  0
LINE
  8
その他部品等
 10
-10.2
 20
85.675
 11
4.025
 21
99.925
  0
LINE
  8
その他部品等
 10
-10.9
 20
86.4
 11
2.625
 21
99.925
  0
LINE
  8
その他部品等
 10
-11.6
 20
87.125
 11
1.2
 21
99.925
  0
LINE
  8
その他部品等
 10
-12.3
 20
87.825
 11
-0.2
 21
99.925
  0
LINE
  8
その他部品等
 10
-12.975
 20
88.55
 11
-1.125
 21
100.425
  0
LINE
  8
その他部品等
 10
-13.675
 20
89.25
 11
-1.825
 21
101.125
  0
LINE
  8
その他部品等
 10
-9.6
 20
94.75
 11
-2.525
 21
101.825
  0
LINE
  8
その他部品等
 10
-10.3
 20
95.45
 11
-3.225
 21
102.525
  0
LINE
  8
その他部品等
 10
-11.025
 20
96.175
 11
-3.95
 21
103.25
  0
LINE
  8
その他部品等
 10
-11.725
 20
96.875
 11
-4.65
 21
103.95
  0
LINE
  8
その他部品等
 10
-12.425
 20
97.575
 11
-5.35
 21
104.65
  0
LINE
  8
その他部品等
 10
-13.125
 20
98.275
 11
-6.05
 21
105.35
  0
LINE
  8
その他部品等
 10
-13.85
 20
99.0
 11
-6.775
 21
106.05
  0
LINE
  8
その他部品等
 10
-14.55
 20
99.7
 11
-7.475
 21
106.775
  0
LINE
  8
その他部品等
 10
-13.375
 20
90.0
 11
-9.125
 21
85.75
  0
LINE
  8
その他部品等
 10
-12.675
 20
90.7
 11
-8.425
 21
86.45
  0
LINE
  8
その他部品等
 10
-11.975
 20
91.4
 11
-7.725
 21
87.175
  0
LINE
  8
その他部品等
 10
-11.25
 20
92.125
 11
-7.025
 21
87.875
  0
LINE
  8
その他部品等
 10
-10.55
 20
92.825
 11
-6.3
 21
88.575
  0
LINE
  8
その他部品等
 10
-9.85
 20
93.525
 11
-5.6
 21
89.275
  0
LINE
  8
その他部品等
 10
-9.15
 20
94.225
 11
-4.9
 21
90.0
  0
LINE
  8
その他部品等
 10
-14.1
 20
100.6
 11
-4.2
 21
90.7
  0
LINE
  8
その他部品等
 10
-13.375
 20
101.3
 11
-3.475
 21
91.4
  0
LINE
  8
その他部品等
 10
-12.675
 20
102.0
 11
-2.775
 21
92.1
  0
LINE
  8
その他部品等
 10
-11.975
 20
102.7
 11
-2.075
 21
92.8
  0
LINE
  8
その他部品等
 10
-11.275
 20
103.425
 11
-1.375
 21
93.525
  0
LINE
  8
その他部品等
 10
-10.575
 20
104.125
 11
-0.675
 21
94.225
  0
LINE
  8
その他部品等
 10
-9.85
 20
104.825
 11
0.05
 21
94.925
  0
LINE
  8
その他部品等
 10
-9.15
 20
105.525
 11
0.75
 21
95.625
  0
LINE
  8
その他部品等
 10
-8.45
 20
106.25
 11
1.45
 21
96.35
  0
LINE
  8
その他部品等
 10
-7.75
 20
106.95
 11
2.15
 21
97.05
  0
LINE
  8
その他部品等
 10
0.7
 20
99.925
 11
2.875
 21
97.75
  0
LINE
  8
その他部品等
 10
2.125
 20
99.925
 11
3.575
 21
98.45
  0
LINE
  8
その他部品等
 10
3.525
 20
99.925
 11
4.275
 21
99.175
  0
LINE
  8
その他部品等
 10
4.95
 20
99.925
 11
4.975
 21
99.875
  0
ENDBLK
  0
BLOCK
  2
*HAT_0006
 70
    65
 10
0.0
 20
0.0
  0
LINE
  8
その他部品等
 10
-38.85
 20
70.25
 11
-31.775
 21
77.325
  0
LINE
  8
その他部品等
 10
-40.25
 20
71.65
 11
-33.175
 21
78.725
  0
LINE
  8
その他部品等
 10
-41.075
 20
73.575
 11
-37.425
 21
69.925
  0
LINE
  8
その他部品等
 10
-39.65
 20
74.975
 11
-36.025
 21
71.35
  0
LINE
  8
その他部品等
 10
-38.25
 20
76.4
 11
-34.6
 21
72.75
  0
LINE
  8
その他部品等
 10
-36.825
 20
77.8
 11
-33.2
 21
74.175
  0
LINE
  8
その他部品等
 10
-35.425
 20
79.225
 11
-31.775
 21
75.575
  0
ENDBLK
  0
BLOCK
  2
*GRP_0001
 70
    65
 10
0.0
 20
0.0
  0
LINE
  8
型材断面
  6
CONTINUOUS
 10
195.0
 20
133.5
 11
195.0
 21
-133.5
  0
LINE
  8
型材断面
  6
CONTINUOUS
 10
195.0
 20
-133.5
 11
-185.0
 21
-133.5
  0
LINE
  8
型材断面
  6
CONTINUOUS
 10
-185.0
 20
-133.5
 11
-185.0
 21
133.5
  0
LINE
  8
型材断面
  6
CONTINUOUS
 10
195.0
 20
133.5
 11
-185.0
 21
133.5
  0
LINE
  8
型材断面
  6
CONTINUOUS
 10
145.0
 20
-133.5
 11
145.0
 21
-118.5
  0
LINE
  8
型材断面
  6
CONTINUOUS
 10
195.0
 20
-118.5
 11
145.0
 21
-118.5
  0
ENDBLK
  0
BLOCK
  2
*GRP_0002
 70
    65
 10
0.0
 20
0.0
  0
LINE
  8
通り芯
  6
CONTINUOUS
 10
-45.028405
 20
41.62223
 11
-45.028405
 21
43.12223
  0
ARC
  8
通り芯
  6
CONTINUOUS
 10
-34.128404
 20
41.622231
 40
1.5
 50
45.0
 51
90.0
  0
ARC
  8
通り芯
  6
CONTINUOUS
 10
-32.007083
 20
41.622231
 40
1.5
 50
225.0
 51
270.0
  0
LINE
  8
通り芯
  6
CONTINUOUS
 10
-34.128405
 20
41.62223
 11
-32.628405
 21
40.12223
  0
LINE
  8
通り芯
  6
CONTINUOUS
 10
-32.007085
 20
41.62223
 11
-33.507085
 21
43.12223
  0
LINE
  8
型材断面
  6
CONTINUOUS
 62
    15
 10
-21.128405
 20
41.62223
 11
-21.128405
 21
40.12223
  0
LINE
  8
型材断面
  6
CONTINUOUS
 62
    15
 10
-45.028405
 20
41.62223
 11
-34.128405
 21
41.62223
  0
LINE
  8
型材断面
  6
CONTINUOUS
 62
    15
 10
-21.128405
 20
41.62223
 11
-32.007085
 21
41.62223
  0
LINE
  8
型材断面
  6
CONTINUOUS
 62
    15
 10
-21.128405
 20
40.12223
 11
-32.628405
 21
40.12223
  0
LINE
  8
型材断面
  6
CONTINUOUS
 62
    15
 10
-45.028405
 20
43.12223
 11
-33.507085
 21
43.12223
  0
ENDBLK
  0
BLOCK
  2
*GRP_0003
 70
    65
 10
0.0
 20
0.0
  0
LINE
  8
補助線
  6
BYBLOCK
 62
     0
 10
19.871565
 20
-59.877787
 11
-15.128435
 21
-59.877787
  0
LINE
  8
補助線
  6
BYBLOCK
 62
     0
 10
2.371565
 20
-42.377787
 11
2.371565
 21
-77.377787
  0
ENDBLK
  0
BLOCK
  2
*GRP_0004
 70
    65
 10
0.0
 20
0.0
  0
LINE
  8
補助線
  6
BYBLOCK
 62
     0
 10
19.87155
 20
19.122213
 11
-15.12845
 21
19.122213
  0
LINE
  8
補助線
  6
BYBLOCK
 62
     0
 10
2.37155
 20
36.622213
 11
2.37155
 21
1.622213
  0
ENDBLK
  0
BLOCK
  2
*GRP_0005
 70
    65
 10
0.0
 20
0.0
  0
LINE
  8
型材断面
  6
CONTINUOUS
 62
    47
 10
5.871595
 20
-108.377762
 11
5.871595
 21
-109.877762
  0
LINE
  8
型材断面
  6
CONTINUOUS
 62
    47
 10
-2.628405
 20
-109.877762
 11
5.871595
 21
-109.877762
  0
LINE
  8
型材断面
  6
CONTINUOUS
 62
    47
 10
-4.128405
 20
-123.377762
 11
-2.628405
 21
-123.377762
  0
LINE
  8
型材断面
  6
CONTINUOUS
 62
    47
 10
-2.628405
 20
-109.877762
 11
-2.628405
 21
-123.377762
  0
ARC
  8
型材断面
  6
CONTINUOUS
 62
    47
 10
-2.628401
 20
-109.877762
 40
1.5
 50
90.0
 51
180.0
  0
LINE
  8
型材断面
  6
CONTINUOUS
 62
    47
 10
5.871595
 20
-108.377762
 11
-4.128405
 21
-108.377762
  0
LINE
  8
型材断面
  6
CONTINUOUS
 62
    47
 10
-4.128405
 20
-123.377762
 11
-4.128405
 21
-108.377762
  0
ENDBLK
  0
BLOCK
  2
*GRP_0006
 70
    65
 10
0.0
 20
0.0
  0
LINE
  8
型材断面
  6
CONTINUOUS
 62
    47
 10
57.87157
 20
-106.877762
 11
57.87157
 21
-105.377762
  0
LINE
  8
型材断面
  6
CONTINUOUS
 62
    47
 10
37.87157
 20
-78.877762
 11
39.37157
 21
-78.877762
  0
LINE
  8
型材断面
  6
CONTINUOUS
 62
    47
 10
39.37157
 20
-78.877762
 11
39.37157
 21
-105.377762
  0
LINE
  8
型材断面
  6
CONTINUOUS
 62
    47
 10
57.87157
 20
-105.377762
 11
39.37157
 21
-105.377762
  0
ARC
  8
型材断面
  6
CONTINUOUS
 62
    47
 10
39.371572
 20
-105.377761
 40
1.5
 50
180.0
 51
270.0
  0
LINE
  8
型材断面
  6
CONTINUOUS
 62
    47
 10
37.87157
 20
-78.877762
 11
37.87157
 21
-106.877762
  0
LINE
  8
型材断面
  6
CONTINUOUS
 62
    47
 10
57.87157
 20
-106.877762
 11
37.87157
 21
-106.877762
  0
LINE
  8
型材断面
  6
CONTINUOUS
 62
    47
 10
37.87157
 20
-89.377762
 11
39.37157
 21
-89.377762
  0
LINE
  8
型材断面
  6
CONTINUOUS
 62
    47
 10
37.87157
 20
-92.877762
 11
39.37157
 21
-92.877762
  0
LINE
  8
型材断面
  6
CONTINUOUS
 62
    47
 10
38.24657
 20
-89.377762
 11
38.24657
 21
-92.877762
  0
LINE
  8
型材断面
  6
CONTINUOUS
 62
    47
 10
38.62157
 20
-89.377762
 11
38.62157
 21
-92.877762
  0
LINE
  8
型材断面
  6
CONTINUOUS
 62
    47
 10
38.99657
 20
-89.377762
 11
38.99657
 21
-92.877762
  0
LINE
  8
型材断面
  6
CONTINUOUS
 62
    47
 10
40.992565
 20
-91.127762
 11
36.001825
 21
-91.127762
  0
ENDBLK
  0
BLOCK
  2
*GRP_0007
 70
    65
 10
0.0
 20
0.0
  0
LINE
  8
通り芯
  6
CONTINUOUS
 62
    47
 10
-19.628405
 20
-96.877762
 11
-9.628405
 21
-96.877762
  0
LINE
  8
通り芯
  6
CONTINUOUS
 62
    47
 10
-19.628405
 20
-95.377762
 11
-19.628405
 21
-96.877762
  0
LINE
  8
通り芯
  6
CONTINUOUS
 62
    47
 10
-8.128405
 20
-105.377762
 11
1.871595
 21
-105.377762
  0
LINE
  8
通り芯
  6
CONTINUOUS
 62
    47
 10
1.871595
 20
-105.377762
 11
1.871595
 21
-106.877762
  0
ARC
  8
通り芯
  6
CONTINUOUS
 62
    47
 10
-9.628403
 20
-96.877761
 40
1.5
 50
0.0
 51
90.0
  0
ARC
  8
通り芯
  6
CONTINUOUS
 62
    47
 10
-8.128403
 20
-105.377761
 40
1.5
 50
180.0
 51
270.0
  0
LINE
  8
通り芯
  6
CONTINUOUS
 62
    47
 10
-19.628405
 20
-95.377762
 11
-8.128405
 21
-95.377762
  0
LINE
  8
通り芯
  6
CONTINUOUS
 62
    47
 10
-8.128405
 20
-105.377762
 11
-8.128405
 21
-95.377762
  0
LINE
  8
通り芯
  6
CONTINUOUS
 62
    47
 10
-9.628405
 20
-96.877762
 11
-9.628405
 21
-106.877762
  0
LINE
  8
通り芯
  6
CONTINUOUS
 62
    47
 10
1.871595
 20
-106.877762
 11
-9.628405
 21
-106.877762
  0
ENDBLK
  0
BLOCK
  2
*GRP_0008
 70
    65
 10
0.0
 20
0.0
  0
LINE
  8
型材断面
  6
CONTINUOUS
 62
    63
 10
10.12156
 20
-38.377783
 11
4.621555
 21
-38.377783
  0
LINE
  8
型材断面
  6
CONTINUOUS
 62
    63
 10
7.37156
 20
-35.627783
 11
7.37156
 21
-41.127777
  0
LINE
  8
型材断面
  6
CONTINUOUS
 62
    63
 10
10.12156
 20
-81.377787
 11
4.621555
 21
-81.377787
  0
LINE
  8
型材断面
  6
CONTINUOUS
 62
    63
 10
7.37156
 20
-78.627787
 11
7.37156
 21
-84.127793
  0
ARC
  8
型材断面
  6
CONTINUOUS
 62
    63
 10
30.371566
 20
-41.877782
 40
2.2
 50
192.301255
 51
347.698745
  0
LINE
  8
型材断面
  6
CONTINUOUS
 62
    63
 10
32.521045
 20
-41.877787
 11
32.521045
 21
-42.346512
  0
LINE
  8
型材断面
  6
CONTINUOUS
 62
    63
 10
28.22206
 20
-41.877787
 11
28.22206
 21
-42.346483
  0
ARC
  8
型材断面
  6
CONTINUOUS
 62
    63
 10
2.371569
 20
-59.877785
 40
15.5
 50
31.072958
 51
328.927056
  0
LINE
  8
型材断面
  6
CONTINUOUS
 62
    63
 10
19.37155
 20
-37.877783
 11
36.37157
 21
-37.877783
  0
ARC
  8
型材断面
  6
CONTINUOUS
 62
    63
 10
36.371569
 20
-39.37778
 40
1.5
 50
0.0
 51
90.0
  0
LINE
  8
型材断面
  6
CONTINUOUS
 62
    63
 10
34.87157
 20
-81.877793
 11
13.871555
 21
-81.877793
  0
ARC
  8
型材断面
  6
CONTINUOUS
 62
    63
 10
-18.128398
 20
-26.877782
 40
1.5
 50
90.0
 51
180.0
  0
LINE
  8
型材断面
  6
CONTINUOUS
 62
    63
 10
37.57157
 20
-91.127772
 11
37.87157
 21
-90.827772
  0
LINE
  8
型材断面
  6
CONTINUOUS
 62
    63
 10
37.57157
 20
-91.127772
 11
37.87157
 21
-91.427772
  0
LINE
  8
型材断面
  6
CONTINUOUS
 62
    63
 10
11.371555
 20
-12.176338
 11
11.071555
 21
-11.876338
  0
LINE
  8
型材断面
  6
CONTINUOUS
 62
    63
 10
11.371555
 20
-12.176338
 11
11.671555
 21
-11.876338
  0
LINE
  8
型材断面
  6
CONTINUOUS
 62
    63
 10
13.871555
 20
-81.877793
 11
13.871555
 21
-75.625813
  0
ARC
  8
型材断面
  6
CONTINUOUS
 62
    63
 10
17.871557
 20
-13.37634
 40
1.5
 50
0.0
 51
90.0
  0
LINE
  8
型材断面
  6
CONTINUOUS
 62
    63
 10
11.671555
 20
-11.876338
 11
17.87155
 21
-11.876338
  0
LINE
  8
型材断面
  6
CONTINUOUS
 62
    63
 10
16.37155
 20
-37.877783
 11
16.37155
 21
-14.876338
  0
LINE
  8
型材断面
  6
CONTINUOUS
 62
    63
 10
5.371555
 20
-14.876338
 11
5.371555
 21
-13.376338
  0
LINE
  8
型材断面
  6
CONTINUOUS
 62
    63
 10
11.071555
 20
-11.876338
 11
6.871555
 21
-11.876338
  0
ARC
  8
型材断面
  6
CONTINUOUS
 62
    63
 10
6.871558
 20
-13.376341
 40
1.5
 50
90.0
 51
180.0
  0
LINE
  8
型材断面
  6
CONTINUOUS
 62
    63
 10
16.37155
 20
-14.876338
 11
5.371555
 21
-14.876338
  0
LINE
  8
型材断面
  6
CONTINUOUS
 62
    63
 10
2.371555
 20
-40.377787
 11
2.371555
 21
-28.377777
  0
ARC
  8
型材断面
  6
CONTINUOUS
 62
    63
 10
10.020085
 20
-38.289277
 40
0.6
 50
1.913936
 51
105.000027
  0
LINE
  8
型材断面
  6
CONTINUOUS
 62
    63
 10
9.864785
 20
-37.709723
 11
9.566245
 21
-37.789718
  0
ARC
  8
型材断面
  6
CONTINUOUS
 62
    63
 10
9.721548
 20
-38.369269
 40
0.6
 50
105.000108
 51
180.207564
  0
ARC
  8
型材断面
  6
CONTINUOUS
 62
    63
 10
7.371563
 20
-38.377783
 40
1.75
 50
89.792532
 51
360.207564
  0
ARC
  8
型材断面
  6
CONTINUOUS
 62
    63
 10
7.380072
 20
-36.027798
 40
0.6
 50
269.792532
 51
345.00005
  0
LINE
  8
型材断面
  6
CONTINUOUS
 62
    63
 10
8.039615
 20
-35.884552
 11
7.95962
 21
-36.183087
  0
ARC
  8
型材断面
  6
CONTINUOUS
 62
    63
 10
7.460064
 20
-35.729261
 40
0.6
 50
344.999988
 51
448.086157
  0
ARC
  8
型材断面
  6
CONTINUOUS
 62
    63
 10
5.561357
 20
-83.313159
 40
0.6
 50
226.913936
 51
330.000027
  0
LINE
  8
型材断面
  6
CONTINUOUS
 62
    63
 10
6.080975
 20
-83.613158
 11
6.235505
 21
-83.345497
  0
ARC
  8
型材断面
  6
CONTINUOUS
 62
    63
 10
5.715891
 20
-83.045499
 40
0.6
 50
330.000108
 51
405.207564
  0
ARC
  8
型材断面
  6
CONTINUOUS
 62
    63
 10
7.371562
 20
-81.377789
 40
1.75
 50
314.792532
 51
585.207564
  0
ARC
  8
型材断面
  6
CONTINUOUS
 62
    63
 10
9.027235
 20
-83.045496
 40
0.6
 50
134.792532
 51
210.00005
  0
LINE
  8
型材断面
  6
CONTINUOUS
 62
    63
 10
8.66215
 20
-83.613148
 11
8.50762
 21
-83.345488
  0
ARC
  8
型材断面
  6
CONTINUOUS
 62
    63
 10
9.18177
 20
-83.313156
 40
0.6
 50
209.999988
 51
313.086157
  0
ARC
  8
型材断面
  6
CONTINUOUS
 62
    63
 10
2.371569
 20
-59.877787
 40
19.500003
 50
293.740612
 51
306.138764
  0
ARC
  8
型材断面
  6
CONTINUOUS
 62
    63
 10
7.371562
 20
-81.377789
 40
3.25
 50
313.086157
 51
400.051309
  0
ARC
  8
型材断面
  6
CONTINUOUS
 62
    63
 10
10.624803
 20
-78.643027
 40
1.0
 50
113.740612
 51
220.051309
  0
ARC
  8
型材断面
  6
CONTINUOUS
 62
    63
 10
2.371569
 20
-59.877787
 40
19.500003
 50
270.000003
 51
272.443134
  0
ARC
  8
型材断面
  6
CONTINUOUS
 62
    63
 10
7.371562
 20
-81.377789
 40
3.25
 50
166.132437
 51
226.913936
  0
ARC
  8
型材断面
  6
CONTINUOUS
 62
    63
 10
3.245439
 20
-80.359156
 40
1.0
 50
-13.867563
 51
92.443134
  0
ARC
  8
型材断面
  6
CONTINUOUS
 62
    63
 10
7.371563
 20
-38.377783
 40
3.25
 50
319.948648
 51
361.913936
  0
LINE
  8
型材断面
  6
CONTINUOUS
 62
    63
 10
5.371555
 20
-25.377777
 11
5.371555
 21
-34.247108
  0
ARC
  8
型材断面
  6
CONTINUOUS
 62
    63
 10
7.371563
 20
-38.377783
 40
3.25
 50
88.086157
 51
103.609035
  0
ARC
  8
型材断面
  6
CONTINUOUS
 62
    63
 10
6.371558
 20
-34.247106
 40
1.0
 50
180.0
 51
283.609035
  0
LINE
  8
型材断面
  6
CONTINUOUS
 62
    63
 10
22.87155
 20
-41.877787
 11
28.22206
 21
-41.877787
  0
LINE
  8
型材断面
  6
CONTINUOUS
 62
    63
 10
22.87155
 20
-77.877787
 11
28.22207
 21
-77.877787
  0
ARC
  8
型材断面
  6
CONTINUOUS
 62
    63
 10
10.624802
 20
-41.112547
 40
1.0
 50
139.948648
 51
229.928457
  0
LINE
  8
型材断面
  6
CONTINUOUS
 62
    63
 10
17.87155
 20
-72.877787
 11
22.87155
 21
-77.877787
  0
ARC
  8
型材断面
  6
CONTINUOUS
 62
    63
 10
-18.128398
 20
-105.377762
 40
1.5
 50
180.0
 51
270.0
  0
LINE
  8
型材断面
  6
CONTINUOUS
 62
    63
 10
-16.628395
 20
-103.877762
 11
34.87157
 21
-103.877762
  0
LINE
  8
型材断面
  6
CONTINUOUS
 62
    63
 10
34.87157
 20
-81.877783
 11
34.87157
 21
-103.877762
  0
LINE
  8
型材断面
  6
CONTINUOUS
 62
    63
 10
37.87157
 20
-91.427772
 11
37.87157
 21
-106.877762
  0
LINE
  8
型材断面
  6
CONTINUOUS
 62
    63
 10
-18.128405
 20
-106.877762
 11
13.571555
 21
-106.877762
  0
LINE
  8
型材断面
  6
CONTINUOUS
 62
    63
 10
37.87157
 20
-106.877762
 11
14.171555
 21
-106.877762
  0
LINE
  8
型材断面
  6
CONTINUOUS
 62
    63
 10
2.371555
 20
-28.377777
 11
-6.628405
 21
-28.377777
  0
LINE
  8
型材断面
  6
CONTINUOUS
 62
    63
 10
-2.628405
 20
-25.677777
 11
-2.928405
 21
-25.377777
  0
LINE
  8
型材断面
  6
CONTINUOUS
 62
    63
 10
-2.628405
 20
-25.677777
 11
-2.328405
 21
-25.377777
  0
LINE
  8
型材断面
  6
CONTINUOUS
 62
    63
 10
5.371555
 20
-25.377777
 11
-2.328405
 21
-25.377777
  0
LINE
  8
型材断面
  6
CONTINUOUS
 62
    63
 10
-19.628405
 20
-26.877777
 11
-19.628405
 21
-56.577787
  0
LINE
  8
型材断面
  6
CONTINUOUS
 62
    63
 10
-19.628405
 20
-57.177787
 11
-19.628405
 21
-62.577787
  0
LINE
  8
型材断面
  6
CONTINUOUS
 62
    63
 10
-19.628405
 20
-63.177787
 11
-19.628405
 21
-105.377762
  0
LINE
  8
型材断面
  6
CONTINUOUS
 62
    63
 10
-16.628405
 20
-69.688558
 11
-16.628405
 21
-103.877762
  0
ARC
  8
型材断面
  6
CONTINUOUS
 62
    63
 10
2.371569
 20
-59.877787
 40
19.500003
 50
208.592316
 51
270.000003
  0
ARC
  8
型材断面
  6
CONTINUOUS
 62
    63
 10
2.371569
 20
-59.877787
 40
19.500003
 50
89.999997
 51
151.407684
  0
LINE
  8
型材断面
  6
CONTINUOUS
 62
    63
 10
9.981055
 20
-41.877787
 11
13.37155
 21
-41.877787
  0
LINE
  8
型材断面
  6
CONTINUOUS
 62
    63
 10
16.37155
 20
-37.877783
 11
13.37155
 21
-37.877783
  0
LINE
  8
型材断面
  6
CONTINUOUS
 62
    63
 10
19.07155
 20
-18.876338
 11
19.37155
 21
-18.576338
  0
LINE
  8
型材断面
  6
CONTINUOUS
 62
    63
 10
19.07155
 20
-18.876338
 11
19.37155
 21
-19.176338
  0
LINE
  8
型材断面
  6
CONTINUOUS
 62
    63
 10
19.37155
 20
-13.376338
 11
19.37155
 21
-18.576338
  0
LINE
  8
型材断面
  6
CONTINUOUS
 62
    63
 10
19.37155
 20
-37.877783
 11
19.37155
 21
-19.176338
  0
LINE
  8
型材断面
  6
CONTINUOUS
 62
    63
 10
37.87157
 20
-39.377783
 11
37.87157
 21
-41.377787
  0
LINE
  8
型材断面
  6
CONTINUOUS
 62
    63
 10
32.521045
 20
-41.877787
 11
37.37157
 21
-41.877787
  0
LINE
  8
型材断面
  6
CONTINUOUS
 62
    63
 10
32.521045
 20
-77.877787
 11
37.37157
 21
-77.877787
  0
LINE
  8
型材断面
  6
CONTINUOUS
 62
    63
 10
37.87157
 20
-90.827772
 11
37.87157
 21
-78.377787
  0
LINE
  8
型材断面
  6
CONTINUOUS
 62
    63
 10
-18.128405
 20
-25.377777
 11
-17.128405
 21
-25.377777
  0
LINE
  8
型材断面
  6
CONTINUOUS
 62
    63
 10
-16.628405
 20
-50.067018
 11
-16.628405
 21
-25.877777
  0
LINE
  8
型材断面
  6
CONTINUOUS
 62
    63
 10
-6.128405
 20
-25.377777
 11
-2.928405
 21
-25.377777
  0
LINE
  8
型材断面
  6
CONTINUOUS
 62
    63
 10
13.871555
 20
-106.577762
 11
14.171555
 21
-106.877762
  0
LINE
  8
型材断面
  6
CONTINUOUS
 62
    63
 10
13.871555
 20
-106.577762
 11
13.571555
 21
-106.877762
  0
LINE
  8
型材断面
  6
CONTINUOUS
 62
    63
 10
-19.328405
 20
-56.877787
 11
-19.628405
 21
-56.577787
  0
LINE
  8
型材断面
  6
CONTINUOUS
 62
    63
 10
-19.328405
 20
-56.877787
 11
-19.628405
 21
-57.177787
  0
LINE
  8
型材断面
  6
CONTINUOUS
 62
    63
 10
-19.328405
 20
-62.877787
 11
-19.628405
 21
-62.577787
  0
LINE
  8
型材断面
  6
CONTINUOUS
 62
    63
 10
-19.328405
 20
-62.877787
 11
-19.628405
 21
-63.177787
  0
ARC
  8
型材断面
  6
CONTINUOUS
 62
    63
 10
-15.6284
 20
-69.688558
 40
1.0
 50
28.592316
 51
180.0
  0
ARC
  8
型材断面
  6
CONTINUOUS
 62
    63
 10
-15.6284
 20
-50.067017
 40
1.0
 50
180.0
 51
331.407684
  0
LINE
  8
型材断面
  6
CONTINUOUS
 62
    63
 10
13.37155
 20
-41.877787
 11
13.37155
 21
-37.877783
  0
ARC
  8
型材断面
  6
CONTINUOUS
 62
    63
 10
37.371574
 20
-41.377787
 40
0.5
 50
-90.0
 51
0.0
  0
ARC
  8
型材断面
  6
CONTINUOUS
 62
    63
 10
37.371574
 20
-78.377787
 40
0.5
 50
0.0
 51
90.0
  0
ARC
  8
型材断面
  6
CONTINUOUS
 62
    63
 10
-17.128399
 20
-25.87778
 40
0.5
 50
0.0
 51
90.0
  0
LINE
  8
型材断面
  6
CONTINUOUS
 62
    63
 10
-6.628405
 20
-25.877777
 11
-6.628405
 21
-28.377777
  0
ARC
  8
型材断面
  6
CONTINUOUS
 62
    63
 10
-6.128399
 20
-25.87778
 40
0.5
 50
90.0
 51
180.0
  0
LINE
  8
型材断面
  6
CONTINUOUS
 62
    63
 10
28.22207
 20
-77.877787
 11
28.22207
 21
-76.601202
  0
LINE
  8
型材断面
  6
CONTINUOUS
 62
    63
 10
32.521045
 20
-77.877787
 11
32.521045
 21
-76.601182
  0
LINE
  8
型材断面
  6
CONTINUOUS
 62
    63
 10
17.87155
 20
-46.877787
 11
17.87155
 21
-51.877783
  0
LINE
  8
型材断面
  6
CONTINUOUS
 62
    63
 10
17.87155
 20
-72.877787
 11
17.87155
 21
-67.877783
  0
LINE
  8
型材断面
  6
CONTINUOUS
 62
    63
 10
15.54748
 20
-67.877783
 11
17.87155
 21
-67.877783
  0
LINE
  8
型材断面
  6
CONTINUOUS
 62
    63
 10
15.54748
 20
-51.877783
 11
17.87155
 21
-51.877783
  0
LINE
  8
ゴム等
  6
CONTINUOUS
 62
    63
 10
13.12155
 20
-14.876338
 11
13.12155
 21
-11.876338
  0
LINE
  8
ゴム等
  6
CONTINUOUS
 62
    63
 10
9.62155
 20
-14.876338
 11
9.62155
 21
-11.876338
  0
LINE
  8
ゴム等
  6
CONTINUOUS
 62
    63
 10
16.37155
 20
-26.627052
 11
19.37155
 21
-26.627052
  0
LINE
  8
ゴム等
  6
CONTINUOUS
 62
    63
 10
16.37155
 20
-23.127052
 11
19.37155
 21
-23.127052
  0
LINE
  8
ゴム等
  6
CONTINUOUS
 62
    63
 10
34.87157
 20
-92.877768
 11
37.87157
 21
-92.877768
  0
LINE
  8
ゴム等
  6
CONTINUOUS
 62
    63
 10
34.87157
 20
-89.377768
 11
37.87157
 21
-89.377768
  0
LINE
  8
ゴム等
  6
CONTINUOUS
 62
    63
 10
-5.378405
 20
-103.877762
 11
-5.378405
 21
-106.877762
  0
LINE
  8
ゴム等
  6
CONTINUOUS
 62
    63
 10
-8.878405
 20
-103.877762
 11
-8.878405
 21
-106.877762
  0
LINE
  8
ゴム等
  6
CONTINUOUS
 62
    63
 10
-5.378405
 20
-104.627762
 11
-8.878405
 21
-104.627762
  0
LINE
  8
ゴム等
  6
CONTINUOUS
 62
    63
 10
-5.378405
 20
-105.377762
 11
-8.878405
 21
-105.377762
  0
LINE
  8
ゴム等
  6
CONTINUOUS
 62
    63
 10
-5.378405
 20
-106.127762
 11
-8.878405
 21
-106.127762
  0
LINE
  8
ゴム等
  6
CONTINUOUS
 62
    63
 10
37.12157
 20
-89.377768
 11
37.12157
 21
-92.877768
  0
LINE
  8
ゴム等
  6
CONTINUOUS
 62
    63
 10
36.37157
 20
-89.377768
 11
36.37157
 21
-92.877768
  0
LINE
  8
ゴム等
  6
CONTINUOUS
 62
    63
 10
35.62157
 20
-89.377768
 11
35.62157
 21
-92.877768
  0
LINE
  8
ゴム等
  6
CONTINUOUS
 62
    63
 10
17.12155
 20
-23.127052
 11
17.12155
 21
-26.627052
  0
LINE
  8
ゴム等
  6
CONTINUOUS
 62
    63
 10
17.87155
 20
-23.127052
 11
17.87155
 21
-26.627052
  0
LINE
  8
ゴム等
  6
CONTINUOUS
 62
    63
 10
18.62155
 20
-23.127052
 11
18.62155
 21
-26.627052
  0
LINE
  8
ゴム等
  6
CONTINUOUS
 62
    63
 10
9.62155
 20
-12.626338
 11
13.12155
 21
-12.626338
  0
LINE
  8
ゴム等
  6
CONTINUOUS
 62
    63
 10
9.62155
 20
-13.376338
 11
13.12155
 21
-13.376338
  0
LINE
  8
ゴム等
  6
CONTINUOUS
 62
    63
 10
9.62155
 20
-14.126338
 11
13.12155
 21
-14.126338
  0
LINE
  8
ゴム等
  6
CONTINUOUS
 62
    63
 10
20.36716
 20
-69.377787
 11
20.36716
 21
-69.377787
  0
LINE
  8
ゴム等
  6
CONTINUOUS
 62
    63
 10
22.87155
 20
-41.877787
 11
17.87155
 21
-46.877787
  0
LINE
  8
ゴム等
  6
CONTINUOUS
 62
    63
 10
17.87155
 20
-46.877787
 11
17.87155
 21
-48.877787
  0
ARC
  8
ゴム等
  6
CONTINUOUS
 62
    63
 10
30.371569
 20
-77.87779
 40
2.5
 50
30.706651
 51
149.29391
  0
ENDBLK
  0
BLOCK
  2
*GRP_0009
 70
    65
 10
0.0
 20
0.0
  0
LINE
  8
型材断面
  6
CONTINUOUS
 62
    47
 10
0.16229
 20
65.622228
 11
4.0765
 21
69.536437
  0
LINE
  8
型材断面
  6
CONTINUOUS
 62
    47
 10
2.55138
 20
68.011318
 11
3.61204
 21
66.950657
  0
LINE
  8
型材断面
  6
CONTINUOUS
 62
    47
 10
0.16229
 20
65.622228
 11
9.86437
 21
75.324308
  0
LINE
  8
型材断面
  6
CONTINUOUS
 62
    47
 10
0.78361
 20
64.122228
 11
10.92503
 21
74.263647
  0
LINE
  8
型材断面
  6
CONTINUOUS
 10
9.86437
 20
75.324308
 11
10.92503
 21
74.263647
  0
ARC
  8
型材断面
  6
CONTINUOUS
 10
-7.028431
 20
64.122232
 40
1.5
 50
90.0
 51
180.0
  0
LINE
  8
型材断面
  6
CONTINUOUS
 10
-8.528435
 20
53.622228
 11
-8.528435
 21
65.622228
  0
LINE
  8
型材断面
  6
CONTINUOUS
 62
    47
 10
0.16229
 20
65.622228
 11
-8.528435
 21
65.622228
  0
LINE
  8
型材断面
  6
CONTINUOUS
 62
    47
 10
-7.028435
 20
53.622228
 11
-7.028435
 21
64.122228
  0
LINE
  8
型材断面
  6
CONTINUOUS
 10
-8.528435
 20
53.622228
 11
-7.028435
 21
53.622228
  0
LINE
  8
型材断面
  6
CONTINUOUS
 62
    47
 10
0.78361
 20
64.122228
 11
-7.028435
 21
64.122228
  0
INSERT
  2
*HAT_0001
  8
型材断面
 10
0.0
 20
0.0
  0
ENDBLK
  0
BLOCK
  2
*GRP_0010
 70
    65
 10
0.0
 20
0.0
  0
LINE
  8
型材断面
  6
CONTINUOUS
 62
    47
 10
-32.6284
 20
37.122228
 11
-32.6284
 21
38.622228
  0
LINE
  8
型材断面
  6
CONTINUOUS
 62
    47
 10
-32.6284
 20
37.122228
 11
-21.128405
 21
37.122228
  0
ARC
  8
型材断面
  6
CONTINUOUS
 62
    47
 10
-21.1284
 20
37.122226
 40
1.5
 50
0.0
 51
90.0
  0
ARC
  8
型材断面
  6
CONTINUOUS
 62
    47
 10
-19.6284
 20
-2.877779
 40
1.5
 50
180.0
 51
270.0
  0
LINE
  8
型材断面
  6
CONTINUOUS
 62
    47
 10
-19.628405
 20
-2.877777
 11
-19.628405
 21
38.622228
  0
ARC
  8
型材断面
  6
CONTINUOUS
 62
    47
 10
-7.02843
 20
-4.377779
 40
1.5
 50
0.0
 51
90.0
  0
LINE
  8
型材断面
  6
CONTINUOUS
 62
    47
 10
-29.02843
 20
-20.879217
 11
-29.02843
 21
-29.558533
  0
LINE
  8
型材断面
  6
CONTINUOUS
 62
    47
 10
-29.02843
 20
-29.558533
 11
-30.52843
 21
-29.558533
  0
ARC
  8
型材断面
  6
CONTINUOUS
 62
    47
 10
-29.028427
 20
-20.879213
 40
1.5
 50
97.275006
 51
180.0
  0
LINE
  8
型材断面
  6
CONTINUOUS
 62
    47
 10
-30.52843
 20
-29.558533
 11
-30.52843
 21
-19.558528
  0
LINE
  8
型材断面
  6
CONTINUOUS
 62
    47
 10
-30.52843
 20
-19.558528
 11
-7.028435
 21
-16.558528
  0
LINE
  8
型材断面
  6
CONTINUOUS
 62
    47
 10
-7.028435
 20
-4.377777
 11
-7.028435
 21
-16.558528
  0
ARC
  8
型材断面
  6
CONTINUOUS
 62
    47
 10
-7.028432
 20
-16.558529
 40
1.5
 50
-82.724994
 51
0.0
  0
LINE
  8
型材断面
  6
CONTINUOUS
 62
    47
 10
-29.02843
 20
-20.879217
 11
-5.528435
 21
-17.879217
  0
LINE
  8
型材断面
  6
CONTINUOUS
 62
    47
 10
-5.528435
 20
-2.877777
 11
-5.528435
 21
-17.879217
  0
LINE
  8
型材断面
  6
CONTINUOUS
 62
    47
 10
-21.128405
 20
37.122228
 11
-21.128405
 21
-4.377777
  0
LINE
  8
型材断面
  6
CONTINUOUS
 62
    47
 10
-7.028435
 20
-4.377777
 11
-21.128405
 21
-4.377777
  0
LINE
  8
型材断面
  6
CONTINUOUS
 62
    47
 10
-19.628405
 20
-2.877777
 11
-5.528435
 21
-2.877777
  0
LINE
  8
型材断面
  6
CONTINUOUS
 62
    47
 10
-19.628405
 20
38.622228
 11
-32.6284
 21
38.622228
  0
ENDBLK
  0
BLOCK
  2
*GRP_0011
 70
    65
 10
0.0
 20
0.0
  0
LINE
  8
型材断面
  6
CONTINUOUS
 62
    47
 10
37.87157
 20
-2.877777
 11
37.87157
 21
62.622228
  0
ARC
  8
型材断面
  6
CONTINUOUS
 62
    47
 10
37.871573
 20
-2.877779
 40
1.5
 50
270.0
 51
360.0
  0
LINE
  8
型材断面
  6
CONTINUOUS
 62
    47
 10
39.37157
 20
-4.377777
 11
39.37157
 21
62.622228
  0
ARC
  8
型材断面
  6
CONTINUOUS
 62
    47
 10
-4.028429
 20
-4.377779
 40
1.5
 50
90.0
 51
180.0
  0
LINE
  8
型材断面
  6
CONTINUOUS
 62
    47
 10
39.37157
 20
-4.377777
 11
-4.028435
 21
-4.377777
  0
LINE
  8
型材断面
  6
CONTINUOUS
 62
    47
 10
-4.028435
 20
-4.377777
 11
-4.028435
 21
-17.377777
  0
LINE
  8
型材断面
  6
CONTINUOUS
 62
    47
 10
-5.528435
 20
-17.377777
 11
-4.028435
 21
-17.377777
  0
LINE
  8
型材断面
  6
CONTINUOUS
 62
    47
 10
37.87157
 20
-2.877777
 11
-5.528435
 21
-2.877777
  0
LINE
  8
型材断面
  6
CONTINUOUS
 62
    47
 10
-5.528435
 20
-2.877777
 11
-5.528435
 21
-17.377777
  0
LINE
  8
型材断面
  6
CONTINUOUS
 62
    47
 10
37.87157
 20
62.622228
 11
39.37157
 21
62.622228
  0
ENDBLK
  0
BLOCK
  2
*GRP_0012
 70
    65
 10
0.0
 20
0.0
  0
LINE
  8
補助線
  6
BYBLOCK
 62
    63
 10
18.87155
 20
19.122213
 11
-14.12845
 21
19.122213
  0
LINE
  8
補助線
  6
BYBLOCK
 62
    63
 10
2.37155
 20
35.622213
 11
2.37155
 21
2.622213
  0
LINE
  8
補助線
  6
BYBLOCK
 62
    63
 10
33.87155
 20
37.122207
 11
26.87155
 21
37.122207
  0
LINE
  8
補助線
  6
BYBLOCK
 62
    63
 10
30.37155
 20
40.622207
 11
30.37155
 21
33.622207
  0
LINE
  8
補助線
  6
BYBLOCK
 62
    63
 10
33.57155
 20
1.122218
 11
27.17155
 21
1.122218
  0
LINE
  8
補助線
  6
BYBLOCK
 62
    63
 10
30.37155
 20
4.322218
 11
30.37155
 21
-2.077783
  0
LINE
  8
ゴム等
  6
CONTINUOUS
 62
    63
 10
17.867145
 20
32.122213
 11
22.867145
 21
37.122213
  0
LINE
  8
ゴム等
  6
CONTINUOUS
 62
    63
 10
17.867145
 20
6.122213
 11
22.867145
 21
1.122213
  0
LINE
  8
ゴム等
  6
CONTINUOUS
 62
    63
 10
3.971725
 20
52.822213
 11
-5.5284
 21
52.822213
  0
LINE
  8
ゴム等
  6
CONTINUOUS
 62
    63
 10
6.47173
 20
52.822213
 11
19.67165
 21
52.822213
  0
LINE
  8
ゴム等
  6
CONTINUOUS
 62
    63
 10
-3.528395
 20
50.822213
 11
22.17165
 21
50.822213
  0
LINE
  8
ゴム等
  6
CONTINUOUS
 62
    63
 10
22.17165
 20
51.622213
 11
22.17165
 21
50.822213
  0
LINE
  8
St
  6
CONTINUOUS
 62
    63
 10
2.37155
 20
35.622213
 11
2.37155
 21
37.122218
  0
LINE
  8
St
  6
CONTINUOUS
 62
    63
 10
2.37155
 20
37.122218
 11
18.624505
 21
37.122218
  0
ARC
  8
St
  6
CONTINUOUS
 62
    63
 10
30.37155
 20
37.122207
 40
2.5
 50
90.000057
 51
90.000057
  0
ARC
  8
St
  6
CONTINUOUS
 62
    63
 10
30.371547
 20
1.122218
 40
2.2
 50
12.301255
 51
167.698745
  0
LINE
  8
St
  6
CONTINUOUS
 62
    63
 10
28.22207
 20
1.122213
 11
28.22207
 21
1.590942
  0
LINE
  8
St
  6
CONTINUOUS
 62
    63
 10
32.52105
 20
1.122213
 11
32.52105
 21
1.590942
  0
ARC
  8
St
  6
CONTINUOUS
 62
    63
 10
2.371551
 20
19.122215
 40
15.5
 50
31.072958
 51
328.927056
  0
LINE
  8
St
  6
CONTINUOUS
 62
    63
 10
37.87157
 20
39.622213
 11
37.87157
 21
37.622218
  0
LINE
  8
St
  6
CONTINUOUS
 62
    63
 10
32.52105
 20
37.122213
 11
37.371575
 21
37.122213
  0
LINE
  8
St
  6
CONTINUOUS
 62
    63
 10
32.52105
 20
1.122213
 11
37.371575
 21
1.122213
  0
ARC
  8
St
  6
CONTINUOUS
 62
    63
 10
37.371555
 20
37.622213
 40
0.5
 50
-90.0
 51
0.0
  0
ARC
  8
St
  6
CONTINUOUS
 62
    63
 10
37.371555
 20
0.622213
 40
0.5
 50
0.0
 51
90.0
  0
LINE
  8
St
  6
CONTINUOUS
 62
    63
 10
37.87157
 20
0.622213
 11
37.87157
 21
0.122218
  0
ARC
  8
St
  6
CONTINUOUS
 62
    63
 10
-16.628418
 20
46.122215
 40
3.0
 50
90.0
 51
180.0
  0
ARC
  8
St
  6
CONTINUOUS
 62
    63
 10
-16.628418
 20
46.122215
 40
1.0
 50
90.0
 51
180.0
  0
ARC
  8
St
  6
CONTINUOUS
 62
    63
 10
-16.628418
 20
0.12221
 40
3.0
 50
180.0
 51
270.0
  0
ARC
  8
St
  6
CONTINUOUS
 62
    63
 10
-16.628418
 20
0.12221
 40
1.0
 50
180.0
 51
270.0
  0
ARC
  8
St
  6
CONTINUOUS
 62
    63
 10
34.871554
 20
0.12221
 40
3.0
 50
-90.0
 51
0.0
  0
LINE
  8
St
  6
CONTINUOUS
 62
    63
 10
-16.6284
 20
49.122213
 11
-5.5284
 21
49.122213
  0
LINE
  8
St
  6
CONTINUOUS
 62
    63
 10
-16.6284
 20
47.122213
 11
-3.528395
 21
47.122213
  0
LINE
  8
St
  6
CONTINUOUS
 62
    63
 10
37.87157
 20
62.622213
 11
37.87157
 21
45.922213
  0
LINE
  8
St
  6
CONTINUOUS
 62
    63
 10
37.87157
 20
45.322213
 11
37.87157
 21
37.122213
  0
LINE
  8
St
  6
CONTINUOUS
 62
    63
 10
-19.3284
 20
43.622218
 11
-19.6284
 21
43.922218
  0
LINE
  8
St
  6
CONTINUOUS
 62
    63
 10
-19.3284
 20
43.622218
 11
-19.6284
 21
43.322218
  0
LINE
  8
St
  6
CONTINUOUS
 62
    63
 10
-19.6284
 20
43.922218
 11
-19.6284
 21
46.122213
  0
LINE
  8
St
  6
CONTINUOUS
 62
    63
 10
-19.6284
 20
0.122218
 11
-19.6284
 21
14.122213
  0
LINE
  8
St
  6
CONTINUOUS
 62
    63
 10
-19.6284
 20
43.322218
 11
-19.6284
 21
14.122213
  0
LINE
  8
St
  6
CONTINUOUS
 62
    63
 10
-17.628395
 20
0.122218
 11
-17.628395
 21
17.122213
  0
LINE
  8
St
  6
CONTINUOUS
 62
    63
 10
-17.628395
 20
46.122213
 11
-17.628395
 21
21.122218
  0
LINE
  8
St
  6
CONTINUOUS
 62
    63
 10
37.57157
 20
45.622213
 11
37.87157
 21
45.922213
  0
LINE
  8
St
  6
CONTINUOUS
 62
    63
 10
37.57157
 20
45.622213
 11
37.87157
 21
45.322213
  0
ARC
  8
St
  6
CONTINUOUS
 62
    63
 10
33.271569
 20
62.322234
 40
0.3
 50
90.00412
 51
180.0
  0
ARC
  8
St
  6
CONTINUOUS
 62
    63
 10
24.271609
 20
62.322234
 40
0.3
 50
0.002747
 51
90.00412
  0
LINE
  8
St
  6
CONTINUOUS
 62
    63
 10
24.271625
 20
62.622213
 11
20.67165
 21
62.622213
  0
LINE
  8
St
  6
CONTINUOUS
 62
    63
 10
37.87157
 20
62.622213
 11
33.2751
 21
62.622213
  0
ARC
  8
St
  6
CONTINUOUS
 62
    63
 10
8.571683
 20
62.322234
 40
0.3
 50
0.0
 51
89.99588
  0
ARC
  8
St
  6
CONTINUOUS
 62
    63
 10
17.571642
 20
62.322234
 40
0.3
 50
89.99588
 51
179.997253
  0
LINE
  8
St
  6
CONTINUOUS
 62
    63
 10
17.57165
 20
62.622213
 11
21.17165
 21
62.622213
  0
LINE
  8
St
  6
CONTINUOUS
 62
    63
 10
3.971725
 20
62.622213
 11
8.568175
 21
62.622213
  0
LINE
  8
St
  6
CONTINUOUS
 62
    63
 10
24.071675
 20
60.122218
 11
22.17165
 21
60.122218
  0
LINE
  8
St
  6
CONTINUOUS
 62
    63
 10
33.471675
 20
60.122218
 11
35.371575
 21
60.122218
  0
ARC
  8
St
  6
CONTINUOUS
 62
    63
 10
24.071648
 20
60.622222
 40
0.5
 50
270.001373
 51
360.002747
  0
ARC
  8
St
  6
CONTINUOUS
 62
    63
 10
33.471671
 20
60.622222
 40
0.5
 50
180.0
 51
270.001373
  0
LINE
  8
St
  6
CONTINUOUS
 62
    63
 10
17.771625
 20
60.122218
 11
19.67165
 21
60.122218
  0
LINE
  8
St
  6
CONTINUOUS
 62
    63
 10
8.3716
 20
60.122218
 11
6.47173
 21
60.122218
  0
ARC
  8
St
  6
CONTINUOUS
 62
    63
 10
17.771604
 20
60.622222
 40
0.5
 50
179.997253
 51
269.998627
  0
ARC
  8
St
  6
CONTINUOUS
 62
    63
 10
8.371581
 20
60.622222
 40
0.5
 50
269.998627
 51
360.0
  0
LINE
  8
St
  6
CONTINUOUS
 62
    63
 10
24.57167
 20
62.322237
 11
24.57167
 21
60.622263
  0
LINE
  8
St
  6
CONTINUOUS
 62
    63
 10
17.2716
 20
62.322237
 11
17.2716
 21
60.622263
  0
LINE
  8
St
  6
CONTINUOUS
 62
    63
 10
32.97167
 20
62.322237
 11
32.97167
 21
60.622263
  0
LINE
  8
St
  6
CONTINUOUS
 62
    63
 10
8.8716
 20
62.322237
 11
8.8716
 21
60.622263
  0
LINE
  8
St
  6
CONTINUOUS
 62
    63
 10
22.17165
 20
60.122218
 11
22.17165
 21
53.622213
  0
LINE
  8
St
  6
CONTINUOUS
 62
    63
 10
22.17165
 20
53.622213
 11
35.371575
 21
53.622213
  0
LINE
  8
St
  6
CONTINUOUS
 62
    63
 10
35.371575
 20
60.122218
 11
35.371575
 21
53.622213
  0
LINE
  8
St
  6
CONTINUOUS
 62
    63
 10
35.371575
 20
51.622213
 11
35.371575
 21
39.622213
  0
LINE
  8
St
  6
CONTINUOUS
 62
    63
 10
-17.628395
 20
21.122218
 11
-15.516975
 21
21.122218
  0
LINE
  8
St
  6
CONTINUOUS
 62
    63
 10
-17.628395
 20
17.122213
 11
-15.516975
 21
17.122213
  0
LINE
  8
St
  6
CONTINUOUS
 62
    63
 10
32.52105
 20
37.122213
 11
32.52105
 21
35.845617
  0
LINE
  8
St
  6
CONTINUOUS
 62
    63
 10
28.22205
 20
37.122213
 11
28.22205
 21
35.845637
  0
ARC
  8
St
  6
CONTINUOUS
 62
    63
 10
30.37155
 20
37.122207
 40
2.5
 50
210.705753
 51
329.293349
  0
LINE
  8
St
  6
CONTINUOUS
 62
    63
 10
15.547475
 20
27.122218
 11
17.871545
 21
27.122218
  0
LINE
  8
St
  6
CONTINUOUS
 62
    63
 10
15.647475
 20
11.122213
 11
17.86715
 21
11.122213
  0
LINE
  8
St
  6
CONTINUOUS
 62
    63
 10
-16.6284
 20
-0.877787
 11
0.37156
 21
-0.877787
  0
LINE
  8
St
  6
CONTINUOUS
 62
    63
 10
29.871575
 20
41.122213
 11
30.871575
 21
39.622213
  0
LINE
  8
St
  6
CONTINUOUS
 62
    63
 10
35.371575
 20
39.622213
 11
30.871575
 21
39.622213
  0
LINE
  8
St
  6
CONTINUOUS
 62
    63
 10
35.371575
 20
51.622213
 11
22.17165
 21
51.622213
  0
LINE
  8
St
  6
CONTINUOUS
 62
    63
 10
6.47173
 20
60.122218
 11
6.47173
 21
52.822213
  0
LINE
  8
St
  6
CONTINUOUS
 62
    63
 10
3.971725
 20
62.622213
 11
3.971725
 21
52.822213
  0
LINE
  8
St
  6
CONTINUOUS
 62
    63
 10
-5.5284
 20
49.122213
 11
-5.5284
 21
52.822213
  0
LINE
  8
St
  6
CONTINUOUS
 62
    63
 10
-3.528395
 20
47.122213
 11
-3.528395
 21
50.822213
  0
LINE
  8
St
  6
CONTINUOUS
 62
    63
 10
19.67165
 20
60.122218
 11
19.67165
 21
52.822213
  0
LINE
  8
St
  6
CONTINUOUS
 62
    63
 10
17.871545
 20
27.122218
 11
17.871545
 21
32.126613
  0
LINE
  8
St
  6
CONTINUOUS
 62
    63
 10
28.22205
 20
37.122213
 11
22.867145
 21
37.122213
  0
LINE
  8
St
  6
CONTINUOUS
 62
    63
 10
17.86715
 20
11.122213
 11
17.86715
 21
6.122207
  0
LINE
  8
St
  6
CONTINUOUS
 62
    63
 10
28.22207
 20
1.122213
 11
22.867145
 21
1.122213
  0
LINE
  8
St
  6
CONTINUOUS
 62
    63
 10
29.871575
 20
41.122213
 11
22.624505
 21
41.122213
  0
LINE
  8
St
  6
CONTINUOUS
 62
    63
 10
-16.6284
 20
-2.877783
 11
3.3716
 21
-2.877783
  0
LINE
  8
St
  6
CONTINUOUS
 62
    63
 10
0.37156
 20
-0.877743
 11
0.37156
 21
1.233672
  0
LINE
  8
St
  6
CONTINUOUS
 62
    63
 10
34.87157
 20
-2.877783
 11
21.21029
 21
-2.877783
  0
ARC
  8
St
  6
CONTINUOUS
 62
    63
 10
2.371551
 20
19.122216
 40
18.0
 50
186.379378
 51
263.620659
  0
LINE
  8
St
  6
CONTINUOUS
 62
    63
 10
21.21029
 20
-2.877783
 11
17.21029
 21
1.122218
  0
LINE
  8
St
  6
CONTINUOUS
 62
    63
 10
3.3716
 20
-2.877783
 11
3.3716
 21
0.122218
  0
LINE
  8
St
  6
CONTINUOUS
 62
    63
 10
17.21029
 20
1.122218
 11
4.3716
 21
1.122218
  0
ARC
  8
St
  6
CONTINUOUS
 62
    63
 10
4.3716
 20
0.122217
 40
1.0
 50
90.0
 51
180.0
  0
LINE
  8
St
  6
CONTINUOUS
 62
    63
 10
22.624505
 20
41.122213
 11
18.624505
 21
37.122218
  0
ARC
  8
St
  6
CONTINUOUS
 62
    63
 10
2.371551
 20
19.122216
 40
18.0
 50
90.000003
 51
173.620638
  0
ENDBLK
  0
BLOCK
  2
*GRP_0013
 70
    65
 10
0.0
 20
0.0
  0
LINE
  8
型材断面
  6
CONTINUOUS
 10
-19.628405
 20
-106.877762
 11
-21.128405
 21
-106.877762
  0
LINE
  8
型材断面
  6
CONTINUOUS
 10
-19.628405
 20
-100.877762
 11
-21.128405
 21
-100.877762
  0
LINE
  8
型材断面
  6
CONTINUOUS
 10
-20.753405
 20
-100.877762
 11
-20.753405
 21
-106.877762
  0
LINE
  8
型材断面
  6
CONTINUOUS
 10
-20.378405
 20
-100.877762
 11
-20.378405
 21
-106.877762
  0
LINE
  8
型材断面
  6
CONTINUOUS
 10
-20.003405
 20
-100.877762
 11
-20.003405
 21
-106.877762
  0
LINE
  8
型材断面
  6
CONTINUOUS
 62
    47
 10
-10.128405
 20
-108.377762
 11
-9.295075
 21
-106.877762
  0
LINE
  8
型材断面
  6
CONTINUOUS
 62
    47
 10
-4.96174
 20
-106.877762
 11
-4.128405
 21
-108.377762
  0
LINE
  8
型材断面
  6
CONTINUOUS
 62
    47
 10
-4.753405
 20
-107.252762
 11
-9.503405
 21
-107.252762
  0
LINE
  8
型材断面
  6
CONTINUOUS
 62
    47
 10
-4.54507
 20
-107.627762
 11
-9.71174
 21
-107.627762
  0
LINE
  8
型材断面
  6
CONTINUOUS
 62
    47
 10
-4.33674
 20
-108.002762
 11
-9.92007
 21
-108.002762
  0
ARC
  8
型材断面
  6
CONTINUOUS
 62
    47
 10
-19.628401
 20
-106.877767
 40
1.5
 50
180.0
 51
270.0
  0
ARC
  8
型材断面
  6
CONTINUOUS
 62
    47
 10
93.871569
 20
-106.877767
 40
1.5
 50
270.0
 51
360.0
  0
LINE
  8
型材断面
  6
CONTINUOUS
 62
    47
 10
-19.628405
 20
-106.877762
 11
93.871565
 21
-106.877762
  0
LINE
  8
型材断面
  6
CONTINUOUS
 62
    47
 10
-21.128405
 20
-108.377762
 11
95.371565
 21
-108.377762
  0
LINE
  8
型材断面
  6
CONTINUOUS
 62
    47
 10
8.37155
 20
-8.876332
 11
9.204885
 21
-10.376338
  0
LINE
  8
型材断面
  6
CONTINUOUS
 62
    47
 10
13.53822
 20
-10.376338
 11
14.37155
 21
-8.876332
  0
LINE
  8
型材断面
  6
CONTINUOUS
 62
    47
 10
14.163215
 20
-9.251338
 11
8.579885
 21
-9.251338
  0
LINE
  8
型材断面
  6
CONTINUOUS
 62
    47
 10
13.954885
 20
-9.626338
 11
8.78822
 21
-9.626338
  0
LINE
  8
型材断面
  6
CONTINUOUS
 62
    47
 10
13.74655
 20
-10.001338
 11
8.99655
 21
-10.001338
  0
LINE
  8
型材断面
  6
CONTINUOUS
 62
    47
 10
19.37155
 20
-10.376338
 11
5.3716
 21
-10.376338
  0
ARC
  8
型材断面
  6
CONTINUOUS
 62
    47
 10
5.371604
 20
-10.376342
 40
1.5
 50
90.0
 51
180.0
  0
ARC
  8
型材断面
  6
CONTINUOUS
 62
    47
 10
3.871604
 20
-22.377782
 40
1.5
 50
-90.0
 51
0.0
  0
ARC
  8
型材断面
  6
CONTINUOUS
 62
    47
 10
-19.628401
 20
-23.877782
 40
1.5
 50
90.0
 51
180.0
  0
LINE
  8
型材断面
  6
CONTINUOUS
 62
    47
 10
3.8716
 20
-22.377777
 11
-21.128405
 21
-22.377777
  0
LINE
  8
型材断面
  6
CONTINUOUS
 62
    47
 10
-19.628405
 20
-23.877777
 11
5.3716
 21
-23.877777
  0
LINE
  8
型材断面
  6
CONTINUOUS
 62
    47
 10
5.3716
 20
-10.376338
 11
5.3716
 21
-23.877777
  0
LINE
  8
型材断面
  6
CONTINUOUS
 62
    47
 10
3.8716
 20
-22.377777
 11
3.8716
 21
-8.876338
  0
LINE
  8
型材断面
  6
CONTINUOUS
 62
    47
 10
3.8716
 20
-8.876338
 11
19.37155
 21
-8.876338
  0
LINE
  8
型材断面
  6
CONTINUOUS
 62
    47
 10
-21.128405
 20
-108.377762
 11
-21.128405
 21
-22.377777
  0
LINE
  8
型材断面
  6
CONTINUOUS
 62
    47
 10
-19.628405
 20
-106.877762
 11
-19.628405
 21
-23.877777
  0
LINE
  8
型材断面
  6
CONTINUOUS
 10
19.37155
 20
-8.876338
 11
19.37155
 21
-10.376338
  0
LINE
  8
型材断面
  6
CONTINUOUS
 62
    47
 10
95.371565
 20
-108.377762
 11
95.371565
 21
-88.377762
  0
LINE
  8
型材断面
  6
CONTINUOUS
 10
95.371565
 20
-88.377762
 11
93.871565
 21
-88.377762
  0
LINE
  8
型材断面
  6
CONTINUOUS
 62
    47
 10
93.871565
 20
-106.877762
 11
93.871565
 21
-88.377762
  0
ENDBLK
  0
BLOCK
  2
*GRP_0014
 70
    65
 10
0.0
 20
0.0
  0
LINE
  8
型材断面
  6
CONTINUOUS
 10
-18.028435
 20
64.122228
 11
-18.028435
 21
62.622228
  0
LINE
  8
型材断面
  6
CONTINUOUS
 10
-10.028435
 20
63.747228
 11
-18.028435
 21
63.747228
  0
LINE
  8
型材断面
  6
CONTINUOUS
 10
-10.028435
 20
63.372228
 11
-18.028435
 21
63.372228
  0
LINE
  8
型材断面
  6
CONTINUOUS
 10
-10.028435
 20
62.997228
 11
-18.028435
 21
62.997228
  0
LINE
  8
型材断面
  6
CONTINUOUS
 10
-10.028435
 20
64.122228
 11
-10.028435
 21
50.622228
  0
ARC
  8
型材断面
  6
CONTINUOUS
 10
-10.028432
 20
62.622228
 40
1.5
 50
0.0
 51
90.0
  0
ARC
  8
型材断面
  6
CONTINUOUS
 10
-10.028432
 20
52.122228
 40
1.5
 50
-90.0
 51
0.0
  0
LINE
  8
型材断面
  6
CONTINUOUS
 10
-8.528435
 20
50.622228
 11
-8.528435
 21
64.122228
  0
LINE
  8
型材断面
  6
CONTINUOUS
 10
-10.028435
 20
52.122228
 11
-16.528435
 21
52.122228
  0
LINE
  8
型材断面
  6
CONTINUOUS
 10
-10.028435
 20
51.747228
 11
-16.528435
 21
51.747228
  0
LINE
  8
型材断面
  6
CONTINUOUS
 10
-10.028435
 20
51.372228
 11
-16.528435
 21
51.372228
  0
LINE
  8
型材断面
  6
CONTINUOUS
 10
-10.028435
 20
50.997228
 11
-16.528435
 21
50.997228
  0
LINE
  8
型材断面
  6
CONTINUOUS
 10
-8.528435
 20
50.622228
 11
-16.528435
 21
50.622228
  0
LINE
  8
型材断面
  6
CONTINUOUS
 10
-16.528435
 20
50.622228
 11
-16.528435
 21
52.122228
  0
LINE
  8
型材断面
  6
CONTINUOUS
 10
-25.349557
 20
73.061563
 11
-34.288897
 21
64.122228
  0
ARC
  8
型材断面
  6
CONTINUOUS
 10
-34.28889
 20
64.122228
 40
1.5
 50
134.999994
 51
270.0
  0
LINE
  8
型材断面
  6
CONTINUOUS
 10
-32.420627
 20
68.111815
 11
-31.359968
 21
67.051155
  0
LINE
  8
型材断面
  6
CONTINUOUS
 10
-29.592198
 20
70.940243
 11
-28.531538
 21
69.879582
  0
LINE
  8
型材断面
  6
CONTINUOUS
 10
-29.327033
 20
70.675078
 11
-32.155462
 21
67.84665
  0
LINE
  8
型材断面
  6
CONTINUOUS
 10
-29.061867
 20
70.409913
 11
-31.890297
 21
67.581485
  0
LINE
  8
型材断面
  6
CONTINUOUS
 10
-28.796702
 20
70.144748
 11
-31.625133
 21
67.31632
  0
LINE
  8
型材断面
  6
CONTINUOUS
 10
-26.410217
 20
74.122222
 11
-25.349557
 21
73.061563
  0
LINE
  8
型材断面
  6
CONTINUOUS
 10
-10.028435
 20
62.622228
 11
-37.910213
 21
62.622228
  0
LINE
  8
型材断面
  6
CONTINUOUS
 10
-8.528435
 20
64.122228
 11
-34.288897
 21
64.122228
  0
LINE
  8
型材断面
  6
CONTINUOUS
 62
    47
 10
-26.410215
 20
74.122225
 11
-37.910213
 21
62.622228
  0
ENDBLK
  0
BLOCK
  2
*GRP_0015
 70
    65
 10
0.0
 20
0.0
  0
LINE
  8
ゴム等
  6
CONTINUOUS
 10
-4.1284
 20
-17.377777
 11
-0.1284
 21
-17.377777
  0
LINE
  8
ゴム等
  6
CONTINUOUS
 10
-0.1284
 20
-17.377777
 11
-0.1284
 21
-16.377777
  0
LINE
  8
ゴム等
  6
CONTINUOUS
 10
-4.1284
 20
-17.377777
 11
-4.1284
 21
-16.377777
  0
LINE
  8
ゴム等
  6
CONTINUOUS
 10
-0.1284
 20
-16.377777
 11
3.8716
 21
-16.377777
  0
LINE
  8
ゴム等
  6
CONTINUOUS
 10
3.8716
 20
-16.377777
 11
3.8716
 21
-22.377777
  0
LINE
  8
ゴム等
  6
CONTINUOUS
 10
3.8716
 20
-22.377777
 11
-9.1284
 21
-22.377777
  0
LINE
  8
ゴム等
  6
CONTINUOUS
 10
-9.1284
 20
-22.377777
 11
-9.1284
 21
-18.718328
  0
LINE
  8
ゴム等
  6
CONTINUOUS
 10
-4.1284
 20
-16.377777
 11
-8.110375
 21
-16.757053
  0
LINE
  8
ゴム等
  6
CONTINUOUS
 10
-8.110375
 20
-16.757053
 11
-8.08419
 21
-17.032007
  0
ARC
  8
ゴム等
  6
CONTINUOUS
 10
-12.212024
 20
-17.627641
 40
0.4
 50
91.441077
 51
274.310481
  0
LINE
  8
ゴム等
  6
CONTINUOUS
 10
-12.22208
 20
-17.227762
 11
-8.888105
 21
-17.108577
  0
LINE
  8
ゴム等
  6
CONTINUOUS
 10
-8.08419
 20
-17.032007
 11
-8.8881
 21
-17.108577
  0
ARC
  8
ゴム等
  6
CONTINUOUS
 10
-11.128399
 20
-18.718332
 40
2.0
 50
0.0
 51
17.753828
  0
LINE
  8
ゴム等
  6
CONTINUOUS
 10
-12.18196
 20
-18.026502
 11
-9.22365
 21
-18.108472
  0
INSERT
  2
*HAT_0002
  8
ゴム等
 10
0.0
 20
0.0
  0
ENDBLK
  0
BLOCK
  2
*GRP_0016
 70
    65
 10
0.0
 20
0.0
  0
LINE
  8
ゴム等
  6
CONTINUOUS
 62
    63
 10
10.92503
 20
74.263647
 11
9.86437
 21
75.324308
  0
LINE
  8
ゴム等
  6
CONTINUOUS
 62
    63
 10
12.339243
 20
75.677863
 11
9.157263
 21
78.859843
  0
LINE
  8
ゴム等
  6
CONTINUOUS
 62
    63
 10
4.207515
 20
73.910102
 11
6.328835
 21
71.788775
  0
LINE
  8
ゴム等
  6
CONTINUOUS
 62
    63
 10
9.157263
 20
78.859843
 11
4.207515
 21
73.910102
  0
LINE
  8
ゴム等
  6
CONTINUOUS
 62
    63
 10
12.339243
 20
75.677863
 11
10.92503
 21
74.263647
  0
LINE
  8
ゴム等
  6
CONTINUOUS
 62
    63
 10
9.86437
 20
75.324308
 11
6.328835
 21
71.788775
  0
INSERT
  2
*HAT_0003
  8
ゴム等
 10
0.0
 20
0.0
  0
ENDBLK
  0
BLOCK
  2
*GRP_0017
 70
    65
 10
0.0
 20
0.0
  0
LINE
  8
ゴム等
  6
CONTINUOUS
 10
-29.288895
 20
69.122228
 11
-29.288895
 21
64.122228
  0
LINE
  8
ゴム等
  6
CONTINUOUS
 10
-29.288895
 20
69.122228
 11
-17.21782
 21
81.193297
  0
LINE
  8
ゴム等
  6
CONTINUOUS
 10
-17.21782
 20
81.193297
 11
-1.64675
 21
65.622228
  0
LINE
  8
ゴム等
  6
CONTINUOUS
 10
-9.528435
 20
65.622228
 11
-9.528435
 21
64.122228
  0
LINE
  8
ゴム等
  6
CONTINUOUS
 10
-1.64675
 20
65.622228
 11
-9.528435
 21
65.622228
  0
LINE
  8
ゴム等
  6
CONTINUOUS
 10
-29.288895
 20
64.122228
 11
-9.528435
 21
64.122228
  0
INSERT
  2
*HAT_0004
  8
ゴム等
 10
0.0
 20
0.0
  0
ENDBLK
  0
BLOCK
  2
*GRP_0018
 70
    65
 10
0.0
 20
0.0
  0
LINE
  8
ボルト／ビス
  6
CONTINUOUS
 10
-24.628405
 20
34.622228
 11
-25.128405
 21
34.122228
  0
LINE
  8
ボルト／ビス
  6
CONTINUOUS
 10
-28.628405
 20
34.622228
 11
-28.128405
 21
34.122228
  0
LINE
  8
ボルト／ビス
  6
CONTINUOUS
 10
-25.128405
 20
34.122228
 11
-28.128405
 21
34.122228
  0
LINE
  8
ボルト／ビス
  6
CONTINUOUS
 10
-24.628405
 20
34.622228
 11
-28.628405
 21
34.622228
  0
LINE
  8
ボルト／ビス
  6
CONTINUOUS
 10
-24.628405
 20
34.622228
 11
-24.628405
 21
38.322228
  0
LINE
  8
ボルト／ビス
  6
CONTINUOUS
 10
-25.128405
 20
34.122228
 11
-25.128405
 21
38.322228
  0
LINE
  8
ボルト／ビス
  6
CONTINUOUS
 10
-28.128405
 20
34.122228
 11
-28.128405
 21
38.322228
  0
LINE
  8
ボルト／ビス
  6
CONTINUOUS
 10
-28.628405
 20
34.622228
 11
-28.628405
 21
38.322228
  0
LINE
  8
ボルト／ビス
  6
CONTINUOUS
 10
-24.628405
 20
38.322228
 11
-28.628405
 21
38.322228
  0
LINE
  8
ボルト／ビス
  6
CONTINUOUS
 10
-23.628405
 20
40.122228
 11
-24.628405
 21
38.322228
  0
LINE
  8
ボルト／ビス
  6
CONTINUOUS
 10
-23.628405
 20
40.122228
 11
-29.628405
 21
40.122228
  0
LINE
  8
ボルト／ビス
  6
CONTINUOUS
 10
-29.628405
 20
40.122228
 11
-28.628405
 21
38.322228
  0
LINE
  8
ボルト／ビス
  6
CONTINUOUS
 10
-26.628405
 20
32.541753
 11
-26.628405
 21
41.605758
  0
ENDBLK
  0
BLOCK
  2
*GRP_0019
 70
    65
 10
0.0
 20
0.0
  0
LINE
  8
ボルト／ビス
  6
CONTINUOUS
 10
33.87157
 20
47.622213
 11
33.37157
 21
47.122213
  0
LINE
  8
ボルト／ビス
  6
CONTINUOUS
 10
33.87157
 20
43.622213
 11
33.37157
 21
44.122213
  0
LINE
  8
ボルト／ビス
  6
CONTINUOUS
 10
33.37157
 20
47.122213
 11
33.37157
 21
44.122213
  0
LINE
  8
ボルト／ビス
  6
CONTINUOUS
 10
33.87157
 20
47.622213
 11
33.87157
 21
43.622213
  0
LINE
  8
ボルト／ビス
  6
CONTINUOUS
 10
33.87157
 20
47.622213
 11
37.57157
 21
47.622213
  0
LINE
  8
ボルト／ビス
  6
CONTINUOUS
 10
33.37157
 20
47.122213
 11
37.57157
 21
47.122213
  0
LINE
  8
ボルト／ビス
  6
CONTINUOUS
 10
33.37157
 20
44.122213
 11
37.57157
 21
44.122213
  0
LINE
  8
ボルト／ビス
  6
CONTINUOUS
 10
33.87157
 20
43.622213
 11
37.57157
 21
43.622213
  0
LINE
  8
ボルト／ビス
  6
CONTINUOUS
 10
37.57157
 20
47.622213
 11
37.57157
 21
43.622213
  0
LINE
  8
ボルト／ビス
  6
CONTINUOUS
 10
39.37157
 20
48.622213
 11
37.57157
 21
47.622213
  0
LINE
  8
ボルト／ビス
  6
CONTINUOUS
 10
39.37157
 20
48.622213
 11
39.37157
 21
42.622213
  0
LINE
  8
ボルト／ビス
  6
CONTINUOUS
 10
39.37157
 20
42.622213
 11
37.57157
 21
43.622213
  0
LINE
  8
ボルト／ビス
  6
CONTINUOUS
 10
31.791095
 20
45.622213
 11
40.8551
 21
45.622213
  0
ENDBLK
  0
BLOCK
  2
*GRP_0020
 70
    65
 10
0.0
 20
0.0
  0
LINE
  8
ボルト／ビス
  6
CONTINUOUS
 10
22.517035
 20
76.072233
 11
21.26611
 21
75.616935
  0
ARC
  8
ボルト／ビス
  6
CONTINUOUS
 10
23.142498
 20
71.978065
 40
4.09417
 50
62.722034
 51
90.0
  0
LINE
  8
ボルト／ビス
  6
CONTINUOUS
 10
35.026295
 20
76.072233
 11
36.27722
 21
75.616935
  0
ARC
  8
ボルト／ビス
  6
CONTINUOUS
 10
34.400833
 20
71.978065
 40
4.09417
 50
90.0
 51
117.277966
  0
ARC
  8
ボルト／ビス
  6
CONTINUOUS
 10
28.771665
 20
60.378503
 40
15.693732
 50
76.165046
 51
103.834954
  0
LINE
  8
ボルト／ビス
  6
CONTINUOUS
 10
21.26611
 20
70.922233
 11
21.26611
 21
75.616935
  0
LINE
  8
ボルト／ビス
  6
CONTINUOUS
 10
36.27722
 20
70.922233
 11
36.27722
 21
75.616935
  0
LINE
  8
ボルト／ビス
  6
CONTINUOUS
 10
35.026295
 20
76.072233
 11
22.517035
 21
76.072233
  0
LINE
  8
ボルト／ビス
  6
CONTINUOUS
 10
32.524443
 20
75.616935
 11
32.524443
 21
70.922233
  0
LINE
  8
ボルト／ビス
  6
CONTINUOUS
 10
25.018887
 20
75.616935
 11
25.018887
 21
70.922233
  0
LINE
  8
ボルト／ビス
  6
CONTINUOUS
 10
36.27722
 20
70.922233
 11
21.26611
 21
70.922233
  0
LINE
  8
ボルト／ビス
  6
CONTINUOUS
 10
20.021665
 20
69.122233
 11
20.021665
 21
68.122233
  0
LINE
  8
ボルト／ビス
  6
CONTINUOUS
 10
37.521665
 20
69.122233
 11
37.521665
 21
68.122233
  0
LINE
  8
ボルト／ビス
  6
CONTINUOUS
 10
20.021665
 20
69.122233
 11
37.521665
 21
69.122233
  0
LINE
  8
ボルト／ビス
  6
CONTINUOUS
 10
20.021665
 20
68.122233
 11
37.521665
 21
68.122233
  0
LINE
  8
ボルト／ビス
  6
CONTINUOUS
 10
28.771665
 20
70.922233
 11
28.771665
 21
69.122233
  0
LINE
  8
ボルト／ビス
  6
CONTINUOUS
 10
36.671665
 20
70.922233
 11
36.671665
 21
69.122233
  0
LINE
  8
ボルト／ビス
  6
CONTINUOUS
 10
20.871665
 20
70.922233
 11
20.871665
 21
69.122233
  0
LINE
  8
ボルト／ビス
  6
CONTINUOUS
 10
36.671665
 20
70.922233
 11
20.871665
 21
70.922233
  0
ENDBLK
  0
BLOCK
  2
*GRP_0021
 70
    65
 10
0.0
 20
0.0
  0
LINE
  8
通り芯
  6
CONTINUOUS
 10
-34.628435
 20
41.622228
 11
-34.628435
 21
50.62223
  0
LINE
  8
通り芯
  6
CONTINUOUS
 10
-46.128435
 20
50.62223
 11
-34.628435
 21
50.62223
  0
LINE
  8
通り芯
  6
CONTINUOUS
 10
-44.628435
 20
50.62223
 11
-44.628435
 21
41.62223
  0
LINE
  8
通り芯
  6
DOT
 10
-36.128435
 20
41.622228
 11
-36.128435
 21
50.62223
  0
POINT
  8
通り芯
 10
-43.050832
 20
49.207135
  0
POINT
  8
通り芯
 10
-42.382178
 20
46.699675
  0
POINT
  8
通り芯
 10
-39.65183
 20
48.20415
  0
POINT
  8
通り芯
 10
-38.593125
 20
45.418082
  0
POINT
  8
通り芯
 10
-41.26775
 20
44.415098
  0
POINT
  8
通り芯
 10
-42.827948
 20
42.520572
  0
POINT
  8
通り芯
 10
-38.481682
 20
42.40913
  0
POINT
  8
通り芯
 10
-37.200093
 20
47.535495
  0
POINT
  8
通り芯
 10
-37.59014
 20
49.3743
  0
ENDBLK
  0
BLOCK
  2
*GRP_0022
 70
    65
 10
0.0
 20
0.0
  0
LINE
  8
ボルト／ビス
  6
CONTINUOUS
 10
-1.528435
 20
-8.377777
 11
-1.028435
 21
-8.877777
  0
LINE
  8
ボルト／ビス
  6
CONTINUOUS
 10
-1.528435
 20
-12.377777
 11
-1.028435
 21
-11.877777
  0
LINE
  8
ボルト／ビス
  6
CONTINUOUS
 10
-1.028435
 20
-8.877777
 11
-1.028435
 21
-11.877777
  0
LINE
  8
ボルト／ビス
  6
CONTINUOUS
 10
-1.528435
 20
-8.377777
 11
-1.528435
 21
-12.377777
  0
LINE
  8
ボルト／ビス
  6
CONTINUOUS
 10
-1.528435
 20
-8.377777
 11
-5.228435
 21
-8.377777
  0
LINE
  8
ボルト／ビス
  6
CONTINUOUS
 10
-1.028435
 20
-8.877777
 11
-5.228435
 21
-8.877777
  0
LINE
  8
ボルト／ビス
  6
CONTINUOUS
 10
-1.028435
 20
-11.877777
 11
-5.228435
 21
-11.877777
  0
LINE
  8
ボルト／ビス
  6
CONTINUOUS
 10
-1.528435
 20
-12.377777
 11
-5.228435
 21
-12.377777
  0
LINE
  8
ボルト／ビス
  6
CONTINUOUS
 10
-5.228435
 20
-8.377777
 11
-5.228435
 21
-12.377777
  0
LINE
  8
ボルト／ビス
  6
CONTINUOUS
 10
-7.028435
 20
-7.377777
 11
-5.228435
 21
-8.377777
  0
LINE
  8
ボルト／ビス
  6
CONTINUOUS
 10
-7.028435
 20
-7.377777
 11
-7.028435
 21
-13.377777
  0
LINE
  8
ボルト／ビス
  6
CONTINUOUS
 10
-7.028435
 20
-13.377777
 11
-5.228435
 21
-12.377777
  0
LINE
  8
ボルト／ビス
  6
CONTINUOUS
 10
0.55204
 20
-10.377777
 11
-8.511965
 21
-10.377777
  0
ENDBLK
  0
BLOCK
  2
*GRP_0023
 70
    65
 10
0.0
 20
0.0
  0
LINE
  8
ボルト／ビス
  6
CONTINUOUS
 10
13.371555
 20
-14.376338
 11
12.871555
 21
-14.876338
  0
LINE
  8
ボルト／ビス
  6
CONTINUOUS
 10
9.371555
 20
-14.376338
 11
9.871555
 21
-14.876338
  0
LINE
  8
ボルト／ビス
  6
CONTINUOUS
 10
12.871555
 20
-14.876338
 11
9.871555
 21
-14.876338
  0
LINE
  8
ボルト／ビス
  6
CONTINUOUS
 10
13.371555
 20
-14.376338
 11
9.371555
 21
-14.376338
  0
LINE
  8
ボルト／ビス
  6
CONTINUOUS
 10
13.371555
 20
-14.376338
 11
13.371555
 21
-10.676338
  0
LINE
  8
ボルト／ビス
  6
CONTINUOUS
 10
12.871555
 20
-14.876338
 11
12.871555
 21
-10.676338
  0
LINE
  8
ボルト／ビス
  6
CONTINUOUS
 10
9.871555
 20
-14.876338
 11
9.871555
 21
-10.676338
  0
LINE
  8
ボルト／ビス
  6
CONTINUOUS
 10
9.371555
 20
-14.376338
 11
9.371555
 21
-10.676338
  0
LINE
  8
ボルト／ビス
  6
CONTINUOUS
 10
13.371555
 20
-10.676338
 11
9.371555
 21
-10.676338
  0
LINE
  8
ボルト／ビス
  6
CONTINUOUS
 10
14.371555
 20
-8.876338
 11
13.371555
 21
-10.676338
  0
LINE
  8
ボルト／ビス
  6
CONTINUOUS
 10
14.371555
 20
-8.876338
 11
8.371555
 21
-8.876338
  0
LINE
  8
ボルト／ビス
  6
CONTINUOUS
 10
8.371555
 20
-8.876338
 11
9.371555
 21
-10.676338
  0
LINE
  8
ボルト／ビス
  6
CONTINUOUS
 10
11.371555
 20
-16.456812
 11
11.371555
 21
-7.392807
  0
ENDBLK
  0
BLOCK
  2
*GRP_0024
 70
    65
 10
0.0
 20
0.0
  0
LINE
  8
ボルト／ビス
  6
CONTINUOUS
 10
15.37155
 20
-22.877052
 11
14.87155
 21
-23.377052
  0
LINE
  8
ボルト／ビス
  6
CONTINUOUS
 10
15.37155
 20
-26.877052
 11
14.87155
 21
-26.377052
  0
LINE
  8
ボルト／ビス
  6
CONTINUOUS
 10
14.87155
 20
-23.377052
 11
14.87155
 21
-26.377052
  0
LINE
  8
ボルト／ビス
  6
CONTINUOUS
 10
15.37155
 20
-22.877052
 11
15.37155
 21
-26.877052
  0
LINE
  8
ボルト／ビス
  6
CONTINUOUS
 10
15.37155
 20
-22.877052
 11
19.07155
 21
-22.877052
  0
LINE
  8
ボルト／ビス
  6
CONTINUOUS
 10
14.87155
 20
-23.377052
 11
19.07155
 21
-23.377052
  0
LINE
  8
ボルト／ビス
  6
CONTINUOUS
 10
14.87155
 20
-26.377052
 11
19.07155
 21
-26.377052
  0
LINE
  8
ボルト／ビス
  6
CONTINUOUS
 10
15.37155
 20
-26.877052
 11
19.07155
 21
-26.877052
  0
LINE
  8
ボルト／ビス
  6
CONTINUOUS
 10
19.07155
 20
-22.877052
 11
19.07155
 21
-26.877052
  0
LINE
  8
ボルト／ビス
  6
CONTINUOUS
 10
20.87155
 20
-21.877052
 11
19.07155
 21
-22.877052
  0
LINE
  8
ボルト／ビス
  6
CONTINUOUS
 10
20.87155
 20
-21.877052
 11
20.87155
 21
-27.877052
  0
LINE
  8
ボルト／ビス
  6
CONTINUOUS
 10
20.87155
 20
-27.877052
 11
19.07155
 21
-26.877052
  0
LINE
  8
ボルト／ビス
  6
CONTINUOUS
 10
13.291075
 20
-24.877052
 11
22.35508
 21
-24.877052
  0
ENDBLK
  0
BLOCK
  2
*GRP_0025
 70
    65
 10
0.0
 20
0.0
  0
LINE
  8
ボルト／ビス
  6
CONTINUOUS
 10
39.07157
 20
-89.127762
 11
39.07157
 21
-93.127762
  0
LINE
  8
ボルト／ビス
  6
CONTINUOUS
 10
40.87157
 20
-88.127762
 11
39.07157
 21
-89.127762
  0
LINE
  8
ボルト／ビス
  6
CONTINUOUS
 10
40.87157
 20
-88.127762
 11
40.87157
 21
-94.127762
  0
LINE
  8
ボルト／ビス
  6
CONTINUOUS
 10
40.87157
 20
-94.127762
 11
39.07157
 21
-93.127762
  0
LINE
  8
ボルト／ビス
  6
CONTINUOUS
 10
42.355103
 20
-91.127762
 11
31.992542
 21
-91.127762
  0
LINE
  8
ボルト／ビス
  6
CONTINUOUS
 10
33.37157
 20
-89.127762
 11
32.87157
 21
-89.627762
  0
LINE
  8
ボルト／ビス
  6
CONTINUOUS
 10
33.37157
 20
-93.127762
 11
32.87157
 21
-92.627762
  0
LINE
  8
ボルト／ビス
  6
CONTINUOUS
 10
32.87157
 20
-89.627762
 11
32.87157
 21
-92.627762
  0
LINE
  8
ボルト／ビス
  6
CONTINUOUS
 10
33.37157
 20
-89.127762
 11
33.37157
 21
-93.127762
  0
LINE
  8
ボルト／ビス
  6
CONTINUOUS
 10
39.07157
 20
-89.627762
 11
32.87157
 21
-89.627762
  0
LINE
  8
ボルト／ビス
  6
CONTINUOUS
 10
39.07157
 20
-92.627762
 11
32.87157
 21
-92.627762
  0
LINE
  8
ボルト／ビス
  6
CONTINUOUS
 10
39.07157
 20
-93.127762
 11
33.37157
 21
-93.127762
  0
LINE
  8
ボルト／ビス
  6
CONTINUOUS
 10
39.07157
 20
-89.127762
 11
33.37157
 21
-89.127762
  0
ENDBLK
  0
BLOCK
  2
*GRP_0026
 70
    65
 10
0.0
 20
0.0
  0
LINE
  8
ボルト／ビス
  6
CONTINUOUS
 10
-5.128405
 20
-106.577762
 11
-9.128405
 21
-106.577762
  0
LINE
  8
ボルト／ビス
  6
CONTINUOUS
 10
-4.128405
 20
-108.377762
 11
-5.128405
 21
-106.577762
  0
LINE
  8
ボルト／ビス
  6
CONTINUOUS
 10
-4.128405
 20
-108.377762
 11
-10.128405
 21
-108.377762
  0
LINE
  8
ボルト／ビス
  6
CONTINUOUS
 10
-10.128405
 20
-108.377762
 11
-9.128405
 21
-106.577762
  0
LINE
  8
ボルト／ビス
  6
CONTINUOUS
 10
-7.128405
 20
-109.861295
 11
-7.128405
 21
-99.498735
  0
LINE
  8
ボルト／ビス
  6
CONTINUOUS
 10
-5.128405
 20
-100.877762
 11
-5.628405
 21
-100.377762
  0
LINE
  8
ボルト／ビス
  6
CONTINUOUS
 10
-9.128405
 20
-100.877762
 11
-8.628405
 21
-100.377762
  0
LINE
  8
ボルト／ビス
  6
CONTINUOUS
 10
-5.628405
 20
-100.377762
 11
-8.628405
 21
-100.377762
  0
LINE
  8
ボルト／ビス
  6
CONTINUOUS
 10
-5.128405
 20
-100.877762
 11
-9.128405
 21
-100.877762
  0
LINE
  8
ボルト／ビス
  6
CONTINUOUS
 10
-5.628405
 20
-106.577762
 11
-5.628405
 21
-100.377762
  0
LINE
  8
ボルト／ビス
  6
CONTINUOUS
 10
-8.628405
 20
-106.577762
 11
-8.628405
 21
-100.377762
  0
LINE
  8
ボルト／ビス
  6
CONTINUOUS
 10
-9.128405
 20
-106.577762
 11
-9.128405
 21
-100.877762
  0
LINE
  8
ボルト／ビス
  6
CONTINUOUS
 10
-5.128405
 20
-106.577762
 11
-5.128405
 21
-100.877762
  0
ENDBLK
  0
BLOCK
  2
*GRP_0027
 70
    65
 10
0.0
 20
0.0
  0
LINE
  8
ボルト／ビス
  6
CONTINUOUS
 10
-29.592192
 20
73.06156
 11
-30.3982
 21
73.73788
  0
ARC
  8
ボルト／ビス
  6
CONTINUOUS
 10
-31.49094
 20
72.435604
 40
1.7
 50
49.999982
 51
134.999993
  0
LINE
  8
ボルト／ビス
  6
CONTINUOUS
 10
-32.69302
 20
73.637687
 11
-33.905542
 21
72.425165
  0
LINE
  8
ボルト／ビス
  6
CONTINUOUS
 10
-34.54194
 20
68.111813
 11
-35.21826
 21
68.91782
  0
ARC
  8
ボルト／ビス
  6
CONTINUOUS
 10
-33.915987
 20
70.010558
 40
1.7
 50
134.999993
 51
220.000004
  0
LINE
  8
ボルト／ビス
  6
CONTINUOUS
 10
-35.118067
 20
71.21264
 11
-33.905542
 21
72.425165
  0
LINE
  8
ボルト／ビス
  6
CONTINUOUS
 10
-31.938695
 20
73.847675
 11
-32.109927
 21
74.01891
  0
LINE
  8
ボルト／ビス
  6
CONTINUOUS
 10
-32.678723
 20
72.188292
 11
-33.173697
 21
71.693318
  0
LINE
  8
ボルト／ビス
  6
CONTINUOUS
 10
-32.855558
 20
72.930812
 11
-31.938695
 21
73.847675
  0
LINE
  8
ボルト／ビス
  6
CONTINUOUS
 10
-32.678723
 20
72.188292
 11
-32.855558
 21
72.365128
  0
ARC
  8
ボルト／ビス
  6
CONTINUOUS
 10
-32.572716
 20
72.647969
 40
0.4
 50
134.999993
 51
224.999993
  0
LINE
  8
ボルト／ビス
  6
CONTINUOUS
 10
-35.328055
 20
70.458315
 11
-35.49929
 21
70.62955
  0
LINE
  8
ボルト／ビス
  6
CONTINUOUS
 10
-33.668672
 20
71.198343
 11
-33.173697
 21
71.693318
  0
LINE
  8
ボルト／ビス
  6
CONTINUOUS
 10
-34.411193
 20
71.375178
 11
-35.328055
 21
70.458315
  0
LINE
  8
ボルト／ビス
  6
CONTINUOUS
 10
-33.668672
 20
71.198343
 11
-33.845507
 21
71.375178
  0
ARC
  8
ボルト／ビス
  6
CONTINUOUS
 10
-34.128351
 20
71.092334
 40
0.4
 50
44.999993
 51
134.999993
  0
LINE
  8
ボルト／ビス
  6
CONTINUOUS
 10
-29.592192
 20
73.06156
 11
-34.54194
 21
68.111813
  0
LINE
  8
ボルト／ビス
  6
CONTINUOUS
 10
-35.299525
 20
73.819145
 11
-24.818872
 21
63.33849
  0
LINE
  8
ボルト／ビス
  6
CONTINUOUS
 10
-26.763765
 20
68.111813
 11
-26.763765
 21
67.404705
  0
LINE
  8
ボルト／ビス
  6
CONTINUOUS
 10
-29.592192
 20
65.283385
 11
-28.885085
 21
65.283385
  0
LINE
  8
ボルト／ビス
  6
CONTINUOUS
 10
-26.763765
 20
68.111813
 11
-29.592192
 21
65.283385
  0
LINE
  8
ボルト／ビス
  6
CONTINUOUS
 10
-26.763765
 20
67.404705
 11
-28.885085
 21
65.283385
  0
LINE
  8
ボルト／ビス
  6
CONTINUOUS
 10
-31.006405
 20
71.647345
 11
-26.763765
 21
67.404705
  0
LINE
  8
ボルト／ビス
  6
CONTINUOUS
 10
-33.127728
 20
69.526025
 11
-28.885085
 21
65.283385
  0
LINE
  8
ボルト／ビス
  6
CONTINUOUS
 10
-33.48128
 20
69.172472
 11
-29.592192
 21
65.283385
  0
LINE
  8
ボルト／ビス
  6
CONTINUOUS
 10
-30.652852
 20
72.0009
 11
-26.763765
 21
68.111813
  0
ENDBLK
  0
BLOCK
  2
*DIM_0028
 70
    65
 10
0.0
 20
0.0
  0
LINE
  8
寸法
  6
BYBLOCK
 62
     0
 10
-32.528432
 20
-29.558533
 11
-98.432532
 21
-29.558533
  0
LINE
  8
寸法
  6
BYBLOCK
 62
     0
 10
-98.432532
 20
-19.558528
 11
-98.432532
 21
-29.558533
  0
POINT
  8
寸法
 62
     0
 10
-98.432532
 20
-29.558533
  0
TEXT
  7
TextStyle03
  8
寸法
  6
CONTINUOUS
 62
     0
 10
-98.8
 20
-26.4375
  1
10
 40
3.5
 50
90.0
 72
     5
 11
-98.8
 21
-22.7125
  0
ENDBLK
  0
BLOCK
  2
*DIM_0029
 70
    65
 10
0.0
 20
0.0
  0
LINE
  8
寸法
  6
BYBLOCK
 62
     0
 10
-25.128405
 20
-108.379202
 11
-98.432532
 21
-108.379202
  0
LINE
  8
寸法
  6
BYBLOCK
 62
     0
 10
-98.432532
 20
-29.558533
 11
-98.432532
 21
-108.379202
  0
POINT
  8
寸法
 62
     0
 10
-98.432532
 20
-108.379202
  0
TEXT
  7
TextStyle03
  8
寸法
  6
CONTINUOUS
 62
     0
 10
-98.8
 20
-72.8125
  1
78.8
 40
3.5
 50
90.0
 72
     5
 11
-98.8
 21
-65.1375
  0
ENDBLK
  0
BLOCK
  2
*DIM_0030
 70
    65
 10
0.0
 20
0.0
  0
LINE
  8
寸法
  6
BYBLOCK
 62
     0
 10
-35.128435
 20
17.622228
 11
-98.432532
 21
17.622228
  0
LINE
  8
寸法
  6
BYBLOCK
 62
     0
 10
-98.432532
 20
26.12222
 11
-98.432532
 21
17.622228
  0
POINT
  8
寸法
 62
     0
 10
-98.432532
 20
26.12222
  0
POINT
  8
寸法
 62
     0
 10
-98.432532
 20
17.622228
  0
TEXT
  7
TextStyle03
  8
寸法
  6
CONTINUOUS
 62
     0
 10
-98.8
 20
18.6
  1
8.5
 40
4.0
 50
90.0
 72
     5
 11
-98.8
 21
25.1
  0
ENDBLK
  0
BLOCK
  2
*DIM_0031
 70
    65
 10
0.0
 20
0.0
  0
LINE
  8
寸法
  6
BYBLOCK
 62
     0
 10
-22.128405
 20
-4.377777
 11
-98.432532
 21
-4.377777
  0
LINE
  8
寸法
  6
BYBLOCK
 62
     0
 10
-98.432532
 20
17.622228
 11
-98.432532
 21
-4.377777
  0
POINT
  8
寸法
 62
     0
 10
-98.432532
 20
-4.377777
  0
TEXT
  7
TextStyle03
  8
寸法
  6
CONTINUOUS
 62
     0
 10
-98.8
 20
4.475
  1
22
 40
4.0
 50
90.0
 72
     5
 11
-98.8
 21
8.725
  0
ENDBLK
  0
BLOCK
  2
*DIM_0032
 70
    65
 10
0.0
 20
0.0
  0
LINE
  8
寸法
  6
BYBLOCK
 62
     0
 10
-31.52843
 20
-19.558528
 11
-98.432532
 21
-19.558528
  0
LINE
  8
寸法
  6
BYBLOCK
 62
     0
 10
-98.432532
 20
-4.377777
 11
-98.432532
 21
-19.558528
  0
POINT
  8
寸法
 62
     0
 10
-98.432532
 20
-4.377777
  0
POINT
  8
寸法
 62
     0
 10
-98.432532
 20
-19.558528
  0
TEXT
  7
TextStyle03
  8
寸法
  6
CONTINUOUS
 62
     0
 10
-98.8
 20
-16.35
  1
15.2
 40
4.0
 50
90.0
 72
     5
 11
-98.8
 21
-7.6
  0
ENDBLK
  0
BLOCK
  2
*DIM_0033
 70
    65
 10
0.0
 20
0.0
  0
LINE
  8
寸法
  6
BYBLOCK
 62
     0
 10
66.371565
 20
77.622228
 11
150.951978
 21
77.622228
  0
LINE
  8
寸法
  6
BYBLOCK
 62
     0
 10
96.371565
 20
-108.377762
 11
150.951978
 21
-108.377762
  0
LINE
  8
寸法
  6
BYBLOCK
 62
     0
 10
150.951978
 20
77.622228
 11
150.951978
 21
-108.377762
  0
POINT
  8
寸法
 62
     0
 10
150.951978
 20
77.622228
  0
POINT
  8
寸法
 62
     0
 10
150.951978
 20
-108.377762
  0
TEXT
  7
TextStyle03
  8
寸法
  6
CONTINUOUS
 62
     0
 10
150.6
 20
-18.65
  1
186
 40
4.0
 50
90.0
 72
     5
 11
150.6
 21
-12.15
  0
ENDBLK
  0
BLOCK
  2
*DIM_0034
 70
    65
 10
0.0
 20
0.0
  0
LINE
  8
寸法
  6
BYBLOCK
 62
     0
 10
137.424382
 20
77.622228
 11
137.92289
 21
77.622228
  0
LINE
  8
寸法
  6
BYBLOCK
 62
     0
 10
66.371565
 20
62.622228
 11
137.92289
 21
62.622228
  0
LINE
  8
寸法
  6
BYBLOCK
 62
     0
 10
137.92289
 20
77.622228
 11
137.92289
 21
62.622228
  0
POINT
  8
寸法
 62
     0
 10
137.92289
 20
77.622228
  0
POINT
  8
寸法
 62
     0
 10
137.92289
 20
62.622228
  0
TEXT
  7
TextStyle03
  8
寸法
  6
CONTINUOUS
 62
     0
 10
137.575
 20
67.975
  1
15
 40
4.0
 50
90.0
 72
     5
 11
137.575
 21
72.225
  0
ENDBLK
  0
BLOCK
  2
*DIM_0035
 70
    65
 10
0.0
 20
0.0
  0
LINE
  8
寸法
  6
BYBLOCK
 62
     0
 10
40.37157
 20
-4.377777
 11
137.92289
 21
-4.377777
  0
LINE
  8
寸法
  6
BYBLOCK
 62
     0
 10
137.92289
 20
62.622228
 11
137.92289
 21
-4.377777
  0
POINT
  8
寸法
 62
     0
 10
137.92289
 20
-4.377777
  0
TEXT
  7
TextStyle03
  8
寸法
  6
CONTINUOUS
 62
     0
 10
137.575
 20
26.975
  1
67
 40
4.0
 50
90.0
 72
     5
 11
137.575
 21
31.225
  0
ENDBLK
  0
BLOCK
  2
*DIM_0036
 70
    65
 10
0.0
 20
0.0
  0
LINE
  8
寸法
  6
BYBLOCK
 62
     0
 10
41.87157
 20
-34.877783
 11
137.92289
 21
-34.877783
  0
LINE
  8
寸法
  6
BYBLOCK
 62
     0
 10
137.92289
 20
-8.876338
 11
137.92289
 21
-34.877783
  0
POINT
  8
寸法
 62
     0
 10
137.92289
 20
-34.877783
  0
TEXT
  7
TextStyle03
  8
寸法
  6
CONTINUOUS
 62
     0
 10
137.575
 20
-24.025
  1
26
 40
4.0
 50
90.0
 72
     5
 11
137.575
 21
-19.775
  0
ENDBLK
  0
BLOCK
  2
*DIM_0037
 70
    65
 10
0.0
 20
0.0
  0
LINE
  8
寸法
  6
BYBLOCK
 62
     0
 10
96.371565
 20
-88.377762
 11
137.92289
 21
-88.377762
  0
LINE
  8
寸法
  6
BYBLOCK
 62
     0
 10
137.92289
 20
-34.877783
 11
137.92289
 21
-88.377762
  0
POINT
  8
寸法
 62
     0
 10
137.92289
 20
-34.877783
  0
POINT
  8
寸法
 62
     0
 10
137.92289
 20
-88.377762
  0
TEXT
  7
TextStyle03
  8
寸法
  6
CONTINUOUS
 62
     0
 10
137.575
 20
-66.025
  1
53.5
 40
4.0
 50
90.0
 72
     5
 11
137.575
 21
-57.275
  0
ENDBLK
  0
BLOCK
  2
*DIM_0038
 70
    65
 10
0.0
 20
0.0
  0
LINE
  8
寸法
  6
BYBLOCK
 62
     0
 10
97.371565
 20
-108.377762
 11
137.92289
 21
-108.377762
  0
LINE
  8
寸法
  6
BYBLOCK
 62
     0
 10
137.92289
 20
-88.377762
 11
137.92289
 21
-108.377762
  0
POINT
  8
寸法
 62
     0
 10
137.92289
 20
-108.377762
  0
TEXT
  7
TextStyle03
  8
寸法
  6
CONTINUOUS
 62
     0
 10
137.575
 20
-100.525
  1
20
 40
4.0
 50
90.0
 72
     5
 11
137.575
 21
-96.275
  0
ENDBLK
  0
BLOCK
  2
*DIM_0039
 70
    65
 10
0.0
 20
0.0
  0
LINE
  8
寸法
  6
BYBLOCK
 62
     0
 10
21.87155
 20
-8.876338
 11
137.92289
 21
-8.876338
  0
LINE
  8
寸法
  6
BYBLOCK
 62
     0
 10
137.92289
 20
-4.377777
 11
137.92289
 21
-8.876338
  0
POINT
  8
寸法
 62
     0
 10
137.92289
 20
-8.876338
  0
TEXT
  7
TextStyle03
  8
寸法
  6
CONTINUOUS
 62
     0
 10
142.7
 20
-9.75
  1
4.5
 40
4.0
 50
90.0
 72
     5
 11
142.7
 21
-3.25
  0
ENDBLK
  0
BLOCK
  2
*DIM_0040
 70
    65
 10
0.0
 20
0.0
  0
LINE
  8
寸法
  6
BYBLOCK
 62
     0
 10
124.0711
 20
62.622228
 11
124.074085
 21
62.622228
  0
LINE
  8
寸法
  6
BYBLOCK
 62
     0
 10
81.271548
 20
19.122213
 11
124.074085
 21
19.122213
  0
LINE
  8
寸法
  6
BYBLOCK
 62
     0
 10
124.074085
 20
62.622228
 11
124.074085
 21
19.122213
  0
POINT
  8
寸法
 62
     0
 10
124.074085
 20
62.622228
  0
POINT
  8
寸法
 62
     0
 10
124.074085
 20
19.122213
  0
TEXT
  7
TextStyle03
  8
寸法
  6
CONTINUOUS
 62
     0
 10
123.725
 20
36.475
  1
43.5
 40
4.0
 50
90.0
 72
     5
 11
123.725
 21
45.225
  0
ENDBLK
  0
BLOCK
  2
*DIM_0041
 70
    65
 10
0.0
 20
0.0
  0
LINE
  8
寸法
  6
BYBLOCK
 62
     0
 10
81.271563
 20
-59.877787
 11
124.074085
 21
-59.877787
  0
LINE
  8
寸法
  6
BYBLOCK
 62
     0
 10
124.074085
 20
19.122213
 11
124.074085
 21
-59.877787
  0
POINT
  8
寸法
 62
     0
 10
124.074085
 20
-59.877787
  0
TEXT
  7
TextStyle03
  8
寸法
  6
CONTINUOUS
 62
     0
 10
123.725
 20
-22.525
  1
79
 40
4.0
 50
90.0
 72
     5
 11
123.725
 21
-18.275
  0
ENDBLK
  0
BLOCK
  2
*DIM_0042
 70
    65
 10
0.0
 20
0.0
  0
LINE
  8
寸法
  6
BYBLOCK
 62
     0
 10
97.371565
 20
-88.377762
 11
124.074085
 21
-88.377762
  0
LINE
  8
寸法
  6
BYBLOCK
 62
     0
 10
124.074085
 20
-59.877787
 11
124.074085
 21
-88.377762
  0
POINT
  8
寸法
 62
     0
 10
124.074085
 20
-88.377762
  0
TEXT
  7
TextStyle03
  8
寸法
  6
CONTINUOUS
 62
     0
 10
123.725
 20
-78.525
  1
28.5
 40
4.0
 50
90.0
 72
     5
 11
123.725
 21
-69.775
  0
ENDBLK
  0
BLOCK
  2
*DIM_0043
 70
    65
 10
0.0
 20
0.0
  0
LINE
  8
寸法
  6
BYBLOCK
 62
     0
 10
-47.628435
 20
53.489792
 11
-47.628435
 21
120.013365
  0
LINE
  8
寸法
  6
BYBLOCK
 62
     0
 10
37.871565
 20
120.013365
 11
-47.628435
 21
120.013365
  0
POINT
  8
寸法
 62
     0
 10
37.871565
 20
120.013365
  0
POINT
  8
寸法
 62
     0
 10
-47.628435
 20
120.013365
  0
TEXT
  7
TextStyle03
  8
寸法
  6
CONTINUOUS
 62
     0
 10
-8.6875
 20
120.4
  1
85.5
 40
3.5
 72
     5
 11
-1.0125
 21
120.4
  0
ENDBLK
  0
BLOCK
  2
*DIM_0044
 70
    65
 10
0.0
 20
0.0
  0
LINE
  8
寸法
  6
BYBLOCK
 62
     0
 10
-47.628435
 20
115.844975
 11
-47.628435
 21
114.13701
  0
LINE
  8
寸法
  6
BYBLOCK
 62
     0
 10
95.371565
 20
-91.379202
 11
95.371565
 21
114.13701
  0
LINE
  8
寸法
  6
BYBLOCK
 62
     0
 10
-47.628435
 20
114.13701
 11
95.371565
 21
114.13701
  0
POINT
  8
寸法
 62
     0
 10
-47.628435
 20
114.13701
  0
POINT
  8
寸法
 62
     0
 10
95.371565
 20
114.13701
  0
TEXT
  7
TextStyle03
  8
寸法
  6
CONTINUOUS
 62
     0
 10
21.025
 20
114.5
  1
143
 40
3.5
 72
     5
 11
26.725
 21
114.5
  0
ENDBLK
  0
BLOCK
  2
*DIM_0045
 70
    65
 10
0.0
 20
0.0
  0
LINE
  8
寸法
  6
BYBLOCK
 62
     0
 10
37.871565
 20
106.281248
 11
37.871565
 21
107.753047
  0
LINE
  8
寸法
  6
BYBLOCK
 62
     0
 10
95.371565
 20
107.212695
 11
95.371565
 21
107.753047
  0
LINE
  8
寸法
  6
BYBLOCK
 62
     0
 10
37.871565
 20
107.753047
 11
95.371565
 21
107.753047
  0
POINT
  8
寸法
 62
     0
 10
37.871565
 20
107.753047
  0
POINT
  8
寸法
 62
     0
 10
95.371565
 20
107.753047
  0
TEXT
  7
TextStyle03
  8
寸法
  6
CONTINUOUS
 62
     0
 10
62.7875
 20
108.125
  1
57.5
 40
3.5
 72
     5
 11
70.4625
 21
108.125
  0
ENDBLK
  0
BLOCK
  2
*DIM_0046
 70
    65
 10
0.0
 20
0.0
  0
LINE
  8
寸法
  6
BYBLOCK
 62
     0
 10
-47.628435
 20
95.567663
 11
-47.628435
 21
102.403797
  0
LINE
  8
寸法
  6
BYBLOCK
 62
     0
 10
65.371565
 20
79.622228
 11
65.371565
 21
102.403797
  0
LINE
  8
寸法
  6
BYBLOCK
 62
     0
 10
-47.628435
 20
102.403797
 11
65.371565
 21
102.403797
  0
POINT
  8
寸法
 62
     0
 10
-47.628435
 20
102.403797
  0
POINT
  8
寸法
 62
     0
 10
65.371565
 20
102.403797
  0
TEXT
  7
TextStyle03
  8
寸法
  6
CONTINUOUS
 62
     0
 10
6.025
 20
102.775
  1
113
 40
3.5
 72
     5
 11
11.725
 21
102.775
  0
ENDBLK
  0
BLOCK
  2
*DIM_0047
 70
    65
 10
0.0
 20
0.0
  0
LINE
  8
寸法
  6
BYBLOCK
 62
     0
 10
95.371565
 20
79.62222
 11
95.371565
 21
102.403797
  0
LINE
  8
寸法
  6
BYBLOCK
 62
     0
 10
65.371565
 20
102.403797
 11
95.371565
 21
102.403797
  0
POINT
  8
寸法
 62
     0
 10
95.371565
 20
102.403797
  0
TEXT
  7
TextStyle03
  8
寸法
  6
CONTINUOUS
 62
     0
 10
78.5125
 20
102.775
  1
30
 40
3.5
 72
     5
 11
82.2375
 21
102.775
  0
ENDBLK
  0
BLOCK
  2
*GRP_0048
 70
    65
 10
0.0
 20
0.0
  0
POLYLINE
  8
寸法
  6
BYBLOCK
 62
     0
 66
     1
  0
VERTEX
  8
寸法
 10
11.816002
 20
80.29918
  0
VERTEX
  8
寸法
 10
10.316002
 20
77.701102
  0
VERTEX
  8
寸法
 10
12.914077
 20
79.201102
  0
SEQEND
  0
POLYLINE
  8
寸法
  6
BYBLOCK
 62
     0
 66
     1
  0
VERTEX
  8
寸法
 10
10.316002
 20
77.701102
  0
VERTEX
  8
寸法
 10
22.590562
 20
89.975662
  0
VERTEX
  8
寸法
 10
40.468403
 20
89.975662
  0
SEQEND
  0
ENDBLK
  0
BLOCK
  2
*GRP_0049
 70
    65
 10
0.0
 20
0.0
  0
POLYLINE
  8
寸法
  6
BYBLOCK
 62
     0
 66
     1
  0
VERTEX
  8
寸法
 10
-18.449922
 20
16.524137
  0
VERTEX
  8
寸法
 10
-16.949922
 20
19.122213
  0
VERTEX
  8
寸法
 10
-19.548
 20
17.622213
  0
SEQEND
  0
POLYLINE
  8
寸法
  6
BYBLOCK
 62
     0
 66
     1
  0
VERTEX
  8
寸法
 10
-16.949922
 20
19.122213
  0
VERTEX
  8
寸法
 10
-25.399718
 20
10.67242
  0
VERTEX
  8
寸法
 10
-28.0847
 20
10.67242
  0
SEQEND
  0
ENDBLK
  0
BLOCK
  2
*GRP_0050
 70
    65
 10
0.0
 20
0.0
  0
POLYLINE
  8
寸法
  6
BYBLOCK
 62
     0
 66
     1
  0
VERTEX
  8
寸法
 10
-18.815678
 20
-66.36082
  0
VERTEX
  8
寸法
 10
-17.315678
 20
-63.762745
  0
VERTEX
  8
寸法
 10
-19.913753
 20
-65.262745
  0
SEQEND
  0
POLYLINE
  8
寸法
  6
BYBLOCK
 62
     0
 66
     1
  0
VERTEX
  8
寸法
 10
-17.315678
 20
-63.762745
  0
VERTEX
  8
寸法
 10
-27.70765
 20
-74.154717
  0
VERTEX
  8
寸法
 10
-32.92736
 20
-74.154717
  0
SEQEND
  0
ENDBLK
  0
BLOCK
  2
*GRP_0051
 70
    65
 10
0.0
 20
0.0
  0
POLYLINE
  8
寸法
  6
BYBLOCK
 62
     0
 66
     1
  0
VERTEX
  8
寸法
 10
-6.464963
 20
-19.875
  0
VERTEX
  8
寸法
 10
-14.49799
 20
-11.841972
  0
VERTEX
  8
寸法
 10
-20.418825
 20
-11.841972
  0
SEQEND
  0
ENDBLK
  0
BLOCK
  2
*GRP_0052
 70
    65
 10
0.0
 20
0.0
  0
POLYLINE
  8
寸法
  6
BYBLOCK
 62
     0
 66
     1
  0
VERTEX
  8
寸法
 10
-21.498513
 20
63.87338
  0
VERTEX
  8
寸法
 10
-19.998513
 20
66.471455
  0
VERTEX
  8
寸法
 10
-22.59659
 20
64.971455
  0
SEQEND
  0
POLYLINE
  8
寸法
  6
BYBLOCK
 62
     0
 66
     1
  0
VERTEX
  8
寸法
 10
-19.998513
 20
66.471455
  0
VERTEX
  8
寸法
 10
-27.047265
 20
59.422705
  0
VERTEX
  8
寸法
 10
-53.3184
 20
59.422705
  0
SEQEND
  0
ENDBLK
  0
BLOCK
  2
*DIM_0053
 70
    65
 10
0.0
 20
0.0
  0
LINE
  8
寸法
  6
BYBLOCK
 62
     0
 10
-26.128405
 20
-108.379202
 11
-111.56022
 21
-108.379202
  0
LINE
  8
寸法
  6
BYBLOCK
 62
     0
 10
-15.742965
 20
99.931645
 11
-111.56022
 21
99.931645
  0
LINE
  8
寸法
  6
BYBLOCK
 62
     0
 10
-111.56022
 20
-108.379202
 11
-111.56022
 21
99.931645
  0
POINT
  8
寸法
 62
     0
 10
-111.56022
 20
-108.379202
  0
POINT
  8
寸法
 62
     0
 10
-111.56022
 20
99.931645
  0
TEXT
  7
TextStyle03
  8
寸法
  6
CONTINUOUS
 62
     0
 10
-111.925
 20
-9.725
  1
208.3
 40
4.0
 50
90.0
 72
     5
 11
-111.925
 21
1.275
  0
ENDBLK
  0
BLOCK
  2
*DIM_0054
 70
    65
 10
0.0
 20
0.0
  0
LINE
  8
寸法
  6
BYBLOCK
 62
     0
 10
-48.628435
 20
26.122228
 11
-98.432532
 21
26.122228
  0
LINE
  8
寸法
  6
BYBLOCK
 62
     0
 10
-48.628435
 20
67.046168
 11
-98.432532
 21
67.046168
  0
LINE
  8
寸法
  6
BYBLOCK
 62
     0
 10
-98.432532
 20
26.122228
 11
-98.432532
 21
67.046168
  0
POINT
  8
寸法
 62
     0
 10
-98.432532
 20
26.122228
  0
POINT
  8
寸法
 62
     0
 10
-98.432532
 20
67.046168
  0
TEXT
  7
TextStyle03
  8
寸法
  6
CONTINUOUS
 62
     0
 10
-98.8
 20
42.2
  1
40.9
 40
4.0
 50
90.0
 72
     5
 11
-98.8
 21
50.95
  0
ENDBLK
  0
BLOCK
  2
*DIM_0055
 70
    65
 10
0.0
 20
0.0
  0
LINE
  8
寸法
  6
BYBLOCK
 62
     0
 10
-16.742965
 20
99.931645
 11
-98.432532
 21
99.931645
  0
LINE
  8
寸法
  6
BYBLOCK
 62
     0
 10
-98.432532
 20
67.046168
 11
-98.432532
 21
99.931645
  0
POINT
  8
寸法
 62
     0
 10
-98.432532
 20
99.931645
  0
TEXT
  7
TextStyle03
  8
寸法
  6
CONTINUOUS
 62
     0
 10
-98.8
 20
79.1
  1
32.9
 40
4.0
 50
90.0
 72
     5
 11
-98.8
 21
87.85
  0
ENDBLK
  0
BLOCK
  2
*GRP_0056
 70
    65
 10
0.0
 20
0.0
  0
LINE
  8
ボルト／ビス
  6
CONTINUOUS
 10
20.87157
 20
-37.877783
 11
30.87157
 21
-37.877783
  0
LINE
  8
ボルト／ビス
  6
CONTINUOUS
 10
20.87157
 20
-37.877783
 11
23.37157
 21
-41.177783
  0
LINE
  8
ボルト／ビス
  6
CONTINUOUS
 10
28.37157
 20
-41.177783
 11
30.87157
 21
-37.877783
  0
LINE
  8
ボルト／ビス
  6
CONTINUOUS
 10
23.37157
 20
-41.177783
 11
28.37157
 21
-41.177783
  0
LINE
  8
ボルト／ビス
  6
CONTINUOUS
 10
25.87157
 20
-36.373308
 11
25.87157
 21
-91.127027
  0
LINE
  8
ボルト／ビス
  6
CONTINUOUS
 10
23.37157
 20
-82.377783
 11
23.87157
 21
-82.877783
  0
LINE
  8
ボルト／ビス
  6
CONTINUOUS
 10
28.37157
 20
-82.377783
 11
27.87157
 21
-82.877783
  0
LINE
  8
ボルト／ビス
  6
CONTINUOUS
 10
27.87157
 20
-82.877783
 11
23.87157
 21
-82.877783
  0
LINE
  8
ボルト／ビス
  6
CONTINUOUS
 10
23.37157
 20
-82.377783
 11
28.37157
 21
-82.377783
  0
LINE
  8
ボルト／ビス
  6
CONTINUOUS
 10
27.87157
 20
-41.177783
 11
27.87157
 21
-82.877783
  0
LINE
  8
ボルト／ビス
  6
CONTINUOUS
 10
23.87157
 20
-41.177783
 11
23.87157
 21
-82.877783
  0
LINE
  8
ボルト／ビス
  6
CONTINUOUS
 10
23.37157
 20
-41.177783
 11
23.37157
 21
-82.377783
  0
LINE
  8
ボルト／ビス
  6
CONTINUOUS
 10
28.37157
 20
-41.177783
 11
28.37157
 21
-82.377783
  0
ENDBLK
  0
BLOCK
  2
*GRP_0057
 70
    65
 10
0.0
 20
0.0
  0
LINE
  8
ボルト／ビス
  6
CONTINUOUS
 10
20.87157
 20
-2.877777
 11
30.87157
 21
-2.877777
  0
LINE
  8
ボルト／ビス
  6
CONTINUOUS
 10
20.87157
 20
-2.877777
 11
23.37157
 21
0.422222
  0
LINE
  8
ボルト／ビス
  6
CONTINUOUS
 10
28.37157
 20
0.422222
 11
30.87157
 21
-2.877777
  0
LINE
  8
ボルト／ビス
  6
CONTINUOUS
 10
23.37157
 20
0.422222
 11
28.37157
 21
0.422222
  0
LINE
  8
ボルト／ビス
  6
CONTINUOUS
 10
25.87157
 20
-4.382252
 11
25.87157
 21
50.371467
  0
LINE
  8
ボルト／ビス
  6
CONTINUOUS
 10
23.37157
 20
41.622222
 11
23.87157
 21
42.122222
  0
LINE
  8
ボルト／ビス
  6
CONTINUOUS
 10
28.37157
 20
41.622222
 11
27.87157
 21
42.122222
  0
LINE
  8
ボルト／ビス
  6
CONTINUOUS
 10
27.87157
 20
42.122222
 11
23.87157
 21
42.122222
  0
LINE
  8
ボルト／ビス
  6
CONTINUOUS
 10
23.37157
 20
41.622222
 11
28.37157
 21
41.622222
  0
LINE
  8
ボルト／ビス
  6
CONTINUOUS
 10
27.87157
 20
0.422222
 11
27.87157
 21
42.122222
  0
LINE
  8
ボルト／ビス
  6
CONTINUOUS
 10
23.87157
 20
0.422222
 11
23.87157
 21
42.122222
  0
LINE
  8
ボルト／ビス
  6
CONTINUOUS
 10
23.37157
 20
0.422222
 11
23.37157
 21
41.622222
  0
LINE
  8
ボルト／ビス
  6
CONTINUOUS
 10
28.37157
 20
0.422222
 11
28.37157
 21
41.622222
  0
ENDBLK
  0
BLOCK
  2
*DIM_0058
 70
    65
 10
0.0
 20
0.0
  0
LINE
  8
寸法
  6
BYBLOCK
 62
     0
 10
-5.128405
 20
-123.377762
 11
-111.56022
 21
-123.377762
  0
LINE
  8
寸法
  6
BYBLOCK
 62
     0
 10
-111.56022
 20
-108.379202
 11
-111.56022
 21
-123.377762
  0
POINT
  8
寸法
 62
     0
 10
-111.56022
 20
-108.379202
  0
POINT
  8
寸法
 62
     0
 10
-111.56022
 20
-123.377762
  0
TEXT
  7
TextStyle03
  8
寸法
  6
CONTINUOUS
 62
     0
 10
-111.95
 20
-117.49375
  1
15
 40
3.0
 50
90.0
 72
     5
 11
-111.95
 21
-114.30625
  0
ENDBLK
  0
BLOCK
  2
*DIM_0059
 70
    65
 10
0.0
 20
0.0
  0
LINE
  8
寸法
  6
BYBLOCK
 62
     0
 10
-21.128405
 20
-109.377762
 11
-21.128405
 21
-131.25329
  0
LINE
  8
寸法
  6
BYBLOCK
 62
     0
 10
-4.128405
 20
-124.377762
 11
-4.128405
 21
-131.25329
  0
LINE
  8
寸法
  6
BYBLOCK
 62
     0
 10
-21.128405
 20
-131.25329
 11
-4.128405
 21
-131.25329
  0
POINT
  8
寸法
 62
     0
 10
-21.128405
 20
-131.25329
  0
POINT
  8
寸法
 62
     0
 10
-4.128405
 20
-131.25329
  0
TEXT
  7
TextStyle03
  8
寸法
  6
CONTINUOUS
 62
     0
 10
-14.24375
 20
-130.9
  1
17
 40
3.0
 72
     5
 11
-11.05625
 21
-130.9
  0
ENDBLK
  0
BLOCK
  2
*DIM_0060
 70
    65
 10
0.0
 20
0.0
  0
LINE
  8
寸法
  6
BYBLOCK
 62
     0
 10
95.371565
 20
-109.377762
 11
95.371565
 21
-131.25329
  0
LINE
  8
寸法
  6
BYBLOCK
 62
     0
 10
-4.128405
 20
-131.25329
 11
95.371565
 21
-131.25329
  0
POINT
  8
寸法
 62
     0
 10
95.371565
 20
-131.25329
  0
TEXT
  7
TextStyle03
  8
寸法
  6
CONTINUOUS
 62
     0
 10
42.31875
 20
-130.9
  1
99.5
 40
3.0
 72
     5
 11
48.88125
 21
-130.9
  0
ENDBLK
  0
BLOCK
  2
*GRP_0061
 70
    65
 10
0.0
 20
0.0
  0
POLYLINE
  8
ガラス
  6
CONTINUOUS
 66
     1
 70
     4
  0
VERTEX
  8
ガラス
 10
-14.05
 20
60.075
 70
     8
  0
VERTEX
  8
ガラス
 10
-14.025
 20
60.15
 70
     8
  0
VERTEX
  8
ガラス
 10
-13.975
 20
60.25
 70
     8
  0
VERTEX
  8
ガラス
 10
-13.95
 20
60.325
 70
     8
  0
VERTEX
  8
ガラス
 10
-13.925
 20
60.4
 70
     8
  0
VERTEX
  8
ガラス
 10
-13.875
 20
60.5
 70
     8
  0
VERTEX
  8
ガラス
 10
-13.85
 20
60.575
 70
     8
  0
VERTEX
  8
ガラス
 10
-13.8
 20
60.675
 70
     8
  0
VERTEX
  8
ガラス
 10
-13.75
 20
60.75
 70
     8
  0
VERTEX
  8
ガラス
 10
-13.725
 20
60.825
 70
     8
  0
VERTEX
  8
ガラス
 10
-13.675
 20
60.9
 70
     8
  0
VERTEX
  8
ガラス
 10
-13.625
 20
60.975
 70
     8
  0
VERTEX
  8
ガラス
 10
-13.6
 20
61.05
 70
     8
  0
VERTEX
  8
ガラス
 10
-13.55
 20
61.125
 70
     8
  0
VERTEX
  8
ガラス
 10
-13.5
 20
61.2
 70
     8
  0
VERTEX
  8
ガラス
 10
-13.45
 20
61.275
 70
     8
  0
VERTEX
  8
ガラス
 10
-13.4
 20
61.35
 70
     8
  0
VERTEX
  8
ガラス
 10
-13.35
 20
61.4
 70
     8
  0
VERTEX
  8
ガラス
 10
-13.275
 20
61.475
 70
     8
  0
VERTEX
  8
ガラス
 10
-13.225
 20
61.525
 70
     8
  0
VERTEX
  8
ガラス
 10
-13.175
 20
61.575
 70
     8
  0
VERTEX
  8
ガラス
 10
-13.1
 20
61.625
 70
     8
  0
VERTEX
  8
ガラス
 10
-13.025
 20
61.675
 70
     8
  0
VERTEX
  8
ガラス
 10
-12.975
 20
61.725
 70
     8
  0
VERTEX
  8
ガラス
 10
-12.9
 20
61.775
 70
     8
  0
VERTEX
  8
ガラス
 10
-12.825
 20
61.8
 70
     8
  0
VERTEX
  8
ガラス
 10
-12.75
 20
61.85
 70
     8
  0
VERTEX
  8
ガラス
 10
-12.675
 20
61.875
 70
     8
  0
VERTEX
  8
ガラス
 10
-12.575
 20
61.925
 70
     8
  0
VERTEX
  8
ガラス
 10
-12.5
 20
61.95
 70
     8
  0
VERTEX
  8
ガラス
 10
-12.425
 20
61.975
 70
     8
  0
VERTEX
  8
ガラス
 10
-12.325
 20
62.0
 70
     8
  0
VERTEX
  8
ガラス
 10
-12.25
 20
62.025
 70
     8
  0
VERTEX
  8
ガラス
 10
-12.15
 20
62.05
 70
     8
  0
VERTEX
  8
ガラス
 10
-12.075
 20
62.075
 70
     8
  0
VERTEX
  8
ガラス
 10
-11.975
 20
62.1
 70
     8
  0
VERTEX
  8
ガラス
 10
-11.9
 20
62.125
 70
     8
  0
VERTEX
  8
ガラス
 10
-11.8
 20
62.15
 70
     8
  0
VERTEX
  8
ガラス
 10
-11.725
 20
62.15
 70
     8
  0
VERTEX
  8
ガラス
 10
-11.625
 20
62.175
 70
     8
  0
VERTEX
  8
ガラス
 10
-11.525
 20
62.2
 70
     8
  0
SEQEND
  0
POLYLINE
  8
ガラス
  6
CONTINUOUS
 66
     1
 70
     4
  0
VERTEX
  8
ガラス
 10
-11.525
 20
62.2
 70
     8
  0
VERTEX
  8
ガラス
 10
-11.55
 20
62.15
 70
     8
  0
VERTEX
  8
ガラス
 10
-11.575
 20
62.075
 70
     8
  0
VERTEX
  8
ガラス
 10
-11.6
 20
62.025
 70
     8
  0
VERTEX
  8
ガラス
 10
-11.625
 20
61.975
 70
     8
  0
VERTEX
  8
ガラス
 10
-11.65
 20
61.9
 70
     8
  0
VERTEX
  8
ガラス
 10
-11.675
 20
61.85
 70
     8
  0
VERTEX
  8
ガラス
 10
-11.7
 20
61.8
 70
     8
  0
VERTEX
  8
ガラス
 10
-11.725
 20
61.75
 70
     8
  0
VERTEX
  8
ガラス
 10
-11.75
 20
61.675
 70
     8
  0
VERTEX
  8
ガラス
 10
-11.775
 20
61.625
 70
     8
  0
VERTEX
  8
ガラス
 10
-11.8
 20
61.575
 70
     8
  0
VERTEX
  8
ガラス
 10
-11.8
 20
61.5
 70
     8
  0
VERTEX
  8
ガラス
 10
-11.825
 20
61.45
 70
     8
  0
VERTEX
  8
ガラス
 10
-11.85
 20
61.4
 70
     8
  0
VERTEX
  8
ガラス
 10
-11.875
 20
61.35
 70
     8
  0
VERTEX
  8
ガラス
 10
-11.9
 20
61.275
 70
     8
  0
VERTEX
  8
ガラス
 10
-11.9
 20
61.225
 70
     8
  0
VERTEX
  8
ガラス
 10
-11.925
 20
61.175
 70
     8
  0
VERTEX
  8
ガラス
 10
-11.95
 20
61.1
 70
     8
  0
VERTEX
  8
ガラス
 10
-11.95
 20
61.05
 70
     8
  0
VERTEX
  8
ガラス
 10
-11.975
 20
61.0
 70
     8
  0
VERTEX
  8
ガラス
 10
-12.0
 20
60.925
 70
     8
  0
VERTEX
  8
ガラス
 10
-12.0
 20
60.875
 70
     8
  0
VERTEX
  8
ガラス
 10
-12.025
 20
60.8
 70
     8
  0
VERTEX
  8
ガラス
 10
-12.025
 20
60.75
 70
     8
  0
VERTEX
  8
ガラス
 10
-12.05
 20
60.7
 70
     8
  0
VERTEX
  8
ガラス
 10
-12.05
 20
60.625
 70
     8
  0
VERTEX
  8
ガラス
 10
-12.075
 20
60.575
 70
     8
  0
VERTEX
  8
ガラス
 10
-12.075
 20
60.5
 70
     8
  0
VERTEX
  8
ガラス
 10
-12.075
 20
60.45
 70
     8
  0
VERTEX
  8
ガラス
 10
-12.1
 20
60.4
 70
     8
  0
VERTEX
  8
ガラス
 10
-12.1
 20
60.325
 70
     8
  0
VERTEX
  8
ガラス
 10
-12.1
 20
60.275
 70
     8
  0
VERTEX
  8
ガラス
 10
-12.125
 20
60.2
 70
     8
  0
VERTEX
  8
ガラス
 10
-12.125
 20
60.15
 70
     8
  0
VERTEX
  8
ガラス
 10
-12.125
 20
60.075
 70
     8
  0
VERTEX
  8
ガラス
 10
-12.15
 20
60.025
 70
     8
  0
VERTEX
  8
ガラス
 10
-12.15
 20
59.95
 70
     8
  0
VERTEX
  8
ガラス
 10
-12.15
 20
59.9
 70
     8
  0
VERTEX
  8
ガラス
 10
-12.15
 20
59.85
 70
     8
  0
SEQEND
  0
ARC
  8
ガラス
  6
CONTINUOUS
 10
-13.098248
 20
59.965254
 40
0.955135
 50
173.117443
 51
353.117443
  0
ENDBLK
  0
BLOCK
  2
*GRP_0062
 70
    65
 10
0.0
 20
0.0
  0
POLYLINE
  8
ガラス
  6
CONTINUOUS
 66
     1
 70
     4
  0
VERTEX
  8
ガラス
 10
-17.675
 20
54.0
 70
     8
  0
VERTEX
  8
ガラス
 10
-17.65
 20
54.075
 70
     8
  0
VERTEX
  8
ガラス
 10
-17.6
 20
54.175
 70
     8
  0
VERTEX
  8
ガラス
 10
-17.575
 20
54.25
 70
     8
  0
VERTEX
  8
ガラス
 10
-17.525
 20
54.325
 70
     8
  0
VERTEX
  8
ガラス
 10
-17.5
 20
54.425
 70
     8
  0
VERTEX
  8
ガラス
 10
-17.45
 20
54.5
 70
     8
  0
VERTEX
  8
ガラス
 10
-17.425
 20
54.6
 70
     8
  0
VERTEX
  8
ガラス
 10
-17.375
 20
54.675
 70
     8
  0
VERTEX
  8
ガラス
 10
-17.35
 20
54.75
 70
     8
  0
VERTEX
  8
ガラス
 10
-17.3
 20
54.825
 70
     8
  0
VERTEX
  8
ガラス
 10
-17.25
 20
54.9
 70
     8
  0
VERTEX
  8
ガラス
 10
-17.2
 20
54.975
 70
     8
  0
VERTEX
  8
ガラス
 10
-17.175
 20
55.05
 70
     8
  0
VERTEX
  8
ガラス
 10
-17.125
 20
55.125
 70
     8
  0
VERTEX
  8
ガラス
 10
-17.075
 20
55.2
 70
     8
  0
VERTEX
  8
ガラス
 10
-17.025
 20
55.275
 70
     8
  0
VERTEX
  8
ガラス
 10
-16.95
 20
55.325
 70
     8
  0
VERTEX
  8
ガラス
 10
-16.9
 20
55.4
 70
     8
  0
VERTEX
  8
ガラス
 10
-16.85
 20
55.45
 70
     8
  0
VERTEX
  8
ガラス
 10
-16.775
 20
55.5
 70
     8
  0
VERTEX
  8
ガラス
 10
-16.725
 20
55.55
 70
     8
  0
VERTEX
  8
ガラス
 10
-16.65
 20
55.6
 70
     8
  0
VERTEX
  8
ガラス
 10
-16.575
 20
55.65
 70
     8
  0
VERTEX
  8
ガラス
 10
-16.525
 20
55.7
 70
     8
  0
VERTEX
  8
ガラス
 10
-16.45
 20
55.725
 70
     8
  0
VERTEX
  8
ガラス
 10
-16.375
 20
55.775
 70
     8
  0
VERTEX
  8
ガラス
 10
-16.275
 20
55.8
 70
     8
  0
VERTEX
  8
ガラス
 10
-16.2
 20
55.85
 70
     8
  0
VERTEX
  8
ガラス
 10
-16.125
 20
55.875
 70
     8
  0
VERTEX
  8
ガラス
 10
-16.05
 20
55.9
 70
     8
  0
VERTEX
  8
ガラス
 10
-15.95
 20
55.925
 70
     8
  0
VERTEX
  8
ガラス
 10
-15.875
 20
55.95
 70
     8
  0
VERTEX
  8
ガラス
 10
-15.775
 20
55.975
 70
     8
  0
VERTEX
  8
ガラス
 10
-15.7
 20
56.0
 70
     8
  0
VERTEX
  8
ガラス
 10
-15.6
 20
56.025
 70
     8
  0
VERTEX
  8
ガラス
 10
-15.525
 20
56.05
 70
     8
  0
VERTEX
  8
ガラス
 10
-15.425
 20
56.075
 70
     8
  0
VERTEX
  8
ガラス
 10
-15.325
 20
56.075
 70
     8
  0
VERTEX
  8
ガラス
 10
-15.25
 20
56.1
 70
     8
  0
VERTEX
  8
ガラス
 10
-15.15
 20
56.125
 70
     8
  0
SEQEND
  0
POLYLINE
  8
ガラス
  6
CONTINUOUS
 66
     1
 70
     4
  0
VERTEX
  8
ガラス
 10
-15.15
 20
56.125
 70
     8
  0
VERTEX
  8
ガラス
 10
-15.175
 20
56.075
 70
     8
  0
VERTEX
  8
ガラス
 10
-15.2
 20
56.0
 70
     8
  0
VERTEX
  8
ガラス
 10
-15.225
 20
55.95
 70
     8
  0
VERTEX
  8
ガラス
 10
-15.25
 20
55.9
 70
     8
  0
VERTEX
  8
ガラス
 10
-15.275
 20
55.85
 70
     8
  0
VERTEX
  8
ガラス
 10
-15.3
 20
55.775
 70
     8
  0
VERTEX
  8
ガラス
 10
-15.325
 20
55.725
 70
     8
  0
VERTEX
  8
ガラス
 10
-15.35
 20
55.675
 70
     8
  0
VERTEX
  8
ガラス
 10
-15.375
 20
55.6
 70
     8
  0
VERTEX
  8
ガラス
 10
-15.4
 20
55.55
 70
     8
  0
VERTEX
  8
ガラス
 10
-15.4
 20
55.5
 70
     8
  0
VERTEX
  8
ガラス
 10
-15.425
 20
55.45
 70
     8
  0
VERTEX
  8
ガラス
 10
-15.45
 20
55.375
 70
     8
  0
VERTEX
  8
ガラス
 10
-15.475
 20
55.325
 70
     8
  0
VERTEX
  8
ガラス
 10
-15.5
 20
55.275
 70
     8
  0
VERTEX
  8
ガラス
 10
-15.525
 20
55.2
 70
     8
  0
VERTEX
  8
ガラス
 10
-15.525
 20
55.15
 70
     8
  0
VERTEX
  8
ガラス
 10
-15.55
 20
55.1
 70
     8
  0
VERTEX
  8
ガラス
 10
-15.575
 20
55.025
 70
     8
  0
VERTEX
  8
ガラス
 10
-15.575
 20
54.975
 70
     8
  0
VERTEX
  8
ガラス
 10
-15.6
 20
54.925
 70
     8
  0
VERTEX
  8
ガラス
 10
-15.625
 20
54.85
 70
     8
  0
VERTEX
  8
ガラス
 10
-15.625
 20
54.8
 70
     8
  0
VERTEX
  8
ガラス
 10
-15.65
 20
54.725
 70
     8
  0
VERTEX
  8
ガラス
 10
-15.65
 20
54.675
 70
     8
  0
VERTEX
  8
ガラス
 10
-15.675
 20
54.625
 70
     8
  0
VERTEX
  8
ガラス
 10
-15.675
 20
54.55
 70
     8
  0
VERTEX
  8
ガラス
 10
-15.675
 20
54.5
 70
     8
  0
VERTEX
  8
ガラス
 10
-15.7
 20
54.425
 70
     8
  0
VERTEX
  8
ガラス
 10
-15.7
 20
54.375
 70
     8
  0
VERTEX
  8
ガラス
 10
-15.725
 20
54.325
 70
     8
  0
VERTEX
  8
ガラス
 10
-15.725
 20
54.25
 70
     8
  0
VERTEX
  8
ガラス
 10
-15.725
 20
54.2
 70
     8
  0
VERTEX
  8
ガラス
 10
-15.75
 20
54.125
 70
     8
  0
VERTEX
  8
ガラス
 10
-15.75
 20
54.075
 70
     8
  0
VERTEX
  8
ガラス
 10
-15.75
 20
54.0
 70
     8
  0
VERTEX
  8
ガラス
 10
-15.775
 20
53.95
 70
     8
  0
VERTEX
  8
ガラス
 10
-15.775
 20
53.875
 70
     8
  0
VERTEX
  8
ガラス
 10
-15.775
 20
53.825
 70
     8
  0
VERTEX
  8
ガラス
 10
-15.775
 20
53.775
 70
     8
  0
SEQEND
  0
ARC
  8
ガラス
  6
CONTINUOUS
 10
-16.720136
 20
53.891626
 40
0.955135
 50
173.117443
 51
353.117443
  0
ENDBLK
  0
BLOCK
  2
*GRP_0063
 70
    65
 10
0.0
 20
0.0
  0
POLYLINE
  8
ガラス
  6
CONTINUOUS
 66
     1
 70
     4
  0
VERTEX
  8
ガラス
 10
-25.2
 20
48.35
 70
     8
  0
VERTEX
  8
ガラス
 10
-25.175
 20
48.45
 70
     8
  0
VERTEX
  8
ガラス
 10
-25.125
 20
48.525
 70
     8
  0
VERTEX
  8
ガラス
 10
-25.1
 20
48.625
 70
     8
  0
VERTEX
  8
ガラス
 10
-25.05
 20
48.7
 70
     8
  0
VERTEX
  8
ガラス
 10
-25.025
 20
48.775
 70
     8
  0
VERTEX
  8
ガラス
 10
-24.975
 20
48.875
 70
     8
  0
VERTEX
  8
ガラス
 10
-24.95
 20
48.95
 70
     8
  0
VERTEX
  8
ガラス
 10
-24.9
 20
49.025
 70
     8
  0
VERTEX
  8
ガラス
 10
-24.875
 20
49.125
 70
     8
  0
VERTEX
  8
ガラス
 10
-24.825
 20
49.2
 70
     8
  0
VERTEX
  8
ガラス
 10
-24.775
 20
49.275
 70
     8
  0
VERTEX
  8
ガラス
 10
-24.725
 20
49.35
 70
     8
  0
VERTEX
  8
ガラス
 10
-24.7
 20
49.425
 70
     8
  0
VERTEX
  8
ガラス
 10
-24.65
 20
49.5
 70
     8
  0
VERTEX
  8
ガラス
 10
-24.6
 20
49.55
 70
     8
  0
VERTEX
  8
ガラス
 10
-24.55
 20
49.625
 70
     8
  0
VERTEX
  8
ガラス
 10
-24.475
 20
49.7
 70
     8
  0
VERTEX
  8
ガラス
 10
-24.425
 20
49.75
 70
     8
  0
VERTEX
  8
ガラス
 10
-24.375
 20
49.825
 70
     8
  0
VERTEX
  8
ガラス
 10
-24.3
 20
49.875
 70
     8
  0
VERTEX
  8
ガラス
 10
-24.25
 20
49.925
 70
     8
  0
VERTEX
  8
ガラス
 10
-24.175
 20
49.975
 70
     8
  0
VERTEX
  8
ガラス
 10
-24.1
 20
50.025
 70
     8
  0
VERTEX
  8
ガラス
 10
-24.025
 20
50.05
 70
     8
  0
VERTEX
  8
ガラス
 10
-23.975
 20
50.1
 70
     8
  0
VERTEX
  8
ガラス
 10
-23.875
 20
50.125
 70
     8
  0
VERTEX
  8
ガラス
 10
-23.8
 20
50.175
 70
     8
  0
VERTEX
  8
ガラス
 10
-23.725
 20
50.2
 70
     8
  0
VERTEX
  8
ガラス
 10
-23.65
 20
50.225
 70
     8
  0
VERTEX
  8
ガラス
 10
-23.575
 20
50.275
 70
     8
  0
VERTEX
  8
ガラス
 10
-23.475
 20
50.3
 70
     8
  0
VERTEX
  8
ガラス
 10
-23.4
 20
50.325
 70
     8
  0
VERTEX
  8
ガラス
 10
-23.3
 20
50.35
 70
     8
  0
VERTEX
  8
ガラス
 10
-23.225
 20
50.375
 70
     8
  0
VERTEX
  8
ガラス
 10
-23.125
 20
50.375
 70
     8
  0
VERTEX
  8
ガラス
 10
-23.05
 20
50.4
 70
     8
  0
VERTEX
  8
ガラス
 10
-22.95
 20
50.425
 70
     8
  0
VERTEX
  8
ガラス
 10
-22.85
 20
50.45
 70
     8
  0
VERTEX
  8
ガラス
 10
-22.775
 20
50.475
 70
     8
  0
VERTEX
  8
ガラス
 10
-22.675
 20
50.475
 70
     8
  0
SEQEND
  0
POLYLINE
  8
ガラス
  6
CONTINUOUS
 66
     1
 70
     4
  0
VERTEX
  8
ガラス
 10
-22.675
 20
50.475
 70
     8
  0
VERTEX
  8
ガラス
 10
-22.7
 20
50.425
 70
     8
  0
VERTEX
  8
ガラス
 10
-22.725
 20
50.375
 70
     8
  0
VERTEX
  8
ガラス
 10
-22.75
 20
50.325
 70
     8
  0
VERTEX
  8
ガラス
 10
-22.775
 20
50.25
 70
     8
  0
VERTEX
  8
ガラス
 10
-22.8
 20
50.2
 70
     8
  0
VERTEX
  8
ガラス
 10
-22.825
 20
50.15
 70
     8
  0
VERTEX
  8
ガラス
 10
-22.85
 20
50.075
 70
     8
  0
VERTEX
  8
ガラス
 10
-22.875
 20
50.025
 70
     8
  0
VERTEX
  8
ガラス
 10
-22.9
 20
49.975
 70
     8
  0
VERTEX
  8
ガラス
 10
-22.9
 20
49.925
 70
     8
  0
VERTEX
  8
ガラス
 10
-22.925
 20
49.85
 70
     8
  0
VERTEX
  8
ガラス
 10
-22.95
 20
49.8
 70
     8
  0
VERTEX
  8
ガラス
 10
-22.975
 20
49.75
 70
     8
  0
VERTEX
  8
ガラス
 10
-23.0
 20
49.675
 70
     8
  0
VERTEX
  8
ガラス
 10
-23.025
 20
49.625
 70
     8
  0
VERTEX
  8
ガラス
 10
-23.025
 20
49.575
 70
     8
  0
VERTEX
  8
ガラス
 10
-23.05
 20
49.5
 70
     8
  0
VERTEX
  8
ガラス
 10
-23.075
 20
49.45
 70
     8
  0
VERTEX
  8
ガラス
 10
-23.1
 20
49.4
 70
     8
  0
VERTEX
  8
ガラス
 10
-23.1
 20
49.325
 70
     8
  0
VERTEX
  8
ガラス
 10
-23.125
 20
49.275
 70
     8
  0
VERTEX
  8
ガラス
 10
-23.125
 20
49.225
 70
     8
  0
VERTEX
  8
ガラス
 10
-23.15
 20
49.15
 70
     8
  0
VERTEX
  8
ガラス
 10
-23.175
 20
49.1
 70
     8
  0
VERTEX
  8
ガラス
 10
-23.175
 20
49.05
 70
     8
  0
VERTEX
  8
ガラス
 10
-23.2
 20
48.975
 70
     8
  0
VERTEX
  8
ガラス
 10
-23.2
 20
48.925
 70
     8
  0
VERTEX
  8
ガラス
 10
-23.2
 20
48.85
 70
     8
  0
VERTEX
  8
ガラス
 10
-23.225
 20
48.8
 70
     8
  0
VERTEX
  8
ガラス
 10
-23.225
 20
48.725
 70
     8
  0
VERTEX
  8
ガラス
 10
-23.25
 20
48.675
 70
     8
  0
VERTEX
  8
ガラス
 10
-23.25
 20
48.625
 70
     8
  0
VERTEX
  8
ガラス
 10
-23.25
 20
48.55
 70
     8
  0
VERTEX
  8
ガラス
 10
-23.275
 20
48.5
 70
     8
  0
VERTEX
  8
ガラス
 10
-23.275
 20
48.425
 70
     8
  0
VERTEX
  8
ガラス
 10
-23.275
 20
48.375
 70
     8
  0
VERTEX
  8
ガラス
 10
-23.275
 20
48.3
 70
     8
  0
VERTEX
  8
ガラス
 10
-23.3
 20
48.25
 70
     8
  0
VERTEX
  8
ガラス
 10
-23.3
 20
48.2
 70
     8
  0
VERTEX
  8
ガラス
 10
-23.3
 20
48.125
 70
     8
  0
SEQEND
  0
ARC
  8
ガラス
  6
CONTINUOUS
 10
-24.243058
 20
48.254104
 40
0.955135
 50
173.117443
 51
353.117443
  0
ENDBLK
  0
BLOCK
  2
*GRP_0064
 70
    65
 10
0.0
 20
0.0
  0
POLYLINE
  8
ガラス
  6
CONTINUOUS
 66
     1
 70
     4
  0
VERTEX
  8
ガラス
 10
-29.6
 20
42.275
 70
     8
  0
VERTEX
  8
ガラス
 10
-29.5
 20
42.275
 70
     8
  0
VERTEX
  8
ガラス
 10
-29.4
 20
42.3
 70
     8
  0
VERTEX
  8
ガラス
 10
-29.325
 20
42.3
 70
     8
  0
VERTEX
  8
ガラス
 10
-29.225
 20
42.3
 70
     8
  0
VERTEX
  8
ガラス
 10
-29.125
 20
42.325
 70
     8
  0
VERTEX
  8
ガラス
 10
-29.05
 20
42.325
 70
     8
  0
VERTEX
  8
ガラス
 10
-28.95
 20
42.325
 70
     8
  0
VERTEX
  8
ガラス
 10
-28.85
 20
42.35
 70
     8
  0
VERTEX
  8
ガラス
 10
-28.775
 20
42.35
 70
     8
  0
VERTEX
  8
ガラス
 10
-28.675
 20
42.35
 70
     8
  0
VERTEX
  8
ガラス
 10
-28.6
 20
42.35
 70
     8
  0
VERTEX
  8
ガラス
 10
-28.5
 20
42.35
 70
     8
  0
VERTEX
  8
ガラス
 10
-28.425
 20
42.325
 70
     8
  0
VERTEX
  8
ガラス
 10
-28.325
 20
42.325
 70
     8
  0
VERTEX
  8
ガラス
 10
-28.25
 20
42.325
 70
     8
  0
VERTEX
  8
ガラス
 10
-28.15
 20
42.3
 70
     8
  0
VERTEX
  8
ガラス
 10
-28.075
 20
42.3
 70
     8
  0
VERTEX
  8
ガラス
 10
-28.0
 20
42.275
 70
     8
  0
VERTEX
  8
ガラス
 10
-27.925
 20
42.25
 70
     8
  0
VERTEX
  8
ガラス
 10
-27.825
 20
42.225
 70
     8
  0
VERTEX
  8
ガラス
 10
-27.75
 20
42.2
 70
     8
  0
VERTEX
  8
ガラス
 10
-27.675
 20
42.15
 70
     8
  0
VERTEX
  8
ガラス
 10
-27.6
 20
42.125
 70
     8
  0
VERTEX
  8
ガラス
 10
-27.55
 20
42.075
 70
     8
  0
VERTEX
  8
ガラス
 10
-27.475
 20
42.025
 70
     8
  0
VERTEX
  8
ガラス
 10
-27.4
 20
41.975
 70
     8
  0
VERTEX
  8
ガラス
 10
-27.325
 20
41.925
 70
     8
  0
VERTEX
  8
ガラス
 10
-27.25
 20
41.875
 70
     8
  0
VERTEX
  8
ガラス
 10
-27.2
 20
41.825
 70
     8
  0
VERTEX
  8
ガラス
 10
-27.125
 20
41.775
 70
     8
  0
VERTEX
  8
ガラス
 10
-27.075
 20
41.7
 70
     8
  0
VERTEX
  8
ガラス
 10
-27.0
 20
41.65
 70
     8
  0
VERTEX
  8
ガラス
 10
-26.925
 20
41.575
 70
     8
  0
VERTEX
  8
ガラス
 10
-26.875
 20
41.525
 70
     8
  0
VERTEX
  8
ガラス
 10
-26.8
 20
41.45
 70
     8
  0
VERTEX
  8
ガラス
 10
-26.75
 20
41.375
 70
     8
  0
VERTEX
  8
ガラス
 10
-26.7
 20
41.3
 70
     8
  0
VERTEX
  8
ガラス
 10
-26.625
 20
41.25
 70
     8
  0
VERTEX
  8
ガラス
 10
-26.575
 20
41.175
 70
     8
  0
VERTEX
  8
ガラス
 10
-26.5
 20
41.1
 70
     8
  0
SEQEND
  0
POLYLINE
  8
ガラス
  6
CONTINUOUS
 66
     1
 70
     4
  0
VERTEX
  8
ガラス
 10
-26.5
 20
41.1
 70
     8
  0
VERTEX
  8
ガラス
 10
-26.575
 20
41.1
 70
     8
  0
VERTEX
  8
ガラス
 10
-26.625
 20
41.075
 70
     8
  0
VERTEX
  8
ガラス
 10
-26.7
 20
41.075
 70
     8
  0
VERTEX
  8
ガラス
 10
-26.75
 20
41.075
 70
     8
  0
VERTEX
  8
ガラス
 10
-26.8
 20
41.075
 70
     8
  0
VERTEX
  8
ガラス
 10
-26.875
 20
41.05
 70
     8
  0
VERTEX
  8
ガラス
 10
-26.925
 20
41.05
 70
     8
  0
VERTEX
  8
ガラス
 10
-27.0
 20
41.05
 70
     8
  0
VERTEX
  8
ガラス
 10
-27.05
 20
41.025
 70
     8
  0
VERTEX
  8
ガラス
 10
-27.125
 20
41.025
 70
     8
  0
VERTEX
  8
ガラス
 10
-27.175
 20
41.025
 70
     8
  0
VERTEX
  8
ガラス
 10
-27.25
 20
41.0
 70
     8
  0
VERTEX
  8
ガラス
 10
-27.3
 20
41.0
 70
     8
  0
VERTEX
  8
ガラス
 10
-27.35
 20
41.0
 70
     8
  0
VERTEX
  8
ガラス
 10
-27.425
 20
40.975
 70
     8
  0
VERTEX
  8
ガラス
 10
-27.475
 20
40.975
 70
     8
  0
VERTEX
  8
ガラス
 10
-27.55
 20
40.95
 70
     8
  0
VERTEX
  8
ガラス
 10
-27.6
 20
40.95
 70
     8
  0
VERTEX
  8
ガラス
 10
-27.65
 20
40.925
 70
     8
  0
VERTEX
  8
ガラス
 10
-27.725
 20
40.925
 70
     8
  0
VERTEX
  8
ガラス
 10
-27.775
 20
40.9
 70
     8
  0
VERTEX
  8
ガラス
 10
-27.825
 20
40.875
 70
     8
  0
VERTEX
  8
ガラス
 10
-27.9
 20
40.875
 70
     8
  0
VERTEX
  8
ガラス
 10
-27.95
 20
40.85
 70
     8
  0
VERTEX
  8
ガラス
 10
-28.0
 20
40.825
 70
     8
  0
VERTEX
  8
ガラス
 10
-28.075
 20
40.8
 70
     8
  0
VERTEX
  8
ガラス
 10
-28.125
 20
40.8
 70
     8
  0
VERTEX
  8
ガラス
 10
-28.175
 20
40.775
 70
     8
  0
VERTEX
  8
ガラス
 10
-28.25
 20
40.75
 70
     8
  0
VERTEX
  8
ガラス
 10
-28.3
 20
40.725
 70
     8
  0
VERTEX
  8
ガラス
 10
-28.35
 20
40.7
 70
     8
  0
VERTEX
  8
ガラス
 10
-28.425
 20
40.675
 70
     8
  0
VERTEX
  8
ガラス
 10
-28.475
 20
40.675
 70
     8
  0
VERTEX
  8
ガラス
 10
-28.525
 20
40.65
 70
     8
  0
VERTEX
  8
ガラス
 10
-28.575
 20
40.625
 70
     8
  0
VERTEX
  8
ガラス
 10
-28.65
 20
40.6
 70
     8
  0
VERTEX
  8
ガラス
 10
-28.7
 20
40.575
 70
     8
  0
VERTEX
  8
ガラス
 10
-28.75
 20
40.55
 70
     8
  0
VERTEX
  8
ガラス
 10
-28.825
 20
40.525
 70
     8
  0
VERTEX
  8
ガラス
 10
-28.875
 20
40.5
 70
     8
  0
SEQEND
  0
ARC
  8
ガラス
  6
CONTINUOUS
 10
-29.220128
 20
41.397916
 40
0.955135
 50
112.264588
 51
292.264588
  0
ENDBLK
  0
BLOCK
  2
*GRP_0065
 70
    65
 10
0.0
 20
0.0
  0
POLYLINE
  8
ガラス
  6
CONTINUOUS
 66
     1
 70
     4
  0
VERTEX
  8
ガラス
 10
-41.075
 20
42.275
 70
     8
  0
VERTEX
  8
ガラス
 10
-40.975
 20
42.275
 70
     8
  0
VERTEX
  8
ガラス
 10
-40.875
 20
42.3
 70
     8
  0
VERTEX
  8
ガラス
 10
-40.8
 20
42.3
 70
     8
  0
VERTEX
  8
ガラス
 10
-40.7
 20
42.3
 70
     8
  0
VERTEX
  8
ガラス
 10
-40.6
 20
42.325
 70
     8
  0
VERTEX
  8
ガラス
 10
-40.525
 20
42.325
 70
     8
  0
VERTEX
  8
ガラス
 10
-40.425
 20
42.325
 70
     8
  0
VERTEX
  8
ガラス
 10
-40.325
 20
42.35
 70
     8
  0
VERTEX
  8
ガラス
 10
-40.25
 20
42.35
 70
     8
  0
VERTEX
  8
ガラス
 10
-40.15
 20
42.35
 70
     8
  0
VERTEX
  8
ガラス
 10
-40.075
 20
42.35
 70
     8
  0
VERTEX
  8
ガラス
 10
-39.975
 20
42.35
 70
     8
  0
VERTEX
  8
ガラス
 10
-39.9
 20
42.325
 70
     8
  0
VERTEX
  8
ガラス
 10
-39.8
 20
42.325
 70
     8
  0
VERTEX
  8
ガラス
 10
-39.725
 20
42.325
 70
     8
  0
VERTEX
  8
ガラス
 10
-39.65
 20
42.3
 70
     8
  0
VERTEX
  8
ガラス
 10
-39.55
 20
42.3
 70
     8
  0
VERTEX
  8
ガラス
 10
-39.475
 20
42.275
 70
     8
  0
VERTEX
  8
ガラス
 10
-39.4
 20
42.25
 70
     8
  0
VERTEX
  8
ガラス
 10
-39.325
 20
42.225
 70
     8
  0
VERTEX
  8
ガラス
 10
-39.25
 20
42.2
 70
     8
  0
VERTEX
  8
ガラス
 10
-39.175
 20
42.15
 70
     8
  0
VERTEX
  8
ガラス
 10
-39.1
 20
42.125
 70
     8
  0
VERTEX
  8
ガラス
 10
-39.025
 20
42.075
 70
     8
  0
VERTEX
  8
ガラス
 10
-38.95
 20
42.025
 70
     8
  0
VERTEX
  8
ガラス
 10
-38.875
 20
41.975
 70
     8
  0
VERTEX
  8
ガラス
 10
-38.8
 20
41.925
 70
     8
  0
VERTEX
  8
ガラス
 10
-38.75
 20
41.875
 70
     8
  0
VERTEX
  8
ガラス
 10
-38.675
 20
41.825
 70
     8
  0
VERTEX
  8
ガラス
 10
-38.6
 20
41.775
 70
     8
  0
VERTEX
  8
ガラス
 10
-38.55
 20
41.7
 70
     8
  0
VERTEX
  8
ガラス
 10
-38.475
 20
41.65
 70
     8
  0
VERTEX
  8
ガラス
 10
-38.425
 20
41.575
 70
     8
  0
VERTEX
  8
ガラス
 10
-38.35
 20
41.525
 70
     8
  0
VERTEX
  8
ガラス
 10
-38.3
 20
41.45
 70
     8
  0
VERTEX
  8
ガラス
 10
-38.225
 20
41.375
 70
     8
  0
VERTEX
  8
ガラス
 10
-38.175
 20
41.3
 70
     8
  0
VERTEX
  8
ガラス
 10
-38.1
 20
41.25
 70
     8
  0
VERTEX
  8
ガラス
 10
-38.05
 20
41.175
 70
     8
  0
VERTEX
  8
ガラス
 10
-37.975
 20
41.1
 70
     8
  0
SEQEND
  0
POLYLINE
  8
ガラス
  6
CONTINUOUS
 66
     1
 70
     4
  0
VERTEX
  8
ガラス
 10
-37.975
 20
41.1
 70
     8
  0
VERTEX
  8
ガラス
 10
-38.05
 20
41.1
 70
     8
  0
VERTEX
  8
ガラス
 10
-38.1
 20
41.075
 70
     8
  0
VERTEX
  8
ガラス
 10
-38.175
 20
41.075
 70
     8
  0
VERTEX
  8
ガラス
 10
-38.225
 20
41.075
 70
     8
  0
VERTEX
  8
ガラス
 10
-38.3
 20
41.075
 70
     8
  0
VERTEX
  8
ガラス
 10
-38.35
 20
41.05
 70
     8
  0
VERTEX
  8
ガラス
 10
-38.4
 20
41.05
 70
     8
  0
VERTEX
  8
ガラス
 10
-38.475
 20
41.05
 70
     8
  0
VERTEX
  8
ガラス
 10
-38.525
 20
41.025
 70
     8
  0
VERTEX
  8
ガラス
 10
-38.6
 20
41.025
 70
     8
  0
VERTEX
  8
ガラス
 10
-38.65
 20
41.025
 70
     8
  0
VERTEX
  8
ガラス
 10
-38.725
 20
41.0
 70
     8
  0
VERTEX
  8
ガラス
 10
-38.775
 20
41.0
 70
     8
  0
VERTEX
  8
ガラス
 10
-38.825
 20
41.0
 70
     8
  0
VERTEX
  8
ガラス
 10
-38.9
 20
40.975
 70
     8
  0
VERTEX
  8
ガラス
 10
-38.95
 20
40.975
 70
     8
  0
VERTEX
  8
ガラス
 10
-39.025
 20
40.95
 70
     8
  0
VERTEX
  8
ガラス
 10
-39.075
 20
40.95
 70
     8
  0
VERTEX
  8
ガラス
 10
-39.125
 20
40.925
 70
     8
  0
VERTEX
  8
ガラス
 10
-39.2
 20
40.925
 70
     8
  0
VERTEX
  8
ガラス
 10
-39.25
 20
40.9
 70
     8
  0
VERTEX
  8
ガラス
 10
-39.325
 20
40.875
 70
     8
  0
VERTEX
  8
ガラス
 10
-39.375
 20
40.875
 70
     8
  0
VERTEX
  8
ガラス
 10
-39.425
 20
40.85
 70
     8
  0
VERTEX
  8
ガラス
 10
-39.5
 20
40.825
 70
     8
  0
VERTEX
  8
ガラス
 10
-39.55
 20
40.8
 70
     8
  0
VERTEX
  8
ガラス
 10
-39.6
 20
40.8
 70
     8
  0
VERTEX
  8
ガラス
 10
-39.675
 20
40.775
 70
     8
  0
VERTEX
  8
ガラス
 10
-39.725
 20
40.75
 70
     8
  0
VERTEX
  8
ガラス
 10
-39.775
 20
40.725
 70
     8
  0
VERTEX
  8
ガラス
 10
-39.825
 20
40.7
 70
     8
  0
VERTEX
  8
ガラス
 10
-39.9
 20
40.675
 70
     8
  0
VERTEX
  8
ガラス
 10
-39.95
 20
40.675
 70
     8
  0
VERTEX
  8
ガラス
 10
-40.0
 20
40.65
 70
     8
  0
VERTEX
  8
ガラス
 10
-40.075
 20
40.625
 70
     8
  0
VERTEX
  8
ガラス
 10
-40.125
 20
40.6
 70
     8
  0
VERTEX
  8
ガラス
 10
-40.175
 20
40.575
 70
     8
  0
VERTEX
  8
ガラス
 10
-40.225
 20
40.55
 70
     8
  0
VERTEX
  8
ガラス
 10
-40.3
 20
40.525
 70
     8
  0
VERTEX
  8
ガラス
 10
-40.35
 20
40.5
 70
     8
  0
SEQEND
  0
ARC
  8
ガラス
  6
CONTINUOUS
 10
-40.698728
 20
41.397916
 40
0.955135
 50
112.264588
 51
292.264588
  0
ENDBLK
  0
BLOCK
  2
*GRP_0066
 70
    65
 10
0.0
 20
0.0
  0
POLYLINE
  8
ガラス
  6
CONTINUOUS
 66
     1
 70
     4
  0
VERTEX
  8
ガラス
 10
-51.95
 20
38.0
 70
     8
  0
VERTEX
  8
ガラス
 10
-51.925
 20
38.075
 70
     8
  0
VERTEX
  8
ガラス
 10
-51.875
 20
38.15
 70
     8
  0
VERTEX
  8
ガラス
 10
-51.85
 20
38.25
 70
     8
  0
VERTEX
  8
ガラス
 10
-51.8
 20
38.325
 70
     8
  0
VERTEX
  8
ガラス
 10
-51.775
 20
38.425
 70
     8
  0
VERTEX
  8
ガラス
 10
-51.725
 20
38.5
 70
     8
  0
VERTEX
  8
ガラス
 10
-51.7
 20
38.575
 70
     8
  0
VERTEX
  8
ガラス
 10
-51.65
 20
38.675
 70
     8
  0
VERTEX
  8
ガラス
 10
-51.6
 20
38.75
 70
     8
  0
VERTEX
  8
ガラス
 10
-51.575
 20
38.825
 70
     8
  0
VERTEX
  8
ガラス
 10
-51.525
 20
38.9
 70
     8
  0
VERTEX
  8
ガラス
 10
-51.475
 20
38.975
 70
     8
  0
VERTEX
  8
ガラス
 10
-51.425
 20
39.05
 70
     8
  0
VERTEX
  8
ガラス
 10
-51.375
 20
39.125
 70
     8
  0
VERTEX
  8
ガラス
 10
-51.325
 20
39.2
 70
     8
  0
VERTEX
  8
ガラス
 10
-51.275
 20
39.25
 70
     8
  0
VERTEX
  8
ガラス
 10
-51.225
 20
39.325
 70
     8
  0
VERTEX
  8
ガラス
 10
-51.175
 20
39.375
 70
     8
  0
VERTEX
  8
ガラス
 10
-51.125
 20
39.45
 70
     8
  0
VERTEX
  8
ガラス
 10
-51.05
 20
39.5
 70
     8
  0
VERTEX
  8
ガラス
 10
-51.0
 20
39.55
 70
     8
  0
VERTEX
  8
ガラス
 10
-50.925
 20
39.6
 70
     8
  0
VERTEX
  8
ガラス
 10
-50.85
 20
39.65
 70
     8
  0
VERTEX
  8
ガラス
 10
-50.775
 20
39.7
 70
     8
  0
VERTEX
  8
ガラス
 10
-50.7
 20
39.725
 70
     8
  0
VERTEX
  8
ガラス
 10
-50.625
 20
39.775
 70
     8
  0
VERTEX
  8
ガラス
 10
-50.55
 20
39.8
 70
     8
  0
VERTEX
  8
ガラス
 10
-50.475
 20
39.825
 70
     8
  0
VERTEX
  8
ガラス
 10
-50.4
 20
39.875
 70
     8
  0
VERTEX
  8
ガラス
 10
-50.3
 20
39.9
 70
     8
  0
VERTEX
  8
ガラス
 10
-50.225
 20
39.925
 70
     8
  0
VERTEX
  8
ガラス
 10
-50.15
 20
39.95
 70
     8
  0
VERTEX
  8
ガラス
 10
-50.05
 20
39.975
 70
     8
  0
VERTEX
  8
ガラス
 10
-49.975
 20
40.0
 70
     8
  0
VERTEX
  8
ガラス
 10
-49.875
 20
40.025
 70
     8
  0
VERTEX
  8
ガラス
 10
-49.775
 20
40.05
 70
     8
  0
VERTEX
  8
ガラス
 10
-49.7
 20
40.05
 70
     8
  0
VERTEX
  8
ガラス
 10
-49.6
 20
40.075
 70
     8
  0
VERTEX
  8
ガラス
 10
-49.525
 20
40.1
 70
     8
  0
VERTEX
  8
ガラス
 10
-49.425
 20
40.125
 70
     8
  0
SEQEND
  0
POLYLINE
  8
ガラス
  6
CONTINUOUS
 66
     1
 70
     4
  0
VERTEX
  8
ガラス
 10
-49.425
 20
40.125
 70
     8
  0
VERTEX
  8
ガラス
 10
-49.45
 20
40.05
 70
     8
  0
VERTEX
  8
ガラス
 10
-49.475
 20
40.0
 70
     8
  0
VERTEX
  8
ガラス
 10
-49.5
 20
39.95
 70
     8
  0
VERTEX
  8
ガラス
 10
-49.525
 20
39.9
 70
     8
  0
VERTEX
  8
ガラス
 10
-49.55
 20
39.825
 70
     8
  0
VERTEX
  8
ガラス
 10
-49.575
 20
39.775
 70
     8
  0
VERTEX
  8
ガラス
 10
-49.6
 20
39.725
 70
     8
  0
VERTEX
  8
ガラス
 10
-49.625
 20
39.65
 70
     8
  0
VERTEX
  8
ガラス
 10
-49.625
 20
39.6
 70
     8
  0
VERTEX
  8
ガラス
 10
-49.65
 20
39.55
 70
     8
  0
VERTEX
  8
ガラス
 10
-49.675
 20
39.5
 70
     8
  0
VERTEX
  8
ガラス
 10
-49.7
 20
39.425
 70
     8
  0
VERTEX
  8
ガラス
 10
-49.725
 20
39.375
 70
     8
  0
VERTEX
  8
ガラス
 10
-49.75
 20
39.325
 70
     8
  0
VERTEX
  8
ガラス
 10
-49.775
 20
39.25
 70
     8
  0
VERTEX
  8
ガラス
 10
-49.775
 20
39.2
 70
     8
  0
VERTEX
  8
ガラス
 10
-49.8
 20
39.15
 70
     8
  0
VERTEX
  8
ガラス
 10
-49.825
 20
39.075
 70
     8
  0
VERTEX
  8
ガラス
 10
-49.825
 20
39.025
 70
     8
  0
VERTEX
  8
ガラス
 10
-49.85
 20
38.975
 70
     8
  0
VERTEX
  8
ガラス
 10
-49.875
 20
38.9
 70
     8
  0
VERTEX
  8
ガラス
 10
-49.875
 20
38.85
 70
     8
  0
VERTEX
  8
ガラス
 10
-49.9
 20
38.8
 70
     8
  0
VERTEX
  8
ガラス
 10
-49.9
 20
38.725
 70
     8
  0
VERTEX
  8
ガラス
 10
-49.925
 20
38.675
 70
     8
  0
VERTEX
  8
ガラス
 10
-49.925
 20
38.6
 70
     8
  0
VERTEX
  8
ガラス
 10
-49.95
 20
38.55
 70
     8
  0
VERTEX
  8
ガラス
 10
-49.95
 20
38.5
 70
     8
  0
VERTEX
  8
ガラス
 10
-49.975
 20
38.425
 70
     8
  0
VERTEX
  8
ガラス
 10
-49.975
 20
38.375
 70
     8
  0
VERTEX
  8
ガラス
 10
-49.975
 20
38.3
 70
     8
  0
VERTEX
  8
ガラス
 10
-50.0
 20
38.25
 70
     8
  0
VERTEX
  8
ガラス
 10
-50.0
 20
38.175
 70
     8
  0
VERTEX
  8
ガラス
 10
-50.0
 20
38.125
 70
     8
  0
VERTEX
  8
ガラス
 10
-50.025
 20
38.075
 70
     8
  0
VERTEX
  8
ガラス
 10
-50.025
 20
38.0
 70
     8
  0
VERTEX
  8
ガラス
 10
-50.025
 20
37.95
 70
     8
  0
VERTEX
  8
ガラス
 10
-50.05
 20
37.875
 70
     8
  0
VERTEX
  8
ガラス
 10
-50.05
 20
37.825
 70
     8
  0
VERTEX
  8
ガラス
 10
-50.05
 20
37.75
 70
     8
  0
SEQEND
  0
ARC
  8
ガラス
  6
CONTINUOUS
 10
-50.989675
 20
37.886481
 40
0.955135
 50
173.117443
 51
353.117443
  0
ENDBLK
  0
BLOCK
  2
*GRP_0067
 70
    65
 10
0.0
 20
0.0
  0
POLYLINE
  8
ガラス
  6
CONTINUOUS
 66
     1
 70
     4
  0
VERTEX
  8
ガラス
 10
-55.4
 20
29.975
 70
     8
  0
VERTEX
  8
ガラス
 10
-55.375
 20
30.05
 70
     8
  0
VERTEX
  8
ガラス
 10
-55.325
 20
30.125
 70
     8
  0
VERTEX
  8
ガラス
 10
-55.3
 20
30.225
 70
     8
  0
VERTEX
  8
ガラス
 10
-55.25
 20
30.3
 70
     8
  0
VERTEX
  8
ガラス
 10
-55.225
 20
30.4
 70
     8
  0
VERTEX
  8
ガラス
 10
-55.175
 20
30.475
 70
     8
  0
VERTEX
  8
ガラス
 10
-55.15
 20
30.55
 70
     8
  0
VERTEX
  8
ガラス
 10
-55.1
 20
30.65
 70
     8
  0
VERTEX
  8
ガラス
 10
-55.075
 20
30.725
 70
     8
  0
VERTEX
  8
ガラス
 10
-55.025
 20
30.8
 70
     8
  0
VERTEX
  8
ガラス
 10
-54.975
 20
30.875
 70
     8
  0
VERTEX
  8
ガラス
 10
-54.925
 20
30.95
 70
     8
  0
VERTEX
  8
ガラス
 10
-54.9
 20
31.025
 70
     8
  0
VERTEX
  8
ガラス
 10
-54.85
 20
31.1
 70
     8
  0
VERTEX
  8
ガラス
 10
-54.8
 20
31.175
 70
     8
  0
VERTEX
  8
ガラス
 10
-54.75
 20
31.225
 70
     8
  0
VERTEX
  8
ガラス
 10
-54.675
 20
31.3
 70
     8
  0
VERTEX
  8
ガラス
 10
-54.625
 20
31.35
 70
     8
  0
VERTEX
  8
ガラス
 10
-54.575
 20
31.425
 70
     8
  0
VERTEX
  8
ガラス
 10
-54.5
 20
31.475
 70
     8
  0
VERTEX
  8
ガラス
 10
-54.45
 20
31.525
 70
     8
  0
VERTEX
  8
ガラス
 10
-54.375
 20
31.575
 70
     8
  0
VERTEX
  8
ガラス
 10
-54.3
 20
31.625
 70
     8
  0
VERTEX
  8
ガラス
 10
-54.25
 20
31.675
 70
     8
  0
VERTEX
  8
ガラス
 10
-54.175
 20
31.7
 70
     8
  0
VERTEX
  8
ガラス
 10
-54.1
 20
31.75
 70
     8
  0
VERTEX
  8
ガラス
 10
-54.0
 20
31.775
 70
     8
  0
VERTEX
  8
ガラス
 10
-53.925
 20
31.825
 70
     8
  0
VERTEX
  8
ガラス
 10
-53.85
 20
31.85
 70
     8
  0
VERTEX
  8
ガラス
 10
-53.775
 20
31.875
 70
     8
  0
VERTEX
  8
ガラス
 10
-53.675
 20
31.9
 70
     8
  0
VERTEX
  8
ガラス
 10
-53.6
 20
31.925
 70
     8
  0
VERTEX
  8
ガラス
 10
-53.5
 20
31.95
 70
     8
  0
VERTEX
  8
ガラス
 10
-53.425
 20
31.975
 70
     8
  0
VERTEX
  8
ガラス
 10
-53.325
 20
32.0
 70
     8
  0
VERTEX
  8
ガラス
 10
-53.25
 20
32.025
 70
     8
  0
VERTEX
  8
ガラス
 10
-53.15
 20
32.025
 70
     8
  0
VERTEX
  8
ガラス
 10
-53.05
 20
32.05
 70
     8
  0
VERTEX
  8
ガラス
 10
-52.975
 20
32.075
 70
     8
  0
VERTEX
  8
ガラス
 10
-52.875
 20
32.1
 70
     8
  0
SEQEND
  0
POLYLINE
  8
ガラス
  6
CONTINUOUS
 66
     1
 70
     4
  0
VERTEX
  8
ガラス
 10
-52.875
 20
32.1
 70
     8
  0
VERTEX
  8
ガラス
 10
-52.9
 20
32.025
 70
     8
  0
VERTEX
  8
ガラス
 10
-52.925
 20
31.975
 70
     8
  0
VERTEX
  8
ガラス
 10
-52.95
 20
31.925
 70
     8
  0
VERTEX
  8
ガラス
 10
-52.975
 20
31.875
 70
     8
  0
VERTEX
  8
ガラス
 10
-53.0
 20
31.8
 70
     8
  0
VERTEX
  8
ガラス
 10
-53.025
 20
31.75
 70
     8
  0
VERTEX
  8
ガラス
 10
-53.05
 20
31.7
 70
     8
  0
VERTEX
  8
ガラス
 10
-53.075
 20
31.65
 70
     8
  0
VERTEX
  8
ガラス
 10
-53.1
 20
31.575
 70
     8
  0
VERTEX
  8
ガラス
 10
-53.125
 20
31.525
 70
     8
  0
VERTEX
  8
ガラス
 10
-53.125
 20
31.475
 70
     8
  0
VERTEX
  8
ガラス
 10
-53.15
 20
31.4
 70
     8
  0
VERTEX
  8
ガラス
 10
-53.175
 20
31.35
 70
     8
  0
VERTEX
  8
ガラス
 10
-53.2
 20
31.3
 70
     8
  0
VERTEX
  8
ガラス
 10
-53.225
 20
31.225
 70
     8
  0
VERTEX
  8
ガラス
 10
-53.225
 20
31.175
 70
     8
  0
VERTEX
  8
ガラス
 10
-53.25
 20
31.125
 70
     8
  0
VERTEX
  8
ガラス
 10
-53.275
 20
31.05
 70
     8
  0
VERTEX
  8
ガラス
 10
-53.3
 20
31.0
 70
     8
  0
VERTEX
  8
ガラス
 10
-53.3
 20
30.95
 70
     8
  0
VERTEX
  8
ガラス
 10
-53.325
 20
30.875
 70
     8
  0
VERTEX
  8
ガラス
 10
-53.35
 20
30.825
 70
     8
  0
VERTEX
  8
ガラス
 10
-53.35
 20
30.775
 70
     8
  0
VERTEX
  8
ガラス
 10
-53.375
 20
30.7
 70
     8
  0
VERTEX
  8
ガラス
 10
-53.375
 20
30.65
 70
     8
  0
VERTEX
  8
ガラス
 10
-53.4
 20
30.575
 70
     8
  0
VERTEX
  8
ガラス
 10
-53.4
 20
30.525
 70
     8
  0
VERTEX
  8
ガラス
 10
-53.4
 20
30.475
 70
     8
  0
VERTEX
  8
ガラス
 10
-53.425
 20
30.4
 70
     8
  0
VERTEX
  8
ガラス
 10
-53.425
 20
30.35
 70
     8
  0
VERTEX
  8
ガラス
 10
-53.45
 20
30.275
 70
     8
  0
VERTEX
  8
ガラス
 10
-53.45
 20
30.225
 70
     8
  0
VERTEX
  8
ガラス
 10
-53.45
 20
30.175
 70
     8
  0
VERTEX
  8
ガラス
 10
-53.475
 20
30.1
 70
     8
  0
VERTEX
  8
ガラス
 10
-53.475
 20
30.05
 70
     8
  0
VERTEX
  8
ガラス
 10
-53.475
 20
29.975
 70
     8
  0
VERTEX
  8
ガラス
 10
-53.475
 20
29.925
 70
     8
  0
VERTEX
  8
ガラス
 10
-53.5
 20
29.85
 70
     8
  0
VERTEX
  8
ガラス
 10
-53.5
 20
29.8
 70
     8
  0
VERTEX
  8
ガラス
 10
-53.5
 20
29.725
 70
     8
  0
SEQEND
  0
ARC
  8
ガラス
  6
CONTINUOUS
 10
-54.444399
 20
29.862606
 40
0.955135
 50
173.117443
 51
353.117443
  0
ENDBLK
  0
BLOCK
  2
*GRP_0068
 70
    65
 10
0.0
 20
0.0
  0
POLYLINE
  8
ガラス
  6
CONTINUOUS
 66
     1
 70
     4
  0
VERTEX
  8
ガラス
 10
-25.275
 20
-107.35
 70
     8
  0
VERTEX
  8
ガラス
 10
-25.225
 20
-107.25
 70
     8
  0
VERTEX
  8
ガラス
 10
-25.2
 20
-107.175
 70
     8
  0
VERTEX
  8
ガラス
 10
-25.175
 20
-107.075
 70
     8
  0
VERTEX
  8
ガラス
 10
-25.125
 20
-107.0
 70
     8
  0
VERTEX
  8
ガラス
 10
-25.1
 20
-106.925
 70
     8
  0
VERTEX
  8
ガラス
 10
-25.05
 20
-106.825
 70
     8
  0
VERTEX
  8
ガラス
 10
-25.0
 20
-106.75
 70
     8
  0
VERTEX
  8
ガラス
 10
-24.975
 20
-106.675
 70
     8
  0
VERTEX
  8
ガラス
 10
-24.925
 20
-106.575
 70
     8
  0
VERTEX
  8
ガラス
 10
-24.9
 20
-106.5
 70
     8
  0
VERTEX
  8
ガラス
 10
-24.85
 20
-106.425
 70
     8
  0
VERTEX
  8
ガラス
 10
-24.8
 20
-106.35
 70
     8
  0
VERTEX
  8
ガラス
 10
-24.75
 20
-106.275
 70
     8
  0
VERTEX
  8
ガラス
 10
-24.7
 20
-106.2
 70
     8
  0
VERTEX
  8
ガラス
 10
-24.65
 20
-106.15
 70
     8
  0
VERTEX
  8
ガラス
 10
-24.6
 20
-106.075
 70
     8
  0
VERTEX
  8
ガラス
 10
-24.55
 20
-106.0
 70
     8
  0
VERTEX
  8
ガラス
 10
-24.5
 20
-105.95
 70
     8
  0
VERTEX
  8
ガラス
 10
-24.425
 20
-105.875
 70
     8
  0
VERTEX
  8
ガラス
 10
-24.375
 20
-105.825
 70
     8
  0
VERTEX
  8
ガラス
 10
-24.3
 20
-105.775
 70
     8
  0
VERTEX
  8
ガラス
 10
-24.25
 20
-105.725
 70
     8
  0
VERTEX
  8
ガラス
 10
-24.175
 20
-105.675
 70
     8
  0
VERTEX
  8
ガラス
 10
-24.1
 20
-105.65
 70
     8
  0
VERTEX
  8
ガラス
 10
-24.025
 20
-105.6
 70
     8
  0
VERTEX
  8
ガラス
 10
-23.95
 20
-105.575
 70
     8
  0
VERTEX
  8
ガラス
 10
-23.875
 20
-105.525
 70
     8
  0
VERTEX
  8
ガラス
 10
-23.8
 20
-105.5
 70
     8
  0
VERTEX
  8
ガラス
 10
-23.725
 20
-105.475
 70
     8
  0
VERTEX
  8
ガラス
 10
-23.625
 20
-105.425
 70
     8
  0
VERTEX
  8
ガラス
 10
-23.55
 20
-105.4
 70
     8
  0
VERTEX
  8
ガラス
 10
-23.45
 20
-105.375
 70
     8
  0
VERTEX
  8
ガラス
 10
-23.375
 20
-105.35
 70
     8
  0
VERTEX
  8
ガラス
 10
-23.275
 20
-105.325
 70
     8
  0
VERTEX
  8
ガラス
 10
-23.2
 20
-105.325
 70
     8
  0
VERTEX
  8
ガラス
 10
-23.1
 20
-105.3
 70
     8
  0
VERTEX
  8
ガラス
 10
-23.025
 20
-105.275
 70
     8
  0
VERTEX
  8
ガラス
 10
-22.925
 20
-105.25
 70
     8
  0
VERTEX
  8
ガラス
 10
-22.825
 20
-105.225
 70
     8
  0
VERTEX
  8
ガラス
 10
-22.75
 20
-105.225
 70
     8
  0
SEQEND
  0
POLYLINE
  8
ガラス
  6
CONTINUOUS
 66
     1
 70
     4
  0
VERTEX
  8
ガラス
 10
-22.75
 20
-105.225
 70
     8
  0
VERTEX
  8
ガラス
 10
-22.775
 20
-105.275
 70
     8
  0
VERTEX
  8
ガラス
 10
-22.8
 20
-105.325
 70
     8
  0
VERTEX
  8
ガラス
 10
-22.825
 20
-105.375
 70
     8
  0
VERTEX
  8
ガラス
 10
-22.85
 20
-105.45
 70
     8
  0
VERTEX
  8
ガラス
 10
-22.875
 20
-105.5
 70
     8
  0
VERTEX
  8
ガラス
 10
-22.9
 20
-105.55
 70
     8
  0
VERTEX
  8
ガラス
 10
-22.9
 20
-105.6
 70
     8
  0
VERTEX
  8
ガラス
 10
-22.925
 20
-105.675
 70
     8
  0
VERTEX
  8
ガラス
 10
-22.95
 20
-105.725
 70
     8
  0
VERTEX
  8
ガラス
 10
-22.975
 20
-105.775
 70
     8
  0
VERTEX
  8
ガラス
 10
-23.0
 20
-105.85
 70
     8
  0
VERTEX
  8
ガラス
 10
-23.025
 20
-105.9
 70
     8
  0
VERTEX
  8
ガラス
 10
-23.05
 20
-105.95
 70
     8
  0
VERTEX
  8
ガラス
 10
-23.075
 20
-106.025
 70
     8
  0
VERTEX
  8
ガラス
 10
-23.075
 20
-106.075
 70
     8
  0
VERTEX
  8
ガラス
 10
-23.1
 20
-106.125
 70
     8
  0
VERTEX
  8
ガラス
 10
-23.125
 20
-106.2
 70
     8
  0
VERTEX
  8
ガラス
 10
-23.15
 20
-106.25
 70
     8
  0
VERTEX
  8
ガラス
 10
-23.15
 20
-106.3
 70
     8
  0
VERTEX
  8
ガラス
 10
-23.175
 20
-106.375
 70
     8
  0
VERTEX
  8
ガラス
 10
-23.2
 20
-106.425
 70
     8
  0
VERTEX
  8
ガラス
 10
-23.2
 20
-106.475
 70
     8
  0
VERTEX
  8
ガラス
 10
-23.225
 20
-106.55
 70
     8
  0
VERTEX
  8
ガラス
 10
-23.225
 20
-106.6
 70
     8
  0
VERTEX
  8
ガラス
 10
-23.25
 20
-106.65
 70
     8
  0
VERTEX
  8
ガラス
 10
-23.25
 20
-106.725
 70
     8
  0
VERTEX
  8
ガラス
 10
-23.275
 20
-106.775
 70
     8
  0
VERTEX
  8
ガラス
 10
-23.275
 20
-106.85
 70
     8
  0
VERTEX
  8
ガラス
 10
-23.3
 20
-106.9
 70
     8
  0
VERTEX
  8
ガラス
 10
-23.3
 20
-106.95
 70
     8
  0
VERTEX
  8
ガラス
 10
-23.3
 20
-107.025
 70
     8
  0
VERTEX
  8
ガラス
 10
-23.325
 20
-107.075
 70
     8
  0
VERTEX
  8
ガラス
 10
-23.325
 20
-107.15
 70
     8
  0
VERTEX
  8
ガラス
 10
-23.325
 20
-107.2
 70
     8
  0
VERTEX
  8
ガラス
 10
-23.35
 20
-107.275
 70
     8
  0
VERTEX
  8
ガラス
 10
-23.35
 20
-107.325
 70
     8
  0
VERTEX
  8
ガラス
 10
-23.35
 20
-107.4
 70
     8
  0
VERTEX
  8
ガラス
 10
-23.35
 20
-107.45
 70
     8
  0
VERTEX
  8
ガラス
 10
-23.375
 20
-107.5
 70
     8
  0
VERTEX
  8
ガラス
 10
-23.375
 20
-107.575
 70
     8
  0
SEQEND
  0
ARC
  8
ガラス
  6
CONTINUOUS
 10
-24.310446
 20
-107.445485
 40
0.955135
 50
173.117443
 51
353.117443
  0
ENDBLK
  0
BLOCK
  2
*GRP_0069
 70
    65
 10
0.0
 20
0.0
  0
POLYLINE
  8
ガラス
  6
CONTINUOUS
 66
     1
 70
     4
  0
VERTEX
  8
ガラス
 10
-28.275
 20
-115.975
 70
     8
  0
VERTEX
  8
ガラス
 10
-28.25
 20
-115.9
 70
     8
  0
VERTEX
  8
ガラス
 10
-28.2
 20
-115.8
 70
     8
  0
VERTEX
  8
ガラス
 10
-28.175
 20
-115.725
 70
     8
  0
VERTEX
  8
ガラス
 10
-28.125
 20
-115.625
 70
     8
  0
VERTEX
  8
ガラス
 10
-28.1
 20
-115.55
 70
     8
  0
VERTEX
  8
ガラス
 10
-28.05
 20
-115.475
 70
     8
  0
VERTEX
  8
ガラス
 10
-28.025
 20
-115.375
 70
     8
  0
VERTEX
  8
ガラス
 10
-27.975
 20
-115.3
 70
     8
  0
VERTEX
  8
ガラス
 10
-27.95
 20
-115.225
 70
     8
  0
VERTEX
  8
ガラス
 10
-27.9
 20
-115.15
 70
     8
  0
VERTEX
  8
ガラス
 10
-27.85
 20
-115.075
 70
     8
  0
VERTEX
  8
ガラス
 10
-27.8
 20
-115.0
 70
     8
  0
VERTEX
  8
ガラス
 10
-27.775
 20
-114.925
 70
     8
  0
VERTEX
  8
ガラス
 10
-27.725
 20
-114.85
 70
     8
  0
VERTEX
  8
ガラス
 10
-27.675
 20
-114.775
 70
     8
  0
VERTEX
  8
ガラス
 10
-27.625
 20
-114.7
 70
     8
  0
VERTEX
  8
ガラス
 10
-27.55
 20
-114.65
 70
     8
  0
VERTEX
  8
ガラス
 10
-27.5
 20
-114.575
 70
     8
  0
VERTEX
  8
ガラス
 10
-27.45
 20
-114.525
 70
     8
  0
VERTEX
  8
ガラス
 10
-27.375
 20
-114.475
 70
     8
  0
VERTEX
  8
ガラス
 10
-27.325
 20
-114.425
 70
     8
  0
VERTEX
  8
ガラス
 10
-27.25
 20
-114.375
 70
     8
  0
VERTEX
  8
ガラス
 10
-27.175
 20
-114.325
 70
     8
  0
VERTEX
  8
ガラス
 10
-27.125
 20
-114.275
 70
     8
  0
VERTEX
  8
ガラス
 10
-27.05
 20
-114.225
 70
     8
  0
VERTEX
  8
ガラス
 10
-26.975
 20
-114.2
 70
     8
  0
VERTEX
  8
ガラス
 10
-26.875
 20
-114.175
 70
     8
  0
VERTEX
  8
ガラス
 10
-26.8
 20
-114.125
 70
     8
  0
VERTEX
  8
ガラス
 10
-26.725
 20
-114.1
 70
     8
  0
VERTEX
  8
ガラス
 10
-26.65
 20
-114.075
 70
     8
  0
VERTEX
  8
ガラス
 10
-26.55
 20
-114.05
 70
     8
  0
VERTEX
  8
ガラス
 10
-26.475
 20
-114.025
 70
     8
  0
VERTEX
  8
ガラス
 10
-26.375
 20
-114.0
 70
     8
  0
VERTEX
  8
ガラス
 10
-26.3
 20
-113.975
 70
     8
  0
VERTEX
  8
ガラス
 10
-26.2
 20
-113.95
 70
     8
  0
VERTEX
  8
ガラス
 10
-26.125
 20
-113.925
 70
     8
  0
VERTEX
  8
ガラス
 10
-26.025
 20
-113.9
 70
     8
  0
VERTEX
  8
ガラス
 10
-25.925
 20
-113.9
 70
     8
  0
VERTEX
  8
ガラス
 10
-25.85
 20
-113.875
 70
     8
  0
VERTEX
  8
ガラス
 10
-25.75
 20
-113.85
 70
     8
  0
SEQEND
  0
POLYLINE
  8
ガラス
  6
CONTINUOUS
 66
     1
 70
     4
  0
VERTEX
  8
ガラス
 10
-25.75
 20
-113.85
 70
     8
  0
VERTEX
  8
ガラス
 10
-25.775
 20
-113.9
 70
     8
  0
VERTEX
  8
ガラス
 10
-25.8
 20
-113.975
 70
     8
  0
VERTEX
  8
ガラス
 10
-25.825
 20
-114.025
 70
     8
  0
VERTEX
  8
ガラス
 10
-25.85
 20
-114.075
 70
     8
  0
VERTEX
  8
ガラス
 10
-25.875
 20
-114.125
 70
     8
  0
VERTEX
  8
ガラス
 10
-25.9
 20
-114.2
 70
     8
  0
VERTEX
  8
ガラス
 10
-25.925
 20
-114.25
 70
     8
  0
VERTEX
  8
ガラス
 10
-25.95
 20
-114.3
 70
     8
  0
VERTEX
  8
ガラス
 10
-25.975
 20
-114.375
 70
     8
  0
VERTEX
  8
ガラス
 10
-26.0
 20
-114.425
 70
     8
  0
VERTEX
  8
ガラス
 10
-26.0
 20
-114.475
 70
     8
  0
VERTEX
  8
ガラス
 10
-26.025
 20
-114.525
 70
     8
  0
VERTEX
  8
ガラス
 10
-26.05
 20
-114.6
 70
     8
  0
VERTEX
  8
ガラス
 10
-26.075
 20
-114.65
 70
     8
  0
VERTEX
  8
ガラス
 10
-26.1
 20
-114.7
 70
     8
  0
VERTEX
  8
ガラス
 10
-26.1
 20
-114.775
 70
     8
  0
VERTEX
  8
ガラス
 10
-26.125
 20
-114.825
 70
     8
  0
VERTEX
  8
ガラス
 10
-26.15
 20
-114.875
 70
     8
  0
VERTEX
  8
ガラス
 10
-26.175
 20
-114.95
 70
     8
  0
VERTEX
  8
ガラス
 10
-26.175
 20
-115.0
 70
     8
  0
VERTEX
  8
ガラス
 10
-26.2
 20
-115.05
 70
     8
  0
VERTEX
  8
ガラス
 10
-26.225
 20
-115.125
 70
     8
  0
VERTEX
  8
ガラス
 10
-26.225
 20
-115.175
 70
     8
  0
VERTEX
  8
ガラス
 10
-26.25
 20
-115.25
 70
     8
  0
VERTEX
  8
ガラス
 10
-26.25
 20
-115.3
 70
     8
  0
VERTEX
  8
ガラス
 10
-26.275
 20
-115.35
 70
     8
  0
VERTEX
  8
ガラス
 10
-26.275
 20
-115.425
 70
     8
  0
VERTEX
  8
ガラス
 10
-26.275
 20
-115.475
 70
     8
  0
VERTEX
  8
ガラス
 10
-26.3
 20
-115.55
 70
     8
  0
VERTEX
  8
ガラス
 10
-26.3
 20
-115.6
 70
     8
  0
VERTEX
  8
ガラス
 10
-26.325
 20
-115.65
 70
     8
  0
VERTEX
  8
ガラス
 10
-26.325
 20
-115.725
 70
     8
  0
VERTEX
  8
ガラス
 10
-26.325
 20
-115.775
 70
     8
  0
VERTEX
  8
ガラス
 10
-26.35
 20
-115.85
 70
     8
  0
VERTEX
  8
ガラス
 10
-26.35
 20
-115.9
 70
     8
  0
VERTEX
  8
ガラス
 10
-26.35
 20
-115.975
 70
     8
  0
VERTEX
  8
ガラス
 10
-26.35
 20
-116.025
 70
     8
  0
VERTEX
  8
ガラス
 10
-26.375
 20
-116.075
 70
     8
  0
VERTEX
  8
ガラス
 10
-26.375
 20
-116.15
 70
     8
  0
VERTEX
  8
ガラス
 10
-26.375
 20
-116.2
 70
     8
  0
SEQEND
  0
ARC
  8
ガラス
  6
CONTINUOUS
 10
-27.319399
 20
-116.082295
 40
0.955135
 50
173.117443
 51
353.117443
  0
ENDBLK
  0
BLOCK
  2
*GRP_0070
 70
    65
 10
0.0
 20
0.0
  0
POLYLINE
  8
ガラス
  6
CONTINUOUS
 66
     1
 70
     4
  0
VERTEX
  8
ガラス
 10
67.7
 20
-104.75
 70
     8
  0
VERTEX
  8
ガラス
 10
67.8
 20
-104.725
 70
     8
  0
VERTEX
  8
ガラス
 10
67.9
 20
-104.725
 70
     8
  0
VERTEX
  8
ガラス
 10
67.975
 20
-104.7
 70
     8
  0
VERTEX
  8
ガラス
 10
68.075
 20
-104.7
 70
     8
  0
VERTEX
  8
ガラス
 10
68.175
 20
-104.7
 70
     8
  0
VERTEX
  8
ガラス
 10
68.25
 20
-104.675
 70
     8
  0
VERTEX
  8
ガラス
 10
68.35
 20
-104.675
 70
     8
  0
VERTEX
  8
ガラス
 10
68.45
 20
-104.675
 70
     8
  0
VERTEX
  8
ガラス
 10
68.525
 20
-104.675
 70
     8
  0
VERTEX
  8
ガラス
 10
68.625
 20
-104.675
 70
     8
  0
VERTEX
  8
ガラス
 10
68.725
 20
-104.675
 70
     8
  0
VERTEX
  8
ガラス
 10
68.8
 20
-104.675
 70
     8
  0
VERTEX
  8
ガラス
 10
68.9
 20
-104.675
 70
     8
  0
VERTEX
  8
ガラス
 10
68.975
 20
-104.675
 70
     8
  0
VERTEX
  8
ガラス
 10
69.05
 20
-104.7
 70
     8
  0
VERTEX
  8
ガラス
 10
69.15
 20
-104.7
 70
     8
  0
VERTEX
  8
ガラス
 10
69.225
 20
-104.725
 70
     8
  0
VERTEX
  8
ガラス
 10
69.3
 20
-104.725
 70
     8
  0
VERTEX
  8
ガラス
 10
69.375
 20
-104.75
 70
     8
  0
VERTEX
  8
ガラス
 10
69.475
 20
-104.775
 70
     8
  0
VERTEX
  8
ガラス
 10
69.55
 20
-104.825
 70
     8
  0
VERTEX
  8
ガラス
 10
69.625
 20
-104.85
 70
     8
  0
VERTEX
  8
ガラス
 10
69.7
 20
-104.9
 70
     8
  0
VERTEX
  8
ガラス
 10
69.775
 20
-104.925
 70
     8
  0
VERTEX
  8
ガラス
 10
69.825
 20
-104.975
 70
     8
  0
VERTEX
  8
ガラス
 10
69.9
 20
-105.025
 70
     8
  0
VERTEX
  8
ガラス
 10
69.975
 20
-105.075
 70
     8
  0
VERTEX
  8
ガラス
 10
70.05
 20
-105.125
 70
     8
  0
VERTEX
  8
ガラス
 10
70.1
 20
-105.175
 70
     8
  0
VERTEX
  8
ガラス
 10
70.175
 20
-105.25
 70
     8
  0
VERTEX
  8
ガラス
 10
70.225
 20
-105.3
 70
     8
  0
VERTEX
  8
ガラス
 10
70.3
 20
-105.375
 70
     8
  0
VERTEX
  8
ガラス
 10
70.375
 20
-105.425
 70
     8
  0
VERTEX
  8
ガラス
 10
70.425
 20
-105.5
 70
     8
  0
VERTEX
  8
ガラス
 10
70.5
 20
-105.55
 70
     8
  0
VERTEX
  8
ガラス
 10
70.55
 20
-105.625
 70
     8
  0
VERTEX
  8
ガラス
 10
70.625
 20
-105.7
 70
     8
  0
VERTEX
  8
ガラス
 10
70.675
 20
-105.775
 70
     8
  0
VERTEX
  8
ガラス
 10
70.725
 20
-105.85
 70
     8
  0
VERTEX
  8
ガラス
 10
70.8
 20
-105.9
 70
     8
  0
SEQEND
  0
POLYLINE
  8
ガラス
  6
CONTINUOUS
 66
     1
 70
     4
  0
VERTEX
  8
ガラス
 10
70.8
 20
-105.9
 70
     8
  0
VERTEX
  8
ガラス
 10
70.725
 20
-105.925
 70
     8
  0
VERTEX
  8
ガラス
 10
70.675
 20
-105.925
 70
     8
  0
VERTEX
  8
ガラス
 10
70.625
 20
-105.925
 70
     8
  0
VERTEX
  8
ガラス
 10
70.55
 20
-105.925
 70
     8
  0
VERTEX
  8
ガラス
 10
70.5
 20
-105.95
 70
     8
  0
VERTEX
  8
ガラス
 10
70.425
 20
-105.95
 70
     8
  0
VERTEX
  8
ガラス
 10
70.375
 20
-105.95
 70
     8
  0
VERTEX
  8
ガラス
 10
70.3
 20
-105.975
 70
     8
  0
VERTEX
  8
ガラス
 10
70.25
 20
-105.975
 70
     8
  0
VERTEX
  8
ガラス
 10
70.175
 20
-105.975
 70
     8
  0
VERTEX
  8
ガラス
 10
70.125
 20
-106.0
 70
     8
  0
VERTEX
  8
ガラス
 10
70.075
 20
-106.0
 70
     8
  0
VERTEX
  8
ガラス
 10
70.0
 20
-106.0
 70
     8
  0
VERTEX
  8
ガラス
 10
69.95
 20
-106.025
 70
     8
  0
VERTEX
  8
ガラス
 10
69.875
 20
-106.025
 70
     8
  0
VERTEX
  8
ガラス
 10
69.825
 20
-106.05
 70
     8
  0
VERTEX
  8
ガラス
 10
69.775
 20
-106.05
 70
     8
  0
VERTEX
  8
ガラス
 10
69.7
 20
-106.075
 70
     8
  0
VERTEX
  8
ガラス
 10
69.65
 20
-106.075
 70
     8
  0
VERTEX
  8
ガラス
 10
69.575
 20
-106.1
 70
     8
  0
VERTEX
  8
ガラス
 10
69.525
 20
-106.1
 70
     8
  0
VERTEX
  8
ガラス
 10
69.475
 20
-106.125
 70
     8
  0
VERTEX
  8
ガラス
 10
69.4
 20
-106.15
 70
     8
  0
VERTEX
  8
ガラス
 10
69.35
 20
-106.15
 70
     8
  0
VERTEX
  8
ガラス
 10
69.3
 20
-106.175
 70
     8
  0
VERTEX
  8
ガラス
 10
69.225
 20
-106.2
 70
     8
  0
VERTEX
  8
ガラス
 10
69.175
 20
-106.225
 70
     8
  0
VERTEX
  8
ガラス
 10
69.125
 20
-106.225
 70
     8
  0
VERTEX
  8
ガラス
 10
69.05
 20
-106.25
 70
     8
  0
VERTEX
  8
ガラス
 10
69.0
 20
-106.275
 70
     8
  0
VERTEX
  8
ガラス
 10
68.95
 20
-106.3
 70
     8
  0
VERTEX
  8
ガラス
 10
68.875
 20
-106.325
 70
     8
  0
VERTEX
  8
ガラス
 10
68.825
 20
-106.35
 70
     8
  0
VERTEX
  8
ガラス
 10
68.775
 20
-106.375
 70
     8
  0
VERTEX
  8
ガラス
 10
68.725
 20
-106.4
 70
     8
  0
VERTEX
  8
ガラス
 10
68.65
 20
-106.425
 70
     8
  0
VERTEX
  8
ガラス
 10
68.6
 20
-106.425
 70
     8
  0
VERTEX
  8
ガラス
 10
68.55
 20
-106.45
 70
     8
  0
VERTEX
  8
ガラス
 10
68.5
 20
-106.475
 70
     8
  0
VERTEX
  8
ガラス
 10
68.425
 20
-106.5
 70
     8
  0
SEQEND
  0
ARC
  8
ガラス
  6
CONTINUOUS
 10
68.081739
 20
-105.610757
 40
0.955135
 50
112.264588
 51
292.264588
  0
ENDBLK
  0
BLOCK
  2
*GRP_0071
 70
    65
 10
0.0
 20
0.0
  0
POLYLINE
  8
ガラス
  6
CONTINUOUS
 66
     1
 70
     4
  0
VERTEX
  8
ガラス
 10
51.65
 20
-104.75
 70
     8
  0
VERTEX
  8
ガラス
 10
51.75
 20
-104.725
 70
     8
  0
VERTEX
  8
ガラス
 10
51.85
 20
-104.725
 70
     8
  0
VERTEX
  8
ガラス
 10
51.95
 20
-104.7
 70
     8
  0
VERTEX
  8
ガラス
 10
52.025
 20
-104.7
 70
     8
  0
VERTEX
  8
ガラス
 10
52.125
 20
-104.7
 70
     8
  0
VERTEX
  8
ガラス
 10
52.225
 20
-104.675
 70
     8
  0
VERTEX
  8
ガラス
 10
52.3
 20
-104.675
 70
     8
  0
VERTEX
  8
ガラス
 10
52.4
 20
-104.675
 70
     8
  0
VERTEX
  8
ガラス
 10
52.475
 20
-104.675
 70
     8
  0
VERTEX
  8
ガラス
 10
52.575
 20
-104.675
 70
     8
  0
VERTEX
  8
ガラス
 10
52.675
 20
-104.675
 70
     8
  0
VERTEX
  8
ガラス
 10
52.75
 20
-104.675
 70
     8
  0
VERTEX
  8
ガラス
 10
52.85
 20
-104.675
 70
     8
  0
VERTEX
  8
ガラス
 10
52.925
 20
-104.675
 70
     8
  0
VERTEX
  8
ガラス
 10
53.0
 20
-104.7
 70
     8
  0
VERTEX
  8
ガラス
 10
53.1
 20
-104.7
 70
     8
  0
VERTEX
  8
ガラス
 10
53.175
 20
-104.725
 70
     8
  0
VERTEX
  8
ガラス
 10
53.25
 20
-104.725
 70
     8
  0
VERTEX
  8
ガラス
 10
53.35
 20
-104.75
 70
     8
  0
VERTEX
  8
ガラス
 10
53.425
 20
-104.775
 70
     8
  0
VERTEX
  8
ガラス
 10
53.5
 20
-104.825
 70
     8
  0
VERTEX
  8
ガラス
 10
53.575
 20
-104.85
 70
     8
  0
VERTEX
  8
ガラス
 10
53.65
 20
-104.9
 70
     8
  0
VERTEX
  8
ガラス
 10
53.725
 20
-104.925
 70
     8
  0
VERTEX
  8
ガラス
 10
53.775
 20
-104.975
 70
     8
  0
VERTEX
  8
ガラス
 10
53.85
 20
-105.025
 70
     8
  0
VERTEX
  8
ガラス
 10
53.925
 20
-105.075
 70
     8
  0
VERTEX
  8
ガラス
 10
54.0
 20
-105.125
 70
     8
  0
VERTEX
  8
ガラス
 10
54.05
 20
-105.175
 70
     8
  0
VERTEX
  8
ガラス
 10
54.125
 20
-105.25
 70
     8
  0
VERTEX
  8
ガラス
 10
54.2
 20
-105.3
 70
     8
  0
VERTEX
  8
ガラス
 10
54.25
 20
-105.375
 70
     8
  0
VERTEX
  8
ガラス
 10
54.325
 20
-105.425
 70
     8
  0
VERTEX
  8
ガラス
 10
54.375
 20
-105.5
 70
     8
  0
VERTEX
  8
ガラス
 10
54.45
 20
-105.55
 70
     8
  0
VERTEX
  8
ガラス
 10
54.5
 20
-105.625
 70
     8
  0
VERTEX
  8
ガラス
 10
54.575
 20
-105.7
 70
     8
  0
VERTEX
  8
ガラス
 10
54.625
 20
-105.775
 70
     8
  0
VERTEX
  8
ガラス
 10
54.7
 20
-105.85
 70
     8
  0
VERTEX
  8
ガラス
 10
54.75
 20
-105.9
 70
     8
  0
SEQEND
  0
POLYLINE
  8
ガラス
  6
CONTINUOUS
 66
     1
 70
     4
  0
VERTEX
  8
ガラス
 10
54.75
 20
-105.9
 70
     8
  0
VERTEX
  8
ガラス
 10
54.7
 20
-105.925
 70
     8
  0
VERTEX
  8
ガラス
 10
54.625
 20
-105.925
 70
     8
  0
VERTEX
  8
ガラス
 10
54.575
 20
-105.925
 70
     8
  0
VERTEX
  8
ガラス
 10
54.5
 20
-105.925
 70
     8
  0
VERTEX
  8
ガラス
 10
54.45
 20
-105.95
 70
     8
  0
VERTEX
  8
ガラス
 10
54.375
 20
-105.95
 70
     8
  0
VERTEX
  8
ガラス
 10
54.325
 20
-105.95
 70
     8
  0
VERTEX
  8
ガラス
 10
54.25
 20
-105.975
 70
     8
  0
VERTEX
  8
ガラス
 10
54.2
 20
-105.975
 70
     8
  0
VERTEX
  8
ガラス
 10
54.15
 20
-105.975
 70
     8
  0
VERTEX
  8
ガラス
 10
54.075
 20
-106.0
 70
     8
  0
VERTEX
  8
ガラス
 10
54.025
 20
-106.0
 70
     8
  0
VERTEX
  8
ガラス
 10
53.95
 20
-106.0
 70
     8
  0
VERTEX
  8
ガラス
 10
53.9
 20
-106.025
 70
     8
  0
VERTEX
  8
ガラス
 10
53.825
 20
-106.025
 70
     8
  0
VERTEX
  8
ガラス
 10
53.775
 20
-106.05
 70
     8
  0
VERTEX
  8
ガラス
 10
53.725
 20
-106.05
 70
     8
  0
VERTEX
  8
ガラス
 10
53.65
 20
-106.075
 70
     8
  0
VERTEX
  8
ガラス
 10
53.6
 20
-106.075
 70
     8
  0
VERTEX
  8
ガラス
 10
53.525
 20
-106.1
 70
     8
  0
VERTEX
  8
ガラス
 10
53.475
 20
-106.1
 70
     8
  0
VERTEX
  8
ガラス
 10
53.425
 20
-106.125
 70
     8
  0
VERTEX
  8
ガラス
 10
53.35
 20
-106.15
 70
     8
  0
VERTEX
  8
ガラス
 10
53.3
 20
-106.15
 70
     8
  0
VERTEX
  8
ガラス
 10
53.25
 20
-106.175
 70
     8
  0
VERTEX
  8
ガラス
 10
53.175
 20
-106.2
 70
     8
  0
VERTEX
  8
ガラス
 10
53.125
 20
-106.225
 70
     8
  0
VERTEX
  8
ガラス
 10
53.075
 20
-106.225
 70
     8
  0
VERTEX
  8
ガラス
 10
53.0
 20
-106.25
 70
     8
  0
VERTEX
  8
ガラス
 10
52.95
 20
-106.275
 70
     8
  0
VERTEX
  8
ガラス
 10
52.9
 20
-106.3
 70
     8
  0
VERTEX
  8
ガラス
 10
52.85
 20
-106.325
 70
     8
  0
VERTEX
  8
ガラス
 10
52.775
 20
-106.35
 70
     8
  0
VERTEX
  8
ガラス
 10
52.725
 20
-106.375
 70
     8
  0
VERTEX
  8
ガラス
 10
52.675
 20
-106.4
 70
     8
  0
VERTEX
  8
ガラス
 10
52.6
 20
-106.425
 70
     8
  0
VERTEX
  8
ガラス
 10
52.55
 20
-106.425
 70
     8
  0
VERTEX
  8
ガラス
 10
52.5
 20
-106.45
 70
     8
  0
VERTEX
  8
ガラス
 10
52.45
 20
-106.475
 70
     8
  0
VERTEX
  8
ガラス
 10
52.375
 20
-106.5
 70
     8
  0
SEQEND
  0
ARC
  8
ガラス
  6
CONTINUOUS
 10
52.033988
 20
-105.610757
 40
0.955135
 50
112.264588
 51
292.264588
  0
ENDBLK
  0
BLOCK
  2
*GRP_0072
 70
    65
 10
0.0
 20
0.0
  0
POLYLINE
  8
ガラス
  6
CONTINUOUS
 66
     1
 70
     4
  0
VERTEX
  8
ガラス
 10
30.425
 20
-104.75
 70
     8
  0
VERTEX
  8
ガラス
 10
30.525
 20
-104.725
 70
     8
  0
VERTEX
  8
ガラス
 10
30.625
 20
-104.725
 70
     8
  0
VERTEX
  8
ガラス
 10
30.7
 20
-104.7
 70
     8
  0
VERTEX
  8
ガラス
 10
30.8
 20
-104.7
 70
     8
  0
VERTEX
  8
ガラス
 10
30.9
 20
-104.7
 70
     8
  0
VERTEX
  8
ガラス
 10
30.975
 20
-104.675
 70
     8
  0
VERTEX
  8
ガラス
 10
31.075
 20
-104.675
 70
     8
  0
VERTEX
  8
ガラス
 10
31.175
 20
-104.675
 70
     8
  0
VERTEX
  8
ガラス
 10
31.25
 20
-104.675
 70
     8
  0
VERTEX
  8
ガラス
 10
31.35
 20
-104.675
 70
     8
  0
VERTEX
  8
ガラス
 10
31.425
 20
-104.675
 70
     8
  0
VERTEX
  8
ガラス
 10
31.525
 20
-104.675
 70
     8
  0
VERTEX
  8
ガラス
 10
31.6
 20
-104.675
 70
     8
  0
VERTEX
  8
ガラス
 10
31.7
 20
-104.675
 70
     8
  0
VERTEX
  8
ガラス
 10
31.775
 20
-104.7
 70
     8
  0
VERTEX
  8
ガラス
 10
31.875
 20
-104.7
 70
     8
  0
VERTEX
  8
ガラス
 10
31.95
 20
-104.725
 70
     8
  0
VERTEX
  8
ガラス
 10
32.025
 20
-104.725
 70
     8
  0
VERTEX
  8
ガラス
 10
32.1
 20
-104.75
 70
     8
  0
VERTEX
  8
ガラス
 10
32.175
 20
-104.775
 70
     8
  0
VERTEX
  8
ガラス
 10
32.275
 20
-104.825
 70
     8
  0
VERTEX
  8
ガラス
 10
32.35
 20
-104.85
 70
     8
  0
VERTEX
  8
ガラス
 10
32.425
 20
-104.9
 70
     8
  0
VERTEX
  8
ガラス
 10
32.475
 20
-104.925
 70
     8
  0
VERTEX
  8
ガラス
 10
32.55
 20
-104.975
 70
     8
  0
VERTEX
  8
ガラス
 10
32.625
 20
-105.025
 70
     8
  0
VERTEX
  8
ガラス
 10
32.7
 20
-105.075
 70
     8
  0
VERTEX
  8
ガラス
 10
32.75
 20
-105.125
 70
     8
  0
VERTEX
  8
ガラス
 10
32.825
 20
-105.175
 70
     8
  0
VERTEX
  8
ガラス
 10
32.9
 20
-105.25
 70
     8
  0
VERTEX
  8
ガラス
 10
32.95
 20
-105.3
 70
     8
  0
VERTEX
  8
ガラス
 10
33.025
 20
-105.375
 70
     8
  0
VERTEX
  8
ガラス
 10
33.075
 20
-105.425
 70
     8
  0
VERTEX
  8
ガラス
 10
33.15
 20
-105.5
 70
     8
  0
VERTEX
  8
ガラス
 10
33.2
 20
-105.55
 70
     8
  0
VERTEX
  8
ガラス
 10
33.275
 20
-105.625
 70
     8
  0
VERTEX
  8
ガラス
 10
33.325
 20
-105.7
 70
     8
  0
VERTEX
  8
ガラス
 10
33.4
 20
-105.775
 70
     8
  0
VERTEX
  8
ガラス
 10
33.45
 20
-105.85
 70
     8
  0
VERTEX
  8
ガラス
 10
33.525
 20
-105.9
 70
     8
  0
SEQEND
  0
POLYLINE
  8
ガラス
  6
CONTINUOUS
 66
     1
 70
     4
  0
VERTEX
  8
ガラス
 10
33.525
 20
-105.9
 70
     8
  0
VERTEX
  8
ガラス
 10
33.45
 20
-105.925
 70
     8
  0
VERTEX
  8
ガラス
 10
33.4
 20
-105.925
 70
     8
  0
VERTEX
  8
ガラス
 10
33.325
 20
-105.925
 70
     8
  0
VERTEX
  8
ガラス
 10
33.275
 20
-105.925
 70
     8
  0
VERTEX
  8
ガラス
 10
33.225
 20
-105.95
 70
     8
  0
VERTEX
  8
ガラス
 10
33.15
 20
-105.95
 70
     8
  0
VERTEX
  8
ガラス
 10
33.1
 20
-105.95
 70
     8
  0
VERTEX
  8
ガラス
 10
33.025
 20
-105.975
 70
     8
  0
VERTEX
  8
ガラス
 10
32.975
 20
-105.975
 70
     8
  0
VERTEX
  8
ガラス
 10
32.9
 20
-105.975
 70
     8
  0
VERTEX
  8
ガラス
 10
32.85
 20
-106.0
 70
     8
  0
VERTEX
  8
ガラス
 10
32.775
 20
-106.0
 70
     8
  0
VERTEX
  8
ガラス
 10
32.725
 20
-106.0
 70
     8
  0
VERTEX
  8
ガラス
 10
32.675
 20
-106.025
 70
     8
  0
VERTEX
  8
ガラス
 10
32.6
 20
-106.025
 70
     8
  0
VERTEX
  8
ガラス
 10
32.55
 20
-106.05
 70
     8
  0
VERTEX
  8
ガラス
 10
32.475
 20
-106.05
 70
     8
  0
VERTEX
  8
ガラス
 10
32.425
 20
-106.075
 70
     8
  0
VERTEX
  8
ガラス
 10
32.375
 20
-106.075
 70
     8
  0
VERTEX
  8
ガラス
 10
32.3
 20
-106.1
 70
     8
  0
VERTEX
  8
ガラス
 10
32.25
 20
-106.1
 70
     8
  0
VERTEX
  8
ガラス
 10
32.2
 20
-106.125
 70
     8
  0
VERTEX
  8
ガラス
 10
32.125
 20
-106.15
 70
     8
  0
VERTEX
  8
ガラス
 10
32.075
 20
-106.15
 70
     8
  0
VERTEX
  8
ガラス
 10
32.025
 20
-106.175
 70
     8
  0
VERTEX
  8
ガラス
 10
31.95
 20
-106.2
 70
     8
  0
VERTEX
  8
ガラス
 10
31.9
 20
-106.225
 70
     8
  0
VERTEX
  8
ガラス
 10
31.85
 20
-106.225
 70
     8
  0
VERTEX
  8
ガラス
 10
31.775
 20
-106.25
 70
     8
  0
VERTEX
  8
ガラス
 10
31.725
 20
-106.275
 70
     8
  0
VERTEX
  8
ガラス
 10
31.675
 20
-106.3
 70
     8
  0
VERTEX
  8
ガラス
 10
31.6
 20
-106.325
 70
     8
  0
VERTEX
  8
ガラス
 10
31.55
 20
-106.35
 70
     8
  0
VERTEX
  8
ガラス
 10
31.5
 20
-106.375
 70
     8
  0
VERTEX
  8
ガラス
 10
31.45
 20
-106.4
 70
     8
  0
VERTEX
  8
ガラス
 10
31.375
 20
-106.425
 70
     8
  0
VERTEX
  8
ガラス
 10
31.325
 20
-106.425
 70
     8
  0
VERTEX
  8
ガラス
 10
31.275
 20
-106.45
 70
     8
  0
VERTEX
  8
ガラス
 10
31.2
 20
-106.475
 70
     8
  0
VERTEX
  8
ガラス
 10
31.15
 20
-106.5
 70
     8
  0
SEQEND
  0
ARC
  8
ガラス
  6
CONTINUOUS
 10
30.804152
 20
-105.610757
 40
0.955135
 50
112.264588
 51
292.264588
  0
ENDBLK
  0
BLOCK
  2
*GRP_0073
 70
    65
 10
0.0
 20
0.0
  0
POLYLINE
  8
ガラス
  6
CONTINUOUS
 66
     1
 70
     4
  0
VERTEX
  8
ガラス
 10
13.725
 20
-104.75
 70
     8
  0
VERTEX
  8
ガラス
 10
13.8
 20
-104.725
 70
     8
  0
VERTEX
  8
ガラス
 10
13.9
 20
-104.725
 70
     8
  0
VERTEX
  8
ガラス
 10
14.0
 20
-104.7
 70
     8
  0
VERTEX
  8
ガラス
 10
14.075
 20
-104.7
 70
     8
  0
VERTEX
  8
ガラス
 10
14.175
 20
-104.7
 70
     8
  0
VERTEX
  8
ガラス
 10
14.275
 20
-104.675
 70
     8
  0
VERTEX
  8
ガラス
 10
14.35
 20
-104.675
 70
     8
  0
VERTEX
  8
ガラス
 10
14.45
 20
-104.675
 70
     8
  0
VERTEX
  8
ガラス
 10
14.55
 20
-104.675
 70
     8
  0
VERTEX
  8
ガラス
 10
14.625
 20
-104.675
 70
     8
  0
VERTEX
  8
ガラス
 10
14.725
 20
-104.675
 70
     8
  0
VERTEX
  8
ガラス
 10
14.8
 20
-104.675
 70
     8
  0
VERTEX
  8
ガラス
 10
14.9
 20
-104.675
 70
     8
  0
VERTEX
  8
ガラス
 10
14.975
 20
-104.675
 70
     8
  0
VERTEX
  8
ガラス
 10
15.075
 20
-104.7
 70
     8
  0
VERTEX
  8
ガラス
 10
15.15
 20
-104.7
 70
     8
  0
VERTEX
  8
ガラス
 10
15.225
 20
-104.725
 70
     8
  0
VERTEX
  8
ガラス
 10
15.3
 20
-104.725
 70
     8
  0
VERTEX
  8
ガラス
 10
15.4
 20
-104.75
 70
     8
  0
VERTEX
  8
ガラス
 10
15.475
 20
-104.775
 70
     8
  0
VERTEX
  8
ガラス
 10
15.55
 20
-104.825
 70
     8
  0
VERTEX
  8
ガラス
 10
15.625
 20
-104.85
 70
     8
  0
VERTEX
  8
ガラス
 10
15.7
 20
-104.9
 70
     8
  0
VERTEX
  8
ガラス
 10
15.775
 20
-104.925
 70
     8
  0
VERTEX
  8
ガラス
 10
15.85
 20
-104.975
 70
     8
  0
VERTEX
  8
ガラス
 10
15.9
 20
-105.025
 70
     8
  0
VERTEX
  8
ガラス
 10
15.975
 20
-105.075
 70
     8
  0
VERTEX
  8
ガラス
 10
16.05
 20
-105.125
 70
     8
  0
VERTEX
  8
ガラス
 10
16.125
 20
-105.175
 70
     8
  0
VERTEX
  8
ガラス
 10
16.175
 20
-105.25
 70
     8
  0
VERTEX
  8
ガラス
 10
16.25
 20
-105.3
 70
     8
  0
VERTEX
  8
ガラス
 10
16.3
 20
-105.375
 70
     8
  0
VERTEX
  8
ガラス
 10
16.375
 20
-105.425
 70
     8
  0
VERTEX
  8
ガラス
 10
16.425
 20
-105.5
 70
     8
  0
VERTEX
  8
ガラス
 10
16.5
 20
-105.55
 70
     8
  0
VERTEX
  8
ガラス
 10
16.55
 20
-105.625
 70
     8
  0
VERTEX
  8
ガラス
 10
16.625
 20
-105.7
 70
     8
  0
VERTEX
  8
ガラス
 10
16.675
 20
-105.775
 70
     8
  0
VERTEX
  8
ガラス
 10
16.75
 20
-105.85
 70
     8
  0
VERTEX
  8
ガラス
 10
16.8
 20
-105.9
 70
     8
  0
SEQEND
  0
POLYLINE
  8
ガラス
  6
CONTINUOUS
 66
     1
 70
     4
  0
VERTEX
  8
ガラス
 10
16.8
 20
-105.9
 70
     8
  0
VERTEX
  8
ガラス
 10
16.75
 20
-105.925
 70
     8
  0
VERTEX
  8
ガラス
 10
16.675
 20
-105.925
 70
     8
  0
VERTEX
  8
ガラス
 10
16.625
 20
-105.925
 70
     8
  0
VERTEX
  8
ガラス
 10
16.55
 20
-105.925
 70
     8
  0
VERTEX
  8
ガラス
 10
16.5
 20
-105.95
 70
     8
  0
VERTEX
  8
ガラス
 10
16.425
 20
-105.95
 70
     8
  0
VERTEX
  8
ガラス
 10
16.375
 20
-105.95
 70
     8
  0
VERTEX
  8
ガラス
 10
16.325
 20
-105.975
 70
     8
  0
VERTEX
  8
ガラス
 10
16.25
 20
-105.975
 70
     8
  0
VERTEX
  8
ガラス
 10
16.2
 20
-105.975
 70
     8
  0
VERTEX
  8
ガラス
 10
16.125
 20
-106.0
 70
     8
  0
VERTEX
  8
ガラス
 10
16.075
 20
-106.0
 70
     8
  0
VERTEX
  8
ガラス
 10
16.0
 20
-106.0
 70
     8
  0
VERTEX
  8
ガラス
 10
15.95
 20
-106.025
 70
     8
  0
VERTEX
  8
ガラス
 10
15.9
 20
-106.025
 70
     8
  0
VERTEX
  8
ガラス
 10
15.825
 20
-106.05
 70
     8
  0
VERTEX
  8
ガラス
 10
15.775
 20
-106.05
 70
     8
  0
VERTEX
  8
ガラス
 10
15.7
 20
-106.075
 70
     8
  0
VERTEX
  8
ガラス
 10
15.65
 20
-106.075
 70
     8
  0
VERTEX
  8
ガラス
 10
15.6
 20
-106.1
 70
     8
  0
VERTEX
  8
ガラス
 10
15.525
 20
-106.1
 70
     8
  0
VERTEX
  8
ガラス
 10
15.475
 20
-106.125
 70
     8
  0
VERTEX
  8
ガラス
 10
15.425
 20
-106.15
 70
     8
  0
VERTEX
  8
ガラス
 10
15.35
 20
-106.15
 70
     8
  0
VERTEX
  8
ガラス
 10
15.3
 20
-106.175
 70
     8
  0
VERTEX
  8
ガラス
 10
15.25
 20
-106.2
 70
     8
  0
VERTEX
  8
ガラス
 10
15.175
 20
-106.225
 70
     8
  0
VERTEX
  8
ガラス
 10
15.125
 20
-106.225
 70
     8
  0
VERTEX
  8
ガラス
 10
15.075
 20
-106.25
 70
     8
  0
VERTEX
  8
ガラス
 10
15.0
 20
-106.275
 70
     8
  0
VERTEX
  8
ガラス
 10
14.95
 20
-106.3
 70
     8
  0
VERTEX
  8
ガラス
 10
14.9
 20
-106.325
 70
     8
  0
VERTEX
  8
ガラス
 10
14.825
 20
-106.35
 70
     8
  0
VERTEX
  8
ガラス
 10
14.775
 20
-106.375
 70
     8
  0
VERTEX
  8
ガラス
 10
14.725
 20
-106.4
 70
     8
  0
VERTEX
  8
ガラス
 10
14.675
 20
-106.425
 70
     8
  0
VERTEX
  8
ガラス
 10
14.6
 20
-106.425
 70
     8
  0
VERTEX
  8
ガラス
 10
14.55
 20
-106.45
 70
     8
  0
VERTEX
  8
ガラス
 10
14.5
 20
-106.475
 70
     8
  0
VERTEX
  8
ガラス
 10
14.425
 20
-106.5
 70
     8
  0
SEQEND
  0
ARC
  8
ガラス
  6
CONTINUOUS
 10
14.087746
 20
-105.610757
 40
0.955135
 50
112.264588
 51
292.264588
  0
ENDBLK
  0
BLOCK
  2
*GRP_0074
 70
    65
 10
0.0
 20
0.0
  0
POLYLINE
  8
ガラス
  6
CONTINUOUS
 66
     1
 70
     4
  0
VERTEX
  8
ガラス
 10
-13.525
 20
-104.75
 70
     8
  0
VERTEX
  8
ガラス
 10
-13.45
 20
-104.725
 70
     8
  0
VERTEX
  8
ガラス
 10
-13.35
 20
-104.725
 70
     8
  0
VERTEX
  8
ガラス
 10
-13.25
 20
-104.7
 70
     8
  0
VERTEX
  8
ガラス
 10
-13.175
 20
-104.7
 70
     8
  0
VERTEX
  8
ガラス
 10
-13.075
 20
-104.7
 70
     8
  0
VERTEX
  8
ガラス
 10
-12.975
 20
-104.675
 70
     8
  0
VERTEX
  8
ガラス
 10
-12.9
 20
-104.675
 70
     8
  0
VERTEX
  8
ガラス
 10
-12.8
 20
-104.675
 70
     8
  0
VERTEX
  8
ガラス
 10
-12.7
 20
-104.675
 70
     8
  0
VERTEX
  8
ガラス
 10
-12.625
 20
-104.675
 70
     8
  0
VERTEX
  8
ガラス
 10
-12.525
 20
-104.675
 70
     8
  0
VERTEX
  8
ガラス
 10
-12.45
 20
-104.675
 70
     8
  0
VERTEX
  8
ガラス
 10
-12.35
 20
-104.675
 70
     8
  0
VERTEX
  8
ガラス
 10
-12.275
 20
-104.675
 70
     8
  0
VERTEX
  8
ガラス
 10
-12.175
 20
-104.7
 70
     8
  0
VERTEX
  8
ガラス
 10
-12.1
 20
-104.7
 70
     8
  0
VERTEX
  8
ガラス
 10
-12.025
 20
-104.725
 70
     8
  0
VERTEX
  8
ガラス
 10
-11.925
 20
-104.725
 70
     8
  0
VERTEX
  8
ガラス
 10
-11.85
 20
-104.75
 70
     8
  0
VERTEX
  8
ガラス
 10
-11.775
 20
-104.775
 70
     8
  0
VERTEX
  8
ガラス
 10
-11.7
 20
-104.825
 70
     8
  0
VERTEX
  8
ガラス
 10
-11.625
 20
-104.85
 70
     8
  0
VERTEX
  8
ガラス
 10
-11.55
 20
-104.9
 70
     8
  0
VERTEX
  8
ガラス
 10
-11.475
 20
-104.925
 70
     8
  0
VERTEX
  8
ガラス
 10
-11.4
 20
-104.975
 70
     8
  0
VERTEX
  8
ガラス
 10
-11.35
 20
-105.025
 70
     8
  0
VERTEX
  8
ガラス
 10
-11.275
 20
-105.075
 70
     8
  0
VERTEX
  8
ガラス
 10
-11.2
 20
-105.125
 70
     8
  0
VERTEX
  8
ガラス
 10
-11.125
 20
-105.175
 70
     8
  0
VERTEX
  8
ガラス
 10
-11.075
 20
-105.25
 70
     8
  0
VERTEX
  8
ガラス
 10
-11.0
 20
-105.3
 70
     8
  0
VERTEX
  8
ガラス
 10
-10.95
 20
-105.375
 70
     8
  0
VERTEX
  8
ガラス
 10
-10.875
 20
-105.425
 70
     8
  0
VERTEX
  8
ガラス
 10
-10.825
 20
-105.5
 70
     8
  0
VERTEX
  8
ガラス
 10
-10.75
 20
-105.55
 70
     8
  0
VERTEX
  8
ガラス
 10
-10.7
 20
-105.625
 70
     8
  0
VERTEX
  8
ガラス
 10
-10.625
 20
-105.7
 70
     8
  0
VERTEX
  8
ガラス
 10
-10.575
 20
-105.775
 70
     8
  0
VERTEX
  8
ガラス
 10
-10.5
 20
-105.85
 70
     8
  0
VERTEX
  8
ガラス
 10
-10.45
 20
-105.9
 70
     8
  0
SEQEND
  0
POLYLINE
  8
ガラス
  6
CONTINUOUS
 66
     1
 70
     4
  0
VERTEX
  8
ガラス
 10
-10.45
 20
-105.9
 70
     8
  0
VERTEX
  8
ガラス
 10
-10.5
 20
-105.925
 70
     8
  0
VERTEX
  8
ガラス
 10
-10.575
 20
-105.925
 70
     8
  0
VERTEX
  8
ガラス
 10
-10.625
 20
-105.925
 70
     8
  0
VERTEX
  8
ガラス
 10
-10.7
 20
-105.925
 70
     8
  0
VERTEX
  8
ガラス
 10
-10.75
 20
-105.95
 70
     8
  0
VERTEX
  8
ガラス
 10
-10.8
 20
-105.95
 70
     8
  0
VERTEX
  8
ガラス
 10
-10.875
 20
-105.95
 70
     8
  0
VERTEX
  8
ガラス
 10
-10.925
 20
-105.975
 70
     8
  0
VERTEX
  8
ガラス
 10
-11.0
 20
-105.975
 70
     8
  0
VERTEX
  8
ガラス
 10
-11.05
 20
-105.975
 70
     8
  0
VERTEX
  8
ガラス
 10
-11.125
 20
-106.0
 70
     8
  0
VERTEX
  8
ガラス
 10
-11.175
 20
-106.0
 70
     8
  0
VERTEX
  8
ガラス
 10
-11.25
 20
-106.0
 70
     8
  0
VERTEX
  8
ガラス
 10
-11.3
 20
-106.025
 70
     8
  0
VERTEX
  8
ガラス
 10
-11.35
 20
-106.025
 70
     8
  0
VERTEX
  8
ガラス
 10
-11.425
 20
-106.05
 70
     8
  0
VERTEX
  8
ガラス
 10
-11.475
 20
-106.05
 70
     8
  0
VERTEX
  8
ガラス
 10
-11.55
 20
-106.075
 70
     8
  0
VERTEX
  8
ガラス
 10
-11.6
 20
-106.075
 70
     8
  0
VERTEX
  8
ガラス
 10
-11.65
 20
-106.1
 70
     8
  0
VERTEX
  8
ガラス
 10
-11.725
 20
-106.1
 70
     8
  0
VERTEX
  8
ガラス
 10
-11.775
 20
-106.125
 70
     8
  0
VERTEX
  8
ガラス
 10
-11.825
 20
-106.15
 70
     8
  0
VERTEX
  8
ガラス
 10
-11.9
 20
-106.15
 70
     8
  0
VERTEX
  8
ガラス
 10
-11.95
 20
-106.175
 70
     8
  0
VERTEX
  8
ガラス
 10
-12.0
 20
-106.2
 70
     8
  0
VERTEX
  8
ガラス
 10
-12.075
 20
-106.225
 70
     8
  0
VERTEX
  8
ガラス
 10
-12.125
 20
-106.225
 70
     8
  0
VERTEX
  8
ガラス
 10
-12.175
 20
-106.25
 70
     8
  0
VERTEX
  8
ガラス
 10
-12.25
 20
-106.275
 70
     8
  0
VERTEX
  8
ガラス
 10
-12.3
 20
-106.3
 70
     8
  0
VERTEX
  8
ガラス
 10
-12.35
 20
-106.325
 70
     8
  0
VERTEX
  8
ガラス
 10
-12.4
 20
-106.35
 70
     8
  0
VERTEX
  8
ガラス
 10
-12.475
 20
-106.375
 70
     8
  0
VERTEX
  8
ガラス
 10
-12.525
 20
-106.4
 70
     8
  0
VERTEX
  8
ガラス
 10
-12.575
 20
-106.425
 70
     8
  0
VERTEX
  8
ガラス
 10
-12.65
 20
-106.425
 70
     8
  0
VERTEX
  8
ガラス
 10
-12.7
 20
-106.45
 70
     8
  0
VERTEX
  8
ガラス
 10
-12.75
 20
-106.475
 70
     8
  0
VERTEX
  8
ガラス
 10
-12.8
 20
-106.5
 70
     8
  0
SEQEND
  0
ARC
  8
ガラス
  6
CONTINUOUS
 10
-13.159997
 20
-105.610757
 40
0.955135
 50
112.264588
 51
292.264588
  0
ENDBLK
  0
BLOCK
  2
*GRP_0075
 70
    65
 10
0.0
 20
0.0
  0
INSERT
  2
*GRP_0076
  8
補助線
  6
DOT
 10
0.0
 20
0.0
  0
INSERT
  2
*GRP_0077
  8
補助線
  6
DOT
 10
0.0
 20
0.0
  0
LINE
  8
St
  6
CONTINUOUS
 62
   127
 10
43.871563
 20
28.372202
 11
43.871563
 21
9.872215
  0
LINE
  8
St
  6
CONTINUOUS
 62
   127
 10
25.871548
 20
31.622222
 11
20.071558
 21
31.622222
  0
LINE
  8
St
  6
CONTINUOUS
 62
   127
 10
20.071558
 20
31.622222
 11
20.071558
 21
6.622218
  0
LINE
  8
St
  6
CONTINUOUS
 62
   127
 10
25.871548
 20
6.622218
 11
20.071558
 21
6.622218
  0
LINE
  8
St
  6
CONTINUOUS
 62
   127
 10
25.871548
 20
31.622222
 11
25.871548
 21
6.622218
  0
LINE
  8
St
  6
CONTINUOUS
 62
   127
 10
35.369255
 20
11.348792
 11
35.369255
 21
26.89579
  0
LINE
  8
St
  6
CONTINUOUS
 62
   127
 10
36.369305
 20
11.348792
 11
36.369305
 21
26.89579
  0
LINE
  8
St
  6
CONTINUOUS
 62
   127
 10
36.369305
 20
26.89579
 11
35.369255
 21
26.89579
  0
LINE
  8
St
  6
CONTINUOUS
 62
   127
 10
36.369305
 20
11.348792
 11
35.369255
 21
11.348792
  0
LINE
  8
St
  6
CONTINUOUS
 62
   127
 10
40.369295
 20
23.933485
 11
40.019067
 21
24.895675
  0
LINE
  8
St
  6
CONTINUOUS
 62
   127
 10
40.369295
 20
14.31094
 11
40.019067
 21
13.34875
  0
LINE
  8
St
  6
CONTINUOUS
 62
   127
 10
40.369295
 20
23.933485
 11
40.369295
 21
14.31094
  0
LINE
  8
St
  6
CONTINUOUS
 62
   127
 10
40.019067
 20
13.34875
 11
36.369305
 21
13.34875
  0
LINE
  8
St
  6
CONTINUOUS
 62
   127
 10
40.019067
 20
16.235477
 11
36.369305
 21
16.235477
  0
LINE
  8
St
  6
CONTINUOUS
 62
   127
 10
40.019067
 20
24.895675
 11
36.369305
 21
24.895675
  0
LINE
  8
St
  6
CONTINUOUS
 62
   127
 10
40.019067
 20
22.008948
 11
36.369305
 21
22.008948
  0
LINE
  8
St
  6
CONTINUOUS
 62
   127
 10
36.369305
 20
13.34875
 11
36.369305
 21
24.895675
  0
LINE
  8
St
  6
CONTINUOUS
 62
   127
 10
26.3693
 20
19.122213
 11
26.3693
 21
14.37226
  0
LINE
  8
St
  6
CONTINUOUS
 62
   127
 10
26.3693
 20
14.37226
 11
25.86935
 21
14.872135
  0
LINE
  8
St
  6
CONTINUOUS
 62
   127
 10
25.86935
 20
19.122213
 11
25.86935
 21
14.872135
  0
LINE
  8
St
  6
CONTINUOUS
 62
   127
 10
26.86925
 20
14.37226
 11
26.3693
 21
14.37226
  0
LINE
  8
St
  6
CONTINUOUS
 62
   127
 10
32.818798
 20
1.622328
 11
32.818798
 21
19.122213
  0
LINE
  8
St
  6
CONTINUOUS
 62
   127
 10
27.919782
 20
1.622328
 11
27.919782
 21
19.122213
  0
LINE
  8
St
  6
CONTINUOUS
 62
   127
 10
34.36928
 20
19.122213
 11
34.36928
 21
14.37226
  0
LINE
  8
St
  6
CONTINUOUS
 62
   127
 10
34.36928
 20
14.37226
 11
34.869305
 21
14.872135
  0
LINE
  8
St
  6
CONTINUOUS
 62
   127
 10
34.869305
 20
19.122213
 11
34.869305
 21
14.872135
  0
LINE
  8
St
  6
CONTINUOUS
 62
   127
 10
33.869323
 20
14.37226
 11
34.36928
 21
14.37226
  0
LINE
  8
St
  6
CONTINUOUS
 62
   127
 10
27.919782
 20
1.622328
 11
27.369275
 21
1.622328
  0
LINE
  8
St
  6
CONTINUOUS
 62
   127
 10
26.86925
 20
2.122202
 11
26.86925
 21
19.122213
  0
LINE
  8
St
  6
CONTINUOUS
 62
   127
 10
32.818798
 20
1.622328
 11
33.369297
 21
1.622328
  0
LINE
  8
St
  6
CONTINUOUS
 62
   127
 10
33.869323
 20
2.122202
 11
33.869323
 21
19.122213
  0
LINE
  8
St
  6
CONTINUOUS
 62
   127
 10
26.3693
 20
19.122213
 11
26.3693
 21
23.872165
  0
LINE
  8
St
  6
CONTINUOUS
 62
   127
 10
26.3693
 20
23.872165
 11
25.86935
 21
23.37229
  0
LINE
  8
St
  6
CONTINUOUS
 62
   127
 10
25.86935
 20
19.122213
 11
25.86935
 21
23.37229
  0
LINE
  8
St
  6
CONTINUOUS
 62
   127
 10
26.86925
 20
23.872165
 11
26.3693
 21
23.872165
  0
LINE
  8
St
  6
CONTINUOUS
 62
   127
 10
32.818798
 20
36.622248
 11
32.818798
 21
19.122213
  0
LINE
  8
St
  6
CONTINUOUS
 62
   127
 10
27.919782
 20
36.622248
 11
27.919782
 21
19.122213
  0
LINE
  8
St
  6
CONTINUOUS
 62
   127
 10
34.36928
 20
19.122213
 11
34.36928
 21
23.872165
  0
LINE
  8
St
  6
CONTINUOUS
 62
   127
 10
34.36928
 20
23.872165
 11
34.869305
 21
23.37229
  0
LINE
  8
St
  6
CONTINUOUS
 62
   127
 10
34.869305
 20
19.122213
 11
34.869305
 21
23.37229
  0
LINE
  8
St
  6
CONTINUOUS
 62
   127
 10
33.869323
 20
23.872165
 11
34.36928
 21
23.872165
  0
LINE
  8
St
  6
CONTINUOUS
 62
   127
 10
27.919782
 20
36.622248
 11
27.369275
 21
36.622248
  0
LINE
  8
St
  6
CONTINUOUS
 62
   127
 10
26.86925
 20
36.122215
 11
26.86925
 21
19.122213
  0
LINE
  8
St
  6
CONTINUOUS
 62
   127
 10
32.818798
 20
36.622248
 11
33.369297
 21
36.622248
  0
LINE
  8
St
  6
CONTINUOUS
 62
   127
 10
33.869323
 20
36.122215
 11
33.869323
 21
19.122213
  0
LINE
  8
St
  6
CONTINUOUS
 62
   127
 10
43.871563
 20
28.372202
 11
33.869323
 21
28.372202
  0
LINE
  8
St
  6
CONTINUOUS
 62
   127
 10
26.86925
 20
28.372202
 11
25.871548
 21
28.372202
  0
LINE
  8
St
  6
CONTINUOUS
 62
   127
 10
43.871563
 20
9.872215
 11
33.869323
 21
9.872215
  0
LINE
  8
St
  6
CONTINUOUS
 62
   127
 10
26.86925
 20
9.872215
 11
25.871548
 21
9.872215
  0
LINE
  8
St
  6
CONTINUOUS
 62
   127
 10
14.63684
 20
25.872198
 11
15.228598
 21
25.872198
  0
LINE
  8
St
  6
CONTINUOUS
 62
   127
 10
14.63684
 20
12.372205
 11
15.228598
 21
12.372205
  0
LINE
  8
St
  6
CONTINUOUS
 62
   127
 10
43.871563
 20
-50.628898
 11
43.871563
 21
-69.128885
  0
LINE
  8
St
  6
CONTINUOUS
 62
   127
 10
82.276063
 20
-54.87887
 11
71.876067
 21
-54.87887
  0
LINE
  8
St
  6
CONTINUOUS
 62
   127
 10
83.026055
 20
-55.628863
 11
71.876067
 21
-55.628863
  0
LINE
  8
St
  6
CONTINUOUS
 62
   127
 10
83.27609
 20
-63.878878
 11
83.27609
 21
-55.878875
  0
LINE
  8
St
  6
CONTINUOUS
 62
   127
 10
82.276063
 20
-64.878882
 11
82.276063
 21
-54.87887
  0
LINE
  8
St
  6
CONTINUOUS
 62
   127
 10
83.026055
 20
-64.12889
 11
71.876067
 21
-64.12889
  0
LINE
  8
St
  6
CONTINUOUS
 62
   127
 10
82.276063
 20
-64.878882
 11
71.876067
 21
-64.878882
  0
LINE
  8
St
  6
CONTINUOUS
 62
   127
 10
82.276063
 20
-64.878882
 11
83.27609
 21
-63.878878
  0
LINE
  8
St
  6
CONTINUOUS
 62
   127
 10
82.276063
 20
-54.87887
 11
83.27609
 21
-55.878875
  0
LINE
  8
St
  6
CONTINUOUS
 62
   127
 10
25.871548
 20
-47.37887
 11
20.071558
 21
-47.37887
  0
LINE
  8
St
  6
CONTINUOUS
 62
   127
 10
20.071558
 20
-47.37887
 11
20.071558
 21
-72.378882
  0
LINE
  8
St
  6
CONTINUOUS
 62
   127
 10
25.871548
 20
-72.378882
 11
20.071558
 21
-72.378882
  0
LINE
  8
St
  6
CONTINUOUS
 62
   127
 10
25.871548
 20
-47.37887
 11
25.871548
 21
-72.378882
  0
LINE
  8
St
  6
CONTINUOUS
 62
   127
 10
35.369255
 20
-67.652308
 11
35.369255
 21
-52.105317
  0
LINE
  8
St
  6
CONTINUOUS
 62
   127
 10
36.369305
 20
-67.652308
 11
36.369305
 21
-52.105317
  0
LINE
  8
St
  6
CONTINUOUS
 62
   127
 10
36.369305
 20
-52.105317
 11
35.369255
 21
-52.105317
  0
LINE
  8
St
  6
CONTINUOUS
 62
   127
 10
36.369305
 20
-67.652308
 11
35.369255
 21
-67.652308
  0
LINE
  8
St
  6
CONTINUOUS
 62
   127
 10
40.369295
 20
-55.067623
 11
40.019067
 21
-54.105425
  0
LINE
  8
St
  6
CONTINUOUS
 62
   127
 10
40.369295
 20
-64.69016
 11
40.019067
 21
-65.652358
  0
LINE
  8
St
  6
CONTINUOUS
 62
   127
 10
40.369295
 20
-55.067623
 11
40.369295
 21
-64.69016
  0
LINE
  8
St
  6
CONTINUOUS
 62
   127
 10
40.019067
 20
-65.652358
 11
36.369305
 21
-65.652358
  0
LINE
  8
St
  6
CONTINUOUS
 62
   127
 10
40.019067
 20
-62.765622
 11
36.369305
 21
-62.765622
  0
LINE
  8
St
  6
CONTINUOUS
 62
   127
 10
40.019067
 20
-54.105425
 11
36.369305
 21
-54.105425
  0
LINE
  8
St
  6
CONTINUOUS
 62
   127
 10
40.019067
 20
-56.99216
 11
36.369305
 21
-56.99216
  0
LINE
  8
St
  6
CONTINUOUS
 62
   127
 10
36.369305
 20
-65.652358
 11
36.369305
 21
-54.105425
  0
LINE
  8
St
  6
CONTINUOUS
 62
   127
 10
26.3693
 20
-59.878888
 11
26.3693
 21
-64.628848
  0
LINE
  8
St
  6
CONTINUOUS
 62
   127
 10
26.3693
 20
-64.628848
 11
25.86935
 21
-64.128965
  0
LINE
  8
St
  6
CONTINUOUS
 62
   127
 10
25.86935
 20
-59.878888
 11
25.86935
 21
-64.128965
  0
LINE
  8
St
  6
CONTINUOUS
 62
   127
 10
26.86925
 20
-64.628848
 11
26.3693
 21
-64.628848
  0
LINE
  8
St
  6
CONTINUOUS
 62
   127
 10
32.818798
 20
-77.378773
 11
32.818798
 21
-59.878888
  0
LINE
  8
St
  6
CONTINUOUS
 62
   127
 10
27.919782
 20
-77.378773
 11
27.919782
 21
-59.878888
  0
LINE
  8
St
  6
CONTINUOUS
 62
   127
 10
34.36928
 20
-59.878888
 11
34.36928
 21
-64.628848
  0
LINE
  8
St
  6
CONTINUOUS
 62
   127
 10
34.36928
 20
-64.628848
 11
34.869305
 21
-64.128965
  0
LINE
  8
St
  6
CONTINUOUS
 62
   127
 10
34.869305
 20
-59.878888
 11
34.869305
 21
-64.128965
  0
LINE
  8
St
  6
CONTINUOUS
 62
   127
 10
33.869323
 20
-64.628848
 11
34.36928
 21
-64.628848
  0
LINE
  8
St
  6
CONTINUOUS
 62
   127
 10
27.919782
 20
-77.378773
 11
27.369275
 21
-77.378773
  0
LINE
  8
St
  6
CONTINUOUS
 62
   127
 10
26.86925
 20
-76.878898
 11
26.86925
 21
-59.878888
  0
LINE
  8
St
  6
CONTINUOUS
 62
   127
 10
32.818798
 20
-77.378773
 11
33.369297
 21
-77.378773
  0
LINE
  8
St
  6
CONTINUOUS
 62
   127
 10
33.869323
 20
-76.878898
 11
33.869323
 21
-59.878888
  0
LINE
  8
St
  6
CONTINUOUS
 62
   127
 10
26.3693
 20
-59.878888
 11
26.3693
 21
-55.128935
  0
LINE
  8
St
  6
CONTINUOUS
 62
   127
 10
26.3693
 20
-55.128935
 11
25.86935
 21
-55.628817
  0
LINE
  8
St
  6
CONTINUOUS
 62
   127
 10
25.86935
 20
-59.878888
 11
25.86935
 21
-55.628817
  0
LINE
  8
St
  6
CONTINUOUS
 62
   127
 10
26.86925
 20
-55.128935
 11
26.3693
 21
-55.128935
  0
LINE
  8
St
  6
CONTINUOUS
 62
   127
 10
32.818798
 20
-42.37886
 11
32.818798
 21
-59.878888
  0
LINE
  8
St
  6
CONTINUOUS
 62
   127
 10
27.919782
 20
-42.37886
 11
27.919782
 21
-59.878888
  0
LINE
  8
St
  6
CONTINUOUS
 62
   127
 10
34.36928
 20
-59.878888
 11
34.36928
 21
-55.128935
  0
LINE
  8
St
  6
CONTINUOUS
 62
   127
 10
34.36928
 20
-55.128935
 11
34.869305
 21
-55.628817
  0
LINE
  8
St
  6
CONTINUOUS
 62
   127
 10
34.869305
 20
-59.878888
 11
34.869305
 21
-55.628817
  0
LINE
  8
St
  6
CONTINUOUS
 62
   127
 10
33.869323
 20
-55.128935
 11
34.36928
 21
-55.128935
  0
LINE
  8
St
  6
CONTINUOUS
 62
   127
 10
27.919782
 20
-42.37886
 11
27.369275
 21
-42.37886
  0
LINE
  8
St
  6
CONTINUOUS
 62
   127
 10
26.86925
 20
-42.878885
 11
26.86925
 21
-59.878888
  0
LINE
  8
St
  6
CONTINUOUS
 62
   127
 10
32.818798
 20
-42.37886
 11
33.369297
 21
-42.37886
  0
LINE
  8
St
  6
CONTINUOUS
 62
   127
 10
33.869323
 20
-42.878885
 11
33.869323
 21
-59.878888
  0
LINE
  8
St
  6
CONTINUOUS
 62
   127
 10
43.871563
 20
-50.628898
 11
33.869323
 21
-50.628898
  0
LINE
  8
St
  6
CONTINUOUS
 62
   127
 10
26.86925
 20
-50.628898
 11
25.871548
 21
-50.628898
  0
LINE
  8
St
  6
CONTINUOUS
 62
   127
 10
43.871563
 20
-69.128885
 11
33.869323
 21
-69.128885
  0
LINE
  8
St
  6
CONTINUOUS
 62
   127
 10
26.86925
 20
-69.128885
 11
25.871548
 21
-69.128885
  0
LINE
  8
St
  6
CONTINUOUS
 62
   127
 10
14.63684
 20
-53.128903
 11
15.228598
 21
-53.128903
  0
LINE
  8
St
  6
CONTINUOUS
 62
   127
 10
14.63684
 20
-66.628903
 11
15.228598
 21
-66.628903
  0
LINE
  8
St
  6
CONTINUOUS
 62
   127
 10
14.69135
 20
25.772207
 11
20.071558
 21
25.772207
  0
LINE
  8
St
  6
CONTINUOUS
 62
   127
 10
14.69135
 20
12.472218
 11
20.071558
 21
12.472218
  0
LINE
  8
St
  6
CONTINUOUS
 62
   127
 10
14.69135
 20
-53.228892
 11
20.071558
 21
-53.228892
  0
LINE
  8
St
  6
CONTINUOUS
 62
   127
 10
14.69135
 20
-66.528882
 11
20.071558
 21
-66.528882
  0
LINE
  8
St
  6
CONTINUOUS
 62
   127
 10
49.371552
 20
-0.878
 11
46.87157
 21
-0.878
  0
LINE
  8
St
  6
CONTINUOUS
 62
   127
 10
46.87157
 20
39.121983
 11
46.87157
 21
-0.878
  0
LINE
  8
St
  6
CONTINUOUS
 62
   127
 10
49.371552
 20
39.121983
 11
46.87157
 21
39.121983
  0
LINE
  8
St
  6
CONTINUOUS
 62
   127
 10
49.371552
 20
9.121983
 11
69.371585
 21
9.121983
  0
LINE
  8
St
  6
DOT
 62
   127
 10
49.371552
 20
12.12199
 11
69.371585
 21
12.12199
  0
LINE
  8
St
  6
CONTINUOUS
 62
   127
 10
49.371552
 20
29.122
 11
69.371585
 21
29.122
  0
LINE
  8
St
  6
DOT
 62
   127
 10
49.371552
 20
26.122015
 11
69.371585
 21
26.122015
  0
LINE
  8
St
  6
CONTINUOUS
 62
   127
 10
47.87171
 20
6.622
 11
47.87171
 21
1.622005
  0
LINE
  8
St
  6
CONTINUOUS
 62
   127
 10
47.87171
 20
2.329112
 11
56.371715
 21
2.329112
  0
LINE
  8
St
  6
CONTINUOUS
 62
   127
 10
47.87171
 20
5.914855
 11
56.371715
 21
5.914855
  0
LINE
  8
St
  6
CONTINUOUS
 62
   127
 10
55.6646
 20
6.622
 11
55.6646
 21
1.622005
  0
LINE
  8
St
  6
CONTINUOUS
 62
   127
 10
55.6646
 20
1.622005
 11
56.371715
 21
2.329112
  0
LINE
  8
St
  6
CONTINUOUS
 62
   127
 10
47.87171
 20
1.622005
 11
55.6646
 21
1.622005
  0
LINE
  8
St
  6
CONTINUOUS
 62
   127
 10
47.87171
 20
6.622
 11
55.6646
 21
6.622
  0
LINE
  8
St
  6
CONTINUOUS
 62
   127
 10
55.6646
 20
6.622
 11
56.371715
 21
5.914855
  0
LINE
  8
St
  6
CONTINUOUS
 62
   127
 10
56.371715
 20
5.914855
 11
56.371715
 21
2.329112
  0
LINE
  8
St
  6
CONTINUOUS
 62
   127
 10
47.87171
 20
31.622005
 11
47.87171
 21
36.622
  0
LINE
  8
St
  6
CONTINUOUS
 62
   127
 10
47.87171
 20
35.914855
 11
56.371715
 21
35.914855
  0
LINE
  8
St
  6
CONTINUOUS
 62
   127
 10
47.87171
 20
32.329112
 11
56.371715
 21
32.329112
  0
LINE
  8
St
  6
CONTINUOUS
 62
   127
 10
55.6646
 20
31.622005
 11
55.6646
 21
36.622
  0
LINE
  8
St
  6
CONTINUOUS
 62
   127
 10
55.6646
 20
36.622
 11
56.371715
 21
35.914855
  0
LINE
  8
St
  6
CONTINUOUS
 62
   127
 10
47.87171
 20
36.622
 11
55.6646
 21
36.622
  0
LINE
  8
St
  6
CONTINUOUS
 62
   127
 10
47.87171
 20
31.622005
 11
55.6646
 21
31.622005
  0
LINE
  8
St
  6
CONTINUOUS
 62
   127
 10
55.6646
 20
31.622005
 11
56.371715
 21
32.329112
  0
LINE
  8
St
  6
CONTINUOUS
 62
   127
 10
56.371715
 20
32.329112
 11
56.371715
 21
35.914855
  0
LINE
  8
St
  6
CONTINUOUS
 62
   127
 10
78.66446
 20
-79.878867
 11
79.371567
 21
-79.17176
  0
LINE
  8
St
  6
CONTINUOUS
 62
   127
 10
78.66446
 20
-74.878903
 11
79.371567
 21
-75.58601
  0
LINE
  8
St
  6
CONTINUOUS
 62
   127
 10
59.371572
 20
-73.378895
 11
59.371572
 21
-81.378875
  0
LINE
  8
St
  6
CONTINUOUS
 62
   127
 10
59.371572
 20
-73.378895
 11
64.371567
 21
-73.378895
  0
LINE
  8
St
  6
CONTINUOUS
 62
   127
 10
59.371572
 20
-81.378875
 11
64.371567
 21
-81.378875
  0
LINE
  8
St
  6
CONTINUOUS
 62
   127
 10
78.66446
 20
-44.878865
 11
78.66446
 21
-39.8789
  0
LINE
  8
St
  6
CONTINUOUS
 62
   127
 10
78.66446
 20
-39.8789
 11
79.371567
 21
-40.586007
  0
LINE
  8
St
  6
CONTINUOUS
 62
   127
 10
78.66446
 20
-44.878865
 11
79.371567
 21
-44.171757
  0
LINE
  8
St
  6
CONTINUOUS
 62
   127
 10
79.371567
 20
-44.171757
 11
79.371567
 21
-40.586007
  0
LINE
  8
St
  6
CONTINUOUS
 62
   127
 10
59.371572
 20
-46.378873
 11
59.371572
 21
-38.378892
  0
LINE
  8
St
  6
CONTINUOUS
 62
   127
 10
59.371572
 20
-46.378873
 11
64.371567
 21
-46.378873
  0
LINE
  8
St
  6
CONTINUOUS
 62
   127
 10
59.371572
 20
-38.378892
 11
64.371567
 21
-38.378892
  0
LINE
  8
St
  6
DOT
 62
   127
 10
91.671575
 20
-72.379108
 11
94.371567
 21
-72.379108
  0
LINE
  8
St
  6
DOT
 62
   127
 10
91.671575
 20
-47.379118
 11
94.371567
 21
-47.379118
  0
LINE
  8
St
  6
CONTINUOUS
 62
   127
 10
71.871567
 20
-52.978857
 11
71.871567
 21
-66.778873
  0
LINE
  8
St
  6
DOT
 62
   127
 10
74.371572
 20
-71.379125
 11
77.071565
 21
-71.379125
  0
LINE
  8
St
  6
DOT
 62
   127
 10
74.371572
 20
-48.3791
 11
77.071565
 21
-48.3791
  0
LINE
  8
St
  6
DOT
 62
   127
 10
49.371537
 20
9.121983
 11
52.071552
 21
9.121983
  0
LINE
  8
St
  6
DOT
 62
   127
 10
66.67157
 20
9.121983
 11
69.371555
 21
9.121983
  0
LINE
  8
St
  6
DOT
 62
   127
 10
49.371537
 20
29.122
 11
52.071552
 21
29.122
  0
LINE
  8
St
  6
DOT
 62
   127
 10
66.67157
 20
29.122
 11
69.371555
 21
29.122
  0
LINE
  8
St
  6
CONTINUOUS
 62
   127
 10
49.371552
 20
-0.878
 11
49.371552
 21
39.121983
  0
LINE
  8
St
  6
CONTINUOUS
 62
   127
 10
69.371585
 20
29.122
 11
69.371585
 21
9.121983
  0
LINE
  8
St
  6
CONTINUOUS
 62
   127
 10
44.371565
 20
-47.878888
 11
46.87157
 21
-47.878888
  0
LINE
  8
St
  6
CONTINUOUS
 62
   127
 10
46.87157
 20
-71.878895
 11
46.87157
 21
-47.878888
  0
LINE
  8
St
  6
CONTINUOUS
 62
   127
 10
44.371565
 20
-71.878895
 11
46.87157
 21
-71.878895
  0
LINE
  8
St
  6
CONTINUOUS
 62
   127
 10
44.371565
 20
-71.878895
 11
44.371565
 21
-47.878888
  0
LINE
  8
St
  6
DOT
 62
   127
 10
44.371565
 20
-67.378888
 11
46.87157
 21
-67.378888
  0
LINE
  8
St
  6
DOT
 62
   127
 10
44.371565
 20
-52.378888
 11
46.87157
 21
-52.378888
  0
LINE
  8
St
  6
CONTINUOUS
 62
   127
 10
44.371565
 20
31.122213
 11
46.87157
 21
31.122213
  0
LINE
  8
St
  6
CONTINUOUS
 62
   127
 10
46.87157
 20
7.122213
 11
46.87157
 21
31.122213
  0
LINE
  8
St
  6
CONTINUOUS
 62
   127
 10
44.371565
 20
7.122213
 11
46.87157
 21
7.122213
  0
LINE
  8
St
  6
CONTINUOUS
 62
   127
 10
44.371565
 20
7.122213
 11
44.371565
 21
31.122213
  0
LINE
  8
St
  6
DOT
 62
   127
 10
44.371565
 20
11.622213
 11
46.87157
 21
11.622213
  0
LINE
  8
St
  6
DOT
 62
   127
 10
44.371565
 20
26.622213
 11
46.87157
 21
26.622213
  0
LINE
  8
St
  6
CONTINUOUS
 62
   127
 10
69.371555
 20
31.122213
 11
71.871567
 21
31.122213
  0
LINE
  8
St
  6
CONTINUOUS
 62
   127
 10
71.871567
 20
7.122213
 11
71.871567
 21
31.122213
  0
LINE
  8
St
  6
CONTINUOUS
 62
   127
 10
69.371555
 20
7.122213
 11
71.871567
 21
7.122213
  0
LINE
  8
St
  6
CONTINUOUS
 62
   127
 10
69.371555
 20
7.122213
 11
69.371555
 21
31.122213
  0
LINE
  8
St
  6
DOT
 62
   127
 10
69.371555
 20
11.622213
 11
71.871567
 21
11.622213
  0
LINE
  8
St
  6
DOT
 62
   127
 10
69.371555
 20
26.622213
 11
71.871567
 21
26.622213
  0
LINE
  8
St
  6
CONTINUOUS
 62
   127
 10
71.876067
 20
30.122207
 11
73.376075
 21
30.122207
  0
LINE
  8
St
  6
CONTINUOUS
 62
   127
 10
73.376075
 20
8.12221
 11
73.376075
 21
30.122207
  0
LINE
  8
St
  6
CONTINUOUS
 62
   127
 10
71.876067
 20
8.12221
 11
73.376075
 21
8.12221
  0
LINE
  8
St
  6
CONTINUOUS
 62
   127
 10
71.876067
 20
8.12221
 11
71.876067
 21
30.122207
  0
LINE
  8
St
  6
DOT
 62
   127
 10
71.876067
 20
24.372213
 11
73.376075
 21
24.372213
  0
LINE
  8
St
  6
DOT
 62
   127
 10
71.876067
 20
13.87222
 11
73.376075
 21
13.87222
  0
LINE
  8
St
  6
DASHDOTX2
 62
   127
 10
2.37155
 20
19.122213
 11
83.27609
 21
19.122213
  0
LINE
  8
St
  6
DASHDOTX2
 62
   127
 10
2.37155
 20
-59.878888
 11
83.27609
 21
-59.878888
  0
LINE
  8
St
  6
CONTINUOUS
 62
   127
 10
79.164432
 20
-69.67889
 11
79.87157
 21
-68.971782
  0
LINE
  8
St
  6
CONTINUOUS
 62
   127
 10
79.87157
 20
-50.785992
 11
79.164432
 21
-50.078885
  0
LINE
  8
St
  6
CONTINUOUS
 62
   127
 10
79.164432
 20
-55.439533
 11
79.87157
 21
-54.732448
  0
LINE
  8
St
  6
CONTINUOUS
 62
   127
 10
79.164432
 20
-64.37888
 11
79.87157
 21
-63.67178
  0
LINE
  8
St
  6
CONTINUOUS
 62
   127
 10
79.164432
 20
-55.439533
 11
79.87157
 21
-56.14667
  0
LINE
  8
St
  6
CONTINUOUS
 62
   127
 10
79.164432
 20
-64.37888
 11
79.87157
 21
-63.67178
  0
LINE
  8
St
  6
CONTINUOUS
 62
   127
 10
79.164432
 20
-64.37888
 11
79.87157
 21
-65.085988
  0
LINE
  8
St
  6
CONTINUOUS
 62
   127
 10
80.371572
 20
-52.628892
 11
81.791848
 21
-52.628892
  0
LINE
  8
St
  6
CONTINUOUS
 62
   127
 10
79.87157
 20
-52.12889
 11
79.87157
 21
-50.785992
  0
LINE
  8
St
  6
CONTINUOUS
 62
   127
 10
80.371572
 20
-67.12889
 11
81.791848
 21
-67.12889
  0
LINE
  8
St
  6
CONTINUOUS
 62
   127
 10
79.87157
 20
-67.628892
 11
79.87157
 21
-68.971782
  0
LINE
  8
St
  6
CONTINUOUS
 62
   127
 10
79.87157
 20
-67.628892
 11
79.87157
 21
-52.12889
  0
LINE
  8
St
  6
CONTINUOUS
 62
   127
 10
71.871567
 20
-50.785992
 11
72.578675
 21
-50.078885
  0
LINE
  8
St
  6
CONTINUOUS
 62
   127
 10
79.164432
 20
-50.078885
 11
72.578675
 21
-50.078885
  0
LINE
  8
St
  6
CONTINUOUS
 62
   127
 10
79.164432
 20
-69.67889
 11
72.578675
 21
-69.67889
  0
LINE
  8
St
  6
CONTINUOUS
 62
   127
 10
71.871567
 20
-68.971782
 11
72.578675
 21
-69.67889
  0
LINE
  8
St
  6
CONTINUOUS
 62
   127
 10
71.871567
 20
-50.785992
 11
71.871567
 21
-68.971782
  0
LINE
  8
St
  6
CONTINUOUS
 62
   127
 10
72.578675
 20
-55.439533
 11
71.871537
 21
-54.732448
  0
LINE
  8
St
  6
CONTINUOUS
 62
   127
 10
72.578675
 20
-64.37888
 11
71.871537
 21
-63.67178
  0
LINE
  8
St
  6
CONTINUOUS
 62
   127
 10
72.578675
 20
-55.439533
 11
71.871537
 21
-56.14667
  0
LINE
  8
St
  6
CONTINUOUS
 62
   127
 10
72.578675
 20
-64.37888
 11
71.871537
 21
-63.67178
  0
LINE
  8
St
  6
CONTINUOUS
 62
   127
 10
72.578675
 20
-64.37888
 11
71.871537
 21
-65.085988
  0
LINE
  8
St
  6
CONTINUOUS
 62
   127
 10
79.164432
 20
-55.439533
 11
72.578675
 21
-55.439533
  0
LINE
  8
St
  6
CONTINUOUS
 62
   127
 10
79.164432
 20
-64.37888
 11
72.578675
 21
-64.37888
  0
LINE
  8
St
  6
DASHDOTX2
 62
   127
 10
87.37157
 20
-59.878888
 11
71.871567
 21
-59.878888
  0
LINE
  8
St
  6
CONTINUOUS
 62
   127
 10
80.66444
 20
9.32221
 11
81.37157
 21
10.029318
  0
LINE
  8
St
  6
CONTINUOUS
 62
   127
 10
81.37157
 20
28.215107
 11
80.66444
 21
28.922215
  0
LINE
  8
St
  6
CONTINUOUS
 62
   127
 10
80.66444
 20
23.561567
 11
81.37157
 21
24.268652
  0
LINE
  8
St
  6
CONTINUOUS
 62
   127
 10
80.66444
 20
14.62222
 11
81.37157
 21
15.32932
  0
LINE
  8
St
  6
CONTINUOUS
 62
   127
 10
80.66444
 20
23.561567
 11
81.37157
 21
22.85443
  0
LINE
  8
St
  6
CONTINUOUS
 62
   127
 10
80.66444
 20
14.62222
 11
81.37157
 21
15.32932
  0
LINE
  8
St
  6
CONTINUOUS
 62
   127
 10
80.66444
 20
14.62222
 11
81.37157
 21
13.915113
  0
LINE
  8
St
  6
CONTINUOUS
 62
   127
 10
81.871572
 20
26.372207
 11
83.291855
 21
26.372207
  0
LINE
  8
St
  6
CONTINUOUS
 62
   127
 10
81.37157
 20
26.87221
 11
81.37157
 21
28.215107
  0
LINE
  8
St
  6
CONTINUOUS
 62
   127
 10
81.871572
 20
11.87221
 11
83.291855
 21
11.87221
  0
LINE
  8
St
  6
CONTINUOUS
 62
   127
 10
81.37157
 20
11.372207
 11
81.37157
 21
10.029318
  0
LINE
  8
St
  6
CONTINUOUS
 62
   127
 10
81.37157
 20
11.372207
 11
81.37157
 21
26.87221
  0
LINE
  8
St
  6
CONTINUOUS
 62
   127
 10
73.371567
 20
28.215107
 11
74.078682
 21
28.922215
  0
LINE
  8
St
  6
CONTINUOUS
 62
   127
 10
80.66444
 20
28.922215
 11
74.078682
 21
28.922215
  0
LINE
  8
St
  6
CONTINUOUS
 62
   127
 10
80.66444
 20
9.32221
 11
74.078682
 21
9.32221
  0
LINE
  8
St
  6
CONTINUOUS
 62
   127
 10
73.371567
 20
10.029318
 11
74.078682
 21
9.32221
  0
LINE
  8
St
  6
CONTINUOUS
 62
   127
 10
73.371567
 20
28.215107
 11
73.371567
 21
10.029318
  0
LINE
  8
St
  6
CONTINUOUS
 62
   127
 10
74.078682
 20
23.561567
 11
73.371545
 21
24.268652
  0
LINE
  8
St
  6
CONTINUOUS
 62
   127
 10
74.078682
 20
14.62222
 11
73.371545
 21
15.32932
  0
LINE
  8
St
  6
CONTINUOUS
 62
   127
 10
74.078682
 20
23.561567
 11
73.371545
 21
22.85443
  0
LINE
  8
St
  6
CONTINUOUS
 62
   127
 10
74.078682
 20
14.62222
 11
73.371545
 21
15.32932
  0
LINE
  8
St
  6
CONTINUOUS
 62
   127
 10
74.078682
 20
14.62222
 11
73.371545
 21
13.915113
  0
LINE
  8
St
  6
CONTINUOUS
 62
   127
 10
80.66444
 20
23.561567
 11
74.078682
 21
23.561567
  0
LINE
  8
St
  6
CONTINUOUS
 62
   127
 10
80.66444
 20
14.62222
 11
74.078682
 21
14.62222
  0
LINE
  8
St
  6
DASHDOTX2
 62
   127
 10
88.87157
 20
19.122213
 11
73.371567
 21
19.122213
  0
LINE
  8
St
  6
CONTINUOUS
 62
   127
 10
64.371567
 20
-81.378875
 11
64.371567
 21
-73.378895
  0
LINE
  8
St
  6
CONTINUOUS
 62
   127
 10
64.371567
 20
-46.378873
 11
64.371567
 21
-38.378892
  0
LINE
  8
St
  6
CONTINUOUS
 62
   127
 10
46.871532
 20
30.621805
 11
47.87171
 21
31.622005
  0
LINE
  8
St
  6
CONTINUOUS
 62
   127
 10
46.871532
 20
30.621805
 11
46.871532
 21
37.622177
  0
LINE
  8
St
  6
CONTINUOUS
 62
   127
 10
46.871532
 20
37.622177
 11
47.87171
 21
36.622
  0
LINE
  8
St
  6
CONTINUOUS
 62
   127
 10
46.871532
 20
0.62182
 11
47.87171
 21
1.622005
  0
LINE
  8
St
  6
CONTINUOUS
 62
   127
 10
46.871532
 20
7.6222
 11
46.871532
 21
0.62182
  0
LINE
  8
St
  6
CONTINUOUS
 62
   127
 10
46.871532
 20
7.6222
 11
47.87171
 21
6.622
  0
LINE
  8
St
  6
DASHDOT
 62
   127
 10
46.871532
 20
4.121988
 11
56.371715
 21
4.121988
  0
LINE
  8
St
  6
DASHDOT
 62
   127
 10
46.871532
 20
34.122003
 11
56.371715
 21
34.122003
  0
LINE
  8
St
  6
DOT
 62
   127
 10
71.87159
 20
-49.378895
 11
71.87159
 21
-70.37891
  0
LINE
  8
St
  6
DOT
 62
   127
 10
46.87157
 20
-66.878878
 11
71.87159
 21
-66.878878
  0
LINE
  8
St
  6
DOT
 62
   127
 10
46.87157
 20
-52.878852
 11
71.87159
 21
-52.878852
  0
LINE
  8
St
  6
CONTINUOUS
 62
   127
 10
64.371567
 20
-82.378888
 11
74.371572
 21
-82.378888
  0
LINE
  8
St
  6
CONTINUOUS
 62
   127
 10
64.371567
 20
-82.378888
 11
64.371567
 21
-37.378888
  0
LINE
  8
St
  6
CONTINUOUS
 62
   127
 10
64.371567
 20
-37.378888
 11
74.371572
 21
-37.378888
  0
LINE
  8
St
  6
CONTINUOUS
 62
   127
 10
74.371572
 20
-82.378888
 11
74.371572
 21
-37.378888
  0
LINE
  8
St
  6
CONTINUOUS
 62
   127
 10
46.87157
 20
-41.878895
 11
46.87157
 21
-77.878888
  0
LINE
  8
St
  6
CONTINUOUS
 62
   127
 10
46.87157
 20
-77.878888
 11
64.371567
 21
-77.878888
  0
LINE
  8
St
  6
CONTINUOUS
 62
   127
 10
46.87157
 20
-41.878895
 11
64.371567
 21
-41.878895
  0
LINE
  8
St
  6
DOT
 62
   127
 10
64.371567
 20
-39.628888
 11
74.371572
 21
-39.628888
  0
LINE
  8
St
  6
DOT
 62
   127
 10
64.371567
 20
-45.128892
 11
74.371572
 21
-45.128892
  0
LINE
  8
St
  6
DOT
 62
   127
 10
64.371567
 20
-74.62889
 11
74.371572
 21
-74.62889
  0
LINE
  8
St
  6
DOT
 62
   127
 10
64.371567
 20
-80.12888
 11
74.371572
 21
-80.12888
  0
LINE
  8
St
  6
DASHDOTX2
 62
   127
 10
62.371558
 20
-42.378882
 11
76.371582
 21
-42.378882
  0
LINE
  8
St
  6
DASHDOTX2
 62
   127
 10
62.371558
 20
-77.378885
 11
76.371582
 21
-77.378885
  0
LINE
  8
St
  6
DOTX2
 62
   127
 10
46.87157
 20
-47.378885
 11
64.371567
 21
-47.378885
  0
LINE
  8
St
  6
DOTX2
 62
   127
 10
46.87157
 20
-72.378882
 11
64.371567
 21
-72.378882
  0
LINE
  8
St
  6
CONTINUOUS
 62
   127
 10
64.371567
 20
-39.8789
 11
78.66446
 21
-39.8789
  0
LINE
  8
St
  6
CONTINUOUS
 62
   127
 10
64.371567
 20
-44.171757
 11
78.66446
 21
-44.171757
  0
LINE
  8
St
  6
CONTINUOUS
 62
   127
 10
64.371567
 20
-44.878865
 11
78.66446
 21
-44.878865
  0
LINE
  8
St
  6
CONTINUOUS
 62
   127
 10
64.371567
 20
-40.586007
 11
79.371567
 21
-40.586007
  0
LINE
  8
St
  6
DASHDOT
 62
   127
 10
59.371572
 20
-42.378882
 11
79.371567
 21
-42.378882
  0
LINE
  8
St
  6
CONTINUOUS
 62
   127
 10
64.371567
 20
-74.878903
 11
78.66446
 21
-74.878903
  0
LINE
  8
St
  6
CONTINUOUS
 62
   127
 10
64.371567
 20
-79.878867
 11
78.66446
 21
-79.878867
  0
LINE
  8
St
  6
CONTINUOUS
 62
   127
 10
78.66446
 20
-74.878903
 11
78.66446
 21
-79.878867
  0
LINE
  8
St
  6
CONTINUOUS
 62
   127
 10
64.371567
 20
-79.17176
 11
79.371567
 21
-79.17176
  0
LINE
  8
St
  6
CONTINUOUS
 62
   127
 10
64.371567
 20
-75.58601
 11
79.371567
 21
-75.58601
  0
LINE
  8
St
  6
CONTINUOUS
 62
   127
 10
79.371567
 20
-75.58601
 11
79.371567
 21
-79.17176
  0
LINE
  8
St
  6
DASHDOT
 62
   127
 10
59.371572
 20
-77.378885
 11
79.371567
 21
-77.378885
  0
LINE
  8
St
  6
DOT
 62
   127
 10
40.871563
 20
26.12221
 11
40.871563
 21
12.122215
  0
LINE
  8
St
  6
DOT
 62
   127
 10
40.871563
 20
26.12221
 11
43.871563
 21
26.12221
  0
LINE
  8
St
  6
DOT
 62
   127
 10
40.871563
 20
12.122215
 11
43.871563
 21
12.122215
  0
LINE
  8
St
  6
DOT
 62
   127
 10
40.871563
 20
24.122207
 11
-10.705142
 21
24.122207
  0
LINE
  8
St
  6
DOT
 62
   127
 10
40.871563
 20
14.122218
 11
-10.705142
 21
14.122218
  0
LINE
  8
St
  6
DOT
 62
   127
 10
40.871563
 20
-52.87889
 11
40.871563
 21
-66.878885
  0
LINE
  8
St
  6
DOT
 62
   127
 10
40.871563
 20
-52.87889
 11
43.871563
 21
-52.87889
  0
LINE
  8
St
  6
DOT
 62
   127
 10
40.871563
 20
-66.878885
 11
43.871563
 21
-66.878885
  0
LINE
  8
St
  6
DOT
 62
   127
 10
40.871563
 20
-54.8789
 11
-10.705142
 21
-54.8789
  0
LINE
  8
St
  6
DOT
 62
   127
 10
40.871563
 20
-64.878882
 11
-10.705142
 21
-64.878882
  0
LINE
  8
St
  6
CONTINUOUS
 62
   127
 10
40.871563
 20
-52.978857
 11
71.871567
 21
-52.978857
  0
LINE
  8
St
  6
CONTINUOUS
 62
   127
 10
71.871567
 20
-66.778873
 11
40.871563
 21
-66.778873
  0
LINE
  8
St
  6
CONTINUOUS
 62
   127
 10
40.871563
 20
-52.978857
 11
40.871563
 21
-66.778873
  0
LINE
  8
St
  6
CONTINUOUS
 62
   127
 10
-7.128438
 20
-63.878878
 11
-7.128438
 21
-55.878875
  0
LINE
  8
St
  6
CONTINUOUS
 62
   127
 10
-6.12841
 20
-64.878882
 11
-6.12841
 21
-54.87887
  0
LINE
  8
St
  6
CONTINUOUS
 62
   127
 10
-6.12841
 20
-64.878882
 11
-7.128438
 21
-63.878878
  0
LINE
  8
St
  6
CONTINUOUS
 62
   127
 10
-6.12841
 20
-54.87887
 11
-7.128438
 21
-55.878875
  0
LINE
  8
St
  6
CONTINUOUS
 62
   127
 10
17.871575
 20
-64.878898
 11
17.871575
 21
-54.878885
  0
LINE
  8
St
  6
CONTINUOUS
 62
   127
 10
-6.12841
 20
-54.87887
 11
40.871563
 21
-54.87887
  0
LINE
  8
St
  6
CONTINUOUS
 62
   127
 10
-6.12841
 20
-64.878882
 11
40.871563
 21
-64.878882
  0
LINE
  8
St
  6
CONTINUOUS
 62
   127
 10
-6.878395
 20
-64.12889
 11
17.871575
 21
-64.12889
  0
LINE
  8
St
  6
CONTINUOUS
 62
   127
 10
-6.878395
 20
-55.628863
 11
17.871575
 21
-55.628863
  0
LINE
  8
St
  6
CONTINUOUS
 62
   127
 10
82.276063
 20
24.12223
 11
71.876067
 21
24.12223
  0
LINE
  8
St
  6
CONTINUOUS
 62
   127
 10
83.026055
 20
23.372237
 11
71.876067
 21
23.372237
  0
LINE
  8
St
  6
CONTINUOUS
 62
   127
 10
83.27609
 20
15.122222
 11
83.27609
 21
23.122225
  0
LINE
  8
St
  6
CONTINUOUS
 62
   127
 10
82.276063
 20
14.122218
 11
82.276063
 21
24.12223
  0
LINE
  8
St
  6
CONTINUOUS
 62
   127
 10
83.026055
 20
14.87221
 11
71.876067
 21
14.87221
  0
LINE
  8
St
  6
CONTINUOUS
 62
   127
 10
82.276063
 20
14.122218
 11
71.876067
 21
14.122218
  0
LINE
  8
St
  6
CONTINUOUS
 62
   127
 10
82.276063
 20
14.122218
 11
83.27609
 21
15.122222
  0
LINE
  8
St
  6
CONTINUOUS
 62
   127
 10
82.276063
 20
24.12223
 11
83.27609
 21
23.122225
  0
LINE
  8
St
  6
CONTINUOUS
 62
   127
 10
71.871567
 20
26.022242
 11
71.871567
 21
12.222228
  0
LINE
  8
St
  6
CONTINUOUS
 62
   127
 10
40.871563
 20
26.022242
 11
71.871567
 21
26.022242
  0
LINE
  8
St
  6
CONTINUOUS
 62
   127
 10
71.871567
 20
12.222228
 11
40.871563
 21
12.222228
  0
LINE
  8
St
  6
CONTINUOUS
 62
   127
 10
40.871563
 20
26.022242
 11
40.871563
 21
12.222228
  0
LINE
  8
St
  6
CONTINUOUS
 62
   127
 10
-7.128438
 20
15.122222
 11
-7.128438
 21
23.122225
  0
LINE
  8
St
  6
CONTINUOUS
 62
   127
 10
-6.12841
 20
14.122218
 11
-6.12841
 21
24.12223
  0
LINE
  8
St
  6
CONTINUOUS
 62
   127
 10
-6.12841
 20
14.122218
 11
-7.128438
 21
15.122222
  0
LINE
  8
St
  6
CONTINUOUS
 62
   127
 10
-6.12841
 20
24.12223
 11
-7.128438
 21
23.122225
  0
LINE
  8
St
  6
CONTINUOUS
 62
   127
 10
17.871575
 20
14.12221
 11
17.871575
 21
24.122215
  0
LINE
  8
St
  6
CONTINUOUS
 62
   127
 10
-6.12841
 20
24.12223
 11
40.871563
 21
24.12223
  0
LINE
  8
St
  6
CONTINUOUS
 62
   127
 10
-6.12841
 20
14.122218
 11
40.871563
 21
14.122218
  0
LINE
  8
St
  6
CONTINUOUS
 62
   127
 10
-6.878395
 20
14.87221
 11
17.871575
 21
14.87221
  0
LINE
  8
St
  6
CONTINUOUS
 62
   127
 10
-6.878395
 20
23.372237
 11
17.871575
 21
23.372237
  0
LINE
  8
St
  6
CONTINUOUS
 62
   127
 10
74.371572
 20
-72.303898
 11
77.37158
 21
-72.303898
  0
LINE
  8
St
  6
DOT
 62
   127
 10
71.87159
 20
-70.37891
 11
77.37158
 21
-70.37891
  0
LINE
  8
St
  6
CONTINUOUS
 62
   127
 10
74.371572
 20
-47.4539
 11
77.37158
 21
-47.4539
  0
LINE
  8
St
  6
CONTINUOUS
 62
   127
 10
77.37158
 20
-72.303898
 11
77.37158
 21
-47.4539
  0
LINE
  8
St
  6
DOT
 62
   127
 10
71.87159
 20
-49.378895
 11
77.37158
 21
-49.378895
  0
CIRCLE
  8
St
  6
CONTINUOUS
 62
   127
 10
2.37155
 20
19.122213
 40
13.999995
  0
ARC
  8
St
  6
CONTINUOUS
 62
   127
 10
37.219943
 20
23.452457
 40
3.149353
 50
332.71606
 51
359.994507
  0
ARC
  8
St
  6
CONTINUOUS
 62
   127
 10
28.297263
 20
19.12221
 40
12.072068
 50
346.159304
 51
373.829709
  0
ARC
  8
St
  6
CONTINUOUS
 62
   127
 10
37.219943
 20
14.792112
 40
3.149353
 50
359.994522
 51
387.272969
  0
ARC
  8
St
  6
CONTINUOUS
 62
   127
 10
30.3693
 20
1.122151
 40
2.5
 50
11.531655
 51
168.460121
  0
ARC
  8
St
  6
CONTINUOUS
 62
   127
 10
27.36929
 20
2.122204
 40
0.5
 50
179.997253
 51
269.998627
  0
ARC
  8
St
  6
CONTINUOUS
 62
   127
 10
33.36931
 20
2.122204
 40
0.5
 50
269.998627
 51
359.994507
  0
ARC
  8
St
  6
CONTINUOUS
 62
   127
 10
30.3693
 20
37.12227
 40
2.5
 50
191.534401
 51
348.457374
  0
ARC
  8
St
  6
CONTINUOUS
 62
   127
 10
27.36929
 20
36.122217
 40
0.5
 50
89.99588
 51
179.997253
  0
ARC
  8
St
  6
CONTINUOUS
 62
   127
 10
33.36931
 20
36.122217
 40
0.5
 50
359.994507
 51
449.99588
  0
ARC
  8
St
  6
CONTINUOUS
 62
   127
 10
2.383386
 20
19.12221
 40
15.249999
 50
29.435859
 51
330.558663
  0
ARC
  8
St
  6
CONTINUOUS
 62
   127
 10
15.228605
 20
11.872199
 40
0.5
 50
330.558663
 51
449.99588
  0
ARC
  8
St
  6
CONTINUOUS
 62
   127
 10
15.228605
 20
26.372203
 40
0.5
 50
269.998642
 51
389.435874
  0
CIRCLE
  8
St
  6
CONTINUOUS
 62
   127
 10
2.37155
 20
-59.878888
 40
13.999995
  0
ARC
  8
St
  6
CONTINUOUS
 62
   127
 10
37.219943
 20
-55.548645
 40
3.149353
 50
332.71606
 51
359.994507
  0
ARC
  8
St
  6
CONTINUOUS
 62
   127
 10
28.297263
 20
-59.878892
 40
12.072068
 50
346.159304
 51
373.829709
  0
ARC
  8
St
  6
CONTINUOUS
 62
   127
 10
37.219943
 20
-64.20899
 40
3.149353
 50
359.994522
 51
387.272969
  0
ARC
  8
St
  6
CONTINUOUS
 62
   127
 10
30.3693
 20
-77.878951
 40
2.5
 50
11.531655
 51
168.460121
  0
ARC
  8
St
  6
CONTINUOUS
 62
   127
 10
27.36929
 20
-76.878898
 40
0.5
 50
179.997253
 51
269.998627
  0
ARC
  8
St
  6
CONTINUOUS
 62
   127
 10
33.36931
 20
-76.878898
 40
0.5
 50
269.998627
 51
359.994507
  0
ARC
  8
St
  6
CONTINUOUS
 62
   127
 10
30.3693
 20
-41.878832
 40
2.5
 50
191.534401
 51
348.457374
  0
ARC
  8
St
  6
CONTINUOUS
 62
   127
 10
27.36929
 20
-42.878885
 40
0.5
 50
89.99588
 51
179.997253
  0
ARC
  8
St
  6
CONTINUOUS
 62
   127
 10
33.36931
 20
-42.878885
 40
0.5
 50
359.994507
 51
449.99588
  0
ARC
  8
St
  6
CONTINUOUS
 62
   127
 10
2.383386
 20
-59.878892
 40
15.249999
 50
29.435859
 51
330.558663
  0
ARC
  8
St
  6
CONTINUOUS
 62
   127
 10
15.228605
 20
-67.128903
 40
0.5
 50
330.558663
 51
449.99588
  0
ARC
  8
St
  6
CONTINUOUS
 62
   127
 10
15.228605
 20
-52.628905
 40
0.5
 50
269.998642
 51
389.435874
  0
ARC
  8
St
  6
CONTINUOUS
 62
   127
 10
79.871579
 20
-59.878892
 40
7.5
 50
284.833936
 51
435.160571
  0
ARC
  8
St
  6
CONTINUOUS
 62
   127
 10
80.37158
 20
-52.128891
 40
0.5
 50
179.997253
 51
269.998627
  0
ARC
  8
St
  6
CONTINUOUS
 62
   127
 10
80.37158
 20
-67.628893
 40
0.5
 50
89.99588
 51
179.997253
  0
ARC
  8
St
  6
CONTINUOUS
 62
   127
 10
81.371584
 20
19.12221
 40
7.5
 50
284.833936
 51
435.160571
  0
ARC
  8
St
  6
CONTINUOUS
 62
   127
 10
81.871585
 20
26.872211
 40
0.5
 50
179.997253
 51
269.998627
  0
ARC
  8
St
  6
CONTINUOUS
 62
   127
 10
81.871585
 20
11.372209
 40
0.5
 50
89.99588
 51
179.997253
  0
ARC
  8
St
  6
CONTINUOUS
 10
89.371579
 20
-79.879087
 40
5.0
 50
-90.0
 51
0.0
  0
LINE
  8
St
  6
CONTINUOUS
 62
   127
 10
79.371575
 20
-84.879087
 11
89.371565
 21
-84.879087
  0
ARC
  8
St
  6
CONTINUOUS
 10
79.371584
 20
-79.879087
 40
5.0
 50
180.0
 51
270.0
  0
LINE
  8
St
  6
CONTINUOUS
 62
   127
 10
94.371567
 20
-39.87911
 11
94.371567
 21
-79.879085
  0
ARC
  8
St
  6
CONTINUOUS
 10
89.371579
 20
-39.879107
 40
5.0
 50
0.0
 51
90.0
  0
LINE
  8
St
  6
CONTINUOUS
 62
   127
 10
79.371575
 20
-34.879108
 11
89.371565
 21
-34.879108
  0
LINE
  8
St
  6
CONTINUOUS
 62
   127
 10
74.371572
 20
-39.87911
 11
74.371572
 21
-79.879085
  0
ARC
  8
St
  6
CONTINUOUS
 10
79.371584
 20
-39.879107
 40
5.0
 50
90.0
 51
180.0
  0
ARC
  8
St
  6
CONTINUOUS
 10
79.371576
 20
-39.879092
 40
2.3
 50
90.0
 51
180.0
  0
LINE
  8
St
  6
CONTINUOUS
 62
   127
 10
79.371567
 20
-37.579093
 11
89.371572
 21
-37.579093
  0
ARC
  8
St
  6
CONTINUOUS
 10
89.371586
 20
-39.879092
 40
2.3
 50
0.0
 51
90.0
  0
LINE
  8
St
  6
CONTINUOUS
 62
   127
 10
91.671575
 20
-39.879095
 11
91.671575
 21
-79.879078
  0
ARC
  8
St
  6
CONTINUOUS
 10
89.371586
 20
-79.87908
 40
2.3
 50
-90.0
 51
0.0
  0
LINE
  8
St
  6
CONTINUOUS
 62
   127
 10
79.371567
 20
-82.17908
 11
89.371572
 21
-82.17908
  0
LINE
  8
St
  6
CONTINUOUS
 62
   127
 10
77.071565
 20
-39.879095
 11
77.071565
 21
-79.879078
  0
ARC
  8
St
  6
CONTINUOUS
 10
79.371576
 20
-79.87908
 40
2.3
 50
180.0
 51
270.0
  0
ARC
  8
St
  6
CONTINUOUS
 10
54.371549
 20
-0.878017
 40
5.0
 50
180.0
 51
270.0
  0
LINE
  8
St
  6
CONTINUOUS
 62
   127
 10
54.37154
 20
-5.878017
 11
64.371552
 21
-5.878017
  0
ARC
  8
St
  6
CONTINUOUS
 10
64.371566
 20
-0.878017
 40
5.0
 50
-90.0
 51
0.0
  0
LINE
  8
St
  6
CONTINUOUS
 62
   127
 10
69.371555
 20
39.121997
 11
69.371555
 21
-0.878015
  0
ARC
  8
St
  6
CONTINUOUS
 10
64.371566
 20
39.122
 40
5.0
 50
0.0
 51
90.0
  0
LINE
  8
St
  6
CONTINUOUS
 62
   127
 10
54.37154
 20
44.122
 11
64.371552
 21
44.122
  0
LINE
  8
St
  6
CONTINUOUS
 62
   127
 10
49.371537
 20
39.121997
 11
49.371537
 21
-0.878015
  0
ARC
  8
St
  6
CONTINUOUS
 10
54.371549
 20
39.122
 40
5.0
 50
90.0
 51
180.0
  0
ARC
  8
St
  6
CONTINUOUS
 10
54.371564
 20
39.122008
 40
2.3
 50
90.0
 51
180.0
  0
LINE
  8
St
  6
CONTINUOUS
 62
   127
 10
54.371555
 20
41.422007
 11
64.371567
 21
41.422007
  0
ARC
  8
St
  6
CONTINUOUS
 10
64.371581
 20
39.122008
 40
2.3
 50
0.0
 51
90.0
  0
LINE
  8
St
  6
CONTINUOUS
 62
   127
 10
52.071552
 20
39.122005
 11
52.071552
 21
-0.87803
  0
ARC
  8
St
  6
CONTINUOUS
 10
54.371564
 20
-0.878032
 40
2.3
 50
180.0
 51
270.0
  0
LINE
  8
St
  6
CONTINUOUS
 62
   127
 10
54.371555
 20
-3.178032
 11
64.371567
 21
-3.178032
  0
LINE
  8
St
  6
CONTINUOUS
 62
   127
 10
66.67157
 20
39.122005
 11
66.67157
 21
-0.87803
  0
ARC
  8
St
  6
CONTINUOUS
 10
64.371581
 20
-0.878032
 40
2.3
 50
-90.0
 51
0.0
  0
LINE
  8
St
  6
DASHDOT
 10
94.371567
 20
-20.378547
 11
49.371552
 21
-20.378547
  0
LINE
  8
St
  6
DOT
 62
   127
 10
49.371545
 20
-39.879095
 11
49.371545
 21
-79.879078
  0
ARC
  8
St
  6
DOT
 10
54.371541
 20
-39.879083
 40
5.0
 50
90.0
 51
180.0
  0
LINE
  8
St
  6
DOT
 62
   127
 10
54.371532
 20
-34.879078
 11
64.371545
 21
-34.879078
  0
ARC
  8
St
  6
DOT
 10
64.371559
 20
-39.879083
 40
5.0
 50
0.0
 51
90.0
  0
LINE
  8
St
  6
DOT
 62
   127
 10
69.371548
 20
-79.879093
 11
69.371548
 21
-39.87908
  0
ARC
  8
St
  6
DOT
 10
64.371559
 20
-79.8791
 40
5.0
 50
270.0
 51
360.0
  0
LINE
  8
St
  6
DOT
 62
   127
 10
54.371532
 20
-84.879095
 11
64.371545
 21
-84.879095
  0
ARC
  8
St
  6
DOT
 10
54.371541
 20
-79.8791
 40
5.0
 50
180.0
 51
270.0
  0
ARC
  8
St
  6
DOT
 10
54.371556
 20
-79.879108
 40
2.3
 50
180.0
 51
270.0
  0
LINE
  8
St
  6
DOT
 62
   127
 10
54.371548
 20
-82.179103
 11
64.37156
 21
-82.179103
  0
ARC
  8
St
  6
DOT
 10
64.371574
 20
-79.879108
 40
2.3
 50
270.0
 51
360.0
  0
LINE
  8
St
  6
DOT
 62
   127
 10
52.071545
 20
-79.8791
 11
52.071545
 21
-39.879065
  0
ARC
  8
St
  6
DOT
 10
54.371556
 20
-39.879068
 40
2.3
 50
90.0
 51
180.0
  0
LINE
  8
St
  6
DOT
 62
   127
 10
54.371548
 20
-37.579062
 11
64.37156
 21
-37.579062
  0
LINE
  8
St
  6
DOT
 62
   127
 10
66.671563
 20
-79.8791
 11
66.671563
 21
-39.879065
  0
ARC
  8
St
  6
DOT
 10
64.371574
 20
-39.879068
 40
2.3
 50
0.0
 51
90.0
  0
LINE
  8
St
  6
DOT
 62
   127
 10
74.371558
 20
-0.878
 11
74.371558
 21
39.121983
  0
ARC
  8
St
  6
DOT
 10
79.371554
 20
-0.878017
 40
5.0
 50
180.0
 51
270.0
  0
LINE
  8
St
  6
DOT
 62
   127
 10
79.371545
 20
-5.878017
 11
89.371558
 21
-5.878017
  0
ARC
  8
St
  6
DOT
 10
89.371571
 20
-0.878017
 40
5.0
 50
-90.0
 51
0.0
  0
LINE
  8
St
  6
DOT
 62
   127
 10
94.37156
 20
39.121997
 11
94.37156
 21
-0.878015
  0
ARC
  8
St
  6
DOT
 10
89.371571
 20
39.122
 40
5.0
 50
0.0
 51
90.0
  0
LINE
  8
St
  6
DOT
 62
   127
 10
79.371545
 20
44.122
 11
89.371558
 21
44.122
  0
ARC
  8
St
  6
DOT
 10
79.371554
 20
39.122
 40
5.0
 50
90.0
 51
180.0
  0
ARC
  8
St
  6
DOT
 10
79.371569
 20
39.122008
 40
2.3
 50
90.0
 51
180.0
  0
LINE
  8
St
  6
DOT
 62
   127
 10
79.37156
 20
41.422007
 11
89.371572
 21
41.422007
  0
ARC
  8
St
  6
DOT
 10
89.371586
 20
39.122008
 40
2.3
 50
0.0
 51
90.0
  0
LINE
  8
St
  6
DOT
 62
   127
 10
77.071558
 20
39.122005
 11
77.071558
 21
-0.87803
  0
ARC
  8
St
  6
DOT
 10
79.371569
 20
-0.878032
 40
2.3
 50
180.0
 51
270.0
  0
LINE
  8
St
  6
DOT
 62
   127
 10
79.37156
 20
-3.178032
 11
89.371572
 21
-3.178032
  0
LINE
  8
St
  6
DOT
 62
   127
 10
91.671575
 20
39.122005
 11
91.671575
 21
-0.87803
  0
ARC
  8
St
  6
DOT
 10
89.371586
 20
-0.878032
 40
2.3
 50
-90.0
 51
0.0
  0
LINE
  8
St
  6
DOT
 10
94.371567
 20
-39.628888
 11
94.371567
 21
-0.878015
  0
LINE
  8
St
  6
DOT
 10
74.371572
 20
-39.628888
 11
74.371572
 21
-0.893
  0
LINE
  8
St
  6
DOT
 10
49.371552
 20
-0.878
 11
49.371552
 21
-39.866848
  0
LINE
  8
St
  6
DOT
 10
69.371555
 20
-0.878
 11
69.371555
 21
-39.87908
  0
ENDBLK
  0
BLOCK
  2
*GRP_0076
 70
    65
 10
0.0
 20
0.0
  0
LINE
  8
補助線
  6
BYBLOCK
 62
     0
 10
3.87155
 20
-59.878888
 11
0.87155
 21
-59.878888
  0
LINE
  8
補助線
  6
BYBLOCK
 62
     0
 10
2.37155
 20
-61.378888
 11
2.37155
 21
-58.378888
  0
ENDBLK
  0
BLOCK
  2
*GRP_0077
 70
    65
 10
0.0
 20
0.0
  0
LINE
  8
補助線
  6
BYBLOCK
 62
     0
 10
3.87155
 20
19.122213
 11
0.87155
 21
19.122213
  0
LINE
  8
補助線
  6
BYBLOCK
 62
     0
 10
2.37155
 20
17.622213
 11
2.37155
 21
20.622213
  0
ENDBLK
  0
BLOCK
  2
*GRP_0078
 70
    65
 10
0.0
 20
0.0
  0
POLYLINE
  8
寸法
  6
CONTINUOUS
 66
     1
  0
VERTEX
  8
寸法
 10
97.14091
 20
-45.727272
  0
VERTEX
  8
寸法
 10
103.5
 20
-29.09091
  0
VERTEX
  8
寸法
 10
106.718182
 20
-29.09091
  0
SEQEND
  0
ENDBLK
  0
BLOCK
  2
*GRP_0079
 70
    65
 10
0.0
 20
0.0
  0
LINE
  8
寸法
  6
CONTINUOUS
 10
103.5
 20
-29.09091
 11
98.688637
 21
3.372727
  0
ENDBLK
  0
BLOCK
  2
M8横横
 70
    64
 10
-129.398
 20
116.440225
  0
LINE
  8
ボルト／ビス
 10
-135.89319
 20
121.440225
 11
-135.39319
 21
121.940225
  0
LINE
  8
ボルト／ビス
 10
-123.40281
 20
121.940225
 11
-122.90281
 21
121.440225
  0
POLYLINE
  8
ボルト／ビス
 66
     1
  0
VERTEX
  8
ボルト／ビス
 10
-129.898
 20
121.940225
  0
VERTEX
  8
ボルト／ビス
 10
-129.398
 20
121.440225
  0
VERTEX
  8
ボルト／ビス
 10
-128.898
 20
121.940225
  0
SEQEND
  0
LINE
  8
ボルト／ビス
 10
-135.89319
 20
116.440225
 11
-122.90281
 21
116.440225
  0
LINE
  8
ボルト／ビス
 10
-129.398
 20
116.440225
 11
-129.398
 21
121.440225
  0
LINE
  8
ボルト／ビス
 10
-135.39319
 20
121.940225
 11
-123.40281
 21
121.940225
  0
LINE
  8
ボルト／ビス
 10
-122.90281
 20
116.440225
 11
-122.90281
 21
121.440225
  0
LINE
  8
ボルト／ビス
 10
-135.89319
 20
116.440225
 11
-135.89319
 21
121.440225
  0
ENDBLK
  0
ENDSEC
  0
SECTION
  2
ENTITIES
  0
POLYLINE
  8
通り芯
  6
CONTINUOUS
 66
     1
 70
     1
  0
VERTEX
  8
通り芯
 10
-210.0
 20
-148.5
  0
VERTEX
  8
通り芯
 10
210.0
 20
-148.5
  0
VERTEX
  8
通り芯
 10
210.0
 20
148.5
  0
VERTEX
  8
通り芯
 10
-210.0
 20
148.5
  0
SEQEND
  0
INSERT
  2
*GRP_0002
  8
通り芯
  6
CONTINUOUS
 10
0.0
 20
0.0
  0
INSERT
  2
*GRP_0003
  8
補助線
  6
CONTINUOUS
 10
0.0
 20
0.0
  0
INSERT
  2
*GRP_0004
  8
補助線
  6
CONTINUOUS
 10
0.0
 20
0.0
  0
INSERT
  2
*GRP_0001
  8
型材断面
  6
CONTINUOUS
 10
0.0
 20
0.0
  0
INSERT
  2
*GRP_0005
  8
型材断面
  6
CONTINUOUS
 62
    47
 10
0.0
 20
0.0
  0
INSERT
  2
*GRP_0006
  8
型材断面
  6
CONTINUOUS
 62
    47
 10
0.0
 20
0.0
  0
INSERT
  2
*GRP_0007
  8
型材断面
  6
CONTINUOUS
 62
    47
 10
0.0
 20
0.0
  0
LINE
  8
型材断面
  6
CONTINUOUS
 62
    47
 10
39.37157
 20
-88.961097
 11
40.871565
 21
-88.127768
  0
LINE
  8
型材断面
  6
CONTINUOUS
 62
    47
 10
39.37157
 20
-93.294442
 11
40.871565
 21
-94.127768
  0
LINE
  8
型材断面
  6
CONTINUOUS
 62
    47
 10
39.74657
 20
-93.502772
 11
39.74657
 21
-88.752762
  0
LINE
  8
型材断面
  6
CONTINUOUS
 62
    47
 10
40.12157
 20
-93.711107
 11
40.12157
 21
-88.544433
  0
LINE
  8
型材断面
  6
CONTINUOUS
 62
    47
 10
40.49657
 20
-93.919438
 11
40.49657
 21
-88.336097
  0
LINE
  8
型材断面
  6
CONTINUOUS
 62
    47
 10
19.37155
 20
-22.710387
 11
20.87155
 21
-21.877052
  0
LINE
  8
型材断面
  6
CONTINUOUS
 62
    47
 10
19.37155
 20
-27.043722
 11
20.87155
 21
-27.877052
  0
LINE
  8
型材断面
  6
CONTINUOUS
 62
    47
 10
19.74655
 20
-27.252052
 11
19.74655
 21
-22.502052
  0
LINE
  8
型材断面
  6
CONTINUOUS
 62
    47
 10
20.12155
 20
-27.460387
 11
20.12155
 21
-22.293718
  0
LINE
  8
型材断面
  6
CONTINUOUS
 62
    47
 10
20.49655
 20
-27.668718
 11
20.49655
 21
-22.085387
  0
LINE
  8
型材断面
  6
CONTINUOUS
 62
    47
 10
19.37155
 20
-10.376338
 11
19.37155
 21
-8.876338
  0
ARC
  8
型材断面
  6
CONTINUOUS
 62
    47
 10
20.871556
 20
-34.877787
 40
1.5
 50
180.0
 51
270.0
  0
LINE
  8
型材断面
  6
CONTINUOUS
 62
    47
 10
19.37155
 20
-8.876338
 11
19.37155
 21
-36.377783
  0
LINE
  8
型材断面
  6
CONTINUOUS
 62
    47
 10
19.37155
 20
-36.377783
 11
39.37157
 21
-36.377783
  0
LINE
  8
型材断面
  6
CONTINUOUS
 62
    47
 10
20.87155
 20
-34.877783
 11
20.87155
 21
-8.876338
  0
LINE
  8
型材断面
  6
CONTINUOUS
 62
    47
 10
20.87155
 20
-8.876338
 11
19.37155
 21
-8.876338
  0
ARC
  8
型材断面
  6
CONTINUOUS
 62
    47
 10
39.371572
 20
-36.377781
 40
1.5
 50
0.0
 51
90.0
  0
LINE
  8
型材断面
  6
CONTINUOUS
 62
    47
 10
20.87155
 20
-34.877783
 11
40.87157
 21
-34.877783
  0
LINE
  8
型材断面
  6
CONTINUOUS
 62
    47
 10
39.37157
 20
-106.877762
 11
39.37157
 21
-36.377783
  0
LINE
  8
型材断面
  6
CONTINUOUS
 62
    47
 10
40.87157
 20
-106.877762
 11
40.87157
 21
-34.877783
  0
LINE
  8
型材断面
  6
CONTINUOUS
 10
39.37157
 20
-46.377787
 11
40.87157
 21
-46.377787
  0
LINE
  8
型材断面
  6
CONTINUOUS
 62
    47
 10
39.74657
 20
-46.377787
 11
39.74657
 21
-73.377787
  0
LINE
  8
型材断面
  6
CONTINUOUS
 62
    47
 10
40.12157
 20
-46.377787
 11
40.12157
 21
-73.377787
  0
LINE
  8
型材断面
  6
CONTINUOUS
 62
    47
 10
40.49657
 20
-46.377787
 11
40.49657
 21
-73.377787
  0
LINE
  8
型材断面
  6
CONTINUOUS
 10
40.87157
 20
-73.377787
 11
39.37157
 21
-73.377787
  0
INSERT
  2
*GRP_0008
  8
型材断面
  6
CONTINUOUS
 62
    63
 10
0.0
 20
0.0
  0
INSERT
  2
*GRP_0009
  8
型材断面
  6
CONTINUOUS
 10
0.0
 20
0.0
  0
LINE
  8
型材断面
  6
CONTINUOUS
 62
    47
 10
32.771675
 20
64.122228
 11
32.771675
 21
62.622228
  0
LINE
  8
型材断面
  6
CONTINUOUS
 62
    47
 10
24.771675
 20
64.122228
 11
24.771675
 21
62.622228
  0
LINE
  8
型材断面
  6
CONTINUOUS
 62
    47
 10
33.771675
 20
64.122228
 11
33.771675
 21
62.622228
  0
LINE
  8
型材断面
  6
CONTINUOUS
 62
    47
 10
23.771675
 20
64.122228
 11
23.771675
 21
62.622228
  0
LINE
  8
型材断面
  6
CONTINUOUS
 62
    47
 10
33.771675
 20
63.747228
 11
23.771675
 21
63.747228
  0
LINE
  8
型材断面
  6
CONTINUOUS
 62
    47
 10
33.771675
 20
63.372228
 11
23.771675
 21
63.372228
  0
LINE
  8
型材断面
  6
CONTINUOUS
 62
    47
 10
33.771675
 20
62.997228
 11
23.771675
 21
62.997228
  0
ARC
  8
型材断面
  6
CONTINUOUS
 10
-30.301634
 20
40.122229
 40
0.695595
 50
270.0
 51
270.0
  0
LINE
  8
型材断面
  6
CONTINUOUS
 62
    47
 10
-29.628405
 20
40.122228
 11
-28.79507
 21
38.622228
  0
LINE
  8
型材断面
  6
CONTINUOUS
 62
    47
 10
-24.461735
 20
38.622228
 11
-23.628405
 21
40.122228
  0
LINE
  8
型材断面
  6
CONTINUOUS
 62
    47
 10
-23.836735
 20
39.747228
 11
-29.42007
 21
39.747228
  0
LINE
  8
型材断面
  6
CONTINUOUS
 62
    47
 10
-24.04507
 20
39.372228
 11
-29.21174
 21
39.372228
  0
LINE
  8
型材断面
  6
CONTINUOUS
 62
    47
 10
-24.253405
 20
38.997228
 11
-29.003405
 21
38.997228
  0
LINE
  8
型材断面
  6
CONTINUOUS
 62
    47
 10
-7.028435
 20
-7.377777
 11
-5.528435
 21
-8.211107
  0
LINE
  8
型材断面
  6
CONTINUOUS
 62
    47
 10
-7.028435
 20
-13.377777
 11
-5.528435
 21
-12.544442
  0
LINE
  8
型材断面
  6
CONTINUOUS
 62
    47
 10
-6.653435
 20
-7.586107
 11
-6.653435
 21
-13.169442
  0
LINE
  8
型材断面
  6
CONTINUOUS
 62
    47
 10
-6.278435
 20
-7.794442
 11
-6.278435
 21
-12.961107
  0
LINE
  8
型材断面
  6
CONTINUOUS
 62
    47
 10
-5.903435
 20
-8.002777
 11
-5.903435
 21
-12.752777
  0
INSERT
  2
*GRP_0010
  8
型材断面
  6
CONTINUOUS
 62
    47
 10
0.0
 20
0.0
  0
LINE
  8
型材断面
  6
CONTINUOUS
 62
    47
 10
-24.878405
 20
37.122228
 11
-24.878405
 21
38.622228
  0
LINE
  8
型材断面
  6
CONTINUOUS
 62
    47
 10
-28.378405
 20
37.122228
 11
-28.378405
 21
38.622228
  0
LINE
  8
型材断面
  6
CONTINUOUS
 62
    47
 10
-24.878405
 20
38.247228
 11
-28.378405
 21
38.247228
  0
LINE
  8
型材断面
  6
CONTINUOUS
 62
    47
 10
-24.878405
 20
37.872228
 11
-28.378405
 21
37.872228
  0
LINE
  8
型材断面
  6
CONTINUOUS
 62
    47
 10
-24.878405
 20
37.497228
 11
-28.378405
 21
37.497228
  0
LINE
  8
型材断面
  6
DASHDOT
 62
    47
 10
-26.628405
 20
41.267002
 11
-26.628405
 21
35.361398
  0
INSERT
  2
*GRP_0011
  8
型材断面
  6
CONTINUOUS
 62
    47
 10
0.0
 20
0.0
  0
LINE
  8
型材断面
  6
CONTINUOUS
 62
    47
 10
39.37157
 20
30.622213
 11
37.87157
 21
30.622213
  0
LINE
  8
型材断面
  6
CONTINUOUS
 62
    47
 10
39.37157
 20
7.622213
 11
37.87157
 21
7.622213
  0
LINE
  8
型材断面
  6
CONTINUOUS
 62
    47
 10
38.24657
 20
7.622213
 11
38.24657
 21
30.622213
  0
LINE
  8
型材断面
  6
CONTINUOUS
 62
    47
 10
38.62157
 20
7.622213
 11
38.62157
 21
30.622213
  0
LINE
  8
型材断面
  6
CONTINUOUS
 62
    47
 10
38.99657
 20
7.622213
 11
38.99657
 21
30.622213
  0
LINE
  8
型材断面
  6
CONTINUOUS
 62
    47
 10
37.87157
 20
47.788877
 11
39.37157
 21
48.622213
  0
LINE
  8
型材断面
  6
CONTINUOUS
 62
    47
 10
37.87157
 20
43.455543
 11
39.37157
 21
42.622213
  0
LINE
  8
型材断面
  6
CONTINUOUS
 62
    47
 10
38.24657
 20
47.997213
 11
38.24657
 21
43.247213
  0
LINE
  8
型材断面
  6
CONTINUOUS
 62
    47
 10
38.62157
 20
48.205543
 11
38.62157
 21
43.038877
  0
LINE
  8
型材断面
  6
CONTINUOUS
 62
    47
 10
38.99657
 20
48.413877
 11
38.99657
 21
42.830543
  0
LINE
  8
型材断面
  6
CONTINUOUS
 62
    47
 10
-4.028435
 20
-12.127777
 11
-5.528435
 21
-12.127777
  0
LINE
  8
型材断面
  6
CONTINUOUS
 62
    47
 10
-4.028435
 20
-8.627777
 11
-5.528435
 21
-8.627777
  0
LINE
  8
型材断面
  6
CONTINUOUS
 62
    47
 10
-4.403435
 20
-8.627777
 11
-4.403435
 21
-12.127777
  0
LINE
  8
型材断面
  6
CONTINUOUS
 62
    47
 10
-5.153435
 20
-8.627777
 11
-5.153435
 21
-12.127777
  0
LINE
  8
型材断面
  6
CONTINUOUS
 62
    47
 10
-4.778435
 20
-8.627777
 11
-4.778435
 21
-12.127777
  0
LINE
  8
型材断面
  6
DASHDOT
 62
    47
 10
-7.028435
 20
-10.377777
 11
-0.386305
 21
-10.377777
  0
LINE
  8
型材断面
  6
DASHDOT
 62
    47
 10
41.748195
 20
45.622213
 11
35.37157
 21
45.622213
  0
INSERT
  2
*GRP_0012
  8
型材断面
  6
CONTINUOUS
 62
    63
 10
0.0
 20
0.0
  0
LINE
  8
型材断面
  6
CONTINUOUS
 62
    63
 10
25.87157
 20
-37.877783
 11
25.87157
 21
-41.877787
  0
LINE
  8
型材断面
  6
CONTINUOUS
 62
    63
 10
28.12157
 20
-77.877787
 11
28.12157
 21
-81.877793
  0
LINE
  8
型材断面
  6
CONTINUOUS
 62
    63
 10
23.62157
 20
-77.877787
 11
23.62157
 21
-81.877793
  0
LINE
  8
型材断面
  6
CONTINUOUS
 62
    63
 10
30.87157
 20
-37.877783
 11
28.37157
 21
-41.177783
  0
LINE
  8
型材断面
  6
CONTINUOUS
 62
    63
 10
23.37157
 20
-41.177783
 11
28.37157
 21
-41.177783
  0
LINE
  8
型材断面
  6
CONTINUOUS
 62
    63
 10
20.87157
 20
-37.877783
 11
23.37157
 21
-41.177783
  0
LINE
  8
型材断面
  6
CONTINUOUS
 62
    63
 10
28.87157
 20
-40.517782
 11
22.87157
 21
-40.517782
  0
LINE
  8
型材断面
  6
CONTINUOUS
 62
    63
 10
11.371555
 20
-16.164448
 11
11.371555
 21
-10.376338
  0
LINE
  8
型材断面
  6
CONTINUOUS
 62
    63
 10
16.37155
 20
-24.877052
 11
19.37155
 21
-24.877052
  0
LINE
  8
型材断面
  6
CONTINUOUS
 62
    63
 10
-7.128405
 20
-103.877762
 11
-7.128405
 21
-106.877762
  0
LINE
  8
型材断面
  6
CONTINUOUS
 62
    63
 10
21.37157
 20
-38.537782
 11
30.37157
 21
-38.537782
  0
LINE
  8
型材断面
  6
CONTINUOUS
 62
    63
 10
21.87157
 20
-39.197782
 11
29.87157
 21
-39.197782
  0
LINE
  8
型材断面
  6
CONTINUOUS
 62
    63
 10
22.37157
 20
-39.857783
 11
29.37157
 21
-39.857783
  0
LINE
  8
型材断面
  6
CONTINUOUS
 62
    63
 10
23.62157
 20
-78.877787
 11
28.12157
 21
-78.877787
  0
LINE
  8
型材断面
  6
CONTINUOUS
 62
    63
 10
23.62157
 20
-79.877787
 11
28.12157
 21
-79.877787
  0
LINE
  8
型材断面
  6
CONTINUOUS
 62
    63
 10
23.62157
 20
-80.877793
 11
28.12157
 21
-80.877793
  0
LINE
  8
型材断面
  6
CONTINUOUS
 62
    63
 10
35.37157
 20
47.372213
 11
37.87157
 21
47.372213
  0
LINE
  8
型材断面
  6
CONTINUOUS
 62
    63
 10
35.37157
 20
43.872213
 11
37.87157
 21
43.872213
  0
LINE
  8
型材断面
  6
CONTINUOUS
 62
    63
 10
35.99657
 20
43.872213
 11
35.99657
 21
47.372213
  0
LINE
  8
型材断面
  6
CONTINUOUS
 62
    63
 10
36.62157
 20
43.872213
 11
36.62157
 21
47.372213
  0
LINE
  8
型材断面
  6
CONTINUOUS
 62
    63
 10
37.24657
 20
43.872213
 11
37.24657
 21
47.372213
  0
LINE
  8
型材断面
  6
CONTINUOUS
 62
    63
 10
25.87157
 20
-2.877777
 11
25.87157
 21
3.122228
  0
LINE
  8
型材断面
  6
CONTINUOUS
 62
    63
 10
23.12157
 20
0.422222
 11
20.87157
 21
-2.877777
  0
LINE
  8
型材断面
  6
CONTINUOUS
 62
    63
 10
28.62157
 20
0.422222
 11
30.87157
 21
-2.877777
  0
LINE
  8
型材断面
  6
CONTINUOUS
 62
    63
 10
23.12157
 20
0.422222
 11
28.62157
 21
0.422222
  0
LINE
  8
型材断面
  6
CONTINUOUS
 62
    63
 10
28.222045
 20
37.122213
 11
32.521045
 21
37.122213
  0
LINE
  8
型材断面
  6
CONTINUOUS
 62
    63
 10
27.97157
 20
37.122213
 11
27.97157
 21
41.122213
  0
LINE
  8
型材断面
  6
CONTINUOUS
 62
    63
 10
23.77157
 20
37.122213
 11
23.77157
 21
41.122213
  0
LINE
  8
型材断面
  6
CONTINUOUS
 62
    63
 10
23.77157
 20
37.747213
 11
27.97157
 21
37.747213
  0
LINE
  8
型材断面
  6
CONTINUOUS
 62
    63
 10
23.77157
 20
38.372213
 11
27.97157
 21
38.372213
  0
LINE
  8
型材断面
  6
CONTINUOUS
 62
    63
 10
23.77157
 20
38.997213
 11
27.97157
 21
38.997213
  0
LINE
  8
型材断面
  6
CONTINUOUS
 62
    63
 10
23.77157
 20
39.622213
 11
27.97157
 21
39.622213
  0
LINE
  8
型材断面
  6
CONTINUOUS
 62
    63
 10
23.77157
 20
40.247213
 11
27.97157
 21
40.247213
  0
LINE
  8
型材断面
  6
CONTINUOUS
 62
    63
 10
22.67157
 20
-0.237777
 11
29.07157
 21
-0.237777
  0
LINE
  8
型材断面
  6
CONTINUOUS
 62
    63
 10
22.22157
 20
-0.897778
 11
29.52157
 21
-0.897778
  0
LINE
  8
型材断面
  6
CONTINUOUS
 62
    63
 10
21.77157
 20
-1.557777
 11
29.97157
 21
-1.557777
  0
LINE
  8
型材断面
  6
CONTINUOUS
 62
    63
 10
21.32157
 20
-2.217778
 11
30.42157
 21
-2.217778
  0
LINE
  8
型材断面
  6
CONTINUOUS
 62
    47
 10
40.87157
 20
-106.877762
 11
39.37157
 21
-106.877762
  0
LINE
  8
型材断面
  6
CONTINUOUS
 62
    47
 10
32.771675
 20
64.122228
 11
32.771675
 21
62.622228
  0
LINE
  8
型材断面
  6
CONTINUOUS
 62
    47
 10
24.771675
 20
64.122228
 11
24.771675
 21
62.622228
  0
INSERT
  2
M8横横
  8
型材断面
  6
CONTINUOUS
 10
28.771665
 20
60.122215
 50
180.0
  0
INSERT
  2
*GRP_0013
  8
型材断面
  6
CONTINUOUS
 10
0.0
 20
0.0
  0
POLYLINE
  8
型材断面
  6
CONTINUOUS
 66
     1
  0
VERTEX
  8
型材断面
 10
37.871565
 20
62.622222
  0
VERTEX
  8
型材断面
 10
37.871565
 20
120.013365
  0
VERTEX
  8
型材断面
 10
168.06646
 20
120.013365
  0
SEQEND
  0
POLYLINE
  8
型材断面
  6
CONTINUOUS
 66
     1
  0
VERTEX
  8
型材断面
 10
168.06646
 20
120.013365
  0
VERTEX
  8
型材断面
 10
161.834323
 20
122.116612
  0
VERTEX
  8
型材断面
 10
161.746183
 20
120.013365
  0
SEQEND
  0
POLYLINE
  8
型材断面
  6
CONTINUOUS
 66
     1
  0
VERTEX
  8
型材断面
 10
165.478097
 20
120.013365
  0
VERTEX
  8
型材断面
 10
159.24596
 20
122.116612
  0
VERTEX
  8
型材断面
 10
159.15782
 20
120.013365
  0
SEQEND
  0
LINE
  8
型材断面
  6
CONTINUOUS
 10
168.550075
 20
114.13701
 11
95.371565
 21
114.13701
  0
POLYLINE
  8
型材断面
  6
CONTINUOUS
 66
     1
  0
VERTEX
  8
型材断面
 10
168.550075
 20
114.13701
  0
VERTEX
  8
型材断面
 10
162.317937
 20
116.240258
  0
VERTEX
  8
型材断面
 10
162.229797
 20
114.13701
  0
SEQEND
  0
POLYLINE
  8
型材断面
  6
CONTINUOUS
 66
     1
  0
VERTEX
  8
型材断面
 10
165.961713
 20
114.13701
  0
VERTEX
  8
型材断面
 10
159.729575
 20
116.240258
  0
VERTEX
  8
型材断面
 10
159.641435
 20
114.13701
  0
SEQEND
  0
LINE
  8
型材断面
  6
DASHDOT
 10
37.87157
 20
62.622228
 11
37.87157
 21
133.5
  0
INSERT
  2
*GRP_0014
  8
型材断面
  6
CONTINUOUS
 10
0.0
 20
0.0
  0
LINE
  8
型材断面
  6
CONTINUOUS
 10
-28.53153
 20
74.122222
 11
-35.602605
 21
67.051147
  0
ARC
  8
型材断面
  6
CONTINUOUS
 10
-28.531533
 20
74.122223
 40
1.5
 50
-45.0
 51
45.0
  0
ARC
  8
型材断面
  6
CONTINUOUS
 10
-35.602605
 20
67.051151
 40
1.5
 50
224.999959
 51
315.0
  0
ARC
  8
型材断面
  6
CONTINUOUS
 10
-32.420636
 20
80.132652
 40
1.5
 50
135.0
 51
225.0
  0
ARC
  8
型材断面
  6
CONTINUOUS
 10
-41.613027
 20
70.940253
 40
1.5
 50
45.0
 51
135.0
  0
LINE
  8
型材断面
  6
CONTINUOUS
 62
    47
 10
-10.146755
 20
93.214113
 11
-9.086097
 21
94.274777
  0
LINE
  8
型材断面
  6
CONTINUOUS
 62
    47
 10
-10.146755
 20
93.214113
 11
-14.74295
 21
97.810308
  0
ARC
  8
型材断面
  6
CONTINUOUS
 10
-14.742947
 20
97.81031
 40
1.5
 50
45.0
 51
135.0
  0
LINE
  8
型材断面
  6
CONTINUOUS
 62
    47
 10
-34.541955
 20
80.132655
 11
-14.742965
 21
99.931645
  0
LINE
  8
型材断面
  6
CONTINUOUS
 62
    47
 10
-32.42064
 20
80.132647
 11
-14.742965
 21
97.810323
  0
LINE
  8
型材断面
  6
CONTINUOUS
 10
-14.742965
 20
99.931645
 11
-9.086097
 21
94.274777
  0
LINE
  8
型材断面
  6
CONTINUOUS
 62
    47
 10
-26.410215
 20
74.122222
 11
-32.42064
 21
80.132647
  0
LINE
  8
型材断面
  6
CONTINUOUS
 62
    47
 10
-28.53153
 20
74.122222
 11
-34.541955
 21
80.132655
  0
LINE
  8
型材断面
  6
CONTINUOUS
 62
    47
 10
-35.602605
 20
67.051147
 11
-41.61303
 21
73.061572
  0
LINE
  8
型材断面
  6
CONTINUOUS
 10
-35.602613
 20
64.929825
 11
-41.61303
 21
70.940258
  0
LINE
  8
型材断面
  6
CONTINUOUS
 10
-46.128435
 20
41.622225
 11
-46.128435
 21
66.424853
  0
LINE
  8
型材断面
  6
CONTINUOUS
 10
-41.61303
 20
70.940258
 11
-46.128435
 21
66.424853
  0
ARC
  8
型材断面
  6
CONTINUOUS
 10
-46.128434
 20
66.424847
 40
1.5
 50
135.0
 51
180.0
  0
LINE
  8
型材断面
  6
CONTINUOUS
 10
-41.61303
 20
73.061572
 11
-47.628435
 21
67.046168
  0
LINE
  8
型材断面
  6
CONTINUOUS
 10
-33.834835
 20
68.818917
 11
-32.774178
 21
67.75826
  0
LINE
  8
型材断面
  6
CONTINUOUS
 10
-30.2993
 20
72.354452
 11
-29.238642
 21
71.293795
  0
LINE
  8
型材断面
  6
CONTINUOUS
 10
-30.034135
 20
72.089287
 11
-33.56967
 21
68.553752
  0
LINE
  8
型材断面
  6
CONTINUOUS
 10
-29.76897
 20
71.824125
 11
-33.304508
 21
68.28859
  0
LINE
  8
型材断面
  6
CONTINUOUS
 10
-29.503805
 20
71.558957
 11
-33.03934
 21
68.023423
  0
LINE
  8
型材断面
  6
CONTINUOUS
 10
13.975987
 20
68.12223
 11
64.50091
 21
118.647153
  0
LINE
  8
型材断面
  6
CONTINUOUS
 10
16.097307
 20
68.12223
 11
66.62223
 21
118.647153
  0
LINE
  8
型材断面
  6
CONTINUOUS
 10
27.411017
 20
68.12223
 11
77.93594
 21
118.647153
  0
LINE
  8
型材断面
  6
CONTINUOUS
 10
40.332267
 20
68.12223
 11
90.85719
 21
118.647153
  0
LINE
  8
型材断面
  6
CONTINUOUS
 10
43.167427
 20
68.12223
 11
93.69235
 21
118.647153
  0
LINE
  8
型材断面
  6
CONTINUOUS
 10
52.353027
 20
68.12223
 11
102.87795
 21
118.647153
  0
LINE
  8
型材断面
  6
CONTINUOUS
 10
65.274278
 20
68.12223
 11
115.7992
 21
118.647153
  0
LINE
  8
型材断面
  6
CONTINUOUS
 10
-7.671897
 20
107.002713
 11
2.22762
 21
97.103195
  0
LINE
  8
型材断面
  6
CONTINUOUS
 10
3.972588
 20
118.647153
 11
-7.671875
 21
107.00269
  0
LINE
  8
型材断面
  6
CONTINUOUS
 10
15.286298
 20
118.647153
 11
-2.01502
 21
101.345835
  0
LINE
  8
型材断面
  6
CONTINUOUS
 10
53.186487
 20
118.647153
 11
11.27822
 21
76.738885
  0
LINE
  8
型材断面
  6
CONTINUOUS
 10
-37.628435
 20
40.122225
 11
-37.628435
 21
41.62223
  0
LINE
  8
型材断面
  6
CONTINUOUS
 10
-37.628435
 20
41.622225
 11
-46.128435
 21
41.622225
  0
ARC
  8
型材断面
  6
CONTINUOUS
 10
-46.128436
 20
41.622225
 40
1.5
 50
180.0
 51
270.0
  0
LINE
  8
型材断面
  6
CONTINUOUS
 62
    47
 10
-34.128435
 20
26.122228
 11
-34.128435
 21
17.622228
  0
LINE
  8
型材断面
  6
CONTINUOUS
 62
    47
 10
-32.628435
 20
17.622228
 11
-34.128435
 21
17.622228
  0
LINE
  8
型材断面
  6
CONTINUOUS
 62
    47
 10
-46.128435
 20
38.622228
 11
-46.128435
 21
27.622228
  0
ARC
  8
型材断面
  6
CONTINUOUS
 62
    47
 10
-5.528431
 20
62.622231
 40
1.5
 50
90.0
 51
180.0
  0
ARC
  8
型材断面
  6
CONTINUOUS
 62
    47
 10
-7.028431
 20
50.622231
 40
1.5
 50
-90.0
 51
0.0
  0
ARC
  8
型材断面
  6
CONTINUOUS
 62
    47
 10
-19.628401
 20
49.122231
 40
1.5
 50
90.0
 51
180.0
  0
ARC
  8
型材断面
  6
CONTINUOUS
 62
    47
 10
-21.128401
 20
40.122231
 40
1.5
 50
-90.0
 51
0.0
  0
ARC
  8
型材断面
  6
CONTINUOUS
 62
    47
 10
-46.128431
 20
38.622231
 40
1.5
 50
90.0
 51
180.0
  0
ARC
  8
型材断面
  6
CONTINUOUS
 62
    47
 10
-46.128431
 20
27.622231
 40
1.5
 50
180.0
 51
270.0
  0
ARC
  8
型材断面
  6
CONTINUOUS
 62
    47
 10
-34.128431
 20
26.122231
 40
1.5
 50
0.0
 51
90.0
  0
LINE
  8
型材断面
  6
CONTINUOUS
 62
    47
 10
-47.628435
 20
40.122228
 11
-47.628435
 21
26.122228
  0
LINE
  8
型材断面
  6
CONTINUOUS
 62
    47
 10
-34.128435
 20
26.122228
 11
-47.628435
 21
26.122228
  0
LINE
  8
型材断面
  6
CONTINUOUS
 62
    47
 10
-46.128435
 20
27.622228
 11
-32.628435
 21
27.622228
  0
LINE
  8
型材断面
  6
CONTINUOUS
 62
    47
 10
-32.628435
 20
17.622228
 11
-32.628435
 21
27.622228
  0
LINE
  8
型材断面
  6
CONTINUOUS
 62
    47
 10
-19.628405
 20
49.122228
 11
-19.628405
 21
38.622228
  0
LINE
  8
型材断面
  6
CONTINUOUS
 62
    47
 10
-46.128435
 20
38.622228
 11
-19.628405
 21
38.622228
  0
LINE
  8
型材断面
  6
CONTINUOUS
 62
    47
 10
-21.128405
 20
40.122228
 11
-21.128405
 21
50.622228
  0
LINE
  8
型材断面
  6
CONTINUOUS
 62
    47
 10
-21.128405
 20
50.622228
 11
-7.028435
 21
50.622228
  0
LINE
  8
型材断面
  6
CONTINUOUS
 62
    47
 10
-19.628405
 20
49.122228
 11
-5.528435
 21
49.122228
  0
LINE
  8
型材断面
  6
CONTINUOUS
 62
    47
 10
-5.528435
 20
62.622228
 11
-5.528435
 21
49.122228
  0
LINE
  8
型材断面
  6
CONTINUOUS
 62
    47
 10
-7.028435
 20
50.622228
 11
-7.028435
 21
64.122228
  0
LINE
  8
型材断面
  6
CONTINUOUS
 62
    47
 10
-46.128435
 20
40.122228
 11
-21.128405
 21
40.122228
  0
LINE
  8
型材断面
  6
CONTINUOUS
 62
    47
 10
-7.028435
 20
64.122228
 11
63.871565
 21
64.122228
  0
LINE
  8
型材断面
  6
CONTINUOUS
 62
    47
 10
65.371565
 20
77.622228
 11
63.871565
 21
77.622228
  0
LINE
  8
型材断面
  6
CONTINUOUS
 62
    47
 10
63.871565
 20
77.622228
 11
63.871565
 21
64.122228
  0
LINE
  8
型材断面
  6
CONTINUOUS
 62
    47
 10
-5.528435
 20
62.622228
 11
65.371565
 21
62.622228
  0
LINE
  8
型材断面
  6
CONTINUOUS
 62
    47
 10
65.371565
 20
77.622228
 11
65.371565
 21
62.622228
  0
ARC
  8
型材断面
  6
CONTINUOUS
 62
    47
 10
63.871566
 20
64.122232
 40
1.5
 50
-90.0
 51
0.0
  0
LINE
  8
型材断面
  6
CONTINUOUS
 10
-47.628435
 20
67.046168
 11
-47.628435
 21
40.122228
  0
LINE
  8
型材断面
  6
CONTINUOUS
 10
-21.128405
 20
40.122228
 11
-47.628435
 21
40.122228
  0
LINE
  8
型材断面
  6
CONTINUOUS
 10
-46.503435
 20
41.247225
 11
-46.503435
 21
46.122225
  0
LINE
  8
型材断面
  6
CONTINUOUS
 10
-46.878435
 20
40.872225
 11
-46.878435
 21
46.122225
  0
LINE
  8
型材断面
  6
CONTINUOUS
 10
-47.253435
 20
40.497225
 11
-47.253435
 21
46.122225
  0
LINE
  8
型材断面
  6
CONTINUOUS
 10
-47.628435
 20
46.122225
 11
-46.128435
 21
46.122225
  0
LINE
  8
型材断面
  6
CONTINUOUS
 10
-46.503435
 20
41.247225
 11
-37.628435
 21
41.247225
  0
LINE
  8
型材断面
  6
CONTINUOUS
 10
-46.878435
 20
40.872225
 11
-37.628435
 21
40.872225
  0
LINE
  8
型材断面
  6
CONTINUOUS
 10
-47.253435
 20
40.497225
 11
-37.628435
 21
40.497225
  0
LINE
  8
型材断面
  6
CONTINUOUS
 10
-10.146755
 20
93.214113
 11
-17.217822
 21
86.143045
  0
LINE
  8
型材断面
  6
CONTINUOUS
 10
-21.814018
 20
90.73924
 11
-17.217822
 21
86.143045
  0
LINE
  8
型材断面
  6
CONTINUOUS
 10
-17.217822
 20
86.143045
 11
-14.74295
 21
97.810308
  0
LINE
  8
ガラス
  6
CONTINUOUS
 10
-15.45005
 20
79.425525
 11
23.771578
 21
118.647153
  0
LINE
  8
ガラス
  6
CONTINUOUS
 10
-15.096497
 20
79.071973
 11
24.478682
 21
118.647153
  0
LINE
  8
ガラス
  6
CONTINUOUS
 10
-10.641725
 20
74.6172
 11
33.388227
 21
118.647153
  0
LINE
  8
ガラス
  6
CONTINUOUS
 10
-11.118225
 20
74.847808
 11
32.681122
 21
118.647153
  0
LINE
  8
ガラス
  6
CONTINUOUS
 10
-6.045532
 20
70.021008
 11
42.580612
 21
118.647153
  0
LINE
  8
ガラス
  6
CONTINUOUS
 10
-6.399085
 20
70.37456
 11
41.873508
 21
118.647153
  0
LINE
  8
ガラス
  6
CONTINUOUS
 10
-3.217102
 20
67.192577
 11
48.237472
 21
118.647153
  0
LINE
  8
ガラス
  6
CONTINUOUS
 10
-2.86355
 20
66.839025
 11
48.944578
 21
118.647153
  0
INSERT
  2
*GRP_0061
  8
ガラス
  6
CONTINUOUS
 10
0.0
 20
0.0
  0
INSERT
  2
*GRP_0062
  8
ガラス
  6
CONTINUOUS
 10
0.0
 20
0.0
  0
INSERT
  2
*GRP_0063
  8
ガラス
  6
CONTINUOUS
 10
0.0
 20
0.0
  0
INSERT
  2
*GRP_0064
  8
ガラス
  6
CONTINUOUS
 10
0.0
 20
0.0
  0
INSERT
  2
*GRP_0065
  8
ガラス
  6
CONTINUOUS
 10
0.0
 20
0.0
  0
INSERT
  2
*GRP_0066
  8
ガラス
  6
CONTINUOUS
 10
0.0
 20
0.0
  0
INSERT
  2
*GRP_0067
  8
ガラス
  6
CONTINUOUS
 10
0.0
 20
0.0
  0
INSERT
  2
*GRP_0068
  8
ガラス
  6
CONTINUOUS
 10
0.0
 20
0.0
  0
INSERT
  2
*GRP_0069
  8
ガラス
  6
CONTINUOUS
 10
0.0
 20
0.0
  0
INSERT
  2
*GRP_0070
  8
ガラス
  6
CONTINUOUS
 10
0.0
 20
0.0
  0
INSERT
  2
*GRP_0071
  8
ガラス
  6
CONTINUOUS
 10
0.0
 20
0.0
  0
INSERT
  2
*GRP_0072
  8
ガラス
  6
CONTINUOUS
 10
0.0
 20
0.0
  0
INSERT
  2
*GRP_0073
  8
ガラス
  6
CONTINUOUS
 10
0.0
 20
0.0
  0
INSERT
  2
*GRP_0074
  8
ガラス
  6
CONTINUOUS
 10
0.0
 20
0.0
  0
INSERT
  2
*GRP_0015
  8
ゴム等
  6
CONTINUOUS
 10
0.0
 20
0.0
  0
INSERT
  2
*GRP_0016
  8
ゴム等
  6
CONTINUOUS
 10
0.0
 20
0.0
  0
INSERT
  2
*GRP_0017
  8
ゴム等
  6
CONTINUOUS
 10
0.0
 20
0.0
  0
INSERT
  2
*GRP_0018
  8
ボルト／ビス
  6
CONTINUOUS
 10
0.0
 20
0.0
  0
INSERT
  2
*GRP_0019
  8
ボルト／ビス
  6
CONTINUOUS
 10
0.0
 20
0.0
  0
LINE
  8
ボルト／ビス
  6
CONTINUOUS
 10
28.771665
 20
60.122215
 11
28.771665
 21
77.50489
  0
INSERT
  2
*GRP_0020
  8
ボルト／ビス
  6
CONTINUOUS
 10
0.0
 20
0.0
  0
LINE
  8
ボルト／ビス
  6
CONTINUOUS
 10
24.771665
 20
79.122215
 11
25.771665
 21
80.122215
  0
LINE
  8
ボルト／ビス
  6
CONTINUOUS
 10
31.771665
 20
80.122215
 11
32.771665
 21
79.139705
  0
LINE
  8
ボルト／ビス
  6
CONTINUOUS
 10
31.771665
 20
60.122215
 11
31.771665
 21
80.122215
  0
LINE
  8
ボルト／ビス
  6
CONTINUOUS
 10
31.771665
 20
80.122215
 11
25.771665
 21
80.122215
  0
LINE
  8
ボルト／ビス
  6
CONTINUOUS
 10
25.771665
 20
60.122215
 11
25.771665
 21
80.122215
  0
LINE
  8
ボルト／ビス
  6
CONTINUOUS
 10
24.771665
 20
60.122215
 11
24.771665
 21
79.122215
  0
LINE
  8
ボルト／ビス
  6
CONTINUOUS
 10
24.771665
 20
79.122215
 11
32.771665
 21
79.122215
  0
LINE
  8
ボルト／ビス
  6
CONTINUOUS
 10
32.771665
 20
60.122215
 11
32.771665
 21
79.122215
  0
INSERT
  2
*GRP_0021
  8
ボルト／ビス
  6
CONTINUOUS
 10
0.0
 20
0.0
  0
INSERT
  2
*GRP_0022
  8
ボルト／ビス
  6
CONTINUOUS
 10
0.0
 20
0.0
  0
INSERT
  2
*GRP_0023
  8
ボルト／ビス
  6
CONTINUOUS
 10
0.0
 20
0.0
  0
INSERT
  2
*GRP_0024
  8
ボルト／ビス
  6
CONTINUOUS
 10
0.0
 20
0.0
  0
INSERT
  2
*GRP_0025
  8
ボルト／ビス
  6
CONTINUOUS
 10
0.0
 20
0.0
  0
INSERT
  2
*GRP_0026
  8
ボルト／ビス
  6
CONTINUOUS
 10
0.0
 20
0.0
  0
CIRCLE
  8
ボルト／ビス
  6
CONTINUOUS
 10
2.371565
 20
-59.877787
 40
11.5
  0
CIRCLE
  8
ボルト／ビス
  6
CONTINUOUS
 10
2.37155
 20
19.122213
 40
11.5
  0
INSERT
  2
*GRP_0027
  8
ボルト／ビス
  6
CONTINUOUS
 10
0.0
 20
0.0
  0
TEXT
  7
TextStyle03
  8
文字
  6
CONTINUOUS
 10
90.15
 20
120.95
  1
呼称寸法
 40
4.0
 72
     5
 11
107.65
 21
120.95
  0
TEXT
  7
TextStyle03
  8
文字
  6
CONTINUOUS
 10
119.9
 20
114.7
  1
有効開口寸法
 40
4.0
 72
     5
 11
146.4
 21
114.7
  0
TEXT
  7
TextStyle03
  8
文字
  6
CONTINUOUS
 10
-45.475
 20
8.45
  1
TK-1130
 40
4.0
 72
     5
 11
-29.975
 21
8.45
  0
TEXT
  7
TextStyle03
  8
文字
  6
CONTINUOUS
 10
-48.525
 20
-76.275
  1
TK-1128
 40
4.0
 72
     5
 11
-33.025
 21
-76.275
  0
TEXT
  7
TextStyle03
  8
文字
  6
CONTINUOUS
 10
41.125
 20
88.075
  1
TKR-1206
 40
4.0
 72
     5
 11
58.875
 21
88.075
  0
TEXT
  7
TextStyle03
  8
文字
  6
CONTINUOUS
 10
-39.025
 20
-13.675
  1
TKR-1108
 40
4.0
 72
     5
 11
-21.275
 21
-13.675
  0
TEXT
  7
TextStyle03
  8
文字
  6
CONTINUOUS
 10
-72.05
 20
57.125
  1
TKR-1104
 40
4.0
 72
     5
 11
-54.3
 21
57.125
  0
TEXT
  7
TextStyle03
  8
文字
  6
CONTINUOUS
 10
-179.825
 20
101.425
  1
ＮＳコード：ＮＳ４ＣＳ
 40
5.0
 72
     5
 11
-118.575
 21
101.425
  0
TEXT
  7
TextStyle03
  8
文字
  6
CONTINUOUS
 10
-179.875
 20
121.7
  1
シリーズ：ＳＴＦ４
 40
5.0
 72
     5
 11
-129.875
 21
121.7
  0
TEXT
  7
TextStyle03
  8
文字
  6
CONTINUOUS
 10
-179.875
 20
116.075
  1
　　　　　四角錘（上下可動）ペアガラス
 40
5.0
 72
     5
 11
-73.625
 21
116.075
  0
TEXT
  7
TextStyle03
  8
文字
  6
CONTINUOUS
 10
-179.875
 20
110.45
  1
図面名　：下枠断面詳細図(可動装置側)
 40
5.0
 72
     5
 11
-78.9375
 21
110.45
  0
TEXT
  7
TextStyle03
  8
文字
  6
CONTINUOUS
 10
107.15
 20
-30.3
  1
バランスステー
 40
3.0
 72
     5
 11
130.4
 21
-30.3
  0
INSERT
  2
*DIM_0028
  8
寸法
  6
CONTINUOUS
 10
0.0
 20
0.0
  0
INSERT
  2
*DIM_0029
  8
寸法
  6
CONTINUOUS
 10
0.0
 20
0.0
  0
INSERT
  2
*DIM_0030
  8
寸法
  6
CONTINUOUS
 10
0.0
 20
0.0
  0
INSERT
  2
*DIM_0031
  8
寸法
  6
CONTINUOUS
 10
0.0
 20
0.0
  0
INSERT
  2
*DIM_0032
  8
寸法
  6
CONTINUOUS
 10
0.0
 20
0.0
  0
INSERT
  2
*DIM_0033
  8
寸法
  6
CONTINUOUS
 10
0.0
 20
0.0
  0
INSERT
  2
*DIM_0034
  8
寸法
  6
CONTINUOUS
 10
0.0
 20
0.0
  0
INSERT
  2
*DIM_0035
  8
寸法
  6
CONTINUOUS
 10
0.0
 20
0.0
  0
INSERT
  2
*DIM_0036
  8
寸法
  6
CONTINUOUS
 10
0.0
 20
0.0
  0
INSERT
  2
*DIM_0037
  8
寸法
  6
CONTINUOUS
 10
0.0
 20
0.0
  0
INSERT
  2
*DIM_0038
  8
寸法
  6
CONTINUOUS
 10
0.0
 20
0.0
  0
INSERT
  2
*DIM_0039
  8
寸法
  6
CONTINUOUS
 10
0.0
 20
0.0
  0
INSERT
  2
*DIM_0040
  8
寸法
  6
CONTINUOUS
 10
0.0
 20
0.0
  0
INSERT
  2
*DIM_0041
  8
寸法
  6
CONTINUOUS
 10
0.0
 20
0.0
  0
INSERT
  2
*DIM_0042
  8
寸法
  6
CONTINUOUS
 10
0.0
 20
0.0
  0
INSERT
  2
*DIM_0043
  8
寸法
  6
CONTINUOUS
 10
0.0
 20
0.0
  0
INSERT
  2
*DIM_0044
  8
寸法
  6
CONTINUOUS
 10
0.0
 20
0.0
  0
INSERT
  2
*DIM_0045
  8
寸法
  6
CONTINUOUS
 10
0.0
 20
0.0
  0
INSERT
  2
*DIM_0046
  8
寸法
  6
CONTINUOUS
 10
0.0
 20
0.0
  0
INSERT
  2
*DIM_0047
  8
寸法
  6
CONTINUOUS
 10
0.0
 20
0.0
  0
INSERT
  2
*GRP_0048
  8
寸法
  6
CONTINUOUS
 10
0.0
 20
0.0
  0
INSERT
  2
*GRP_0049
  8
寸法
  6
CONTINUOUS
 10
0.0
 20
0.0
  0
INSERT
  2
*GRP_0050
  8
寸法
  6
CONTINUOUS
 10
0.0
 20
0.0
  0
INSERT
  2
*GRP_0051
  8
寸法
  6
CONTINUOUS
 10
0.0
 20
0.0
  0
INSERT
  2
*GRP_0052
  8
寸法
  6
CONTINUOUS
 10
0.0
 20
0.0
  0
INSERT
  2
*DIM_0053
  8
寸法
  6
CONTINUOUS
 10
0.0
 20
0.0
  0
INSERT
  2
*DIM_0054
  8
寸法
  6
CONTINUOUS
 10
0.0
 20
0.0
  0
INSERT
  2
*DIM_0055
  8
寸法
  6
CONTINUOUS
 10
0.0
 20
0.0
  0
INSERT
  2
*DIM_0058
  8
寸法
  6
CONTINUOUS
 10
0.0
 20
0.0
  0
INSERT
  2
*DIM_0059
  8
寸法
  6
CONTINUOUS
 10
0.0
 20
0.0
  0
INSERT
  2
*DIM_0060
  8
寸法
  6
CONTINUOUS
 10
0.0
 20
0.0
  0
INSERT
  2
*GRP_0078
  8
寸法
  6
CONTINUOUS
 10
0.0
 20
0.0
  0
INSERT
  2
*GRP_0079
  8
寸法
  6
CONTINUOUS
 10
0.0
 20
0.0
  0
INSERT
  2
*GRP_0056
  8
別途部材
  6
CONTINUOUS
 10
0.0
 20
0.0
  0
INSERT
  2
*GRP_0057
  8
別途部材
  6
CONTINUOUS
 10
0.0
 20
0.0
  0
ARC
  8
St
  6
CONTINUOUS
 10
-30.997229
 20
40.122229
 40
0.695595
 50
270.0
 51
270.0
  0
LINE
  8
St
  6
CONTINUOUS
 62
    47
 10
40.87157
 20
-104.877762
 11
39.37157
 21
-104.877762
  0
LINE
  8
St
  6
CONTINUOUS
 62
    47
 10
39.37157
 20
-105.302023
 11
39.79583
 21
-104.877762
  0
LINE
  8
St
  6
CONTINUOUS
 62
    47
 10
39.37157
 20
-105.726293
 11
40.2201
 21
-104.877762
  0
LINE
  8
St
  6
CONTINUOUS
 62
    47
 10
39.37157
 20
-106.150552
 11
40.64436
 21
-104.877762
  0
LINE
  8
St
  6
CONTINUOUS
 62
    47
 10
39.37157
 20
-106.574823
 11
40.87157
 21
-105.074823
  0
LINE
  8
St
  6
CONTINUOUS
 62
    47
 10
39.49289
 20
-106.877762
 11
40.87157
 21
-105.499082
  0
LINE
  8
St
  6
CONTINUOUS
 62
    47
 10
39.91715
 20
-106.877762
 11
40.87157
 21
-105.923343
  0
LINE
  8
St
  6
CONTINUOUS
 62
    47
 10
40.34142
 20
-106.877762
 11
40.87157
 21
-106.347613
  0
LINE
  8
St
  6
CONTINUOUS
 62
    47
 10
40.76568
 20
-106.877762
 11
40.87157
 21
-106.771872
  0
LINE
  8
St
  6
CONTINUOUS
 10
-13.028435
 20
68.122233
 11
-13.028435
 21
64.122228
  0
LINE
  8
St
  6
CONTINUOUS
 10
-13.028435
 20
68.122233
 11
63.871565
 21
68.122233
  0
INSERT
  2
*GRP_0075
  8
St
  6
CONTINUOUS
 10
0.0
 20
0.0
  0
LINE
  8
St
  6
DOT
 10
94.371567
 20
-42.878885
 11
156.6881
 21
-42.878885
  0
LINE
  8
St
  6
DOT
 10
94.371567
 20
-76.87889
 11
156.6881
 21
-76.87889
  0
LINE
  8
St
  6
DOT
 10
69.371555
 20
2.12221
 11
156.6881
 21
2.12221
  0
LINE
  8
St
  6
DOT
 10
69.371555
 20
36.122215
 11
156.6881
 21
36.122215
  0
LINE
  8
その他部品等
  6
CONTINUOUS
 10
-14.742965
 20
99.931645
 11
5.05607
 21
99.931645
  0
INSERT
  2
*HAT_0005
  8
その他部品等
 10
0.0
 20
0.0
  0
LINE
  8
その他部品等
  6
CONTINUOUS
 10
-37.977312
 20
69.425857
 11
-30.906238
 21
76.49694
  0
LINE
  8
その他部品等
  6
CONTINUOUS
 10
-35.602605
 20
67.051147
 11
-30.906238
 21
76.49694
  0
LINE
  8
その他部品等
  6
CONTINUOUS
 10
-41.61303
 20
73.061572
 11
-34.541955
 21
80.132655
  0
INSERT
  2
*HAT_0006
  8
その他部品等
 10
0.0
 20
0.0
  0
LINE
  8
その他部品等
  6
CONTINUOUS
 10
-14.742965
 20
99.931645
 11
-7.671897
 21
107.002713
  0
ENDSEC
  0
EOF
