  0
SECTION
  2
HEADER
  9
$EXTMIN
 10
-210.0
 20
-148.5
  9
$EXTMAX
 10
210.0
 20
148.5
  9
$PDMODE
 70
    32
  9
$PDSIZE
 40
0.3
  9
$LTSCALE
 40
10.0
  0
ENDSEC
  0
SECTION
  2
TABLES
  0
TABLE
  2
LTYPE
 70
    15
  0
LTYPE
  2
CONTINUOUS
 70
    64
  3
実線
 72
    65
 73
     0
 40
0.0
  0
LTYPE
  2
DASHED
 70
    64
  3
破線A
 72
    65
 73
     2
 40
0.6
 49
0.4
 49
-0.2
  0
LTYPE
  2
DASHEDX2
 70
    64
  3
破線B
 72
    65
 73
     2
 40
1.3
 49
0.9
 49
-0.4
  0
LTYPE
  2
DASHDOT
 70
    64
  3
１点鎖線A
 72
    65
 73
     4
 40
0.5375
 49
0.375
 49
-0.05
 49
0.0625
 49
-0.05
  0
LTYPE
  2
DASHDOTX2
 70
    64
  3
１点鎖線B
 72
    65
 73
     4
 40
1.075
 49
0.75
 49
-0.1
 49
0.125
 49
-0.1
  0
LTYPE
  2
DIVIDE2
 70
    64
  3
２点鎖線A
 72
    65
 73
     6
 40
0.5125
 49
0.3
 49
-0.0375
 49
0.05
 49
-0.0375
 49
0.05
 49
-0.0375
  0
LTYPE
  2
DIVIDE
 70
    64
  3
２点鎖線B
 72
    65
 73
     6
 40
1.05
 49
0.55
 49
-0.1
 49
0.1
 49
-0.1
 49
0.1
 49
-0.1
  0
LTYPE
  2
DOT
 70
    64
  3
点線A
 72
    65
 73
     2
 40
0.1125
 49
0.0625
 49
-0.05
  0
LTYPE
  2
DOTX2
 70
    64
  3
点線B
 72
    65
 73
     2
 40
0.275
 49
0.15
 49
-0.125
  0
LTYPE
  2
CONTINUOUS
 70
    64
  3
実線
 72
    65
 73
     0
 40
0.0
  0
LTYPE
  2
CONTINUOUS
 70
    64
  3
実線
 72
    65
 73
     0
 40
0.0
  0
LTYPE
  2
CONTINUOUS
 70
    64
  3
実線
 72
    65
 73
     0
 40
0.0
  0
LTYPE
  2
CONTINUOUS
 70
    64
  3
実線
 72
    65
 73
     0
 40
0.0
  0
LTYPE
  2
CONTINUOUS
 70
    64
  3
実線
 72
    65
 73
     0
 40
0.0
  0
LTYPE
  2
CONTINUOUS
 70
    64
  3
実線
 72
    65
 73
     0
 40
0.0
  0
ENDTAB
  0
TABLE
  2
LAYER
 70
    34
  0
LAYER
  2
通り芯
 70
     0
 62
    15
  6
CONTINUOUS
  0
LAYER
  2
補助線
 70
     0
 62
    16
  6
DOT
  0
LAYER
  2
躯体
 70
     0
 62
    31
  6
CONTINUOUS
  0
LAYER
  2
型材
 70
     0
 62
    32
  6
CONTINUOUS
  0
LAYER
  2
型材断面
 70
     0
 62
    47
  6
CONTINUOUS
  0
LAYER
  2
ガラス
 70
     0
 62
    48
  6
CONTINUOUS
  0
LAYER
  2
ゴム等
 70
     0
 62
    63
  6
CONTINUOUS
  0
LAYER
  2
ボルト／ビス
 70
     0
 62
    64
  6
CONTINUOUS
  0
LAYER
  2
文字
 70
     0
 62
    79
  6
CONTINUOUS
  0
LAYER
  2
寸法
 70
     0
 62
    80
  6
CONTINUOUS
  0
LAYER
  2
ﾊｯﾁﾝｸﾞ
 70
     0
 62
    95
  6
CONTINUOUS
  0
LAYER
  2
別途部材
 70
     0
 62
    96
  6
CONTINUOUS
  0
LAYER
  2
曲げ物
 70
     0
 62
   111
  6
CONTINUOUS
  0
LAYER
  2
鉄骨等
 70
     0
 62
   112
  6
CONTINUOUS
  0
LAYER
  2
St
 70
     0
 62
   127
  6
CONTINUOUS
  0
LAYER
  2
その他部品等
 70
     0
 62
   128
  6
CONTINUOUS
  0
LAYER
  2
ｶﾞｽｹｯﾄ
 70
     0
 62
   143
  6
CONTINUOUS
  0
LAYER
  2
ｽｹｯﾁ
 70
     0
 62
    14
  6
CONTINUOUS
  0
LAYER
  2
0
 70
     0
 62
    17
  6
CONTINUOUS
  0
LAYER
  2
1
 70
     0
 62
    30
  6
CONTINUOUS
  0
LAYER
  2
4
 70
     0
 62
    33
  6
CONTINUOUS
  0
LAYER
  2
ﾚｲﾔ3
 70
     0
 62
    46
  6
CONTINUOUS
  0
LAYER
  2
外形線
 70
     0
 62
    49
  6
CONTINUOUS
  0
LAYER
  2
部品
 70
     0
 62
    14
  6
CONTINUOUS
  0
LAYER
  2
サッシ芯
 70
     0
 62
    17
  6
DASHDOTX2
  0
LAYER
  2
寸法線
 70
     0
 62
    62
  6
CONTINUOUS
  0
LAYER
  2
姿図外形線
 70
     0
 62
    65
  6
CONTINUOUS
  0
LAYER
  2
姿補助線
 70
     0
 62
    30
  6
CONTINUOUS
  0
LAYER
  2
透視線
 70
     0
 62
    78
  6
DOT
  0
LAYER
  2
用紙
 70
     0
 62
    81
  6
CONTINUOUS
  0
LAYER
  2
実線図枠
 70
     0
 62
    94
  6
CONTINUOUS
  0
LAYER
  2
補助図枠
 70
     0
 62
    97
  6
CONTINUOUS
  0
LAYER
  2
建具記号
 70
     0
 62
   110
  6
CONTINUOUS
  0
LAYER
  2
補助文字
 70
     0
 62
   113
  6
CONTINUOUS
  0
ENDTAB
  0
TABLE
  2
STYLE
 70
    10
  0
STYLE
  2
STANDARD
 70
     0
 40
1.0
 41
1.0
 42
1.0
 50
0.0
 71
     0
  3
TXT
  4
BIGFONT
  0
STYLE
  2
TATE
 70
     4
 40
1.0
 41
1.0
 42
1.0
 50
0.0
 71
     0
  3
TXT
  4
BIGFONT
  0
STYLE
  2
TextStyle03
 70
     0
 40
1.0
 41
1.0
 42
1.0
 50
0.0
 71
     0
  3
MONOTXT
  4
BIGFONT
  0
STYLE
  2
TextStyle04
 70
     0
 40
1.0
 41
1.0
 42
1.0
 50
0.0
 71
     0
  3
MONOTXT
  4
BIGFONT
  0
STYLE
  2
TextStyle05
 70
     0
 40
1.0
 41
1.0
 42
1.0
 50
0.0
 71
     0
  3
MONOTXT
  4
BIGFONT
  0
STYLE
  2
TextStyle06
 70
     0
 40
1.0
 41
1.0
 42
1.0
 50
0.0
 71
     0
  3
MONOTXT
  4
BIGFONT
  0
STYLE
  2
TextStyle07
 70
     0
 40
1.0
 41
1.0
 42
1.0
 50
0.0
 71
     0
  3
MONOTXT
  4
BIGFONT
  0
STYLE
  2
TextStyle08
 70
     0
 40
1.0
 41
1.0
 42
1.0
 50
0.0
 71
     0
  3
MONOTXT
  4
BIGFONT
  0
STYLE
  2
TextStyle09
 70
     0
 40
1.0
 41
1.0
 42
1.0
 50
0.0
 71
     0
  3
MONOTXT
  4
BIGFONT
  0
STYLE
  2
TextStyle10
 70
     0
 40
1.0
 41
1.0
 42
1.0
 50
0.0
 71
     0
  3
MONOTXT
  4
BIGFONT
  0
ENDTAB
  0
ENDSEC
  0
SECTION
  2
BLOCKS
  0
BLOCK
  2
*HAT_0001
 70
    65
 10
0.0
 20
0.0
  0
LINE
  8
型材断面
 10
-18.125
 20
53.575
 11
-16.875
 21
54.825
  0
LINE
  8
型材断面
 10
-18.375
 20
54.775
 11
-16.875
 21
56.275
  0
LINE
  8
型材断面
 10
-18.375
 20
56.175
 11
-16.875
 21
57.675
  0
LINE
  8
型材断面
 10
-10.475
 20
64.075
 11
-6.925
 21
67.625
  0
LINE
  8
型材断面
 10
-18.375
 20
57.575
 11
-16.875
 21
59.075
  0
LINE
  8
型材断面
 10
-18.375
 20
58.975
 11
-16.875
 21
60.475
  0
LINE
  8
型材断面
 10
-18.375
 20
60.425
 11
-16.875
 21
61.925
  0
LINE
  8
型材断面
 10
-18.375
 20
61.825
 11
-16.875
 21
63.325
  0
LINE
  8
型材断面
 10
-11.875
 20
64.075
 11
-10.375
 21
65.575
  0
LINE
  8
型材断面
 10
-13.275
 20
64.075
 11
-11.775
 21
65.575
  0
LINE
  8
型材断面
 10
-14.675
 20
64.075
 11
-13.175
 21
65.575
  0
LINE
  8
型材断面
 10
-16.075
 20
64.075
 11
-14.575
 21
65.575
  0
LINE
  8
型材断面
 10
-18.375
 20
63.225
 11
-16.025
 21
65.575
  0
LINE
  8
型材断面
 10
-18.375
 20
64.625
 11
-17.425
 21
65.575
  0
ENDBLK
  0
BLOCK
  2
*HAT_0002
 70
    65
 10
0.0
 20
0.0
  0
LINE
  8
ゴム等
 10
-6.1
 20
-22.375
 11
-6.0
 21
-22.325
  0
LINE
  8
ゴム等
 10
-7.5
 20
-22.375
 11
-6.0
 21
-20.925
  0
LINE
  8
ゴム等
 10
-8.9
 20
-22.375
 11
-6.0
 21
-19.475
  0
LINE
  8
ゴム等
 10
-10.3
 20
-22.375
 11
-6.0
 21
-18.075
  0
LINE
  8
ゴム等
 10
-11.75
 20
-22.375
 11
-6.0
 21
-16.675
  0
LINE
  8
ゴム等
 10
-13.15
 20
-22.375
 11
-7.15
 21
-16.375
  0
LINE
  8
ゴム等
 10
-14.55
 20
-22.375
 11
-8.55
 21
-16.375
  0
LINE
  8
ゴム等
 10
-15.95
 20
-22.375
 11
-10.95
 21
-17.375
  0
LINE
  8
ゴム等
 10
-10.0
 20
-16.425
 11
-9.95
 21
-16.375
  0
LINE
  8
ゴム等
 10
-17.4
 20
-22.375
 11
-12.4
 21
-17.375
  0
LINE
  8
ゴム等
 10
-18.8
 20
-22.375
 11
-13.8
 21
-17.375
  0
LINE
  8
ゴム等
 10
-19.0
 20
-21.225
 11
-14.25
 21
-16.425
  0
LINE
  8
ゴム等
 10
-19.0
 20
-19.775
 11
-15.8
 21
-16.575
  0
LINE
  8
ゴム等
 10
-19.05
 20
-18.425
 11
-17.35
 21
-16.725
  0
LINE
  8
ゴム等
 10
-20.15
 20
-18.075
 11
-19.2
 21
-17.125
  0
LINE
  8
ゴム等
 10
-21.5
 20
-18.075
 11
-20.65
 21
-17.175
  0
LINE
  8
ゴム等
 10
-22.5
 20
-17.625
 11
-22.1
 21
-17.225
  0
ENDBLK
  0
BLOCK
  2
*HAT_0003
 70
    65
 10
0.0
 20
0.0
  0
LINE
  8
ゴム等
 10
1.225
 20
74.5
 11
1.225
 21
76.975
  0
LINE
  8
ゴム等
 10
-0.125
 20
75.3
 11
-0.125
 21
78.325
  0
LINE
  8
ゴム等
 10
-1.475
 20
73.95
 11
-1.475
 21
78.2
  0
LINE
  8
ゴム等
 10
-2.775
 20
72.65
 11
-2.775
 21
76.875
  0
LINE
  8
ゴム等
 10
-4.125
 20
72.425
 11
-4.125
 21
75.55
  0
LINE
  8
ゴム等
 10
-5.45
 20
73.775
 11
-5.45
 21
74.2
  0
ENDBLK
  0
BLOCK
  2
*HAT_0004
 70
    65
 10
0.0
 20
0.0
  0
LINE
  8
ゴム等
 62
    63
 10
-11.075
 20
65.65
 11
-4.925
 21
71.75
  0
LINE
  8
ゴム等
 62
    63
 10
-12.975
 20
65.65
 11
-5.875
 21
72.7
  0
LINE
  8
ゴム等
 62
    63
 10
-14.825
 20
65.65
 11
-6.825
 21
73.65
  0
LINE
  8
ゴム等
 62
    63
 10
-16.725
 20
65.65
 11
-7.775
 21
74.6
  0
LINE
  8
ゴム等
 62
    63
 10
-20.125
 20
64.15
 11
-19.425
 21
64.85
  0
LINE
  8
ゴム等
 62
    63
 10
-18.625
 20
65.65
 11
-8.725
 21
75.55
  0
LINE
  8
ゴム等
 62
    63
 10
-22.025
 20
64.15
 11
-9.675
 21
76.5
  0
LINE
  8
ゴム等
 62
    63
 10
-23.875
 20
64.15
 11
-10.575
 21
77.4
  0
LINE
  8
ゴム等
 62
    63
 10
-25.025
 20
64.85
 11
-11.525
 21
78.35
  0
LINE
  8
ゴム等
 62
    63
 10
-25.025
 20
66.75
 11
-12.475
 21
79.3
  0
LINE
  8
ゴム等
 62
    63
 10
-25.025
 20
68.65
 11
-13.425
 21
80.25
  0
ENDBLK
  0
BLOCK
  2
*HAT_0005
 70
    65
 10
0.0
 20
0.0
  0
LINE
  8
その他部品等
 10
-11.175
 20
78.0
 11
4.225
 21
93.4
  0
LINE
  8
その他部品等
 10
-11.875
 20
78.725
 11
2.975
 21
93.575
  0
LINE
  8
その他部品等
 10
-12.6
 20
79.425
 11
1.575
 21
93.575
  0
LINE
  8
その他部品等
 10
-13.3
 20
80.125
 11
0.15
 21
93.575
  0
LINE
  8
その他部品等
 10
-14.0
 20
80.825
 11
-1.25
 21
93.575
  0
LINE
  8
その他部品等
 10
-14.7
 20
81.525
 11
-2.675
 21
93.575
  0
LINE
  8
その他部品等
 10
-15.425
 20
82.225
 11
-4.075
 21
93.575
  0
LINE
  8
その他部品等
 10
-10.45
 20
88.6
 11
-5.5
 21
93.575
  0
LINE
  8
その他部品等
 10
-11.175
 20
89.325
 11
-6.9
 21
93.575
  0
LINE
  8
その他部品等
 10
-11.875
 20
90.025
 11
-8.325
 21
93.575
  0
LINE
  8
その他部品等
 10
-12.575
 20
90.725
 11
-9.725
 21
93.575
  0
LINE
  8
その他部品等
 10
-13.275
 20
91.425
 11
-11.15
 21
93.575
  0
LINE
  8
その他部品等
 10
-13.975
 20
92.15
 11
-12.55
 21
93.575
  0
LINE
  8
その他部品等
 10
-14.7
 20
92.85
 11
-13.975
 21
93.575
  0
LINE
  8
その他部品等
 10
-15.4
 20
93.55
 11
-15.375
 21
93.575
  0
LINE
  8
その他部品等
 10
-14.875
 20
82.8
 11
-10.275
 21
78.225
  0
LINE
  8
その他部品等
 10
-14.15
 20
83.525
 11
-9.6
 21
78.95
  0
LINE
  8
その他部品等
 10
-13.45
 20
84.225
 11
-8.9
 21
79.675
  0
LINE
  8
その他部品等
 10
-12.75
 20
84.925
 11
-8.225
 21
80.4
  0
LINE
  8
その他部品等
 10
-12.05
 20
85.625
 11
-7.525
 21
81.125
  0
LINE
  8
その他部品等
 10
-11.325
 20
86.35
 11
-6.825
 21
81.85
  0
LINE
  8
その他部品等
 10
-10.625
 20
87.05
 11
-6.15
 21
82.55
  0
LINE
  8
その他部品等
 10
-9.925
 20
87.75
 11
-5.45
 21
83.275
  0
LINE
  8
その他部品等
 10
-14.325
 20
93.575
 11
-4.775
 21
84.0
  0
LINE
  8
その他部品等
 10
-12.925
 20
93.575
 11
-4.075
 21
84.725
  0
LINE
  8
その他部品等
 10
-11.5
 20
93.575
 11
-3.375
 21
85.45
  0
LINE
  8
その他部品等
 10
-10.1
 20
93.575
 11
-2.7
 21
86.175
  0
LINE
  8
その他部品等
 10
-8.675
 20
93.575
 11
-2.0
 21
86.9
  0
LINE
  8
その他部品等
 10
-7.275
 20
93.575
 11
-1.325
 21
87.625
  0
LINE
  8
その他部品等
 10
-5.85
 20
93.575
 11
-0.625
 21
88.325
  0
LINE
  8
その他部品等
 10
-4.45
 20
93.575
 11
0.075
 21
89.05
  0
LINE
  8
その他部品等
 10
-3.025
 20
93.575
 11
0.75
 21
89.775
  0
LINE
  8
その他部品等
 10
-1.625
 20
93.575
 11
1.45
 21
90.5
  0
LINE
  8
その他部品等
 10
-0.2
 20
93.575
 11
2.125
 21
91.225
  0
LINE
  8
その他部品等
 10
1.2
 20
93.575
 11
2.825
 21
91.95
  0
LINE
  8
その他部品等
 10
2.625
 20
93.575
 11
3.525
 21
92.675
  0
LINE
  8
その他部品等
 10
4.025
 20
93.575
 11
4.2
 21
93.4
  0
ENDBLK
  0
BLOCK
  2
*HAT_0006
 70
    65
 10
0.0
 20
0.0
  0
LINE
  8
その他部品等
 10
-1.275
 20
93.55
 11
-1.275
 21
93.55
  0
LINE
  8
その他部品等
 10
-2.675
 20
93.55
 11
-1.975
 21
94.275
  0
LINE
  8
その他部品等
 10
-4.1
 20
93.55
 11
-2.675
 21
94.975
  0
LINE
  8
その他部品等
 10
-5.5
 20
93.55
 11
-3.375
 21
95.675
  0
LINE
  8
その他部品等
 10
-6.925
 20
93.55
 11
-4.1
 21
96.375
  0
LINE
  8
その他部品等
 10
-8.325
 20
93.55
 11
-4.8
 21
97.1
  0
LINE
  8
その他部品等
 10
-9.725
 20
93.575
 11
-5.5
 21
97.8
  0
LINE
  8
その他部品等
 10
-11.15
 20
93.575
 11
-6.2
 21
98.5
  0
LINE
  8
その他部品等
 10
-12.55
 20
93.575
 11
-6.925
 21
99.2
  0
LINE
  8
その他部品等
 10
-13.975
 20
93.575
 11
-7.625
 21
99.925
  0
LINE
  8
その他部品等
 10
-15.375
 20
93.575
 11
-8.325
 21
100.625
  0
LINE
  8
その他部品等
 10
-14.875
 20
94.125
 11
-14.325
 21
93.575
  0
LINE
  8
その他部品等
 10
-14.175
 20
94.825
 11
-12.9
 21
93.575
  0
LINE
  8
その他部品等
 10
-13.45
 20
95.525
 11
-11.5
 21
93.575
  0
LINE
  8
その他部品等
 10
-12.75
 20
96.225
 11
-10.075
 21
93.575
  0
LINE
  8
その他部品等
 10
-12.05
 20
96.95
 11
-8.675
 21
93.575
  0
LINE
  8
その他部品等
 10
-11.35
 20
97.65
 11
-7.25
 21
93.575
  0
LINE
  8
その他部品等
 10
-10.65
 20
98.35
 11
-5.85
 21
93.55
  0
LINE
  8
その他部品等
 10
-9.925
 20
99.05
 11
-4.425
 21
93.55
  0
LINE
  8
その他部品等
 10
-9.225
 20
99.775
 11
-3.025
 21
93.55
  0
LINE
  8
その他部品等
 10
-8.525
 20
100.475
 11
-1.6
 21
93.55
  0
ENDBLK
  0
BLOCK
  2
*HAT_0007
 70
    65
 10
0.0
 20
0.0
  0
LINE
  8
その他部品等
 10
-33.8
 20
69.5
 11
-26.725
 21
76.575
  0
LINE
  8
その他部品等
 10
-34.5
 20
70.225
 11
-27.425
 21
77.275
  0
LINE
  8
その他部品等
 10
-35.2
 20
70.925
 11
-28.125
 21
78.0
  0
LINE
  8
その他部品等
 10
-35.9
 20
71.625
 11
-28.825
 21
78.7
  0
LINE
  8
その他部品等
 10
-36.6
 20
72.325
 11
-29.55
 21
79.4
  0
LINE
  8
その他部品等
 10
-36.05
 20
72.95
 11
-32.775
 21
69.65
  0
LINE
  8
その他部品等
 10
-35.35
 20
73.65
 11
-32.075
 21
70.375
  0
LINE
  8
その他部品等
 10
-34.65
 20
74.35
 11
-31.375
 21
71.075
  0
LINE
  8
その他部品等
 10
-33.925
 20
75.05
 11
-30.65
 21
71.775
  0
LINE
  8
その他部品等
 10
-33.225
 20
75.75
 11
-29.95
 21
72.475
  0
LINE
  8
その他部品等
 10
-32.525
 20
76.475
 11
-29.25
 21
73.2
  0
LINE
  8
その他部品等
 10
-31.825
 20
77.175
 11
-28.55
 21
73.9
  0
LINE
  8
その他部品等
 10
-31.1
 20
77.875
 11
-27.825
 21
74.6
  0
LINE
  8
その他部品等
 10
-30.4
 20
78.575
 11
-27.125
 21
75.3
  0
LINE
  8
その他部品等
 10
-29.7
 20
79.3
 11
-26.425
 21
76.025
  0
ENDBLK
  0
BLOCK
  2
*GRP_0001
 70
    65
 10
0.0
 20
0.0
  0
LINE
  8
型材断面
  6
CONTINUOUS
 10
195.0
 20
133.5
 11
195.0
 21
-133.5
  0
LINE
  8
型材断面
  6
CONTINUOUS
 10
195.0
 20
-133.5
 11
-185.0
 21
-133.5
  0
LINE
  8
型材断面
  6
CONTINUOUS
 10
-185.0
 20
-133.5
 11
-185.0
 21
133.5
  0
LINE
  8
型材断面
  6
CONTINUOUS
 10
195.0
 20
133.5
 11
-185.0
 21
133.5
  0
LINE
  8
型材断面
  6
CONTINUOUS
 10
145.0
 20
-133.5
 11
145.0
 21
-118.5
  0
LINE
  8
型材断面
  6
CONTINUOUS
 10
195.0
 20
-118.5
 11
145.0
 21
-118.5
  0
ENDBLK
  0
BLOCK
  2
*GRP_0002
 70
    65
 10
0.0
 20
0.0
  0
LINE
  8
通り芯
  6
CONTINUOUS
 10
-54.863443
 20
41.62223
 11
-54.863443
 21
43.12223
  0
ARC
  8
通り芯
  6
CONTINUOUS
 10
-43.963442
 20
41.622231
 40
1.5
 50
45.0
 51
90.0
  0
ARC
  8
通り芯
  6
CONTINUOUS
 10
-41.842121
 20
41.622231
 40
1.5
 50
225.0
 51
270.0
  0
LINE
  8
通り芯
  6
CONTINUOUS
 10
-43.963443
 20
41.62223
 11
-42.463443
 21
40.12223
  0
LINE
  8
通り芯
  6
CONTINUOUS
 10
-41.842123
 20
41.62223
 11
-43.342123
 21
43.12223
  0
LINE
  8
型材断面
  6
CONTINUOUS
 62
    15
 10
-30.963443
 20
41.62223
 11
-30.963443
 21
40.12223
  0
LINE
  8
型材断面
  6
CONTINUOUS
 62
    15
 10
-54.863443
 20
41.62223
 11
-43.963443
 21
41.62223
  0
LINE
  8
型材断面
  6
CONTINUOUS
 62
    15
 10
-30.963443
 20
41.62223
 11
-41.842123
 21
41.62223
  0
LINE
  8
型材断面
  6
CONTINUOUS
 62
    15
 10
-30.963443
 20
40.12223
 11
-42.463443
 21
40.12223
  0
LINE
  8
型材断面
  6
CONTINUOUS
 62
    15
 10
-54.863443
 20
43.12223
 11
-43.342123
 21
43.12223
  0
ENDBLK
  0
BLOCK
  2
*GRP_0003
 70
    65
 10
0.0
 20
0.0
  0
LINE
  8
補助線
  6
BYBLOCK
 62
     0
 10
10.036528
 20
-59.877787
 11
-24.963472
 21
-59.877787
  0
LINE
  8
補助線
  6
BYBLOCK
 62
     0
 10
-7.463472
 20
-42.377787
 11
-7.463472
 21
-77.377787
  0
ENDBLK
  0
BLOCK
  2
*GRP_0004
 70
    65
 10
0.0
 20
0.0
  0
LINE
  8
補助線
  6
BYBLOCK
 62
     0
 10
10.036513
 20
19.122213
 11
-24.963487
 21
19.122213
  0
LINE
  8
補助線
  6
BYBLOCK
 62
     0
 10
-7.463487
 20
36.622213
 11
-7.463487
 21
1.622213
  0
ENDBLK
  0
BLOCK
  2
*GRP_0005
 70
    65
 10
0.0
 20
0.0
  0
LINE
  8
型材断面
  6
CONTINUOUS
 62
    47
 10
-3.963443
 20
-108.377762
 11
-3.963443
 21
-109.877762
  0
LINE
  8
型材断面
  6
CONTINUOUS
 62
    47
 10
-12.463443
 20
-109.877762
 11
-3.963443
 21
-109.877762
  0
LINE
  8
型材断面
  6
CONTINUOUS
 62
    47
 10
-13.963443
 20
-123.377762
 11
-12.463443
 21
-123.377762
  0
LINE
  8
型材断面
  6
CONTINUOUS
 62
    47
 10
-12.463443
 20
-109.877762
 11
-12.463443
 21
-123.377762
  0
ARC
  8
型材断面
  6
CONTINUOUS
 62
    47
 10
-12.463439
 20
-109.877762
 40
1.5
 50
90.0
 51
180.0
  0
LINE
  8
型材断面
  6
CONTINUOUS
 62
    47
 10
-3.963443
 20
-108.377762
 11
-13.963443
 21
-108.377762
  0
LINE
  8
型材断面
  6
CONTINUOUS
 62
    47
 10
-13.963443
 20
-123.377762
 11
-13.963443
 21
-108.377762
  0
ENDBLK
  0
BLOCK
  2
*GRP_0006
 70
    65
 10
0.0
 20
0.0
  0
LINE
  8
型材断面
  6
CONTINUOUS
 62
    47
 10
48.036533
 20
-106.877762
 11
48.036533
 21
-105.377762
  0
LINE
  8
型材断面
  6
CONTINUOUS
 62
    47
 10
28.036533
 20
-78.877762
 11
29.536533
 21
-78.877762
  0
LINE
  8
型材断面
  6
CONTINUOUS
 62
    47
 10
29.536533
 20
-78.877762
 11
29.536533
 21
-105.377762
  0
LINE
  8
型材断面
  6
CONTINUOUS
 62
    47
 10
48.036533
 20
-105.377762
 11
29.536533
 21
-105.377762
  0
ARC
  8
型材断面
  6
CONTINUOUS
 62
    47
 10
29.536535
 20
-105.377761
 40
1.5
 50
180.0
 51
270.0
  0
LINE
  8
型材断面
  6
CONTINUOUS
 62
    47
 10
28.036533
 20
-78.877762
 11
28.036533
 21
-106.877762
  0
LINE
  8
型材断面
  6
CONTINUOUS
 62
    47
 10
48.036533
 20
-106.877762
 11
28.036533
 21
-106.877762
  0
LINE
  8
型材断面
  6
CONTINUOUS
 62
    47
 10
28.036533
 20
-89.377762
 11
29.536533
 21
-89.377762
  0
LINE
  8
型材断面
  6
CONTINUOUS
 62
    47
 10
28.036533
 20
-92.877762
 11
29.536533
 21
-92.877762
  0
LINE
  8
型材断面
  6
CONTINUOUS
 62
    47
 10
28.411533
 20
-89.377762
 11
28.411533
 21
-92.877762
  0
LINE
  8
型材断面
  6
CONTINUOUS
 62
    47
 10
28.786533
 20
-89.377762
 11
28.786533
 21
-92.877762
  0
LINE
  8
型材断面
  6
CONTINUOUS
 62
    47
 10
29.161533
 20
-89.377762
 11
29.161533
 21
-92.877762
  0
LINE
  8
型材断面
  6
CONTINUOUS
 62
    47
 10
31.157527
 20
-91.127762
 11
26.166787
 21
-91.127762
  0
ENDBLK
  0
BLOCK
  2
*GRP_0007
 70
    65
 10
0.0
 20
0.0
  0
LINE
  8
通り芯
  6
CONTINUOUS
 62
    47
 10
-29.463443
 20
-96.877762
 11
-19.463443
 21
-96.877762
  0
LINE
  8
通り芯
  6
CONTINUOUS
 62
    47
 10
-29.463443
 20
-95.377762
 11
-29.463443
 21
-96.877762
  0
LINE
  8
通り芯
  6
CONTINUOUS
 62
    47
 10
-17.963443
 20
-105.377762
 11
-7.963443
 21
-105.377762
  0
LINE
  8
通り芯
  6
CONTINUOUS
 62
    47
 10
-7.963443
 20
-105.377762
 11
-7.963443
 21
-106.877762
  0
ARC
  8
通り芯
  6
CONTINUOUS
 62
    47
 10
-19.463441
 20
-96.877761
 40
1.5
 50
0.0
 51
90.0
  0
ARC
  8
通り芯
  6
CONTINUOUS
 62
    47
 10
-17.963441
 20
-105.377761
 40
1.5
 50
180.0
 51
270.0
  0
LINE
  8
通り芯
  6
CONTINUOUS
 62
    47
 10
-29.463443
 20
-95.377762
 11
-17.963443
 21
-95.377762
  0
LINE
  8
通り芯
  6
CONTINUOUS
 62
    47
 10
-17.963443
 20
-105.377762
 11
-17.963443
 21
-95.377762
  0
LINE
  8
通り芯
  6
CONTINUOUS
 62
    47
 10
-19.463443
 20
-96.877762
 11
-19.463443
 21
-106.877762
  0
LINE
  8
通り芯
  6
CONTINUOUS
 62
    47
 10
-7.963443
 20
-106.877762
 11
-19.463443
 21
-106.877762
  0
ENDBLK
  0
BLOCK
  2
*GRP_0008
 70
    65
 10
0.0
 20
0.0
  0
LINE
  8
型材断面
  6
CONTINUOUS
 62
    63
 10
0.286522
 20
-38.377783
 11
-5.213483
 21
-38.377783
  0
LINE
  8
型材断面
  6
CONTINUOUS
 62
    63
 10
-2.463478
 20
-35.627783
 11
-2.463478
 21
-41.127777
  0
LINE
  8
型材断面
  6
CONTINUOUS
 62
    63
 10
0.286522
 20
-81.377787
 11
-5.213483
 21
-81.377787
  0
LINE
  8
型材断面
  6
CONTINUOUS
 62
    63
 10
-2.463478
 20
-78.627787
 11
-2.463478
 21
-84.127793
  0
ARC
  8
型材断面
  6
CONTINUOUS
 62
    63
 10
20.536528
 20
-41.877782
 40
2.2
 50
192.301255
 51
347.698745
  0
LINE
  8
型材断面
  6
CONTINUOUS
 62
    63
 10
22.686008
 20
-41.877787
 11
22.686008
 21
-42.346512
  0
LINE
  8
型材断面
  6
CONTINUOUS
 62
    63
 10
18.387023
 20
-41.877787
 11
18.387023
 21
-42.346483
  0
ARC
  8
型材断面
  6
CONTINUOUS
 62
    63
 10
-7.463468
 20
-59.877785
 40
15.5
 50
31.072958
 51
328.927056
  0
LINE
  8
型材断面
  6
CONTINUOUS
 62
    63
 10
9.536513
 20
-37.877783
 11
26.536533
 21
-37.877783
  0
ARC
  8
型材断面
  6
CONTINUOUS
 62
    63
 10
26.536531
 20
-39.37778
 40
1.5
 50
0.0
 51
90.0
  0
LINE
  8
型材断面
  6
CONTINUOUS
 62
    63
 10
25.036533
 20
-81.877793
 11
4.036518
 21
-81.877793
  0
ARC
  8
型材断面
  6
CONTINUOUS
 62
    63
 10
-27.963436
 20
-26.877782
 40
1.5
 50
90.0
 51
180.0
  0
LINE
  8
型材断面
  6
CONTINUOUS
 62
    63
 10
27.736533
 20
-91.127772
 11
28.036533
 21
-90.827772
  0
LINE
  8
型材断面
  6
CONTINUOUS
 62
    63
 10
27.736533
 20
-91.127772
 11
28.036533
 21
-91.427772
  0
LINE
  8
型材断面
  6
CONTINUOUS
 62
    63
 10
1.536518
 20
-12.176338
 11
1.236518
 21
-11.876338
  0
LINE
  8
型材断面
  6
CONTINUOUS
 62
    63
 10
1.536518
 20
-12.176338
 11
1.836518
 21
-11.876338
  0
LINE
  8
型材断面
  6
CONTINUOUS
 62
    63
 10
4.036518
 20
-81.877793
 11
4.036518
 21
-75.625813
  0
ARC
  8
型材断面
  6
CONTINUOUS
 62
    63
 10
8.036519
 20
-13.37634
 40
1.5
 50
0.0
 51
90.0
  0
LINE
  8
型材断面
  6
CONTINUOUS
 62
    63
 10
1.836518
 20
-11.876338
 11
8.036513
 21
-11.876338
  0
LINE
  8
型材断面
  6
CONTINUOUS
 62
    63
 10
6.536513
 20
-37.877783
 11
6.536513
 21
-14.876338
  0
LINE
  8
型材断面
  6
CONTINUOUS
 62
    63
 10
-4.463483
 20
-14.876338
 11
-4.463483
 21
-13.376338
  0
LINE
  8
型材断面
  6
CONTINUOUS
 62
    63
 10
1.236518
 20
-11.876338
 11
-2.963483
 21
-11.876338
  0
ARC
  8
型材断面
  6
CONTINUOUS
 62
    63
 10
-2.96348
 20
-13.376341
 40
1.5
 50
90.0
 51
180.0
  0
LINE
  8
型材断面
  6
CONTINUOUS
 62
    63
 10
6.536513
 20
-14.876338
 11
-4.463483
 21
-14.876338
  0
LINE
  8
型材断面
  6
CONTINUOUS
 62
    63
 10
-7.463483
 20
-40.377787
 11
-7.463483
 21
-28.377777
  0
ARC
  8
型材断面
  6
CONTINUOUS
 62
    63
 10
0.185047
 20
-38.289277
 40
0.6
 50
1.913936
 51
105.000027
  0
LINE
  8
型材断面
  6
CONTINUOUS
 62
    63
 10
0.029747
 20
-37.709723
 11
-0.268793
 21
-37.789718
  0
ARC
  8
型材断面
  6
CONTINUOUS
 62
    63
 10
-0.11349
 20
-38.369269
 40
0.6
 50
105.000108
 51
180.207564
  0
ARC
  8
型材断面
  6
CONTINUOUS
 62
    63
 10
-2.463475
 20
-38.377783
 40
1.75
 50
89.792532
 51
360.207564
  0
ARC
  8
型材断面
  6
CONTINUOUS
 62
    63
 10
-2.454965
 20
-36.027798
 40
0.6
 50
269.792532
 51
345.00005
  0
LINE
  8
型材断面
  6
CONTINUOUS
 62
    63
 10
-1.795423
 20
-35.884552
 11
-1.875418
 21
-36.183087
  0
ARC
  8
型材断面
  6
CONTINUOUS
 62
    63
 10
-2.374974
 20
-35.729261
 40
0.6
 50
344.999988
 51
448.086157
  0
ARC
  8
型材断面
  6
CONTINUOUS
 62
    63
 10
-4.273681
 20
-83.313159
 40
0.6
 50
226.913936
 51
330.000027
  0
LINE
  8
型材断面
  6
CONTINUOUS
 62
    63
 10
-3.754062
 20
-83.613158
 11
-3.599532
 21
-83.345497
  0
ARC
  8
型材断面
  6
CONTINUOUS
 62
    63
 10
-4.119146
 20
-83.045499
 40
0.6
 50
330.000108
 51
405.207564
  0
ARC
  8
型材断面
  6
CONTINUOUS
 62
    63
 10
-2.463476
 20
-81.377789
 40
1.75
 50
314.792532
 51
585.207564
  0
ARC
  8
型材断面
  6
CONTINUOUS
 62
    63
 10
-0.807803
 20
-83.045496
 40
0.6
 50
134.792532
 51
210.00005
  0
LINE
  8
型材断面
  6
CONTINUOUS
 62
    63
 10
-1.172887
 20
-83.613148
 11
-1.327417
 21
-83.345488
  0
ARC
  8
型材断面
  6
CONTINUOUS
 62
    63
 10
-0.653268
 20
-83.313156
 40
0.6
 50
209.999988
 51
313.086157
  0
ARC
  8
型材断面
  6
CONTINUOUS
 62
    63
 10
-7.463469
 20
-59.877787
 40
19.500003
 50
293.740612
 51
306.138764
  0
ARC
  8
型材断面
  6
CONTINUOUS
 62
    63
 10
-2.463476
 20
-81.377789
 40
3.25
 50
313.086157
 51
400.051309
  0
ARC
  8
型材断面
  6
CONTINUOUS
 62
    63
 10
0.789765
 20
-78.643027
 40
1.0
 50
113.740612
 51
220.051309
  0
ARC
  8
型材断面
  6
CONTINUOUS
 62
    63
 10
-7.463469
 20
-59.877787
 40
19.500003
 50
270.000003
 51
272.443134
  0
ARC
  8
型材断面
  6
CONTINUOUS
 62
    63
 10
-2.463476
 20
-81.377789
 40
3.25
 50
166.132437
 51
226.913936
  0
ARC
  8
型材断面
  6
CONTINUOUS
 62
    63
 10
-6.589598
 20
-80.359156
 40
1.0
 50
-13.867563
 51
92.443134
  0
ARC
  8
型材断面
  6
CONTINUOUS
 62
    63
 10
-2.463475
 20
-38.377783
 40
3.25
 50
319.948648
 51
361.913936
  0
LINE
  8
型材断面
  6
CONTINUOUS
 62
    63
 10
-4.463483
 20
-25.377777
 11
-4.463483
 21
-34.247108
  0
ARC
  8
型材断面
  6
CONTINUOUS
 62
    63
 10
-2.463475
 20
-38.377783
 40
3.25
 50
88.086157
 51
103.609035
  0
ARC
  8
型材断面
  6
CONTINUOUS
 62
    63
 10
-3.46348
 20
-34.247106
 40
1.0
 50
180.0
 51
283.609035
  0
LINE
  8
型材断面
  6
CONTINUOUS
 62
    63
 10
13.036513
 20
-41.877787
 11
18.387023
 21
-41.877787
  0
LINE
  8
型材断面
  6
CONTINUOUS
 62
    63
 10
13.036513
 20
-77.877787
 11
18.387032
 21
-77.877787
  0
ARC
  8
型材断面
  6
CONTINUOUS
 62
    63
 10
0.789764
 20
-41.112547
 40
1.0
 50
139.948648
 51
229.928457
  0
LINE
  8
型材断面
  6
CONTINUOUS
 62
    63
 10
8.036513
 20
-72.877787
 11
13.036513
 21
-77.877787
  0
ARC
  8
型材断面
  6
CONTINUOUS
 62
    63
 10
-27.963436
 20
-105.377762
 40
1.5
 50
180.0
 51
270.0
  0
LINE
  8
型材断面
  6
CONTINUOUS
 62
    63
 10
-26.463433
 20
-103.877762
 11
25.036533
 21
-103.877762
  0
LINE
  8
型材断面
  6
CONTINUOUS
 62
    63
 10
25.036533
 20
-81.877783
 11
25.036533
 21
-103.877762
  0
LINE
  8
型材断面
  6
CONTINUOUS
 62
    63
 10
28.036533
 20
-91.427772
 11
28.036533
 21
-106.877762
  0
LINE
  8
型材断面
  6
CONTINUOUS
 62
    63
 10
-27.963443
 20
-106.877762
 11
3.736518
 21
-106.877762
  0
LINE
  8
型材断面
  6
CONTINUOUS
 62
    63
 10
28.036533
 20
-106.877762
 11
4.336518
 21
-106.877762
  0
LINE
  8
型材断面
  6
CONTINUOUS
 62
    63
 10
-7.463483
 20
-28.377777
 11
-16.463443
 21
-28.377777
  0
LINE
  8
型材断面
  6
CONTINUOUS
 62
    63
 10
-12.463443
 20
-25.677777
 11
-12.763443
 21
-25.377777
  0
LINE
  8
型材断面
  6
CONTINUOUS
 62
    63
 10
-12.463443
 20
-25.677777
 11
-12.163443
 21
-25.377777
  0
LINE
  8
型材断面
  6
CONTINUOUS
 62
    63
 10
-4.463483
 20
-25.377777
 11
-12.163443
 21
-25.377777
  0
LINE
  8
型材断面
  6
CONTINUOUS
 62
    63
 10
-29.463443
 20
-26.877777
 11
-29.463443
 21
-56.577787
  0
LINE
  8
型材断面
  6
CONTINUOUS
 62
    63
 10
-29.463443
 20
-57.177787
 11
-29.463443
 21
-62.577787
  0
LINE
  8
型材断面
  6
CONTINUOUS
 62
    63
 10
-29.463443
 20
-63.177787
 11
-29.463443
 21
-105.377762
  0
LINE
  8
型材断面
  6
CONTINUOUS
 62
    63
 10
-26.463443
 20
-69.688558
 11
-26.463443
 21
-103.877762
  0
ARC
  8
型材断面
  6
CONTINUOUS
 62
    63
 10
-7.463469
 20
-59.877787
 40
19.500003
 50
208.592316
 51
270.000003
  0
ARC
  8
型材断面
  6
CONTINUOUS
 62
    63
 10
-7.463469
 20
-59.877787
 40
19.500003
 50
89.999997
 51
151.407684
  0
LINE
  8
型材断面
  6
CONTINUOUS
 62
    63
 10
0.146018
 20
-41.877787
 11
3.536513
 21
-41.877787
  0
LINE
  8
型材断面
  6
CONTINUOUS
 62
    63
 10
6.536513
 20
-37.877783
 11
3.536513
 21
-37.877783
  0
LINE
  8
型材断面
  6
CONTINUOUS
 62
    63
 10
9.236513
 20
-18.876338
 11
9.536513
 21
-18.576338
  0
LINE
  8
型材断面
  6
CONTINUOUS
 62
    63
 10
9.236513
 20
-18.876338
 11
9.536513
 21
-19.176338
  0
LINE
  8
型材断面
  6
CONTINUOUS
 62
    63
 10
9.536513
 20
-13.376338
 11
9.536513
 21
-18.576338
  0
LINE
  8
型材断面
  6
CONTINUOUS
 62
    63
 10
9.536513
 20
-37.877783
 11
9.536513
 21
-19.176338
  0
LINE
  8
型材断面
  6
CONTINUOUS
 62
    63
 10
28.036533
 20
-39.377783
 11
28.036533
 21
-41.377787
  0
LINE
  8
型材断面
  6
CONTINUOUS
 62
    63
 10
22.686008
 20
-41.877787
 11
27.536533
 21
-41.877787
  0
LINE
  8
型材断面
  6
CONTINUOUS
 62
    63
 10
22.686008
 20
-77.877787
 11
27.536533
 21
-77.877787
  0
LINE
  8
型材断面
  6
CONTINUOUS
 62
    63
 10
28.036533
 20
-90.827772
 11
28.036533
 21
-78.377787
  0
LINE
  8
型材断面
  6
CONTINUOUS
 62
    63
 10
-27.963443
 20
-25.377777
 11
-26.963443
 21
-25.377777
  0
LINE
  8
型材断面
  6
CONTINUOUS
 62
    63
 10
-26.463443
 20
-50.067018
 11
-26.463443
 21
-25.877777
  0
LINE
  8
型材断面
  6
CONTINUOUS
 62
    63
 10
-15.963443
 20
-25.377777
 11
-12.763443
 21
-25.377777
  0
LINE
  8
型材断面
  6
CONTINUOUS
 62
    63
 10
4.036518
 20
-106.577762
 11
4.336518
 21
-106.877762
  0
LINE
  8
型材断面
  6
CONTINUOUS
 62
    63
 10
4.036518
 20
-106.577762
 11
3.736518
 21
-106.877762
  0
LINE
  8
型材断面
  6
CONTINUOUS
 62
    63
 10
-29.163443
 20
-56.877787
 11
-29.463443
 21
-56.577787
  0
LINE
  8
型材断面
  6
CONTINUOUS
 62
    63
 10
-29.163443
 20
-56.877787
 11
-29.463443
 21
-57.177787
  0
LINE
  8
型材断面
  6
CONTINUOUS
 62
    63
 10
-29.163443
 20
-62.877787
 11
-29.463443
 21
-62.577787
  0
LINE
  8
型材断面
  6
CONTINUOUS
 62
    63
 10
-29.163443
 20
-62.877787
 11
-29.463443
 21
-63.177787
  0
ARC
  8
型材断面
  6
CONTINUOUS
 62
    63
 10
-25.463438
 20
-69.688558
 40
1.0
 50
28.592316
 51
180.0
  0
ARC
  8
型材断面
  6
CONTINUOUS
 62
    63
 10
-25.463438
 20
-50.067017
 40
1.0
 50
180.0
 51
331.407684
  0
LINE
  8
型材断面
  6
CONTINUOUS
 62
    63
 10
3.536513
 20
-41.877787
 11
3.536513
 21
-37.877783
  0
ARC
  8
型材断面
  6
CONTINUOUS
 62
    63
 10
27.536536
 20
-41.377787
 40
0.5
 50
-90.0
 51
0.0
  0
ARC
  8
型材断面
  6
CONTINUOUS
 62
    63
 10
27.536536
 20
-78.377787
 40
0.5
 50
0.0
 51
90.0
  0
ARC
  8
型材断面
  6
CONTINUOUS
 62
    63
 10
-26.963437
 20
-25.87778
 40
0.5
 50
0.0
 51
90.0
  0
LINE
  8
型材断面
  6
CONTINUOUS
 62
    63
 10
-16.463443
 20
-25.877777
 11
-16.463443
 21
-28.377777
  0
ARC
  8
型材断面
  6
CONTINUOUS
 62
    63
 10
-15.963437
 20
-25.87778
 40
0.5
 50
90.0
 51
180.0
  0
LINE
  8
型材断面
  6
CONTINUOUS
 62
    63
 10
18.387032
 20
-77.877787
 11
18.387032
 21
-76.601202
  0
LINE
  8
型材断面
  6
CONTINUOUS
 62
    63
 10
22.686008
 20
-77.877787
 11
22.686008
 21
-76.601182
  0
LINE
  8
型材断面
  6
CONTINUOUS
 62
    63
 10
8.036513
 20
-46.877787
 11
8.036513
 21
-51.877783
  0
LINE
  8
型材断面
  6
CONTINUOUS
 62
    63
 10
8.036513
 20
-72.877787
 11
8.036513
 21
-67.877783
  0
LINE
  8
型材断面
  6
CONTINUOUS
 62
    63
 10
5.712442
 20
-67.877783
 11
8.036513
 21
-67.877783
  0
LINE
  8
型材断面
  6
CONTINUOUS
 62
    63
 10
5.712442
 20
-51.877783
 11
8.036513
 21
-51.877783
  0
LINE
  8
ゴム等
  6
CONTINUOUS
 62
    63
 10
3.286513
 20
-14.876338
 11
3.286513
 21
-11.876338
  0
LINE
  8
ゴム等
  6
CONTINUOUS
 62
    63
 10
-0.213487
 20
-14.876338
 11
-0.213487
 21
-11.876338
  0
LINE
  8
ゴム等
  6
CONTINUOUS
 62
    63
 10
6.536513
 20
-26.627052
 11
9.536513
 21
-26.627052
  0
LINE
  8
ゴム等
  6
CONTINUOUS
 62
    63
 10
6.536513
 20
-23.127052
 11
9.536513
 21
-23.127052
  0
LINE
  8
ゴム等
  6
CONTINUOUS
 62
    63
 10
25.036533
 20
-92.877768
 11
28.036533
 21
-92.877768
  0
LINE
  8
ゴム等
  6
CONTINUOUS
 62
    63
 10
25.036533
 20
-89.377768
 11
28.036533
 21
-89.377768
  0
LINE
  8
ゴム等
  6
CONTINUOUS
 62
    63
 10
-15.213443
 20
-103.877762
 11
-15.213443
 21
-106.877762
  0
LINE
  8
ゴム等
  6
CONTINUOUS
 62
    63
 10
-18.713443
 20
-103.877762
 11
-18.713443
 21
-106.877762
  0
LINE
  8
ゴム等
  6
CONTINUOUS
 62
    63
 10
-15.213443
 20
-104.627762
 11
-18.713443
 21
-104.627762
  0
LINE
  8
ゴム等
  6
CONTINUOUS
 62
    63
 10
-15.213443
 20
-105.377762
 11
-18.713443
 21
-105.377762
  0
LINE
  8
ゴム等
  6
CONTINUOUS
 62
    63
 10
-15.213443
 20
-106.127762
 11
-18.713443
 21
-106.127762
  0
LINE
  8
ゴム等
  6
CONTINUOUS
 62
    63
 10
27.286533
 20
-89.377768
 11
27.286533
 21
-92.877768
  0
LINE
  8
ゴム等
  6
CONTINUOUS
 62
    63
 10
26.536533
 20
-89.377768
 11
26.536533
 21
-92.877768
  0
LINE
  8
ゴム等
  6
CONTINUOUS
 62
    63
 10
25.786533
 20
-89.377768
 11
25.786533
 21
-92.877768
  0
LINE
  8
ゴム等
  6
CONTINUOUS
 62
    63
 10
7.286513
 20
-23.127052
 11
7.286513
 21
-26.627052
  0
LINE
  8
ゴム等
  6
CONTINUOUS
 62
    63
 10
8.036513
 20
-23.127052
 11
8.036513
 21
-26.627052
  0
LINE
  8
ゴム等
  6
CONTINUOUS
 62
    63
 10
8.786513
 20
-23.127052
 11
8.786513
 21
-26.627052
  0
LINE
  8
ゴム等
  6
CONTINUOUS
 62
    63
 10
-0.213487
 20
-12.626338
 11
3.286513
 21
-12.626338
  0
LINE
  8
ゴム等
  6
CONTINUOUS
 62
    63
 10
-0.213487
 20
-13.376338
 11
3.286513
 21
-13.376338
  0
LINE
  8
ゴム等
  6
CONTINUOUS
 62
    63
 10
-0.213487
 20
-14.126338
 11
3.286513
 21
-14.126338
  0
LINE
  8
ゴム等
  6
CONTINUOUS
 62
    63
 10
10.532122
 20
-69.377787
 11
10.532122
 21
-69.377787
  0
LINE
  8
ゴム等
  6
CONTINUOUS
 62
    63
 10
13.036513
 20
-41.877787
 11
8.036513
 21
-46.877787
  0
LINE
  8
ゴム等
  6
CONTINUOUS
 62
    63
 10
8.036513
 20
-46.877787
 11
8.036513
 21
-48.877787
  0
ARC
  8
ゴム等
  6
CONTINUOUS
 62
    63
 10
20.536531
 20
-77.87779
 40
2.5
 50
30.706651
 51
149.29391
  0
ENDBLK
  0
BLOCK
  2
*GRP_0009
 70
    65
 10
0.0
 20
0.0
  0
LINE
  8
型材断面
  6
CONTINUOUS
 10
-21.042453
 20
73.061563
 11
-29.981793
 21
64.122228
  0
ARC
  8
型材断面
  6
CONTINUOUS
 10
-29.981785
 20
64.122231
 40
1.5
 50
134.999994
 51
270.0
  0
LINE
  8
型材断面
  6
CONTINUOUS
 10
-28.113522
 20
68.111817
 11
-27.052862
 21
67.051158
  0
LINE
  8
型材断面
  6
CONTINUOUS
 10
-25.285092
 20
70.940243
 11
-24.224432
 21
69.879582
  0
LINE
  8
型材断面
  6
CONTINUOUS
 10
-25.019927
 20
70.675078
 11
-27.848358
 21
67.846652
  0
LINE
  8
型材断面
  6
CONTINUOUS
 10
-24.754763
 20
70.409913
 11
-27.583193
 21
67.581488
  0
LINE
  8
型材断面
  6
CONTINUOUS
 10
-24.489598
 20
70.144748
 11
-27.318027
 21
67.316323
  0
LINE
  8
型材断面
  6
CONTINUOUS
 10
-22.103113
 20
74.122222
 11
-21.042453
 21
73.061563
  0
LINE
  8
型材断面
  6
CONTINUOUS
 10
-22.103113
 20
74.122222
 11
-33.603113
 21
62.622228
  0
LINE
  8
型材断面
  6
CONTINUOUS
 10
-27.863472
 20
64.122228
 11
-27.863472
 21
62.622228
  0
LINE
  8
型材断面
  6
CONTINUOUS
 10
-19.863472
 20
63.747228
 11
-27.863472
 21
63.747228
  0
LINE
  8
型材断面
  6
CONTINUOUS
 10
-19.863472
 20
63.372228
 11
-27.863472
 21
63.372228
  0
LINE
  8
型材断面
  6
CONTINUOUS
 10
-19.863472
 20
62.997228
 11
-27.863472
 21
62.997228
  0
LINE
  8
型材断面
  6
CONTINUOUS
 10
-33.603113
 20
62.622228
 11
-19.863472
 21
62.622228
  0
LINE
  8
型材断面
  6
CONTINUOUS
 10
-19.863472
 20
64.122228
 11
-19.863472
 21
50.622228
  0
ARC
  8
型材断面
  6
CONTINUOUS
 10
-19.863468
 20
62.622231
 40
1.5
 50
0.0
 51
90.0
  0
ARC
  8
型材断面
  6
CONTINUOUS
 10
-19.863468
 20
52.122231
 40
1.5
 50
-90.0
 51
0.0
  0
LINE
  8
型材断面
  6
CONTINUOUS
 10
-29.981793
 20
64.122228
 11
-18.363472
 21
64.122228
  0
LINE
  8
型材断面
  6
CONTINUOUS
 10
-18.363472
 20
50.622228
 11
-18.363472
 21
64.122228
  0
LINE
  8
型材断面
  6
CONTINUOUS
 10
-19.863472
 20
52.122228
 11
-26.363472
 21
52.122228
  0
LINE
  8
型材断面
  6
CONTINUOUS
 10
-19.863472
 20
51.747228
 11
-26.363472
 21
51.747228
  0
LINE
  8
型材断面
  6
CONTINUOUS
 10
-19.863472
 20
51.372228
 11
-26.363472
 21
51.372228
  0
LINE
  8
型材断面
  6
CONTINUOUS
 10
-19.863472
 20
50.997228
 11
-26.363472
 21
50.997228
  0
LINE
  8
型材断面
  6
CONTINUOUS
 10
-18.363472
 20
50.622228
 11
-26.363472
 21
50.622228
  0
LINE
  8
型材断面
  6
CONTINUOUS
 10
-26.363472
 20
50.622228
 11
-26.363472
 21
52.122228
  0
ENDBLK
  0
BLOCK
  2
*GRP_0010
 70
    65
 10
0.0
 20
0.0
  0
LINE
  8
型材断面
  6
CONTINUOUS
 62
    47
 10
-24.224432
 20
74.122222
 11
-31.295503
 21
67.051152
  0
LINE
  8
型材断面
  6
CONTINUOUS
 62
    47
 10
-36.598808
 20
70.233143
 11
-55.963472
 21
50.868488
  0
ARC
  8
型材断面
  6
CONTINUOUS
 62
    47
 10
-27.406414
 20
79.425531
 40
1.5
 50
135.0
 51
225.0
  0
ARC
  8
型材断面
  6
CONTINUOUS
 62
    47
 10
-36.598808
 20
70.233137
 40
1.5
 50
45.000054
 51
134.999993
  0
ARC
  8
型材断面
  6
CONTINUOUS
 62
    47
 10
-24.22443
 20
74.122227
 40
1.5
 50
-45.000012
 51
45.0
  0
ARC
  8
型材断面
  6
CONTINUOUS
 62
    47
 10
-31.295502
 20
67.051157
 40
1.5
 50
224.999946
 51
314.999986
  0
ARC
  8
型材断面
  6
CONTINUOUS
 62
    47
 10
-55.963469
 20
50.868481
 40
1.5
 50
134.999993
 51
180.0
  0
LINE
  8
型材断面
  6
CONTINUOUS
 62
    47
 10
-24.224432
 20
74.122222
 11
-29.527737
 21
79.425527
  0
LINE
  8
型材断面
  6
CONTINUOUS
 62
    47
 10
-31.295503
 20
67.051152
 11
-36.598812
 21
72.354452
  0
LINE
  8
型材断面
  6
CONTINUOUS
 62
    47
 10
-36.598812
 20
72.354452
 11
-57.463472
 21
51.489797
  0
LINE
  8
型材断面
  6
CONTINUOUS
 62
    47
 10
-27.406418
 20
79.425527
 11
-22.103113
 21
74.122222
  0
LINE
  8
型材断面
  6
CONTINUOUS
 62
    47
 10
-36.598808
 20
70.233143
 11
-31.295503
 21
64.929832
  0
LINE
  8
型材断面
  6
CONTINUOUS
 62
    47
 10
-55.963472
 20
50.868488
 11
-55.963472
 21
41.622228
  0
ARC
  8
型材断面
  6
CONTINUOUS
 62
    47
 10
-55.963469
 20
41.622232
 40
1.5
 50
180.0
 51
270.0
  0
LINE
  8
型材断面
  6
CONTINUOUS
 62
    47
 10
-57.463472
 20
51.489797
 11
-57.463472
 21
40.122228
  0
LINE
  8
型材断面
  6
CONTINUOUS
 62
    47
 10
-57.463472
 20
46.122228
 11
-55.963472
 21
46.122228
  0
LINE
  8
型材断面
  6
CONTINUOUS
 62
    47
 10
-56.338472
 20
41.247228
 11
-56.338472
 21
46.122228
  0
LINE
  8
型材断面
  6
CONTINUOUS
 62
    47
 10
-56.713472
 20
40.872228
 11
-56.713472
 21
46.122228
  0
LINE
  8
型材断面
  6
CONTINUOUS
 62
    47
 10
-57.088472
 20
40.497228
 11
-57.088472
 21
46.122228
  0
LINE
  8
型材断面
  6
CONTINUOUS
 62
    47
 10
-9.728748
 20
87.910813
 11
-15.385603
 21
93.567663
  0
LINE
  8
型材断面
  6
CONTINUOUS
 62
    47
 10
-10.789408
 20
86.850152
 11
-9.728748
 21
87.910813
  0
LINE
  8
型材断面
  6
CONTINUOUS
 62
    47
 10
-10.789408
 20
86.850152
 11
-15.385603
 21
91.446348
  0
ARC
  8
型材断面
  6
CONTINUOUS
 62
    47
 10
-15.385599
 20
91.446346
 40
1.5
 50
45.0
 51
135.0
  0
LINE
  8
型材断面
  6
CONTINUOUS
 62
    47
 10
-9.728748
 20
87.910813
 11
-15.385603
 21
93.567663
  0
LINE
  8
型材断面
  6
CONTINUOUS
 62
    47
 10
-29.527737
 20
79.425527
 11
-15.385603
 21
93.567663
  0
LINE
  8
型材断面
  6
CONTINUOUS
 62
    47
 10
-27.406418
 20
79.425527
 11
-15.385603
 21
91.446342
  0
LINE
  8
型材断面
  6
CONTINUOUS
 62
    47
 10
-49.463472
 20
40.122228
 11
-49.463472
 21
41.622228
  0
LINE
  8
型材断面
  6
CONTINUOUS
 62
    47
 10
-55.963472
 20
41.622228
 11
-49.463472
 21
41.622228
  0
LINE
  8
型材断面
  6
CONTINUOUS
 62
    47
 10
-56.338472
 20
41.247228
 11
-49.463472
 21
41.247228
  0
LINE
  8
型材断面
  6
CONTINUOUS
 62
    47
 10
-56.713472
 20
40.872228
 11
-49.463472
 21
40.872228
  0
LINE
  8
型材断面
  6
CONTINUOUS
 62
    47
 10
-57.088472
 20
40.497228
 11
-49.463472
 21
40.497228
  0
LINE
  8
型材断面
  6
CONTINUOUS
 62
    47
 10
-22.103113
 20
74.122222
 11
-31.295503
 21
64.929832
  0
LINE
  8
型材断面
  6
CONTINUOUS
 62
    47
 10
-57.463472
 20
40.122228
 11
-49.463472
 21
40.122228
  0
LINE
  8
St
  6
CONTINUOUS
 62
    47
 10
-24.931538
 20
71.293798
 11
-25.992198
 21
72.354457
  0
LINE
  8
St
  6
CONTINUOUS
 62
    47
 10
-28.467072
 20
67.758262
 11
-29.527733
 21
68.818923
  0
LINE
  8
St
  6
CONTINUOUS
 62
    47
 10
-29.262568
 20
68.553758
 11
-25.727033
 21
72.089293
  0
LINE
  8
St
  6
CONTINUOUS
 62
    47
 10
-28.997403
 20
68.288593
 11
-25.461867
 21
71.824128
  0
LINE
  8
St
  6
CONTINUOUS
 62
    47
 10
-28.732237
 20
68.023428
 11
-25.196702
 21
71.558963
  0
LINE
  8
St
  6
DASHDOT
 62
    47
 10
-30.257733
 20
73.084453
 11
-24.681337
 21
67.508067
  0
ENDBLK
  0
BLOCK
  2
*GRP_0011
 70
    65
 10
0.0
 20
0.0
  0
LINE
  8
型材断面
  6
CONTINUOUS
 62
    47
 10
-9.672747
 20
65.622228
 11
-5.758537
 21
69.536437
  0
LINE
  8
型材断面
  6
CONTINUOUS
 62
    47
 10
-7.283658
 20
68.011318
 11
-6.222998
 21
66.950657
  0
LINE
  8
型材断面
  6
CONTINUOUS
 62
    47
 10
-9.672747
 20
65.622228
 11
0.029333
 21
75.324308
  0
LINE
  8
型材断面
  6
CONTINUOUS
 62
    47
 10
-9.051428
 20
64.122228
 11
1.089992
 21
74.263647
  0
LINE
  8
型材断面
  6
CONTINUOUS
 10
0.029333
 20
75.324308
 11
1.089992
 21
74.263647
  0
ARC
  8
型材断面
  6
CONTINUOUS
 10
-16.863469
 20
64.122232
 40
1.5
 50
90.0
 51
180.0
  0
LINE
  8
型材断面
  6
CONTINUOUS
 10
-18.363472
 20
53.622228
 11
-18.363472
 21
65.622228
  0
LINE
  8
型材断面
  6
CONTINUOUS
 62
    47
 10
-9.672747
 20
65.622228
 11
-18.363472
 21
65.622228
  0
LINE
  8
型材断面
  6
CONTINUOUS
 62
    47
 10
-16.863472
 20
53.622228
 11
-16.863472
 21
64.122228
  0
LINE
  8
型材断面
  6
CONTINUOUS
 10
-18.363472
 20
53.622228
 11
-16.863472
 21
53.622228
  0
LINE
  8
型材断面
  6
CONTINUOUS
 62
    47
 10
-9.051428
 20
64.122228
 11
-16.863472
 21
64.122228
  0
INSERT
  2
*HAT_0001
  8
型材断面
 10
0.0
 20
0.0
  0
ENDBLK
  0
BLOCK
  2
*GRP_0012
 70
    65
 10
0.0
 20
0.0
  0
LINE
  8
型材断面
  6
CONTINUOUS
 62
    47
 10
-43.963472
 20
26.122228
 11
-43.963472
 21
17.622228
  0
LINE
  8
型材断面
  6
CONTINUOUS
 62
    47
 10
-42.463472
 20
17.622228
 11
-43.963472
 21
17.622228
  0
LINE
  8
型材断面
  6
CONTINUOUS
 62
    47
 10
-55.963472
 20
38.622228
 11
-55.963472
 21
27.622228
  0
ARC
  8
型材断面
  6
CONTINUOUS
 62
    47
 10
-15.363469
 20
62.622231
 40
1.5
 50
90.0
 51
180.0
  0
ARC
  8
型材断面
  6
CONTINUOUS
 62
    47
 10
-16.863469
 20
50.622231
 40
1.5
 50
-90.0
 51
0.0
  0
ARC
  8
型材断面
  6
CONTINUOUS
 62
    47
 10
-29.463439
 20
49.122231
 40
1.5
 50
90.0
 51
180.0
  0
ARC
  8
型材断面
  6
CONTINUOUS
 62
    47
 10
-30.963439
 20
40.122231
 40
1.5
 50
-90.0
 51
0.0
  0
ARC
  8
型材断面
  6
CONTINUOUS
 62
    47
 10
-55.963469
 20
38.622231
 40
1.5
 50
90.0
 51
180.0
  0
ARC
  8
型材断面
  6
CONTINUOUS
 62
    47
 10
-55.963469
 20
27.622231
 40
1.5
 50
180.0
 51
270.0
  0
ARC
  8
型材断面
  6
CONTINUOUS
 62
    47
 10
-43.963469
 20
26.122231
 40
1.5
 50
0.0
 51
90.0
  0
LINE
  8
型材断面
  6
CONTINUOUS
 62
    47
 10
-57.463472
 20
40.122228
 11
-57.463472
 21
26.122228
  0
LINE
  8
型材断面
  6
CONTINUOUS
 62
    47
 10
-43.963472
 20
26.122228
 11
-57.463472
 21
26.122228
  0
LINE
  8
型材断面
  6
CONTINUOUS
 62
    47
 10
-55.963472
 20
27.622228
 11
-42.463472
 21
27.622228
  0
LINE
  8
型材断面
  6
CONTINUOUS
 62
    47
 10
-42.463472
 20
17.622228
 11
-42.463472
 21
27.622228
  0
LINE
  8
型材断面
  6
CONTINUOUS
 62
    47
 10
-29.463443
 20
49.122228
 11
-29.463443
 21
38.622228
  0
LINE
  8
型材断面
  6
CONTINUOUS
 62
    47
 10
-55.963472
 20
38.622228
 11
-29.463443
 21
38.622228
  0
LINE
  8
型材断面
  6
CONTINUOUS
 62
    47
 10
-30.963443
 20
40.122228
 11
-30.963443
 21
50.622228
  0
LINE
  8
型材断面
  6
CONTINUOUS
 62
    47
 10
-30.963443
 20
50.622228
 11
-16.863472
 21
50.622228
  0
LINE
  8
型材断面
  6
CONTINUOUS
 62
    47
 10
-29.463443
 20
49.122228
 11
-15.363472
 21
49.122228
  0
LINE
  8
型材断面
  6
CONTINUOUS
 62
    47
 10
-15.363472
 20
62.622228
 11
-15.363472
 21
49.122228
  0
LINE
  8
型材断面
  6
CONTINUOUS
 62
    47
 10
-16.863472
 20
50.622228
 11
-16.863472
 21
64.122228
  0
LINE
  8
型材断面
  6
CONTINUOUS
 62
    47
 10
-55.963472
 20
40.122228
 11
-30.963443
 21
40.122228
  0
LINE
  8
型材断面
  6
CONTINUOUS
 62
    47
 10
-16.863472
 20
64.122228
 11
54.036528
 21
64.122228
  0
LINE
  8
型材断面
  6
CONTINUOUS
 62
    47
 10
55.536528
 20
77.622228
 11
54.036528
 21
77.622228
  0
LINE
  8
型材断面
  6
CONTINUOUS
 62
    47
 10
54.036528
 20
77.622228
 11
54.036528
 21
64.122228
  0
LINE
  8
型材断面
  6
CONTINUOUS
 62
    47
 10
-15.363472
 20
62.622228
 11
55.536528
 21
62.622228
  0
LINE
  8
型材断面
  6
CONTINUOUS
 62
    47
 10
55.536528
 20
77.622228
 11
55.536528
 21
62.622228
  0
ARC
  8
型材断面
  6
CONTINUOUS
 62
    47
 10
54.036529
 20
64.122232
 40
1.5
 50
-90.0
 51
0.0
  0
ENDBLK
  0
BLOCK
  2
*GRP_0013
 70
    65
 10
0.0
 20
0.0
  0
LINE
  8
型材断面
  6
CONTINUOUS
 62
    47
 10
-42.463437
 20
37.122228
 11
-42.463437
 21
38.622228
  0
LINE
  8
型材断面
  6
CONTINUOUS
 62
    47
 10
-42.463437
 20
37.122228
 11
-30.963443
 21
37.122228
  0
ARC
  8
型材断面
  6
CONTINUOUS
 62
    47
 10
-30.963437
 20
37.122226
 40
1.5
 50
0.0
 51
90.0
  0
ARC
  8
型材断面
  6
CONTINUOUS
 62
    47
 10
-29.463437
 20
-2.877779
 40
1.5
 50
180.0
 51
270.0
  0
LINE
  8
型材断面
  6
CONTINUOUS
 62
    47
 10
-29.463443
 20
-2.877777
 11
-29.463443
 21
38.622228
  0
ARC
  8
型材断面
  6
CONTINUOUS
 62
    47
 10
-16.863467
 20
-4.377779
 40
1.5
 50
0.0
 51
90.0
  0
LINE
  8
型材断面
  6
CONTINUOUS
 62
    47
 10
-38.863468
 20
-20.879217
 11
-38.863468
 21
-29.558533
  0
LINE
  8
型材断面
  6
CONTINUOUS
 62
    47
 10
-38.863468
 20
-29.558533
 11
-40.363468
 21
-29.558533
  0
ARC
  8
型材断面
  6
CONTINUOUS
 62
    47
 10
-38.863465
 20
-20.879213
 40
1.5
 50
97.275006
 51
180.0
  0
LINE
  8
型材断面
  6
CONTINUOUS
 62
    47
 10
-40.363468
 20
-29.558533
 11
-40.363468
 21
-19.558528
  0
LINE
  8
型材断面
  6
CONTINUOUS
 62
    47
 10
-40.363468
 20
-19.558528
 11
-16.863472
 21
-16.558528
  0
LINE
  8
型材断面
  6
CONTINUOUS
 62
    47
 10
-16.863472
 20
-4.377777
 11
-16.863472
 21
-16.558528
  0
ARC
  8
型材断面
  6
CONTINUOUS
 62
    47
 10
-16.86347
 20
-16.558529
 40
1.5
 50
-82.724994
 51
0.0
  0
LINE
  8
型材断面
  6
CONTINUOUS
 62
    47
 10
-38.863468
 20
-20.879217
 11
-15.363472
 21
-17.879217
  0
LINE
  8
型材断面
  6
CONTINUOUS
 62
    47
 10
-15.363472
 20
-2.877777
 11
-15.363472
 21
-17.879217
  0
LINE
  8
型材断面
  6
CONTINUOUS
 62
    47
 10
-30.963443
 20
37.122228
 11
-30.963443
 21
-4.377777
  0
LINE
  8
型材断面
  6
CONTINUOUS
 62
    47
 10
-16.863472
 20
-4.377777
 11
-30.963443
 21
-4.377777
  0
LINE
  8
型材断面
  6
CONTINUOUS
 62
    47
 10
-29.463443
 20
-2.877777
 11
-15.363472
 21
-2.877777
  0
LINE
  8
型材断面
  6
CONTINUOUS
 62
    47
 10
-29.463443
 20
38.622228
 11
-42.463437
 21
38.622228
  0
ENDBLK
  0
BLOCK
  2
*GRP_0014
 70
    65
 10
0.0
 20
0.0
  0
LINE
  8
型材断面
  6
CONTINUOUS
 62
    47
 10
28.036533
 20
-2.877777
 11
28.036533
 21
62.622228
  0
ARC
  8
型材断面
  6
CONTINUOUS
 62
    47
 10
28.036535
 20
-2.877779
 40
1.5
 50
270.0
 51
360.0
  0
LINE
  8
型材断面
  6
CONTINUOUS
 62
    47
 10
29.536533
 20
-4.377777
 11
29.536533
 21
62.622228
  0
ARC
  8
型材断面
  6
CONTINUOUS
 62
    47
 10
-13.863467
 20
-4.377779
 40
1.5
 50
90.0
 51
180.0
  0
LINE
  8
型材断面
  6
CONTINUOUS
 62
    47
 10
29.536533
 20
-4.377777
 11
-13.863472
 21
-4.377777
  0
LINE
  8
型材断面
  6
CONTINUOUS
 62
    47
 10
-13.863472
 20
-4.377777
 11
-13.863472
 21
-17.377777
  0
LINE
  8
型材断面
  6
CONTINUOUS
 62
    47
 10
-15.363472
 20
-17.377777
 11
-13.863472
 21
-17.377777
  0
LINE
  8
型材断面
  6
CONTINUOUS
 62
    47
 10
28.036533
 20
-2.877777
 11
-15.363472
 21
-2.877777
  0
LINE
  8
型材断面
  6
CONTINUOUS
 62
    47
 10
-15.363472
 20
-2.877777
 11
-15.363472
 21
-17.377777
  0
LINE
  8
型材断面
  6
CONTINUOUS
 62
    47
 10
28.036533
 20
62.622228
 11
29.536533
 21
62.622228
  0
ENDBLK
  0
BLOCK
  2
*GRP_0015
 70
    65
 10
0.0
 20
0.0
  0
LINE
  8
補助線
  6
BYBLOCK
 62
    63
 10
9.036513
 20
19.122213
 11
-23.963487
 21
19.122213
  0
LINE
  8
補助線
  6
BYBLOCK
 62
    63
 10
-7.463487
 20
35.622213
 11
-7.463487
 21
2.622213
  0
LINE
  8
補助線
  6
BYBLOCK
 62
    63
 10
24.036513
 20
37.122207
 11
17.036513
 21
37.122207
  0
LINE
  8
補助線
  6
BYBLOCK
 62
    63
 10
20.536513
 20
40.622207
 11
20.536513
 21
33.622207
  0
LINE
  8
補助線
  6
BYBLOCK
 62
    63
 10
23.736513
 20
1.122218
 11
17.336513
 21
1.122218
  0
LINE
  8
補助線
  6
BYBLOCK
 62
    63
 10
20.536513
 20
4.322218
 11
20.536513
 21
-2.077783
  0
LINE
  8
ゴム等
  6
CONTINUOUS
 62
    63
 10
8.032107
 20
32.122213
 11
13.032107
 21
37.122213
  0
LINE
  8
ゴム等
  6
CONTINUOUS
 62
    63
 10
8.032107
 20
6.122213
 11
13.032107
 21
1.122213
  0
LINE
  8
ゴム等
  6
CONTINUOUS
 62
    63
 10
-5.863313
 20
52.822213
 11
-15.363437
 21
52.822213
  0
LINE
  8
ゴム等
  6
CONTINUOUS
 62
    63
 10
-3.363307
 20
52.822213
 11
9.836613
 21
52.822213
  0
LINE
  8
ゴム等
  6
CONTINUOUS
 62
    63
 10
-13.363432
 20
50.822213
 11
12.336613
 21
50.822213
  0
LINE
  8
ゴム等
  6
CONTINUOUS
 62
    63
 10
12.336613
 20
51.622213
 11
12.336613
 21
50.822213
  0
LINE
  8
St
  6
CONTINUOUS
 62
    63
 10
-7.463487
 20
35.622213
 11
-7.463487
 21
37.122218
  0
LINE
  8
St
  6
CONTINUOUS
 62
    63
 10
-7.463487
 20
37.122218
 11
8.789467
 21
37.122218
  0
ARC
  8
St
  6
CONTINUOUS
 62
    63
 10
20.536512
 20
37.122207
 40
2.5
 50
90.000057
 51
90.000057
  0
ARC
  8
St
  6
CONTINUOUS
 62
    63
 10
20.536509
 20
1.122218
 40
2.2
 50
12.301255
 51
167.698745
  0
LINE
  8
St
  6
CONTINUOUS
 62
    63
 10
18.387032
 20
1.122213
 11
18.387032
 21
1.590942
  0
LINE
  8
St
  6
CONTINUOUS
 62
    63
 10
22.686012
 20
1.122213
 11
22.686012
 21
1.590942
  0
ARC
  8
St
  6
CONTINUOUS
 62
    63
 10
-7.463487
 20
19.122215
 40
15.5
 50
31.072958
 51
328.927056
  0
LINE
  8
St
  6
CONTINUOUS
 62
    63
 10
28.036533
 20
39.622213
 11
28.036533
 21
37.622218
  0
LINE
  8
St
  6
CONTINUOUS
 62
    63
 10
22.686012
 20
37.122213
 11
27.536537
 21
37.122213
  0
LINE
  8
St
  6
CONTINUOUS
 62
    63
 10
22.686012
 20
1.122213
 11
27.536537
 21
1.122213
  0
ARC
  8
St
  6
CONTINUOUS
 62
    63
 10
27.536517
 20
37.622213
 40
0.5
 50
-90.0
 51
0.0
  0
ARC
  8
St
  6
CONTINUOUS
 62
    63
 10
27.536517
 20
0.622213
 40
0.5
 50
0.0
 51
90.0
  0
LINE
  8
St
  6
CONTINUOUS
 62
    63
 10
28.036533
 20
0.622213
 11
28.036533
 21
0.122218
  0
ARC
  8
St
  6
CONTINUOUS
 62
    63
 10
-26.463455
 20
46.122215
 40
3.0
 50
90.0
 51
180.0
  0
ARC
  8
St
  6
CONTINUOUS
 62
    63
 10
-26.463455
 20
46.122215
 40
1.0
 50
90.0
 51
180.0
  0
ARC
  8
St
  6
CONTINUOUS
 62
    63
 10
-26.463455
 20
0.12221
 40
3.0
 50
180.0
 51
270.0
  0
ARC
  8
St
  6
CONTINUOUS
 62
    63
 10
-26.463455
 20
0.12221
 40
1.0
 50
180.0
 51
270.0
  0
ARC
  8
St
  6
CONTINUOUS
 62
    63
 10
25.036517
 20
0.12221
 40
3.0
 50
-90.0
 51
0.0
  0
LINE
  8
St
  6
CONTINUOUS
 62
    63
 10
-26.463437
 20
49.122213
 11
-15.363437
 21
49.122213
  0
LINE
  8
St
  6
CONTINUOUS
 62
    63
 10
-26.463437
 20
47.122213
 11
-13.363432
 21
47.122213
  0
LINE
  8
St
  6
CONTINUOUS
 62
    63
 10
28.036533
 20
62.622213
 11
28.036533
 21
45.922213
  0
LINE
  8
St
  6
CONTINUOUS
 62
    63
 10
28.036533
 20
45.322213
 11
28.036533
 21
37.122213
  0
LINE
  8
St
  6
CONTINUOUS
 62
    63
 10
-29.163437
 20
43.622218
 11
-29.463437
 21
43.922218
  0
LINE
  8
St
  6
CONTINUOUS
 62
    63
 10
-29.163437
 20
43.622218
 11
-29.463437
 21
43.322218
  0
LINE
  8
St
  6
CONTINUOUS
 62
    63
 10
-29.463437
 20
43.922218
 11
-29.463437
 21
46.122213
  0
LINE
  8
St
  6
CONTINUOUS
 62
    63
 10
-29.463437
 20
0.122218
 11
-29.463437
 21
14.122213
  0
LINE
  8
St
  6
CONTINUOUS
 62
    63
 10
-29.463437
 20
43.322218
 11
-29.463437
 21
14.122213
  0
LINE
  8
St
  6
CONTINUOUS
 62
    63
 10
-27.463433
 20
0.122218
 11
-27.463433
 21
17.122213
  0
LINE
  8
St
  6
CONTINUOUS
 62
    63
 10
-27.463433
 20
46.122213
 11
-27.463433
 21
21.122218
  0
LINE
  8
St
  6
CONTINUOUS
 62
    63
 10
27.736533
 20
45.622213
 11
28.036533
 21
45.922213
  0
LINE
  8
St
  6
CONTINUOUS
 62
    63
 10
27.736533
 20
45.622213
 11
28.036533
 21
45.322213
  0
ARC
  8
St
  6
CONTINUOUS
 62
    63
 10
23.436531
 20
62.322234
 40
0.3
 50
90.00412
 51
180.0
  0
ARC
  8
St
  6
CONTINUOUS
 62
    63
 10
14.436572
 20
62.322234
 40
0.3
 50
0.002747
 51
90.00412
  0
LINE
  8
St
  6
CONTINUOUS
 62
    63
 10
14.436587
 20
62.622213
 11
10.836613
 21
62.622213
  0
LINE
  8
St
  6
CONTINUOUS
 62
    63
 10
28.036533
 20
62.622213
 11
23.440063
 21
62.622213
  0
ARC
  8
St
  6
CONTINUOUS
 62
    63
 10
-1.263355
 20
62.322234
 40
0.3
 50
0.0
 51
89.99588
  0
ARC
  8
St
  6
CONTINUOUS
 62
    63
 10
7.736605
 20
62.322234
 40
0.3
 50
89.99588
 51
179.997253
  0
LINE
  8
St
  6
CONTINUOUS
 62
    63
 10
7.736613
 20
62.622213
 11
11.336613
 21
62.622213
  0
LINE
  8
St
  6
CONTINUOUS
 62
    63
 10
-5.863313
 20
62.622213
 11
-1.266863
 21
62.622213
  0
LINE
  8
St
  6
CONTINUOUS
 62
    63
 10
14.236637
 20
60.122218
 11
12.336613
 21
60.122218
  0
LINE
  8
St
  6
CONTINUOUS
 62
    63
 10
23.636637
 20
60.122218
 11
25.536537
 21
60.122218
  0
ARC
  8
St
  6
CONTINUOUS
 62
    63
 10
14.23661
 20
60.622222
 40
0.5
 50
270.001373
 51
360.002747
  0
ARC
  8
St
  6
CONTINUOUS
 62
    63
 10
23.636633
 20
60.622222
 40
0.5
 50
180.0
 51
270.001373
  0
LINE
  8
St
  6
CONTINUOUS
 62
    63
 10
7.936587
 20
60.122218
 11
9.836613
 21
60.122218
  0
LINE
  8
St
  6
CONTINUOUS
 62
    63
 10
-1.463437
 20
60.122218
 11
-3.363307
 21
60.122218
  0
ARC
  8
St
  6
CONTINUOUS
 62
    63
 10
7.936566
 20
60.622222
 40
0.5
 50
179.997253
 51
269.998627
  0
ARC
  8
St
  6
CONTINUOUS
 62
    63
 10
-1.463457
 20
60.622222
 40
0.5
 50
269.998627
 51
360.0
  0
LINE
  8
St
  6
CONTINUOUS
 62
    63
 10
14.736633
 20
62.322237
 11
14.736633
 21
60.622263
  0
LINE
  8
St
  6
CONTINUOUS
 62
    63
 10
7.436563
 20
62.322237
 11
7.436563
 21
60.622263
  0
LINE
  8
St
  6
CONTINUOUS
 62
    63
 10
23.136633
 20
62.322237
 11
23.136633
 21
60.622263
  0
LINE
  8
St
  6
CONTINUOUS
 62
    63
 10
-0.963437
 20
62.322237
 11
-0.963437
 21
60.622263
  0
LINE
  8
St
  6
CONTINUOUS
 62
    63
 10
12.336613
 20
60.122218
 11
12.336613
 21
53.622213
  0
LINE
  8
St
  6
CONTINUOUS
 62
    63
 10
12.336613
 20
53.622213
 11
25.536537
 21
53.622213
  0
LINE
  8
St
  6
CONTINUOUS
 62
    63
 10
25.536537
 20
60.122218
 11
25.536537
 21
53.622213
  0
LINE
  8
St
  6
CONTINUOUS
 62
    63
 10
25.536537
 20
51.622213
 11
25.536537
 21
39.622213
  0
LINE
  8
St
  6
CONTINUOUS
 62
    63
 10
-27.463433
 20
21.122218
 11
-25.352013
 21
21.122218
  0
LINE
  8
St
  6
CONTINUOUS
 62
    63
 10
-27.463433
 20
17.122213
 11
-25.352013
 21
17.122213
  0
LINE
  8
St
  6
CONTINUOUS
 62
    63
 10
22.686012
 20
37.122213
 11
22.686012
 21
35.845617
  0
LINE
  8
St
  6
CONTINUOUS
 62
    63
 10
18.387012
 20
37.122213
 11
18.387012
 21
35.845637
  0
ARC
  8
St
  6
CONTINUOUS
 62
    63
 10
20.536512
 20
37.122207
 40
2.5
 50
210.705753
 51
329.293349
  0
LINE
  8
St
  6
CONTINUOUS
 62
    63
 10
5.712437
 20
27.122218
 11
8.036507
 21
27.122218
  0
LINE
  8
St
  6
CONTINUOUS
 62
    63
 10
5.812437
 20
11.122213
 11
8.032113
 21
11.122213
  0
LINE
  8
St
  6
CONTINUOUS
 62
    63
 10
-26.463437
 20
-0.877787
 11
-9.463478
 21
-0.877787
  0
LINE
  8
St
  6
CONTINUOUS
 62
    63
 10
20.036537
 20
41.122213
 11
21.036537
 21
39.622213
  0
LINE
  8
St
  6
CONTINUOUS
 62
    63
 10
25.536537
 20
39.622213
 11
21.036537
 21
39.622213
  0
LINE
  8
St
  6
CONTINUOUS
 62
    63
 10
25.536537
 20
51.622213
 11
12.336613
 21
51.622213
  0
LINE
  8
St
  6
CONTINUOUS
 62
    63
 10
-3.363307
 20
60.122218
 11
-3.363307
 21
52.822213
  0
LINE
  8
St
  6
CONTINUOUS
 62
    63
 10
-5.863313
 20
62.622213
 11
-5.863313
 21
52.822213
  0
LINE
  8
St
  6
CONTINUOUS
 62
    63
 10
-15.363437
 20
49.122213
 11
-15.363437
 21
52.822213
  0
LINE
  8
St
  6
CONTINUOUS
 62
    63
 10
-13.363432
 20
47.122213
 11
-13.363432
 21
50.822213
  0
LINE
  8
St
  6
CONTINUOUS
 62
    63
 10
9.836613
 20
60.122218
 11
9.836613
 21
52.822213
  0
LINE
  8
St
  6
CONTINUOUS
 62
    63
 10
8.036507
 20
27.122218
 11
8.036507
 21
32.126613
  0
LINE
  8
St
  6
CONTINUOUS
 62
    63
 10
18.387012
 20
37.122213
 11
13.032107
 21
37.122213
  0
LINE
  8
St
  6
CONTINUOUS
 62
    63
 10
8.032113
 20
11.122213
 11
8.032113
 21
6.122207
  0
LINE
  8
St
  6
CONTINUOUS
 62
    63
 10
18.387032
 20
1.122213
 11
13.032107
 21
1.122213
  0
LINE
  8
St
  6
CONTINUOUS
 62
    63
 10
20.036537
 20
41.122213
 11
12.789467
 21
41.122213
  0
LINE
  8
St
  6
CONTINUOUS
 62
    63
 10
-26.463437
 20
-2.877783
 11
-6.463437
 21
-2.877783
  0
LINE
  8
St
  6
CONTINUOUS
 62
    63
 10
-9.463478
 20
-0.877743
 11
-9.463478
 21
1.233672
  0
LINE
  8
St
  6
CONTINUOUS
 62
    63
 10
25.036533
 20
-2.877783
 11
11.375252
 21
-2.877783
  0
ARC
  8
St
  6
CONTINUOUS
 62
    63
 10
-7.463487
 20
19.122216
 40
18.0
 50
186.379378
 51
263.620659
  0
LINE
  8
St
  6
CONTINUOUS
 62
    63
 10
11.375252
 20
-2.877783
 11
7.375252
 21
1.122218
  0
LINE
  8
St
  6
CONTINUOUS
 62
    63
 10
-6.463437
 20
-2.877783
 11
-6.463437
 21
0.122218
  0
LINE
  8
St
  6
CONTINUOUS
 62
    63
 10
7.375252
 20
1.122218
 11
-5.463437
 21
1.122218
  0
ARC
  8
St
  6
CONTINUOUS
 62
    63
 10
-5.463438
 20
0.122217
 40
1.0
 50
90.0
 51
180.0
  0
LINE
  8
St
  6
CONTINUOUS
 62
    63
 10
12.789467
 20
41.122213
 11
8.789467
 21
37.122218
  0
ARC
  8
St
  6
CONTINUOUS
 62
    63
 10
-7.463487
 20
19.122216
 40
18.0
 50
90.000003
 51
173.620638
  0
ENDBLK
  0
BLOCK
  2
*GRP_0016
 70
    65
 10
0.0
 20
0.0
  0
LINE
  8
型材断面
  6
CONTINUOUS
 10
-29.463443
 20
-106.877762
 11
-30.963443
 21
-106.877762
  0
LINE
  8
型材断面
  6
CONTINUOUS
 10
-29.463443
 20
-100.877762
 11
-30.963443
 21
-100.877762
  0
LINE
  8
型材断面
  6
CONTINUOUS
 10
-30.588443
 20
-100.877762
 11
-30.588443
 21
-106.877762
  0
LINE
  8
型材断面
  6
CONTINUOUS
 10
-30.213443
 20
-100.877762
 11
-30.213443
 21
-106.877762
  0
LINE
  8
型材断面
  6
CONTINUOUS
 10
-29.838443
 20
-100.877762
 11
-29.838443
 21
-106.877762
  0
LINE
  8
型材断面
  6
CONTINUOUS
 62
    47
 10
-19.963443
 20
-108.377762
 11
-19.130112
 21
-106.877762
  0
LINE
  8
型材断面
  6
CONTINUOUS
 62
    47
 10
-14.796778
 20
-106.877762
 11
-13.963443
 21
-108.377762
  0
LINE
  8
型材断面
  6
CONTINUOUS
 62
    47
 10
-14.588443
 20
-107.252762
 11
-19.338443
 21
-107.252762
  0
LINE
  8
型材断面
  6
CONTINUOUS
 62
    47
 10
-14.380108
 20
-107.627762
 11
-19.546778
 21
-107.627762
  0
LINE
  8
型材断面
  6
CONTINUOUS
 62
    47
 10
-14.171778
 20
-108.002762
 11
-19.755108
 21
-108.002762
  0
ARC
  8
型材断面
  6
CONTINUOUS
 62
    47
 10
-29.463438
 20
-106.877767
 40
1.5
 50
180.0
 51
270.0
  0
ARC
  8
型材断面
  6
CONTINUOUS
 62
    47
 10
84.036532
 20
-106.877767
 40
1.5
 50
270.0
 51
360.0
  0
LINE
  8
型材断面
  6
CONTINUOUS
 62
    47
 10
-29.463443
 20
-106.877762
 11
84.036528
 21
-106.877762
  0
LINE
  8
型材断面
  6
CONTINUOUS
 62
    47
 10
-30.963443
 20
-108.377762
 11
85.536528
 21
-108.377762
  0
LINE
  8
型材断面
  6
CONTINUOUS
 62
    47
 10
-1.463487
 20
-8.876332
 11
-0.630152
 21
-10.376338
  0
LINE
  8
型材断面
  6
CONTINUOUS
 62
    47
 10
3.703183
 20
-10.376338
 11
4.536513
 21
-8.876332
  0
LINE
  8
型材断面
  6
CONTINUOUS
 62
    47
 10
4.328177
 20
-9.251338
 11
-1.255152
 21
-9.251338
  0
LINE
  8
型材断面
  6
CONTINUOUS
 62
    47
 10
4.119847
 20
-9.626338
 11
-1.046817
 21
-9.626338
  0
LINE
  8
型材断面
  6
CONTINUOUS
 62
    47
 10
3.911513
 20
-10.001338
 11
-0.838487
 21
-10.001338
  0
LINE
  8
型材断面
  6
CONTINUOUS
 62
    47
 10
9.536513
 20
-10.376338
 11
-4.463437
 21
-10.376338
  0
ARC
  8
型材断面
  6
CONTINUOUS
 62
    47
 10
-4.463433
 20
-10.376342
 40
1.5
 50
90.0
 51
180.0
  0
ARC
  8
型材断面
  6
CONTINUOUS
 62
    47
 10
-5.963433
 20
-22.377782
 40
1.5
 50
-90.0
 51
0.0
  0
ARC
  8
型材断面
  6
CONTINUOUS
 62
    47
 10
-29.463438
 20
-23.877782
 40
1.5
 50
90.0
 51
180.0
  0
LINE
  8
型材断面
  6
CONTINUOUS
 62
    47
 10
-5.963437
 20
-22.377777
 11
-30.963443
 21
-22.377777
  0
LINE
  8
型材断面
  6
CONTINUOUS
 62
    47
 10
-29.463443
 20
-23.877777
 11
-4.463437
 21
-23.877777
  0
LINE
  8
型材断面
  6
CONTINUOUS
 62
    47
 10
-4.463437
 20
-10.376338
 11
-4.463437
 21
-23.877777
  0
LINE
  8
型材断面
  6
CONTINUOUS
 62
    47
 10
-5.963437
 20
-22.377777
 11
-5.963437
 21
-8.876338
  0
LINE
  8
型材断面
  6
CONTINUOUS
 62
    47
 10
-5.963437
 20
-8.876338
 11
9.536513
 21
-8.876338
  0
LINE
  8
型材断面
  6
CONTINUOUS
 62
    47
 10
-30.963443
 20
-108.377762
 11
-30.963443
 21
-22.377777
  0
LINE
  8
型材断面
  6
CONTINUOUS
 62
    47
 10
-29.463443
 20
-106.877762
 11
-29.463443
 21
-23.877777
  0
LINE
  8
型材断面
  6
CONTINUOUS
 10
9.536513
 20
-8.876338
 11
9.536513
 21
-10.376338
  0
LINE
  8
型材断面
  6
CONTINUOUS
 62
    47
 10
85.536528
 20
-108.377762
 11
85.536528
 21
-88.377762
  0
LINE
  8
型材断面
  6
CONTINUOUS
 10
85.536528
 20
-88.377762
 11
84.036528
 21
-88.377762
  0
LINE
  8
型材断面
  6
CONTINUOUS
 62
    47
 10
84.036528
 20
-106.877762
 11
84.036528
 21
-88.377762
  0
ENDBLK
  0
BLOCK
  2
*GRP_0017
 70
    65
 10
0.0
 20
0.0
  0
LINE
  8
ゴム等
  6
CONTINUOUS
 10
-13.963437
 20
-17.377777
 11
-9.963437
 21
-17.377777
  0
LINE
  8
ゴム等
  6
CONTINUOUS
 10
-9.963437
 20
-17.377777
 11
-9.963437
 21
-16.377777
  0
LINE
  8
ゴム等
  6
CONTINUOUS
 10
-13.963437
 20
-17.377777
 11
-13.963437
 21
-16.377777
  0
LINE
  8
ゴム等
  6
CONTINUOUS
 10
-9.963437
 20
-16.377777
 11
-5.963437
 21
-16.377777
  0
LINE
  8
ゴム等
  6
CONTINUOUS
 10
-5.963437
 20
-16.377777
 11
-5.963437
 21
-22.377777
  0
LINE
  8
ゴム等
  6
CONTINUOUS
 10
-5.963437
 20
-22.377777
 11
-18.963437
 21
-22.377777
  0
LINE
  8
ゴム等
  6
CONTINUOUS
 10
-18.963437
 20
-22.377777
 11
-18.963437
 21
-18.718328
  0
LINE
  8
ゴム等
  6
CONTINUOUS
 10
-13.963437
 20
-16.377777
 11
-17.945413
 21
-16.757053
  0
LINE
  8
ゴム等
  6
CONTINUOUS
 10
-17.945413
 20
-16.757053
 11
-17.919228
 21
-17.032007
  0
ARC
  8
ゴム等
  6
CONTINUOUS
 10
-22.047062
 20
-17.627641
 40
0.4
 50
91.441077
 51
274.310481
  0
LINE
  8
ゴム等
  6
CONTINUOUS
 10
-22.057118
 20
-17.227762
 11
-18.723142
 21
-17.108577
  0
LINE
  8
ゴム等
  6
CONTINUOUS
 10
-17.919228
 20
-17.032007
 11
-18.723138
 21
-17.108577
  0
ARC
  8
ゴム等
  6
CONTINUOUS
 10
-20.963437
 20
-18.718332
 40
2.0
 50
0.0
 51
17.753828
  0
LINE
  8
ゴム等
  6
CONTINUOUS
 10
-22.016997
 20
-18.026502
 11
-19.058687
 21
-18.108472
  0
INSERT
  2
*HAT_0002
  8
ゴム等
 10
0.0
 20
0.0
  0
ENDBLK
  0
BLOCK
  2
*GRP_0018
 70
    65
 10
0.0
 20
0.0
  0
LINE
  8
ゴム等
  6
CONTINUOUS
 62
    63
 10
1.089992
 20
74.263647
 11
0.029333
 21
75.324308
  0
LINE
  8
ゴム等
  6
CONTINUOUS
 62
    63
 10
2.504205
 20
75.677863
 11
-0.677775
 21
78.859843
  0
LINE
  8
ゴム等
  6
CONTINUOUS
 62
    63
 10
-5.627523
 20
73.910102
 11
-3.506203
 21
71.788775
  0
LINE
  8
ゴム等
  6
CONTINUOUS
 62
    63
 10
-0.677775
 20
78.859843
 11
-5.627523
 21
73.910102
  0
LINE
  8
ゴム等
  6
CONTINUOUS
 62
    63
 10
2.504205
 20
75.677863
 11
1.089992
 21
74.263647
  0
LINE
  8
ゴム等
  6
CONTINUOUS
 62
    63
 10
0.029333
 20
75.324308
 11
-3.506203
 21
71.788775
  0
INSERT
  2
*HAT_0003
  8
ゴム等
 10
0.0
 20
0.0
  0
ENDBLK
  0
BLOCK
  2
*GRP_0019
 70
    65
 10
0.0
 20
0.0
  0
LINE
  8
ゴム等
  6
CONTINUOUS
 10
-4.213307
 20
71.081662
 11
-13.617828
 21
80.486182
  0
LINE
  8
ゴム等
  6
CONTINUOUS
 10
-24.981787
 20
69.122228
 11
-24.981787
 21
64.122228
  0
LINE
  8
ゴム等
  6
CONTINUOUS
 10
-13.617828
 20
80.486182
 11
-24.981787
 21
69.122228
  0
LINE
  8
ゴム等
  6
CONTINUOUS
 10
-19.363468
 20
65.622228
 11
-19.363468
 21
64.122228
  0
POLYLINE
  8
ゴム等
  6
CONTINUOUS
 66
     1
  0
VERTEX
  8
ゴム等
 10
-19.363468
 20
65.622228
  0
VERTEX
  8
ゴム等
 10
-9.672743
 20
65.622228
  0
VERTEX
  8
ゴム等
 10
-4.213307
 20
71.081662
  0
SEQEND
  0
LINE
  8
ゴム等
  6
CONTINUOUS
 10
-24.981787
 20
64.122228
 11
-19.363468
 21
64.122228
  0
INSERT
  2
*HAT_0004
  8
ゴム等
 10
0.0
 20
0.0
  0
ENDBLK
  0
BLOCK
  2
*GRP_0020
 70
    65
 10
0.0
 20
0.0
  0
LINE
  8
ボルト／ビス
  6
CONTINUOUS
 10
-34.463443
 20
34.622228
 11
-34.963443
 21
34.122228
  0
LINE
  8
ボルト／ビス
  6
CONTINUOUS
 10
-38.463443
 20
34.622228
 11
-37.963443
 21
34.122228
  0
LINE
  8
ボルト／ビス
  6
CONTINUOUS
 10
-34.963443
 20
34.122228
 11
-37.963443
 21
34.122228
  0
LINE
  8
ボルト／ビス
  6
CONTINUOUS
 10
-34.463443
 20
34.622228
 11
-38.463443
 21
34.622228
  0
LINE
  8
ボルト／ビス
  6
CONTINUOUS
 10
-34.463443
 20
34.622228
 11
-34.463443
 21
38.322228
  0
LINE
  8
ボルト／ビス
  6
CONTINUOUS
 10
-34.963443
 20
34.122228
 11
-34.963443
 21
38.322228
  0
LINE
  8
ボルト／ビス
  6
CONTINUOUS
 10
-37.963443
 20
34.122228
 11
-37.963443
 21
38.322228
  0
LINE
  8
ボルト／ビス
  6
CONTINUOUS
 10
-38.463443
 20
34.622228
 11
-38.463443
 21
38.322228
  0
LINE
  8
ボルト／ビス
  6
CONTINUOUS
 10
-34.463443
 20
38.322228
 11
-38.463443
 21
38.322228
  0
LINE
  8
ボルト／ビス
  6
CONTINUOUS
 10
-33.463443
 20
40.122228
 11
-34.463443
 21
38.322228
  0
LINE
  8
ボルト／ビス
  6
CONTINUOUS
 10
-33.463443
 20
40.122228
 11
-39.463443
 21
40.122228
  0
LINE
  8
ボルト／ビス
  6
CONTINUOUS
 10
-39.463443
 20
40.122228
 11
-38.463443
 21
38.322228
  0
LINE
  8
ボルト／ビス
  6
CONTINUOUS
 10
-36.463443
 20
32.541753
 11
-36.463443
 21
41.605758
  0
ENDBLK
  0
BLOCK
  2
*GRP_0021
 70
    65
 10
0.0
 20
0.0
  0
LINE
  8
ボルト／ビス
  6
CONTINUOUS
 10
24.036533
 20
47.622213
 11
23.536533
 21
47.122213
  0
LINE
  8
ボルト／ビス
  6
CONTINUOUS
 10
24.036533
 20
43.622213
 11
23.536533
 21
44.122213
  0
LINE
  8
ボルト／ビス
  6
CONTINUOUS
 10
23.536533
 20
47.122213
 11
23.536533
 21
44.122213
  0
LINE
  8
ボルト／ビス
  6
CONTINUOUS
 10
24.036533
 20
47.622213
 11
24.036533
 21
43.622213
  0
LINE
  8
ボルト／ビス
  6
CONTINUOUS
 10
24.036533
 20
47.622213
 11
27.736533
 21
47.622213
  0
LINE
  8
ボルト／ビス
  6
CONTINUOUS
 10
23.536533
 20
47.122213
 11
27.736533
 21
47.122213
  0
LINE
  8
ボルト／ビス
  6
CONTINUOUS
 10
23.536533
 20
44.122213
 11
27.736533
 21
44.122213
  0
LINE
  8
ボルト／ビス
  6
CONTINUOUS
 10
24.036533
 20
43.622213
 11
27.736533
 21
43.622213
  0
LINE
  8
ボルト／ビス
  6
CONTINUOUS
 10
27.736533
 20
47.622213
 11
27.736533
 21
43.622213
  0
LINE
  8
ボルト／ビス
  6
CONTINUOUS
 10
29.536533
 20
48.622213
 11
27.736533
 21
47.622213
  0
LINE
  8
ボルト／ビス
  6
CONTINUOUS
 10
29.536533
 20
48.622213
 11
29.536533
 21
42.622213
  0
LINE
  8
ボルト／ビス
  6
CONTINUOUS
 10
29.536533
 20
42.622213
 11
27.736533
 21
43.622213
  0
LINE
  8
ボルト／ビス
  6
CONTINUOUS
 10
21.956057
 20
45.622213
 11
31.020062
 21
45.622213
  0
ENDBLK
  0
BLOCK
  2
*GRP_0022
 70
    65
 10
0.0
 20
0.0
  0
LINE
  8
ボルト／ビス
  6
CONTINUOUS
 10
-25.28509
 20
73.061565
 11
-26.091097
 21
73.737885
  0
ARC
  8
ボルト／ビス
  6
CONTINUOUS
 10
-27.183838
 20
72.43561
 40
1.7
 50
49.999982
 51
134.999993
  0
LINE
  8
ボルト／ビス
  6
CONTINUOUS
 10
-28.385917
 20
73.637693
 11
-29.59844
 21
72.42517
  0
LINE
  8
ボルト／ビス
  6
CONTINUOUS
 10
-30.234837
 20
68.111817
 11
-30.911157
 21
68.917825
  0
ARC
  8
ボルト／ビス
  6
CONTINUOUS
 10
-29.608884
 20
70.010564
 40
1.7
 50
134.999993
 51
220.000004
  0
LINE
  8
ボルト／ビス
  6
CONTINUOUS
 10
-30.810965
 20
71.212645
 11
-29.59844
 21
72.42517
  0
LINE
  8
ボルト／ビス
  6
CONTINUOUS
 10
-27.631592
 20
73.84768
 11
-27.802825
 21
74.018915
  0
LINE
  8
ボルト／ビス
  6
CONTINUOUS
 10
-28.37162
 20
72.188298
 11
-28.866595
 21
71.693323
  0
LINE
  8
ボルト／ビス
  6
CONTINUOUS
 10
-28.548455
 20
72.930818
 11
-27.631592
 21
73.84768
  0
LINE
  8
ボルト／ビス
  6
CONTINUOUS
 10
-28.37162
 20
72.188298
 11
-28.548455
 21
72.365133
  0
ARC
  8
ボルト／ビス
  6
CONTINUOUS
 10
-28.265613
 20
72.647975
 40
0.4
 50
134.999993
 51
224.999993
  0
LINE
  8
ボルト／ビス
  6
CONTINUOUS
 10
-31.020953
 20
70.45832
 11
-31.192187
 21
70.629555
  0
LINE
  8
ボルト／ビス
  6
CONTINUOUS
 10
-29.36157
 20
71.198348
 11
-28.866595
 21
71.693323
  0
LINE
  8
ボルト／ビス
  6
CONTINUOUS
 10
-30.10409
 20
71.375182
 11
-31.020953
 21
70.45832
  0
LINE
  8
ボルト／ビス
  6
CONTINUOUS
 10
-29.36157
 20
71.198348
 11
-29.538405
 21
71.375182
  0
ARC
  8
ボルト／ビス
  6
CONTINUOUS
 10
-29.821249
 20
71.09234
 40
0.4
 50
44.999993
 51
134.999993
  0
LINE
  8
ボルト／ビス
  6
CONTINUOUS
 10
-25.28509
 20
73.061565
 11
-30.234837
 21
68.111817
  0
LINE
  8
ボルト／ビス
  6
CONTINUOUS
 10
-30.992422
 20
73.81915
 11
-20.51177
 21
63.338495
  0
LINE
  8
ボルト／ビス
  6
CONTINUOUS
 10
-22.456663
 20
68.111817
 11
-22.456663
 21
67.40471
  0
LINE
  8
ボルト／ビス
  6
CONTINUOUS
 10
-25.28509
 20
65.28339
 11
-24.577982
 21
65.28339
  0
LINE
  8
ボルト／ビス
  6
CONTINUOUS
 10
-22.456663
 20
68.111817
 11
-25.28509
 21
65.28339
  0
LINE
  8
ボルト／ビス
  6
CONTINUOUS
 10
-22.456663
 20
67.40471
 11
-24.577982
 21
65.28339
  0
LINE
  8
ボルト／ビス
  6
CONTINUOUS
 10
-26.699302
 20
71.64735
 11
-22.456663
 21
67.40471
  0
LINE
  8
ボルト／ビス
  6
CONTINUOUS
 10
-28.820625
 20
69.52603
 11
-24.577982
 21
65.28339
  0
LINE
  8
ボルト／ビス
  6
CONTINUOUS
 10
-29.174178
 20
69.172478
 11
-25.28509
 21
65.28339
  0
LINE
  8
ボルト／ビス
  6
CONTINUOUS
 10
-26.34575
 20
72.000905
 11
-22.456663
 21
68.111817
  0
ENDBLK
  0
BLOCK
  2
*GRP_0023
 70
    65
 10
0.0
 20
0.0
  0
LINE
  8
ボルト／ビス
  6
CONTINUOUS
 10
12.681998
 20
76.072233
 11
11.431072
 21
75.616935
  0
ARC
  8
ボルト／ビス
  6
CONTINUOUS
 10
13.30746
 20
71.978065
 40
4.09417
 50
62.722034
 51
90.0
  0
LINE
  8
ボルト／ビス
  6
CONTINUOUS
 10
25.191258
 20
76.072233
 11
26.442182
 21
75.616935
  0
ARC
  8
ボルト／ビス
  6
CONTINUOUS
 10
24.565795
 20
71.978065
 40
4.09417
 50
90.0
 51
117.277966
  0
ARC
  8
ボルト／ビス
  6
CONTINUOUS
 10
18.936627
 20
60.378503
 40
15.693732
 50
76.165046
 51
103.834954
  0
LINE
  8
ボルト／ビス
  6
CONTINUOUS
 10
11.431072
 20
70.922233
 11
11.431072
 21
75.616935
  0
LINE
  8
ボルト／ビス
  6
CONTINUOUS
 10
26.442182
 20
70.922233
 11
26.442182
 21
75.616935
  0
LINE
  8
ボルト／ビス
  6
CONTINUOUS
 10
25.191258
 20
76.072233
 11
12.681998
 21
76.072233
  0
LINE
  8
ボルト／ビス
  6
CONTINUOUS
 10
22.689405
 20
75.616935
 11
22.689405
 21
70.922233
  0
LINE
  8
ボルト／ビス
  6
CONTINUOUS
 10
15.18385
 20
75.616935
 11
15.18385
 21
70.922233
  0
LINE
  8
ボルト／ビス
  6
CONTINUOUS
 10
26.442182
 20
70.922233
 11
11.431072
 21
70.922233
  0
LINE
  8
ボルト／ビス
  6
CONTINUOUS
 10
10.186628
 20
69.122233
 11
10.186628
 21
68.122233
  0
LINE
  8
ボルト／ビス
  6
CONTINUOUS
 10
27.686628
 20
69.122233
 11
27.686628
 21
68.122233
  0
LINE
  8
ボルト／ビス
  6
CONTINUOUS
 10
10.186628
 20
69.122233
 11
27.686628
 21
69.122233
  0
LINE
  8
ボルト／ビス
  6
CONTINUOUS
 10
10.186628
 20
68.122233
 11
27.686628
 21
68.122233
  0
LINE
  8
ボルト／ビス
  6
CONTINUOUS
 10
18.936628
 20
70.922233
 11
18.936628
 21
69.122233
  0
LINE
  8
ボルト／ビス
  6
CONTINUOUS
 10
26.836628
 20
70.922233
 11
26.836628
 21
69.122233
  0
LINE
  8
ボルト／ビス
  6
CONTINUOUS
 10
11.036628
 20
70.922233
 11
11.036628
 21
69.122233
  0
LINE
  8
ボルト／ビス
  6
CONTINUOUS
 10
26.836628
 20
70.922233
 11
11.036628
 21
70.922233
  0
ENDBLK
  0
BLOCK
  2
*GRP_0024
 70
    65
 10
0.0
 20
0.0
  0
LINE
  8
通り芯
  6
CONTINUOUS
 10
-44.463472
 20
41.622228
 11
-44.463472
 21
50.62223
  0
LINE
  8
通り芯
  6
CONTINUOUS
 10
-55.963472
 20
50.62223
 11
-44.463472
 21
50.62223
  0
LINE
  8
通り芯
  6
CONTINUOUS
 10
-54.463472
 20
50.62223
 11
-54.463472
 21
41.62223
  0
LINE
  8
通り芯
  6
DOT
 10
-45.963472
 20
41.622228
 11
-45.963472
 21
50.62223
  0
POINT
  8
通り芯
 10
-52.88587
 20
49.207135
  0
POINT
  8
通り芯
 10
-52.217215
 20
46.699675
  0
POINT
  8
通り芯
 10
-49.486867
 20
48.20415
  0
POINT
  8
通り芯
 10
-48.428162
 20
45.418082
  0
POINT
  8
通り芯
 10
-51.102787
 20
44.415098
  0
POINT
  8
通り芯
 10
-52.662985
 20
42.520572
  0
POINT
  8
通り芯
 10
-48.31672
 20
42.40913
  0
POINT
  8
通り芯
 10
-47.03513
 20
47.535495
  0
POINT
  8
通り芯
 10
-47.425177
 20
49.3743
  0
ENDBLK
  0
BLOCK
  2
*GRP_0025
 70
    65
 10
0.0
 20
0.0
  0
LINE
  8
ボルト／ビス
  6
CONTINUOUS
 10
-11.363472
 20
-8.377777
 11
-10.863472
 21
-8.877777
  0
LINE
  8
ボルト／ビス
  6
CONTINUOUS
 10
-11.363472
 20
-12.377777
 11
-10.863472
 21
-11.877777
  0
LINE
  8
ボルト／ビス
  6
CONTINUOUS
 10
-10.863472
 20
-8.877777
 11
-10.863472
 21
-11.877777
  0
LINE
  8
ボルト／ビス
  6
CONTINUOUS
 10
-11.363472
 20
-8.377777
 11
-11.363472
 21
-12.377777
  0
LINE
  8
ボルト／ビス
  6
CONTINUOUS
 10
-11.363472
 20
-8.377777
 11
-15.063472
 21
-8.377777
  0
LINE
  8
ボルト／ビス
  6
CONTINUOUS
 10
-10.863472
 20
-8.877777
 11
-15.063472
 21
-8.877777
  0
LINE
  8
ボルト／ビス
  6
CONTINUOUS
 10
-10.863472
 20
-11.877777
 11
-15.063472
 21
-11.877777
  0
LINE
  8
ボルト／ビス
  6
CONTINUOUS
 10
-11.363472
 20
-12.377777
 11
-15.063472
 21
-12.377777
  0
LINE
  8
ボルト／ビス
  6
CONTINUOUS
 10
-15.063472
 20
-8.377777
 11
-15.063472
 21
-12.377777
  0
LINE
  8
ボルト／ビス
  6
CONTINUOUS
 10
-16.863472
 20
-7.377777
 11
-15.063472
 21
-8.377777
  0
LINE
  8
ボルト／ビス
  6
CONTINUOUS
 10
-16.863472
 20
-7.377777
 11
-16.863472
 21
-13.377777
  0
LINE
  8
ボルト／ビス
  6
CONTINUOUS
 10
-16.863472
 20
-13.377777
 11
-15.063472
 21
-12.377777
  0
LINE
  8
ボルト／ビス
  6
CONTINUOUS
 10
-9.282997
 20
-10.377777
 11
-18.347002
 21
-10.377777
  0
ENDBLK
  0
BLOCK
  2
*GRP_0026
 70
    65
 10
0.0
 20
0.0
  0
LINE
  8
ボルト／ビス
  6
CONTINUOUS
 10
3.536518
 20
-14.376338
 11
3.036518
 21
-14.876338
  0
LINE
  8
ボルト／ビス
  6
CONTINUOUS
 10
-0.463483
 20
-14.376338
 11
0.036518
 21
-14.876338
  0
LINE
  8
ボルト／ビス
  6
CONTINUOUS
 10
3.036518
 20
-14.876338
 11
0.036518
 21
-14.876338
  0
LINE
  8
ボルト／ビス
  6
CONTINUOUS
 10
3.536518
 20
-14.376338
 11
-0.463483
 21
-14.376338
  0
LINE
  8
ボルト／ビス
  6
CONTINUOUS
 10
3.536518
 20
-14.376338
 11
3.536518
 21
-10.676338
  0
LINE
  8
ボルト／ビス
  6
CONTINUOUS
 10
3.036518
 20
-14.876338
 11
3.036518
 21
-10.676338
  0
LINE
  8
ボルト／ビス
  6
CONTINUOUS
 10
0.036518
 20
-14.876338
 11
0.036518
 21
-10.676338
  0
LINE
  8
ボルト／ビス
  6
CONTINUOUS
 10
-0.463483
 20
-14.376338
 11
-0.463483
 21
-10.676338
  0
LINE
  8
ボルト／ビス
  6
CONTINUOUS
 10
3.536518
 20
-10.676338
 11
-0.463483
 21
-10.676338
  0
LINE
  8
ボルト／ビス
  6
CONTINUOUS
 10
4.536518
 20
-8.876338
 11
3.536518
 21
-10.676338
  0
LINE
  8
ボルト／ビス
  6
CONTINUOUS
 10
4.536518
 20
-8.876338
 11
-1.463483
 21
-8.876338
  0
LINE
  8
ボルト／ビス
  6
CONTINUOUS
 10
-1.463483
 20
-8.876338
 11
-0.463483
 21
-10.676338
  0
LINE
  8
ボルト／ビス
  6
CONTINUOUS
 10
1.536518
 20
-16.456812
 11
1.536518
 21
-7.392807
  0
ENDBLK
  0
BLOCK
  2
*GRP_0027
 70
    65
 10
0.0
 20
0.0
  0
LINE
  8
ボルト／ビス
  6
CONTINUOUS
 10
5.536513
 20
-22.877052
 11
5.036513
 21
-23.377052
  0
LINE
  8
ボルト／ビス
  6
CONTINUOUS
 10
5.536513
 20
-26.877052
 11
5.036513
 21
-26.377052
  0
LINE
  8
ボルト／ビス
  6
CONTINUOUS
 10
5.036513
 20
-23.377052
 11
5.036513
 21
-26.377052
  0
LINE
  8
ボルト／ビス
  6
CONTINUOUS
 10
5.536513
 20
-22.877052
 11
5.536513
 21
-26.877052
  0
LINE
  8
ボルト／ビス
  6
CONTINUOUS
 10
5.536513
 20
-22.877052
 11
9.236513
 21
-22.877052
  0
LINE
  8
ボルト／ビス
  6
CONTINUOUS
 10
5.036513
 20
-23.377052
 11
9.236513
 21
-23.377052
  0
LINE
  8
ボルト／ビス
  6
CONTINUOUS
 10
5.036513
 20
-26.377052
 11
9.236513
 21
-26.377052
  0
LINE
  8
ボルト／ビス
  6
CONTINUOUS
 10
5.536513
 20
-26.877052
 11
9.236513
 21
-26.877052
  0
LINE
  8
ボルト／ビス
  6
CONTINUOUS
 10
9.236513
 20
-22.877052
 11
9.236513
 21
-26.877052
  0
LINE
  8
ボルト／ビス
  6
CONTINUOUS
 10
11.036513
 20
-21.877052
 11
9.236513
 21
-22.877052
  0
LINE
  8
ボルト／ビス
  6
CONTINUOUS
 10
11.036513
 20
-21.877052
 11
11.036513
 21
-27.877052
  0
LINE
  8
ボルト／ビス
  6
CONTINUOUS
 10
11.036513
 20
-27.877052
 11
9.236513
 21
-26.877052
  0
LINE
  8
ボルト／ビス
  6
CONTINUOUS
 10
3.456037
 20
-24.877052
 11
12.520043
 21
-24.877052
  0
ENDBLK
  0
BLOCK
  2
*GRP_0028
 70
    65
 10
0.0
 20
0.0
  0
LINE
  8
ボルト／ビス
  6
CONTINUOUS
 10
29.236533
 20
-89.127762
 11
29.236533
 21
-93.127762
  0
LINE
  8
ボルト／ビス
  6
CONTINUOUS
 10
31.036533
 20
-88.127762
 11
29.236533
 21
-89.127762
  0
LINE
  8
ボルト／ビス
  6
CONTINUOUS
 10
31.036533
 20
-88.127762
 11
31.036533
 21
-94.127762
  0
LINE
  8
ボルト／ビス
  6
CONTINUOUS
 10
31.036533
 20
-94.127762
 11
29.236533
 21
-93.127762
  0
LINE
  8
ボルト／ビス
  6
CONTINUOUS
 10
32.520065
 20
-91.127762
 11
22.157505
 21
-91.127762
  0
LINE
  8
ボルト／ビス
  6
CONTINUOUS
 10
23.536533
 20
-89.127762
 11
23.036533
 21
-89.627762
  0
LINE
  8
ボルト／ビス
  6
CONTINUOUS
 10
23.536533
 20
-93.127762
 11
23.036533
 21
-92.627762
  0
LINE
  8
ボルト／ビス
  6
CONTINUOUS
 10
23.036533
 20
-89.627762
 11
23.036533
 21
-92.627762
  0
LINE
  8
ボルト／ビス
  6
CONTINUOUS
 10
23.536533
 20
-89.127762
 11
23.536533
 21
-93.127762
  0
LINE
  8
ボルト／ビス
  6
CONTINUOUS
 10
29.236533
 20
-89.627762
 11
23.036533
 21
-89.627762
  0
LINE
  8
ボルト／ビス
  6
CONTINUOUS
 10
29.236533
 20
-92.627762
 11
23.036533
 21
-92.627762
  0
LINE
  8
ボルト／ビス
  6
CONTINUOUS
 10
29.236533
 20
-93.127762
 11
23.536533
 21
-93.127762
  0
LINE
  8
ボルト／ビス
  6
CONTINUOUS
 10
29.236533
 20
-89.127762
 11
23.536533
 21
-89.127762
  0
ENDBLK
  0
BLOCK
  2
*GRP_0029
 70
    65
 10
0.0
 20
0.0
  0
LINE
  8
ボルト／ビス
  6
CONTINUOUS
 10
-14.963443
 20
-106.577762
 11
-18.963443
 21
-106.577762
  0
LINE
  8
ボルト／ビス
  6
CONTINUOUS
 10
-13.963443
 20
-108.377762
 11
-14.963443
 21
-106.577762
  0
LINE
  8
ボルト／ビス
  6
CONTINUOUS
 10
-13.963443
 20
-108.377762
 11
-19.963443
 21
-108.377762
  0
LINE
  8
ボルト／ビス
  6
CONTINUOUS
 10
-19.963443
 20
-108.377762
 11
-18.963443
 21
-106.577762
  0
LINE
  8
ボルト／ビス
  6
CONTINUOUS
 10
-16.963443
 20
-109.861295
 11
-16.963443
 21
-99.498735
  0
LINE
  8
ボルト／ビス
  6
CONTINUOUS
 10
-14.963443
 20
-100.877762
 11
-15.463443
 21
-100.377762
  0
LINE
  8
ボルト／ビス
  6
CONTINUOUS
 10
-18.963443
 20
-100.877762
 11
-18.463443
 21
-100.377762
  0
LINE
  8
ボルト／ビス
  6
CONTINUOUS
 10
-15.463443
 20
-100.377762
 11
-18.463443
 21
-100.377762
  0
LINE
  8
ボルト／ビス
  6
CONTINUOUS
 10
-14.963443
 20
-100.877762
 11
-18.963443
 21
-100.877762
  0
LINE
  8
ボルト／ビス
  6
CONTINUOUS
 10
-15.463443
 20
-106.577762
 11
-15.463443
 21
-100.377762
  0
LINE
  8
ボルト／ビス
  6
CONTINUOUS
 10
-18.463443
 20
-106.577762
 11
-18.463443
 21
-100.377762
  0
LINE
  8
ボルト／ビス
  6
CONTINUOUS
 10
-18.963443
 20
-106.577762
 11
-18.963443
 21
-100.877762
  0
LINE
  8
ボルト／ビス
  6
CONTINUOUS
 10
-14.963443
 20
-106.577762
 11
-14.963443
 21
-100.877762
  0
ENDBLK
  0
BLOCK
  2
*DIM_0030
 70
    65
 10
0.0
 20
0.0
  0
LINE
  8
寸法
  6
BYBLOCK
 62
     0
 10
-59.463472
 20
26.12222
 11
-108.26757
 21
26.12222
  0
LINE
  8
寸法
  6
BYBLOCK
 62
     0
 10
-108.26757
 20
51.48979
 11
-108.26757
 21
26.12222
  0
POINT
  8
寸法
 62
     0
 10
-108.26757
 20
26.12222
  0
TEXT
  7
TextStyle03
  8
寸法
  6
CONTINUOUS
 62
     0
 10
-108.65
 20
34.9625
  1
25.4
 40
3.5
 50
90.0
 72
     5
 11
-108.65
 21
42.6375
  0
ENDBLK
  0
BLOCK
  2
*DIM_0031
 70
    65
 10
0.0
 20
0.0
  0
LINE
  8
寸法
  6
BYBLOCK
 62
     0
 10
-42.36347
 20
-29.558533
 11
-108.26757
 21
-29.558533
  0
LINE
  8
寸法
  6
BYBLOCK
 62
     0
 10
-108.26757
 20
-19.558528
 11
-108.26757
 21
-29.558533
  0
POINT
  8
寸法
 62
     0
 10
-108.26757
 20
-29.558533
  0
TEXT
  7
TextStyle03
  8
寸法
  6
CONTINUOUS
 62
     0
 10
-108.65
 20
-26.4375
  1
10
 40
3.5
 50
90.0
 72
     5
 11
-108.65
 21
-22.7125
  0
ENDBLK
  0
BLOCK
  2
*DIM_0032
 70
    65
 10
0.0
 20
0.0
  0
LINE
  8
寸法
  6
BYBLOCK
 62
     0
 10
-34.963443
 20
-108.379202
 11
-108.26757
 21
-108.379202
  0
LINE
  8
寸法
  6
BYBLOCK
 62
     0
 10
-108.26757
 20
-29.558533
 11
-108.26757
 21
-108.379202
  0
POINT
  8
寸法
 62
     0
 10
-108.26757
 20
-108.379202
  0
TEXT
  7
TextStyle03
  8
寸法
  6
CONTINUOUS
 62
     0
 10
-108.65
 20
-72.8125
  1
78.8
 40
3.5
 50
90.0
 72
     5
 11
-108.65
 21
-65.1375
  0
ENDBLK
  0
BLOCK
  2
*DIM_0033
 70
    65
 10
0.0
 20
0.0
  0
LINE
  8
寸法
  6
BYBLOCK
 62
     0
 10
-36.963443
 20
-108.379202
 11
-120.25078
 21
-108.379202
  0
LINE
  8
寸法
  6
BYBLOCK
 62
     0
 10
-17.385603
 20
93.567663
 11
-120.25078
 21
93.567663
  0
LINE
  8
寸法
  6
BYBLOCK
 62
     0
 10
-120.25078
 20
-108.379202
 11
-120.25078
 21
93.567663
  0
POINT
  8
寸法
 62
     0
 10
-120.25078
 20
-108.379202
  0
POINT
  8
寸法
 62
     0
 10
-120.25078
 20
93.567663
  0
TEXT
  7
TextStyle03
  8
寸法
  6
CONTINUOUS
 62
     0
 10
-120.65
 20
-10.275
  1
202
 40
3.5
 50
90.0
 72
     5
 11
-120.65
 21
-4.575
  0
ENDBLK
  0
BLOCK
  2
*DIM_0034
 70
    65
 10
0.0
 20
0.0
  0
LINE
  8
寸法
  6
BYBLOCK
 62
     0
 10
-59.463472
 20
51.489797
 11
-108.26757
 21
51.489797
  0
LINE
  8
寸法
  6
BYBLOCK
 62
     0
 10
-19.385603
 20
93.567663
 11
-108.26757
 21
93.567663
  0
LINE
  8
寸法
  6
BYBLOCK
 62
     0
 10
-108.26757
 20
51.489797
 11
-108.26757
 21
93.567663
  0
POINT
  8
寸法
 62
     0
 10
-108.26757
 20
51.489797
  0
POINT
  8
寸法
 62
     0
 10
-108.26757
 20
93.567663
  0
TEXT
  7
TextStyle03
  8
寸法
  6
CONTINUOUS
 62
     0
 10
-108.65
 20
68.6875
  1
42.1
 40
3.5
 50
90.0
 72
     5
 11
-108.65
 21
76.3625
  0
ENDBLK
  0
BLOCK
  2
*DIM_0035
 70
    65
 10
0.0
 20
0.0
  0
LINE
  8
寸法
  6
BYBLOCK
 62
     0
 10
-44.963472
 20
17.622228
 11
-108.26757
 21
17.622228
  0
LINE
  8
寸法
  6
BYBLOCK
 62
     0
 10
-108.26757
 20
26.12222
 11
-108.26757
 21
17.622228
  0
POINT
  8
寸法
 62
     0
 10
-108.26757
 20
26.12222
  0
POINT
  8
寸法
 62
     0
 10
-108.26757
 20
17.622228
  0
TEXT
  7
TextStyle03
  8
寸法
  6
CONTINUOUS
 62
     0
 10
-108.65
 20
18.6
  1
8.5
 40
4.0
 50
90.0
 72
     5
 11
-108.65
 21
25.1
  0
ENDBLK
  0
BLOCK
  2
*DIM_0036
 70
    65
 10
0.0
 20
0.0
  0
LINE
  8
寸法
  6
BYBLOCK
 62
     0
 10
-31.963443
 20
-4.377777
 11
-108.26757
 21
-4.377777
  0
LINE
  8
寸法
  6
BYBLOCK
 62
     0
 10
-108.26757
 20
17.622228
 11
-108.26757
 21
-4.377777
  0
POINT
  8
寸法
 62
     0
 10
-108.26757
 20
-4.377777
  0
TEXT
  7
TextStyle03
  8
寸法
  6
CONTINUOUS
 62
     0
 10
-108.65
 20
4.475
  1
22
 40
4.0
 50
90.0
 72
     5
 11
-108.65
 21
8.725
  0
ENDBLK
  0
BLOCK
  2
*DIM_0037
 70
    65
 10
0.0
 20
0.0
  0
LINE
  8
寸法
  6
BYBLOCK
 62
     0
 10
-41.363468
 20
-19.558528
 11
-108.26757
 21
-19.558528
  0
LINE
  8
寸法
  6
BYBLOCK
 62
     0
 10
-108.26757
 20
-4.377777
 11
-108.26757
 21
-19.558528
  0
POINT
  8
寸法
 62
     0
 10
-108.26757
 20
-4.377777
  0
POINT
  8
寸法
 62
     0
 10
-108.26757
 20
-19.558528
  0
TEXT
  7
TextStyle03
  8
寸法
  6
CONTINUOUS
 62
     0
 10
-108.65
 20
-16.35
  1
15.2
 40
4.0
 50
90.0
 72
     5
 11
-108.65
 21
-7.6
  0
ENDBLK
  0
BLOCK
  2
*DIM_0038
 70
    65
 10
0.0
 20
0.0
  0
LINE
  8
寸法
  6
BYBLOCK
 62
     0
 10
56.536528
 20
77.622228
 11
141.11694
 21
77.622228
  0
LINE
  8
寸法
  6
BYBLOCK
 62
     0
 10
86.536528
 20
-108.377762
 11
141.11694
 21
-108.377762
  0
LINE
  8
寸法
  6
BYBLOCK
 62
     0
 10
141.11694
 20
77.622228
 11
141.11694
 21
-108.377762
  0
POINT
  8
寸法
 62
     0
 10
141.11694
 20
77.622228
  0
POINT
  8
寸法
 62
     0
 10
141.11694
 20
-108.377762
  0
TEXT
  7
TextStyle03
  8
寸法
  6
CONTINUOUS
 62
     0
 10
140.75
 20
-18.65
  1
186
 40
4.0
 50
90.0
 72
     5
 11
140.75
 21
-12.15
  0
ENDBLK
  0
BLOCK
  2
*DIM_0039
 70
    65
 10
0.0
 20
0.0
  0
LINE
  8
寸法
  6
BYBLOCK
 62
     0
 10
127.589345
 20
77.622228
 11
128.087853
 21
77.622228
  0
LINE
  8
寸法
  6
BYBLOCK
 62
     0
 10
56.536528
 20
62.622228
 11
128.087853
 21
62.622228
  0
LINE
  8
寸法
  6
BYBLOCK
 62
     0
 10
128.087853
 20
77.622228
 11
128.087853
 21
62.622228
  0
POINT
  8
寸法
 62
     0
 10
128.087853
 20
77.622228
  0
POINT
  8
寸法
 62
     0
 10
128.087853
 20
62.622228
  0
TEXT
  7
TextStyle03
  8
寸法
  6
CONTINUOUS
 62
     0
 10
127.725
 20
67.975
  1
15
 40
4.0
 50
90.0
 72
     5
 11
127.725
 21
72.225
  0
ENDBLK
  0
BLOCK
  2
*DIM_0040
 70
    65
 10
0.0
 20
0.0
  0
LINE
  8
寸法
  6
BYBLOCK
 62
     0
 10
30.536533
 20
-4.377777
 11
128.087853
 21
-4.377777
  0
LINE
  8
寸法
  6
BYBLOCK
 62
     0
 10
128.087853
 20
62.622228
 11
128.087853
 21
-4.377777
  0
POINT
  8
寸法
 62
     0
 10
128.087853
 20
-4.377777
  0
TEXT
  7
TextStyle03
  8
寸法
  6
CONTINUOUS
 62
     0
 10
127.725
 20
26.975
  1
67
 40
4.0
 50
90.0
 72
     5
 11
127.725
 21
31.225
  0
ENDBLK
  0
BLOCK
  2
*DIM_0041
 70
    65
 10
0.0
 20
0.0
  0
LINE
  8
寸法
  6
BYBLOCK
 62
     0
 10
32.036533
 20
-34.877783
 11
128.087853
 21
-34.877783
  0
LINE
  8
寸法
  6
BYBLOCK
 62
     0
 10
128.087853
 20
-8.876338
 11
128.087853
 21
-34.877783
  0
POINT
  8
寸法
 62
     0
 10
128.087853
 20
-34.877783
  0
TEXT
  7
TextStyle03
  8
寸法
  6
CONTINUOUS
 62
     0
 10
127.725
 20
-24.025
  1
26
 40
4.0
 50
90.0
 72
     5
 11
127.725
 21
-19.775
  0
ENDBLK
  0
BLOCK
  2
*DIM_0042
 70
    65
 10
0.0
 20
0.0
  0
LINE
  8
寸法
  6
BYBLOCK
 62
     0
 10
86.536528
 20
-88.377762
 11
128.087853
 21
-88.377762
  0
LINE
  8
寸法
  6
BYBLOCK
 62
     0
 10
128.087853
 20
-34.877783
 11
128.087853
 21
-88.377762
  0
POINT
  8
寸法
 62
     0
 10
128.087853
 20
-34.877783
  0
POINT
  8
寸法
 62
     0
 10
128.087853
 20
-88.377762
  0
TEXT
  7
TextStyle03
  8
寸法
  6
CONTINUOUS
 62
     0
 10
127.725
 20
-66.025
  1
53.5
 40
4.0
 50
90.0
 72
     5
 11
127.725
 21
-57.275
  0
ENDBLK
  0
BLOCK
  2
*DIM_0043
 70
    65
 10
0.0
 20
0.0
  0
LINE
  8
寸法
  6
BYBLOCK
 62
     0
 10
87.536528
 20
-108.377762
 11
128.087853
 21
-108.377762
  0
LINE
  8
寸法
  6
BYBLOCK
 62
     0
 10
128.087853
 20
-88.377762
 11
128.087853
 21
-108.377762
  0
POINT
  8
寸法
 62
     0
 10
128.087853
 20
-108.377762
  0
TEXT
  7
TextStyle03
  8
寸法
  6
CONTINUOUS
 62
     0
 10
127.725
 20
-100.525
  1
20
 40
4.0
 50
90.0
 72
     5
 11
127.725
 21
-96.275
  0
ENDBLK
  0
BLOCK
  2
*DIM_0044
 70
    65
 10
0.0
 20
0.0
  0
LINE
  8
寸法
  6
BYBLOCK
 62
     0
 10
12.036513
 20
-8.876338
 11
128.087853
 21
-8.876338
  0
LINE
  8
寸法
  6
BYBLOCK
 62
     0
 10
128.087853
 20
-4.377777
 11
128.087853
 21
-8.876338
  0
POINT
  8
寸法
 62
     0
 10
128.087853
 20
-8.876338
  0
TEXT
  7
TextStyle03
  8
寸法
  6
CONTINUOUS
 62
     0
 10
132.85
 20
-9.75
  1
4.5
 40
4.0
 50
90.0
 72
     5
 11
132.85
 21
-3.25
  0
ENDBLK
  0
BLOCK
  2
*DIM_0045
 70
    65
 10
0.0
 20
0.0
  0
LINE
  8
寸法
  6
BYBLOCK
 62
     0
 10
114.236062
 20
62.622228
 11
114.239048
 21
62.622228
  0
LINE
  8
寸法
  6
BYBLOCK
 62
     0
 10
71.43651
 20
19.122213
 11
114.239048
 21
19.122213
  0
LINE
  8
寸法
  6
BYBLOCK
 62
     0
 10
114.239048
 20
62.622228
 11
114.239048
 21
19.122213
  0
POINT
  8
寸法
 62
     0
 10
114.239048
 20
62.622228
  0
POINT
  8
寸法
 62
     0
 10
114.239048
 20
19.122213
  0
TEXT
  7
TextStyle03
  8
寸法
  6
CONTINUOUS
 62
     0
 10
113.875
 20
36.475
  1
43.5
 40
4.0
 50
90.0
 72
     5
 11
113.875
 21
45.225
  0
ENDBLK
  0
BLOCK
  2
*DIM_0046
 70
    65
 10
0.0
 20
0.0
  0
LINE
  8
寸法
  6
BYBLOCK
 62
     0
 10
71.436525
 20
-59.877787
 11
114.239048
 21
-59.877787
  0
LINE
  8
寸法
  6
BYBLOCK
 62
     0
 10
114.239048
 20
19.122213
 11
114.239048
 21
-59.877787
  0
POINT
  8
寸法
 62
     0
 10
114.239048
 20
-59.877787
  0
TEXT
  7
TextStyle03
  8
寸法
  6
CONTINUOUS
 62
     0
 10
113.875
 20
-22.525
  1
79
 40
4.0
 50
90.0
 72
     5
 11
113.875
 21
-18.275
  0
ENDBLK
  0
BLOCK
  2
*DIM_0047
 70
    65
 10
0.0
 20
0.0
  0
LINE
  8
寸法
  6
BYBLOCK
 62
     0
 10
87.536528
 20
-88.377762
 11
114.239048
 21
-88.377762
  0
LINE
  8
寸法
  6
BYBLOCK
 62
     0
 10
114.239048
 20
-59.877787
 11
114.239048
 21
-88.377762
  0
POINT
  8
寸法
 62
     0
 10
114.239048
 20
-88.377762
  0
TEXT
  7
TextStyle03
  8
寸法
  6
CONTINUOUS
 62
     0
 10
113.875
 20
-78.525
  1
28.5
 40
4.0
 50
90.0
 72
     5
 11
113.875
 21
-69.775
  0
ENDBLK
  0
BLOCK
  2
*DIM_0048
 70
    65
 10
0.0
 20
0.0
  0
LINE
  8
寸法
  6
BYBLOCK
 62
     0
 10
-57.463472
 20
53.489792
 11
-57.463472
 21
120.013365
  0
LINE
  8
寸法
  6
BYBLOCK
 62
     0
 10
28.036528
 20
120.013365
 11
-57.463472
 21
120.013365
  0
POINT
  8
寸法
 62
     0
 10
28.036528
 20
120.013365
  0
POINT
  8
寸法
 62
     0
 10
-57.463472
 20
120.013365
  0
TEXT
  7
TextStyle03
  8
寸法
  6
CONTINUOUS
 62
     0
 10
-18.5375
 20
120.4
  1
85.5
 40
3.5
 72
     5
 11
-10.8625
 21
120.4
  0
ENDBLK
  0
BLOCK
  2
*DIM_0049
 70
    65
 10
0.0
 20
0.0
  0
LINE
  8
寸法
  6
BYBLOCK
 62
     0
 10
-57.463472
 20
115.844975
 11
-57.463472
 21
114.13701
  0
LINE
  8
寸法
  6
BYBLOCK
 62
     0
 10
85.536528
 20
-91.379202
 11
85.536528
 21
114.13701
  0
LINE
  8
寸法
  6
BYBLOCK
 62
     0
 10
-57.463472
 20
114.13701
 11
85.536528
 21
114.13701
  0
POINT
  8
寸法
 62
     0
 10
-57.463472
 20
114.13701
  0
POINT
  8
寸法
 62
     0
 10
85.536528
 20
114.13701
  0
TEXT
  7
TextStyle03
  8
寸法
  6
CONTINUOUS
 62
     0
 10
11.175
 20
114.5
  1
143
 40
3.5
 72
     5
 11
16.875
 21
114.5
  0
ENDBLK
  0
BLOCK
  2
*DIM_0050
 70
    65
 10
0.0
 20
0.0
  0
LINE
  8
寸法
  6
BYBLOCK
 62
     0
 10
28.036528
 20
106.281248
 11
28.036528
 21
107.753047
  0
LINE
  8
寸法
  6
BYBLOCK
 62
     0
 10
85.536528
 20
107.212695
 11
85.536528
 21
107.753047
  0
LINE
  8
寸法
  6
BYBLOCK
 62
     0
 10
28.036528
 20
107.753047
 11
85.536528
 21
107.753047
  0
POINT
  8
寸法
 62
     0
 10
28.036528
 20
107.753047
  0
POINT
  8
寸法
 62
     0
 10
85.536528
 20
107.753047
  0
TEXT
  7
TextStyle03
  8
寸法
  6
CONTINUOUS
 62
     0
 10
52.9375
 20
108.125
  1
57.5
 40
3.5
 72
     5
 11
60.6125
 21
108.125
  0
ENDBLK
  0
BLOCK
  2
*DIM_0051
 70
    65
 10
0.0
 20
0.0
  0
LINE
  8
寸法
  6
BYBLOCK
 62
     0
 10
-57.463472
 20
95.567663
 11
-57.463472
 21
102.403797
  0
LINE
  8
寸法
  6
BYBLOCK
 62
     0
 10
55.536528
 20
79.622228
 11
55.536528
 21
102.403797
  0
LINE
  8
寸法
  6
BYBLOCK
 62
     0
 10
-57.463472
 20
102.403797
 11
55.536528
 21
102.403797
  0
POINT
  8
寸法
 62
     0
 10
-57.463472
 20
102.403797
  0
POINT
  8
寸法
 62
     0
 10
55.536528
 20
102.403797
  0
TEXT
  7
TextStyle03
  8
寸法
  6
CONTINUOUS
 62
     0
 10
-3.825
 20
102.775
  1
113
 40
3.5
 72
     5
 11
1.875
 21
102.775
  0
ENDBLK
  0
BLOCK
  2
*DIM_0052
 70
    65
 10
0.0
 20
0.0
  0
LINE
  8
寸法
  6
BYBLOCK
 62
     0
 10
85.536528
 20
79.62222
 11
85.536528
 21
102.403797
  0
LINE
  8
寸法
  6
BYBLOCK
 62
     0
 10
55.536528
 20
102.403797
 11
85.536528
 21
102.403797
  0
POINT
  8
寸法
 62
     0
 10
85.536528
 20
102.403797
  0
TEXT
  7
TextStyle03
  8
寸法
  6
CONTINUOUS
 62
     0
 10
68.6625
 20
102.775
  1
30
 40
3.5
 72
     5
 11
72.3875
 21
102.775
  0
ENDBLK
  0
BLOCK
  2
*GRP_0053
 70
    65
 10
0.0
 20
0.0
  0
POLYLINE
  8
寸法
  6
BYBLOCK
 62
     0
 66
     1
  0
VERTEX
  8
寸法
 10
1.980965
 20
80.29918
  0
VERTEX
  8
寸法
 10
0.480965
 20
77.701102
  0
VERTEX
  8
寸法
 10
3.07904
 20
79.201102
  0
SEQEND
  0
POLYLINE
  8
寸法
  6
BYBLOCK
 62
     0
 66
     1
  0
VERTEX
  8
寸法
 10
0.480965
 20
77.701102
  0
VERTEX
  8
寸法
 10
12.755525
 20
89.975662
  0
VERTEX
  8
寸法
 10
30.633365
 20
89.975662
  0
SEQEND
  0
ENDBLK
  0
BLOCK
  2
*GRP_0054
 70
    65
 10
0.0
 20
0.0
  0
POLYLINE
  8
寸法
  6
BYBLOCK
 62
     0
 66
     1
  0
VERTEX
  8
寸法
 10
-28.28496
 20
16.524137
  0
VERTEX
  8
寸法
 10
-26.78496
 20
19.122213
  0
VERTEX
  8
寸法
 10
-29.383037
 20
17.622213
  0
SEQEND
  0
POLYLINE
  8
寸法
  6
BYBLOCK
 62
     0
 66
     1
  0
VERTEX
  8
寸法
 10
-26.78496
 20
19.122213
  0
VERTEX
  8
寸法
 10
-35.234755
 20
10.67242
  0
VERTEX
  8
寸法
 10
-37.919737
 20
10.67242
  0
SEQEND
  0
ENDBLK
  0
BLOCK
  2
*GRP_0055
 70
    65
 10
0.0
 20
0.0
  0
POLYLINE
  8
寸法
  6
BYBLOCK
 62
     0
 66
     1
  0
VERTEX
  8
寸法
 10
-28.650715
 20
-66.36082
  0
VERTEX
  8
寸法
 10
-27.150715
 20
-63.762745
  0
VERTEX
  8
寸法
 10
-29.74879
 20
-65.262745
  0
SEQEND
  0
POLYLINE
  8
寸法
  6
BYBLOCK
 62
     0
 66
     1
  0
VERTEX
  8
寸法
 10
-27.150715
 20
-63.762745
  0
VERTEX
  8
寸法
 10
-37.542688
 20
-74.154717
  0
VERTEX
  8
寸法
 10
-42.762398
 20
-74.154717
  0
SEQEND
  0
ENDBLK
  0
BLOCK
  2
*GRP_0056
 70
    65
 10
0.0
 20
0.0
  0
POLYLINE
  8
寸法
  6
BYBLOCK
 62
     0
 66
     1
  0
VERTEX
  8
寸法
 10
-18.670075
 20
67.298462
  0
VERTEX
  8
寸法
 10
-17.170075
 20
69.896537
  0
VERTEX
  8
寸法
 10
-19.768152
 20
68.396537
  0
SEQEND
  0
POLYLINE
  8
寸法
  6
BYBLOCK
 62
     0
 66
     1
  0
VERTEX
  8
寸法
 10
-17.170075
 20
69.896537
  0
VERTEX
  8
寸法
 10
-28.096935
 20
58.969678
  0
VERTEX
  8
寸法
 10
-31.329945
 20
58.969678
  0
SEQEND
  0
ENDBLK
  0
BLOCK
  2
*GRP_0057
 70
    65
 10
0.0
 20
0.0
  0
LINE
  8
ボルト／ビス
  6
CONTINUOUS
 10
11.036533
 20
-37.877783
 11
21.036533
 21
-37.877783
  0
LINE
  8
ボルト／ビス
  6
CONTINUOUS
 10
11.036533
 20
-37.877783
 11
13.536533
 21
-41.177783
  0
LINE
  8
ボルト／ビス
  6
CONTINUOUS
 10
18.536533
 20
-41.177783
 11
21.036533
 21
-37.877783
  0
LINE
  8
ボルト／ビス
  6
CONTINUOUS
 10
13.536533
 20
-41.177783
 11
18.536533
 21
-41.177783
  0
LINE
  8
ボルト／ビス
  6
CONTINUOUS
 10
16.036533
 20
-36.373308
 11
16.036533
 21
-91.127027
  0
LINE
  8
ボルト／ビス
  6
CONTINUOUS
 10
13.536533
 20
-82.377783
 11
14.036533
 21
-82.877783
  0
LINE
  8
ボルト／ビス
  6
CONTINUOUS
 10
18.536533
 20
-82.377783
 11
18.036533
 21
-82.877783
  0
LINE
  8
ボルト／ビス
  6
CONTINUOUS
 10
18.036533
 20
-82.877783
 11
14.036533
 21
-82.877783
  0
LINE
  8
ボルト／ビス
  6
CONTINUOUS
 10
13.536533
 20
-82.377783
 11
18.536533
 21
-82.377783
  0
LINE
  8
ボルト／ビス
  6
CONTINUOUS
 10
18.036533
 20
-41.177783
 11
18.036533
 21
-82.877783
  0
LINE
  8
ボルト／ビス
  6
CONTINUOUS
 10
14.036533
 20
-41.177783
 11
14.036533
 21
-82.877783
  0
LINE
  8
ボルト／ビス
  6
CONTINUOUS
 10
13.536533
 20
-41.177783
 11
13.536533
 21
-82.377783
  0
LINE
  8
ボルト／ビス
  6
CONTINUOUS
 10
18.536533
 20
-41.177783
 11
18.536533
 21
-82.377783
  0
ENDBLK
  0
BLOCK
  2
*GRP_0058
 70
    65
 10
0.0
 20
0.0
  0
LINE
  8
ボルト／ビス
  6
CONTINUOUS
 10
11.036533
 20
-2.877777
 11
21.036533
 21
-2.877777
  0
LINE
  8
ボルト／ビス
  6
CONTINUOUS
 10
11.036533
 20
-2.877777
 11
13.536533
 21
0.422222
  0
LINE
  8
ボルト／ビス
  6
CONTINUOUS
 10
18.536533
 20
0.422222
 11
21.036533
 21
-2.877777
  0
LINE
  8
ボルト／ビス
  6
CONTINUOUS
 10
13.536533
 20
0.422222
 11
18.536533
 21
0.422222
  0
LINE
  8
ボルト／ビス
  6
CONTINUOUS
 10
16.036533
 20
-4.382252
 11
16.036533
 21
50.371467
  0
LINE
  8
ボルト／ビス
  6
CONTINUOUS
 10
13.536533
 20
41.622222
 11
14.036533
 21
42.122222
  0
LINE
  8
ボルト／ビス
  6
CONTINUOUS
 10
18.536533
 20
41.622222
 11
18.036533
 21
42.122222
  0
LINE
  8
ボルト／ビス
  6
CONTINUOUS
 10
18.036533
 20
42.122222
 11
14.036533
 21
42.122222
  0
LINE
  8
ボルト／ビス
  6
CONTINUOUS
 10
13.536533
 20
41.622222
 11
18.536533
 21
41.622222
  0
LINE
  8
ボルト／ビス
  6
CONTINUOUS
 10
18.036533
 20
0.422222
 11
18.036533
 21
42.122222
  0
LINE
  8
ボルト／ビス
  6
CONTINUOUS
 10
14.036533
 20
0.422222
 11
14.036533
 21
42.122222
  0
LINE
  8
ボルト／ビス
  6
CONTINUOUS
 10
13.536533
 20
0.422222
 11
13.536533
 21
41.622222
  0
LINE
  8
ボルト／ビス
  6
CONTINUOUS
 10
18.536533
 20
0.422222
 11
18.536533
 21
41.622222
  0
ENDBLK
  0
BLOCK
  2
*GRP_0059
 70
    65
 10
0.0
 20
0.0
  0
POLYLINE
  8
寸法
  6
BYBLOCK
 62
     0
 66
     1
  0
VERTEX
  8
寸法
 10
-16.3
 20
-19.875
  0
VERTEX
  8
寸法
 10
-24.333028
 20
-11.841972
  0
VERTEX
  8
寸法
 10
-30.253863
 20
-11.841972
  0
SEQEND
  0
ENDBLK
  0
BLOCK
  2
*DIM_0060
 70
    65
 10
0.0
 20
0.0
  0
LINE
  8
寸法
  6
BYBLOCK
 62
     0
 10
-14.963443
 20
-123.377762
 11
-120.25078
 21
-123.377762
  0
LINE
  8
寸法
  6
BYBLOCK
 62
     0
 10
-120.25078
 20
-108.379202
 11
-120.25078
 21
-123.377762
  0
POINT
  8
寸法
 62
     0
 10
-120.25078
 20
-108.379202
  0
POINT
  8
寸法
 62
     0
 10
-120.25078
 20
-123.377762
  0
TEXT
  7
TextStyle03
  8
寸法
  6
CONTINUOUS
 62
     0
 10
-120.65
 20
-117.49375
  1
15
 40
3.0
 50
90.0
 72
     5
 11
-120.65
 21
-114.30625
  0
ENDBLK
  0
BLOCK
  2
*DIM_0061
 70
    65
 10
0.0
 20
0.0
  0
LINE
  8
寸法
  6
BYBLOCK
 62
     0
 10
-30.963443
 20
-109.377762
 11
-30.963443
 21
-130.263815
  0
LINE
  8
寸法
  6
BYBLOCK
 62
     0
 10
-13.963443
 20
-124.377762
 11
-13.963443
 21
-130.263815
  0
LINE
  8
寸法
  6
BYBLOCK
 62
     0
 10
-30.963443
 20
-130.263815
 11
-13.963443
 21
-130.263815
  0
POINT
  8
寸法
 62
     0
 10
-30.963443
 20
-130.263815
  0
POINT
  8
寸法
 62
     0
 10
-13.963443
 20
-130.263815
  0
TEXT
  7
TextStyle03
  8
寸法
  6
CONTINUOUS
 62
     0
 10
-24.06875
 20
-129.9
  1
17
 40
3.0
 72
     5
 11
-20.88125
 21
-129.9
  0
ENDBLK
  0
BLOCK
  2
*DIM_0062
 70
    65
 10
0.0
 20
0.0
  0
LINE
  8
寸法
  6
BYBLOCK
 62
     0
 10
85.536528
 20
-109.377762
 11
85.536528
 21
-130.263815
  0
LINE
  8
寸法
  6
BYBLOCK
 62
     0
 10
-13.963443
 20
-130.263815
 11
85.536528
 21
-130.263815
  0
POINT
  8
寸法
 62
     0
 10
-13.963443
 20
-130.263815
  0
POINT
  8
寸法
 62
     0
 10
85.536528
 20
-130.263815
  0
TEXT
  7
TextStyle03
  8
寸法
  6
CONTINUOUS
 62
     0
 10
32.49375
 20
-129.9
  1
99.5
 40
3.0
 72
     5
 11
39.05625
 21
-129.9
  0
ENDBLK
  0
BLOCK
  2
*GRP_0063
 70
    65
 10
0.0
 20
0.0
  0
POLYLINE
  8
ガラス
  6
CONTINUOUS
 66
     1
 70
     4
  0
VERTEX
  8
ガラス
 10
-23.9
 20
60.075
 70
     8
  0
VERTEX
  8
ガラス
 10
-23.85
 20
60.15
 70
     8
  0
VERTEX
  8
ガラス
 10
-23.825
 20
60.25
 70
     8
  0
VERTEX
  8
ガラス
 10
-23.775
 20
60.325
 70
     8
  0
VERTEX
  8
ガラス
 10
-23.75
 20
60.4
 70
     8
  0
VERTEX
  8
ガラス
 10
-23.7
 20
60.5
 70
     8
  0
VERTEX
  8
ガラス
 10
-23.675
 20
60.575
 70
     8
  0
VERTEX
  8
ガラス
 10
-23.625
 20
60.675
 70
     8
  0
VERTEX
  8
ガラス
 10
-23.6
 20
60.75
 70
     8
  0
VERTEX
  8
ガラス
 10
-23.55
 20
60.825
 70
     8
  0
VERTEX
  8
ガラス
 10
-23.5
 20
60.9
 70
     8
  0
VERTEX
  8
ガラス
 10
-23.475
 20
60.975
 70
     8
  0
VERTEX
  8
ガラス
 10
-23.425
 20
61.05
 70
     8
  0
VERTEX
  8
ガラス
 10
-23.375
 20
61.125
 70
     8
  0
VERTEX
  8
ガラス
 10
-23.325
 20
61.2
 70
     8
  0
VERTEX
  8
ガラス
 10
-23.275
 20
61.275
 70
     8
  0
VERTEX
  8
ガラス
 10
-23.225
 20
61.35
 70
     8
  0
VERTEX
  8
ガラス
 10
-23.175
 20
61.4
 70
     8
  0
VERTEX
  8
ガラス
 10
-23.125
 20
61.475
 70
     8
  0
VERTEX
  8
ガラス
 10
-23.05
 20
61.525
 70
     8
  0
VERTEX
  8
ガラス
 10
-23.0
 20
61.575
 70
     8
  0
VERTEX
  8
ガラス
 10
-22.925
 20
61.625
 70
     8
  0
VERTEX
  8
ガラス
 10
-22.875
 20
61.675
 70
     8
  0
VERTEX
  8
ガラス
 10
-22.8
 20
61.725
 70
     8
  0
VERTEX
  8
ガラス
 10
-22.725
 20
61.775
 70
     8
  0
VERTEX
  8
ガラス
 10
-22.65
 20
61.8
 70
     8
  0
VERTEX
  8
ガラス
 10
-22.575
 20
61.85
 70
     8
  0
VERTEX
  8
ガラス
 10
-22.5
 20
61.875
 70
     8
  0
VERTEX
  8
ガラス
 10
-22.425
 20
61.925
 70
     8
  0
VERTEX
  8
ガラス
 10
-22.35
 20
61.95
 70
     8
  0
VERTEX
  8
ガラス
 10
-22.25
 20
61.975
 70
     8
  0
VERTEX
  8
ガラス
 10
-22.175
 20
62.0
 70
     8
  0
VERTEX
  8
ガラス
 10
-22.075
 20
62.025
 70
     8
  0
VERTEX
  8
ガラス
 10
-22.0
 20
62.05
 70
     8
  0
VERTEX
  8
ガラス
 10
-21.9
 20
62.075
 70
     8
  0
VERTEX
  8
ガラス
 10
-21.825
 20
62.1
 70
     8
  0
VERTEX
  8
ガラス
 10
-21.725
 20
62.125
 70
     8
  0
VERTEX
  8
ガラス
 10
-21.65
 20
62.15
 70
     8
  0
VERTEX
  8
ガラス
 10
-21.55
 20
62.15
 70
     8
  0
VERTEX
  8
ガラス
 10
-21.45
 20
62.175
 70
     8
  0
VERTEX
  8
ガラス
 10
-21.375
 20
62.2
 70
     8
  0
SEQEND
  0
POLYLINE
  8
ガラス
  6
CONTINUOUS
 66
     1
 70
     4
  0
VERTEX
  8
ガラス
 10
-21.375
 20
62.2
 70
     8
  0
VERTEX
  8
ガラス
 10
-21.4
 20
62.15
 70
     8
  0
VERTEX
  8
ガラス
 10
-21.425
 20
62.075
 70
     8
  0
VERTEX
  8
ガラス
 10
-21.45
 20
62.025
 70
     8
  0
VERTEX
  8
ガラス
 10
-21.475
 20
61.975
 70
     8
  0
VERTEX
  8
ガラス
 10
-21.5
 20
61.9
 70
     8
  0
VERTEX
  8
ガラス
 10
-21.5
 20
61.85
 70
     8
  0
VERTEX
  8
ガラス
 10
-21.525
 20
61.8
 70
     8
  0
VERTEX
  8
ガラス
 10
-21.55
 20
61.75
 70
     8
  0
VERTEX
  8
ガラス
 10
-21.575
 20
61.675
 70
     8
  0
VERTEX
  8
ガラス
 10
-21.6
 20
61.625
 70
     8
  0
VERTEX
  8
ガラス
 10
-21.625
 20
61.575
 70
     8
  0
VERTEX
  8
ガラス
 10
-21.65
 20
61.5
 70
     8
  0
VERTEX
  8
ガラス
 10
-21.675
 20
61.45
 70
     8
  0
VERTEX
  8
ガラス
 10
-21.675
 20
61.4
 70
     8
  0
VERTEX
  8
ガラス
 10
-21.7
 20
61.35
 70
     8
  0
VERTEX
  8
ガラス
 10
-21.725
 20
61.275
 70
     8
  0
VERTEX
  8
ガラス
 10
-21.75
 20
61.225
 70
     8
  0
VERTEX
  8
ガラス
 10
-21.775
 20
61.175
 70
     8
  0
VERTEX
  8
ガラス
 10
-21.775
 20
61.1
 70
     8
  0
VERTEX
  8
ガラス
 10
-21.8
 20
61.05
 70
     8
  0
VERTEX
  8
ガラス
 10
-21.8
 20
61.0
 70
     8
  0
VERTEX
  8
ガラス
 10
-21.825
 20
60.925
 70
     8
  0
VERTEX
  8
ガラス
 10
-21.85
 20
60.875
 70
     8
  0
VERTEX
  8
ガラス
 10
-21.85
 20
60.8
 70
     8
  0
VERTEX
  8
ガラス
 10
-21.875
 20
60.75
 70
     8
  0
VERTEX
  8
ガラス
 10
-21.875
 20
60.7
 70
     8
  0
VERTEX
  8
ガラス
 10
-21.9
 20
60.625
 70
     8
  0
VERTEX
  8
ガラス
 10
-21.9
 20
60.575
 70
     8
  0
VERTEX
  8
ガラス
 10
-21.9
 20
60.5
 70
     8
  0
VERTEX
  8
ガラス
 10
-21.925
 20
60.45
 70
     8
  0
VERTEX
  8
ガラス
 10
-21.925
 20
60.4
 70
     8
  0
VERTEX
  8
ガラス
 10
-21.95
 20
60.325
 70
     8
  0
VERTEX
  8
ガラス
 10
-21.95
 20
60.275
 70
     8
  0
VERTEX
  8
ガラス
 10
-21.95
 20
60.2
 70
     8
  0
VERTEX
  8
ガラス
 10
-21.95
 20
60.15
 70
     8
  0
VERTEX
  8
ガラス
 10
-21.975
 20
60.075
 70
     8
  0
VERTEX
  8
ガラス
 10
-21.975
 20
60.025
 70
     8
  0
VERTEX
  8
ガラス
 10
-21.975
 20
59.95
 70
     8
  0
VERTEX
  8
ガラス
 10
-22.0
 20
59.9
 70
     8
  0
VERTEX
  8
ガラス
 10
-22.0
 20
59.85
 70
     8
  0
SEQEND
  0
ARC
  8
ガラス
  6
CONTINUOUS
 10
-22.933286
 20
59.965254
 40
0.955135
 50
173.117443
 51
353.117443
  0
ENDBLK
  0
BLOCK
  2
*GRP_0064
 70
    65
 10
0.0
 20
0.0
  0
POLYLINE
  8
ガラス
  6
CONTINUOUS
 66
     1
 70
     4
  0
VERTEX
  8
ガラス
 10
-27.525
 20
54.0
 70
     8
  0
VERTEX
  8
ガラス
 10
-27.475
 20
54.075
 70
     8
  0
VERTEX
  8
ガラス
 10
-27.45
 20
54.175
 70
     8
  0
VERTEX
  8
ガラス
 10
-27.4
 20
54.25
 70
     8
  0
VERTEX
  8
ガラス
 10
-27.375
 20
54.325
 70
     8
  0
VERTEX
  8
ガラス
 10
-27.325
 20
54.425
 70
     8
  0
VERTEX
  8
ガラス
 10
-27.3
 20
54.5
 70
     8
  0
VERTEX
  8
ガラス
 10
-27.25
 20
54.6
 70
     8
  0
VERTEX
  8
ガラス
 10
-27.225
 20
54.675
 70
     8
  0
VERTEX
  8
ガラス
 10
-27.175
 20
54.75
 70
     8
  0
VERTEX
  8
ガラス
 10
-27.125
 20
54.825
 70
     8
  0
VERTEX
  8
ガラス
 10
-27.1
 20
54.9
 70
     8
  0
VERTEX
  8
ガラス
 10
-27.05
 20
54.975
 70
     8
  0
VERTEX
  8
ガラス
 10
-27.0
 20
55.05
 70
     8
  0
VERTEX
  8
ガラス
 10
-26.95
 20
55.125
 70
     8
  0
VERTEX
  8
ガラス
 10
-26.9
 20
55.2
 70
     8
  0
VERTEX
  8
ガラス
 10
-26.85
 20
55.275
 70
     8
  0
VERTEX
  8
ガラス
 10
-26.8
 20
55.325
 70
     8
  0
VERTEX
  8
ガラス
 10
-26.75
 20
55.4
 70
     8
  0
VERTEX
  8
ガラス
 10
-26.675
 20
55.45
 70
     8
  0
VERTEX
  8
ガラス
 10
-26.625
 20
55.5
 70
     8
  0
VERTEX
  8
ガラス
 10
-26.55
 20
55.55
 70
     8
  0
VERTEX
  8
ガラス
 10
-26.5
 20
55.6
 70
     8
  0
VERTEX
  8
ガラス
 10
-26.425
 20
55.65
 70
     8
  0
VERTEX
  8
ガラス
 10
-26.35
 20
55.7
 70
     8
  0
VERTEX
  8
ガラス
 10
-26.275
 20
55.725
 70
     8
  0
VERTEX
  8
ガラス
 10
-26.2
 20
55.775
 70
     8
  0
VERTEX
  8
ガラス
 10
-26.125
 20
55.8
 70
     8
  0
VERTEX
  8
ガラス
 10
-26.05
 20
55.85
 70
     8
  0
VERTEX
  8
ガラス
 10
-25.95
 20
55.875
 70
     8
  0
VERTEX
  8
ガラス
 10
-25.875
 20
55.9
 70
     8
  0
VERTEX
  8
ガラス
 10
-25.8
 20
55.925
 70
     8
  0
VERTEX
  8
ガラス
 10
-25.7
 20
55.95
 70
     8
  0
VERTEX
  8
ガラス
 10
-25.625
 20
55.975
 70
     8
  0
VERTEX
  8
ガラス
 10
-25.525
 20
56.0
 70
     8
  0
VERTEX
  8
ガラス
 10
-25.45
 20
56.025
 70
     8
  0
VERTEX
  8
ガラス
 10
-25.35
 20
56.05
 70
     8
  0
VERTEX
  8
ガラス
 10
-25.275
 20
56.075
 70
     8
  0
VERTEX
  8
ガラス
 10
-25.175
 20
56.075
 70
     8
  0
VERTEX
  8
ガラス
 10
-25.075
 20
56.1
 70
     8
  0
VERTEX
  8
ガラス
 10
-25.0
 20
56.125
 70
     8
  0
SEQEND
  0
POLYLINE
  8
ガラス
  6
CONTINUOUS
 66
     1
 70
     4
  0
VERTEX
  8
ガラス
 10
-25.0
 20
56.125
 70
     8
  0
VERTEX
  8
ガラス
 10
-25.025
 20
56.075
 70
     8
  0
VERTEX
  8
ガラス
 10
-25.05
 20
56.0
 70
     8
  0
VERTEX
  8
ガラス
 10
-25.05
 20
55.95
 70
     8
  0
VERTEX
  8
ガラス
 10
-25.075
 20
55.9
 70
     8
  0
VERTEX
  8
ガラス
 10
-25.1
 20
55.85
 70
     8
  0
VERTEX
  8
ガラス
 10
-25.125
 20
55.775
 70
     8
  0
VERTEX
  8
ガラス
 10
-25.15
 20
55.725
 70
     8
  0
VERTEX
  8
ガラス
 10
-25.175
 20
55.675
 70
     8
  0
VERTEX
  8
ガラス
 10
-25.2
 20
55.6
 70
     8
  0
VERTEX
  8
ガラス
 10
-25.225
 20
55.55
 70
     8
  0
VERTEX
  8
ガラス
 10
-25.25
 20
55.5
 70
     8
  0
VERTEX
  8
ガラス
 10
-25.275
 20
55.45
 70
     8
  0
VERTEX
  8
ガラス
 10
-25.3
 20
55.375
 70
     8
  0
VERTEX
  8
ガラス
 10
-25.3
 20
55.325
 70
     8
  0
VERTEX
  8
ガラス
 10
-25.325
 20
55.275
 70
     8
  0
VERTEX
  8
ガラス
 10
-25.35
 20
55.2
 70
     8
  0
VERTEX
  8
ガラス
 10
-25.375
 20
55.15
 70
     8
  0
VERTEX
  8
ガラス
 10
-25.375
 20
55.1
 70
     8
  0
VERTEX
  8
ガラス
 10
-25.4
 20
55.025
 70
     8
  0
VERTEX
  8
ガラス
 10
-25.425
 20
54.975
 70
     8
  0
VERTEX
  8
ガラス
 10
-25.425
 20
54.925
 70
     8
  0
VERTEX
  8
ガラス
 10
-25.45
 20
54.85
 70
     8
  0
VERTEX
  8
ガラス
 10
-25.475
 20
54.8
 70
     8
  0
VERTEX
  8
ガラス
 10
-25.475
 20
54.725
 70
     8
  0
VERTEX
  8
ガラス
 10
-25.5
 20
54.675
 70
     8
  0
VERTEX
  8
ガラス
 10
-25.5
 20
54.625
 70
     8
  0
VERTEX
  8
ガラス
 10
-25.5
 20
54.55
 70
     8
  0
VERTEX
  8
ガラス
 10
-25.525
 20
54.5
 70
     8
  0
VERTEX
  8
ガラス
 10
-25.525
 20
54.425
 70
     8
  0
VERTEX
  8
ガラス
 10
-25.55
 20
54.375
 70
     8
  0
VERTEX
  8
ガラス
 10
-25.55
 20
54.325
 70
     8
  0
VERTEX
  8
ガラス
 10
-25.55
 20
54.25
 70
     8
  0
VERTEX
  8
ガラス
 10
-25.575
 20
54.2
 70
     8
  0
VERTEX
  8
ガラス
 10
-25.575
 20
54.125
 70
     8
  0
VERTEX
  8
ガラス
 10
-25.575
 20
54.075
 70
     8
  0
VERTEX
  8
ガラス
 10
-25.6
 20
54.0
 70
     8
  0
VERTEX
  8
ガラス
 10
-25.6
 20
53.95
 70
     8
  0
VERTEX
  8
ガラス
 10
-25.6
 20
53.875
 70
     8
  0
VERTEX
  8
ガラス
 10
-25.6
 20
53.825
 70
     8
  0
VERTEX
  8
ガラス
 10
-25.625
 20
53.775
 70
     8
  0
SEQEND
  0
ARC
  8
ガラス
  6
CONTINUOUS
 10
-26.555174
 20
53.891626
 40
0.955135
 50
173.117443
 51
353.117443
  0
ENDBLK
  0
BLOCK
  2
*GRP_0065
 70
    65
 10
0.0
 20
0.0
  0
POLYLINE
  8
ガラス
  6
CONTINUOUS
 66
     1
 70
     4
  0
VERTEX
  8
ガラス
 10
-35.05
 20
48.35
 70
     8
  0
VERTEX
  8
ガラス
 10
-35.0
 20
48.45
 70
     8
  0
VERTEX
  8
ガラス
 10
-34.975
 20
48.525
 70
     8
  0
VERTEX
  8
ガラス
 10
-34.925
 20
48.625
 70
     8
  0
VERTEX
  8
ガラス
 10
-34.9
 20
48.7
 70
     8
  0
VERTEX
  8
ガラス
 10
-34.85
 20
48.775
 70
     8
  0
VERTEX
  8
ガラス
 10
-34.825
 20
48.875
 70
     8
  0
VERTEX
  8
ガラス
 10
-34.775
 20
48.95
 70
     8
  0
VERTEX
  8
ガラス
 10
-34.75
 20
49.025
 70
     8
  0
VERTEX
  8
ガラス
 10
-34.7
 20
49.125
 70
     8
  0
VERTEX
  8
ガラス
 10
-34.65
 20
49.2
 70
     8
  0
VERTEX
  8
ガラス
 10
-34.625
 20
49.275
 70
     8
  0
VERTEX
  8
ガラス
 10
-34.575
 20
49.35
 70
     8
  0
VERTEX
  8
ガラス
 10
-34.525
 20
49.425
 70
     8
  0
VERTEX
  8
ガラス
 10
-34.475
 20
49.5
 70
     8
  0
VERTEX
  8
ガラス
 10
-34.425
 20
49.55
 70
     8
  0
VERTEX
  8
ガラス
 10
-34.375
 20
49.625
 70
     8
  0
VERTEX
  8
ガラス
 10
-34.325
 20
49.7
 70
     8
  0
VERTEX
  8
ガラス
 10
-34.275
 20
49.75
 70
     8
  0
VERTEX
  8
ガラス
 10
-34.2
 20
49.825
 70
     8
  0
VERTEX
  8
ガラス
 10
-34.15
 20
49.875
 70
     8
  0
VERTEX
  8
ガラス
 10
-34.075
 20
49.925
 70
     8
  0
VERTEX
  8
ガラス
 10
-34.025
 20
49.975
 70
     8
  0
VERTEX
  8
ガラス
 10
-33.95
 20
50.025
 70
     8
  0
VERTEX
  8
ガラス
 10
-33.875
 20
50.05
 70
     8
  0
VERTEX
  8
ガラス
 10
-33.8
 20
50.1
 70
     8
  0
VERTEX
  8
ガラス
 10
-33.725
 20
50.125
 70
     8
  0
VERTEX
  8
ガラス
 10
-33.65
 20
50.175
 70
     8
  0
VERTEX
  8
ガラス
 10
-33.575
 20
50.2
 70
     8
  0
VERTEX
  8
ガラス
 10
-33.475
 20
50.225
 70
     8
  0
VERTEX
  8
ガラス
 10
-33.4
 20
50.275
 70
     8
  0
VERTEX
  8
ガラス
 10
-33.325
 20
50.3
 70
     8
  0
VERTEX
  8
ガラス
 10
-33.225
 20
50.325
 70
     8
  0
VERTEX
  8
ガラス
 10
-33.15
 20
50.35
 70
     8
  0
VERTEX
  8
ガラス
 10
-33.05
 20
50.375
 70
     8
  0
VERTEX
  8
ガラス
 10
-32.975
 20
50.375
 70
     8
  0
VERTEX
  8
ガラス
 10
-32.875
 20
50.4
 70
     8
  0
VERTEX
  8
ガラス
 10
-32.775
 20
50.425
 70
     8
  0
VERTEX
  8
ガラス
 10
-32.7
 20
50.45
 70
     8
  0
VERTEX
  8
ガラス
 10
-32.6
 20
50.475
 70
     8
  0
VERTEX
  8
ガラス
 10
-32.525
 20
50.475
 70
     8
  0
SEQEND
  0
POLYLINE
  8
ガラス
  6
CONTINUOUS
 66
     1
 70
     4
  0
VERTEX
  8
ガラス
 10
-32.525
 20
50.475
 70
     8
  0
VERTEX
  8
ガラス
 10
-32.525
 20
50.425
 70
     8
  0
VERTEX
  8
ガラス
 10
-32.55
 20
50.375
 70
     8
  0
VERTEX
  8
ガラス
 10
-32.575
 20
50.325
 70
     8
  0
VERTEX
  8
ガラス
 10
-32.6
 20
50.25
 70
     8
  0
VERTEX
  8
ガラス
 10
-32.625
 20
50.2
 70
     8
  0
VERTEX
  8
ガラス
 10
-32.65
 20
50.15
 70
     8
  0
VERTEX
  8
ガラス
 10
-32.675
 20
50.075
 70
     8
  0
VERTEX
  8
ガラス
 10
-32.7
 20
50.025
 70
     8
  0
VERTEX
  8
ガラス
 10
-32.725
 20
49.975
 70
     8
  0
VERTEX
  8
ガラス
 10
-32.75
 20
49.925
 70
     8
  0
VERTEX
  8
ガラス
 10
-32.775
 20
49.85
 70
     8
  0
VERTEX
  8
ガラス
 10
-32.8
 20
49.8
 70
     8
  0
VERTEX
  8
ガラス
 10
-32.8
 20
49.75
 70
     8
  0
VERTEX
  8
ガラス
 10
-32.825
 20
49.675
 70
     8
  0
VERTEX
  8
ガラス
 10
-32.85
 20
49.625
 70
     8
  0
VERTEX
  8
ガラス
 10
-32.875
 20
49.575
 70
     8
  0
VERTEX
  8
ガラス
 10
-32.9
 20
49.5
 70
     8
  0
VERTEX
  8
ガラス
 10
-32.9
 20
49.45
 70
     8
  0
VERTEX
  8
ガラス
 10
-32.925
 20
49.4
 70
     8
  0
VERTEX
  8
ガラス
 10
-32.95
 20
49.325
 70
     8
  0
VERTEX
  8
ガラス
 10
-32.95
 20
49.275
 70
     8
  0
VERTEX
  8
ガラス
 10
-32.975
 20
49.225
 70
     8
  0
VERTEX
  8
ガラス
 10
-32.975
 20
49.15
 70
     8
  0
VERTEX
  8
ガラス
 10
-33.0
 20
49.1
 70
     8
  0
VERTEX
  8
ガラス
 10
-33.0
 20
49.05
 70
     8
  0
VERTEX
  8
ガラス
 10
-33.025
 20
48.975
 70
     8
  0
VERTEX
  8
ガラス
 10
-33.025
 20
48.925
 70
     8
  0
VERTEX
  8
ガラス
 10
-33.05
 20
48.85
 70
     8
  0
VERTEX
  8
ガラス
 10
-33.05
 20
48.8
 70
     8
  0
VERTEX
  8
ガラス
 10
-33.075
 20
48.725
 70
     8
  0
VERTEX
  8
ガラス
 10
-33.075
 20
48.675
 70
     8
  0
VERTEX
  8
ガラス
 10
-33.075
 20
48.625
 70
     8
  0
VERTEX
  8
ガラス
 10
-33.1
 20
48.55
 70
     8
  0
VERTEX
  8
ガラス
 10
-33.1
 20
48.5
 70
     8
  0
VERTEX
  8
ガラス
 10
-33.1
 20
48.425
 70
     8
  0
VERTEX
  8
ガラス
 10
-33.125
 20
48.375
 70
     8
  0
VERTEX
  8
ガラス
 10
-33.125
 20
48.3
 70
     8
  0
VERTEX
  8
ガラス
 10
-33.125
 20
48.25
 70
     8
  0
VERTEX
  8
ガラス
 10
-33.125
 20
48.2
 70
     8
  0
VERTEX
  8
ガラス
 10
-33.15
 20
48.125
 70
     8
  0
SEQEND
  0
ARC
  8
ガラス
  6
CONTINUOUS
 10
-34.078096
 20
48.254104
 40
0.955135
 50
173.117443
 51
353.117443
  0
ENDBLK
  0
BLOCK
  2
*GRP_0066
 70
    65
 10
0.0
 20
0.0
  0
POLYLINE
  8
ガラス
  6
CONTINUOUS
 66
     1
 70
     4
  0
VERTEX
  8
ガラス
 10
-39.425
 20
42.275
 70
     8
  0
VERTEX
  8
ガラス
 10
-39.325
 20
42.275
 70
     8
  0
VERTEX
  8
ガラス
 10
-39.25
 20
42.3
 70
     8
  0
VERTEX
  8
ガラス
 10
-39.15
 20
42.3
 70
     8
  0
VERTEX
  8
ガラス
 10
-39.05
 20
42.3
 70
     8
  0
VERTEX
  8
ガラス
 10
-38.975
 20
42.325
 70
     8
  0
VERTEX
  8
ガラス
 10
-38.875
 20
42.325
 70
     8
  0
VERTEX
  8
ガラス
 10
-38.775
 20
42.325
 70
     8
  0
VERTEX
  8
ガラス
 10
-38.7
 20
42.35
 70
     8
  0
VERTEX
  8
ガラス
 10
-38.6
 20
42.35
 70
     8
  0
VERTEX
  8
ガラス
 10
-38.525
 20
42.35
 70
     8
  0
VERTEX
  8
ガラス
 10
-38.425
 20
42.35
 70
     8
  0
VERTEX
  8
ガラス
 10
-38.325
 20
42.35
 70
     8
  0
VERTEX
  8
ガラス
 10
-38.25
 20
42.325
 70
     8
  0
VERTEX
  8
ガラス
 10
-38.175
 20
42.325
 70
     8
  0
VERTEX
  8
ガラス
 10
-38.075
 20
42.325
 70
     8
  0
VERTEX
  8
ガラス
 10
-38.0
 20
42.3
 70
     8
  0
VERTEX
  8
ガラス
 10
-37.9
 20
42.3
 70
     8
  0
VERTEX
  8
ガラス
 10
-37.825
 20
42.275
 70
     8
  0
VERTEX
  8
ガラス
 10
-37.75
 20
42.25
 70
     8
  0
VERTEX
  8
ガラス
 10
-37.675
 20
42.225
 70
     8
  0
VERTEX
  8
ガラス
 10
-37.6
 20
42.2
 70
     8
  0
VERTEX
  8
ガラス
 10
-37.525
 20
42.15
 70
     8
  0
VERTEX
  8
ガラス
 10
-37.45
 20
42.125
 70
     8
  0
VERTEX
  8
ガラス
 10
-37.375
 20
42.075
 70
     8
  0
VERTEX
  8
ガラス
 10
-37.3
 20
42.025
 70
     8
  0
VERTEX
  8
ガラス
 10
-37.225
 20
41.975
 70
     8
  0
VERTEX
  8
ガラス
 10
-37.175
 20
41.925
 70
     8
  0
VERTEX
  8
ガラス
 10
-37.1
 20
41.875
 70
     8
  0
VERTEX
  8
ガラス
 10
-37.025
 20
41.825
 70
     8
  0
VERTEX
  8
ガラス
 10
-36.975
 20
41.775
 70
     8
  0
VERTEX
  8
ガラス
 10
-36.9
 20
41.7
 70
     8
  0
VERTEX
  8
ガラス
 10
-36.825
 20
41.65
 70
     8
  0
VERTEX
  8
ガラス
 10
-36.775
 20
41.575
 70
     8
  0
VERTEX
  8
ガラス
 10
-36.7
 20
41.525
 70
     8
  0
VERTEX
  8
ガラス
 10
-36.65
 20
41.45
 70
     8
  0
VERTEX
  8
ガラス
 10
-36.575
 20
41.375
 70
     8
  0
VERTEX
  8
ガラス
 10
-36.525
 20
41.3
 70
     8
  0
VERTEX
  8
ガラス
 10
-36.45
 20
41.25
 70
     8
  0
VERTEX
  8
ガラス
 10
-36.4
 20
41.175
 70
     8
  0
VERTEX
  8
ガラス
 10
-36.35
 20
41.1
 70
     8
  0
SEQEND
  0
POLYLINE
  8
ガラス
  6
CONTINUOUS
 66
     1
 70
     4
  0
VERTEX
  8
ガラス
 10
-36.35
 20
41.1
 70
     8
  0
VERTEX
  8
ガラス
 10
-36.4
 20
41.1
 70
     8
  0
VERTEX
  8
ガラス
 10
-36.45
 20
41.075
 70
     8
  0
VERTEX
  8
ガラス
 10
-36.525
 20
41.075
 70
     8
  0
VERTEX
  8
ガラス
 10
-36.575
 20
41.075
 70
     8
  0
VERTEX
  8
ガラス
 10
-36.65
 20
41.075
 70
     8
  0
VERTEX
  8
ガラス
 10
-36.7
 20
41.05
 70
     8
  0
VERTEX
  8
ガラス
 10
-36.775
 20
41.05
 70
     8
  0
VERTEX
  8
ガラス
 10
-36.825
 20
41.05
 70
     8
  0
VERTEX
  8
ガラス
 10
-36.9
 20
41.025
 70
     8
  0
VERTEX
  8
ガラス
 10
-36.95
 20
41.025
 70
     8
  0
VERTEX
  8
ガラス
 10
-37.0
 20
41.025
 70
     8
  0
VERTEX
  8
ガラス
 10
-37.075
 20
41.0
 70
     8
  0
VERTEX
  8
ガラス
 10
-37.125
 20
41.0
 70
     8
  0
VERTEX
  8
ガラス
 10
-37.2
 20
41.0
 70
     8
  0
VERTEX
  8
ガラス
 10
-37.25
 20
40.975
 70
     8
  0
VERTEX
  8
ガラス
 10
-37.325
 20
40.975
 70
     8
  0
VERTEX
  8
ガラス
 10
-37.375
 20
40.95
 70
     8
  0
VERTEX
  8
ガラス
 10
-37.425
 20
40.95
 70
     8
  0
VERTEX
  8
ガラス
 10
-37.5
 20
40.925
 70
     8
  0
VERTEX
  8
ガラス
 10
-37.55
 20
40.925
 70
     8
  0
VERTEX
  8
ガラス
 10
-37.6
 20
40.9
 70
     8
  0
VERTEX
  8
ガラス
 10
-37.675
 20
40.875
 70
     8
  0
VERTEX
  8
ガラス
 10
-37.725
 20
40.875
 70
     8
  0
VERTEX
  8
ガラス
 10
-37.8
 20
40.85
 70
     8
  0
VERTEX
  8
ガラス
 10
-37.85
 20
40.825
 70
     8
  0
VERTEX
  8
ガラス
 10
-37.9
 20
40.8
 70
     8
  0
VERTEX
  8
ガラス
 10
-37.95
 20
40.8
 70
     8
  0
VERTEX
  8
ガラス
 10
-38.025
 20
40.775
 70
     8
  0
VERTEX
  8
ガラス
 10
-38.075
 20
40.75
 70
     8
  0
VERTEX
  8
ガラス
 10
-38.125
 20
40.725
 70
     8
  0
VERTEX
  8
ガラス
 10
-38.2
 20
40.7
 70
     8
  0
VERTEX
  8
ガラス
 10
-38.25
 20
40.675
 70
     8
  0
VERTEX
  8
ガラス
 10
-38.3
 20
40.675
 70
     8
  0
VERTEX
  8
ガラス
 10
-38.375
 20
40.65
 70
     8
  0
VERTEX
  8
ガラス
 10
-38.425
 20
40.625
 70
     8
  0
VERTEX
  8
ガラス
 10
-38.475
 20
40.6
 70
     8
  0
VERTEX
  8
ガラス
 10
-38.525
 20
40.575
 70
     8
  0
VERTEX
  8
ガラス
 10
-38.6
 20
40.55
 70
     8
  0
VERTEX
  8
ガラス
 10
-38.65
 20
40.525
 70
     8
  0
VERTEX
  8
ガラス
 10
-38.7
 20
40.5
 70
     8
  0
SEQEND
  0
ARC
  8
ガラス
  6
CONTINUOUS
 10
-39.055166
 20
41.397916
 40
0.955135
 50
112.264588
 51
292.264588
  0
ENDBLK
  0
BLOCK
  2
*GRP_0067
 70
    65
 10
0.0
 20
0.0
  0
POLYLINE
  8
ガラス
  6
CONTINUOUS
 66
     1
 70
     4
  0
VERTEX
  8
ガラス
 10
-50.9
 20
42.275
 70
     8
  0
VERTEX
  8
ガラス
 10
-50.825
 20
42.275
 70
     8
  0
VERTEX
  8
ガラス
 10
-50.725
 20
42.3
 70
     8
  0
VERTEX
  8
ガラス
 10
-50.625
 20
42.3
 70
     8
  0
VERTEX
  8
ガラス
 10
-50.525
 20
42.3
 70
     8
  0
VERTEX
  8
ガラス
 10
-50.45
 20
42.325
 70
     8
  0
VERTEX
  8
ガラス
 10
-50.35
 20
42.325
 70
     8
  0
VERTEX
  8
ガラス
 10
-50.25
 20
42.325
 70
     8
  0
VERTEX
  8
ガラス
 10
-50.175
 20
42.35
 70
     8
  0
VERTEX
  8
ガラス
 10
-50.075
 20
42.35
 70
     8
  0
VERTEX
  8
ガラス
 10
-50.0
 20
42.35
 70
     8
  0
VERTEX
  8
ガラス
 10
-49.9
 20
42.35
 70
     8
  0
VERTEX
  8
ガラス
 10
-49.825
 20
42.35
 70
     8
  0
VERTEX
  8
ガラス
 10
-49.725
 20
42.325
 70
     8
  0
VERTEX
  8
ガラス
 10
-49.65
 20
42.325
 70
     8
  0
VERTEX
  8
ガラス
 10
-49.55
 20
42.325
 70
     8
  0
VERTEX
  8
ガラス
 10
-49.475
 20
42.3
 70
     8
  0
VERTEX
  8
ガラス
 10
-49.4
 20
42.3
 70
     8
  0
VERTEX
  8
ガラス
 10
-49.3
 20
42.275
 70
     8
  0
VERTEX
  8
ガラス
 10
-49.225
 20
42.25
 70
     8
  0
VERTEX
  8
ガラス
 10
-49.15
 20
42.225
 70
     8
  0
VERTEX
  8
ガラス
 10
-49.075
 20
42.2
 70
     8
  0
VERTEX
  8
ガラス
 10
-49.0
 20
42.15
 70
     8
  0
VERTEX
  8
ガラス
 10
-48.925
 20
42.125
 70
     8
  0
VERTEX
  8
ガラス
 10
-48.85
 20
42.075
 70
     8
  0
VERTEX
  8
ガラス
 10
-48.775
 20
42.025
 70
     8
  0
VERTEX
  8
ガラス
 10
-48.7
 20
41.975
 70
     8
  0
VERTEX
  8
ガラス
 10
-48.65
 20
41.925
 70
     8
  0
VERTEX
  8
ガラス
 10
-48.575
 20
41.875
 70
     8
  0
VERTEX
  8
ガラス
 10
-48.5
 20
41.825
 70
     8
  0
VERTEX
  8
ガラス
 10
-48.45
 20
41.775
 70
     8
  0
VERTEX
  8
ガラス
 10
-48.375
 20
41.7
 70
     8
  0
VERTEX
  8
ガラス
 10
-48.325
 20
41.65
 70
     8
  0
VERTEX
  8
ガラス
 10
-48.25
 20
41.575
 70
     8
  0
VERTEX
  8
ガラス
 10
-48.2
 20
41.525
 70
     8
  0
VERTEX
  8
ガラス
 10
-48.125
 20
41.45
 70
     8
  0
VERTEX
  8
ガラス
 10
-48.075
 20
41.375
 70
     8
  0
VERTEX
  8
ガラス
 10
-48.0
 20
41.3
 70
     8
  0
VERTEX
  8
ガラス
 10
-47.95
 20
41.25
 70
     8
  0
VERTEX
  8
ガラス
 10
-47.875
 20
41.175
 70
     8
  0
VERTEX
  8
ガラス
 10
-47.825
 20
41.1
 70
     8
  0
SEQEND
  0
POLYLINE
  8
ガラス
  6
CONTINUOUS
 66
     1
 70
     4
  0
VERTEX
  8
ガラス
 10
-47.825
 20
41.1
 70
     8
  0
VERTEX
  8
ガラス
 10
-47.875
 20
41.1
 70
     8
  0
VERTEX
  8
ガラス
 10
-47.95
 20
41.075
 70
     8
  0
VERTEX
  8
ガラス
 10
-48.0
 20
41.075
 70
     8
  0
VERTEX
  8
ガラス
 10
-48.075
 20
41.075
 70
     8
  0
VERTEX
  8
ガラス
 10
-48.125
 20
41.075
 70
     8
  0
VERTEX
  8
ガラス
 10
-48.175
 20
41.05
 70
     8
  0
VERTEX
  8
ガラス
 10
-48.25
 20
41.05
 70
     8
  0
VERTEX
  8
ガラス
 10
-48.3
 20
41.05
 70
     8
  0
VERTEX
  8
ガラス
 10
-48.375
 20
41.025
 70
     8
  0
VERTEX
  8
ガラス
 10
-48.425
 20
41.025
 70
     8
  0
VERTEX
  8
ガラス
 10
-48.5
 20
41.025
 70
     8
  0
VERTEX
  8
ガラス
 10
-48.55
 20
41.0
 70
     8
  0
VERTEX
  8
ガラス
 10
-48.6
 20
41.0
 70
     8
  0
VERTEX
  8
ガラス
 10
-48.675
 20
41.0
 70
     8
  0
VERTEX
  8
ガラス
 10
-48.725
 20
40.975
 70
     8
  0
VERTEX
  8
ガラス
 10
-48.8
 20
40.975
 70
     8
  0
VERTEX
  8
ガラス
 10
-48.85
 20
40.95
 70
     8
  0
VERTEX
  8
ガラス
 10
-48.9
 20
40.95
 70
     8
  0
VERTEX
  8
ガラス
 10
-48.975
 20
40.925
 70
     8
  0
VERTEX
  8
ガラス
 10
-49.025
 20
40.925
 70
     8
  0
VERTEX
  8
ガラス
 10
-49.1
 20
40.9
 70
     8
  0
VERTEX
  8
ガラス
 10
-49.15
 20
40.875
 70
     8
  0
VERTEX
  8
ガラス
 10
-49.2
 20
40.875
 70
     8
  0
VERTEX
  8
ガラス
 10
-49.275
 20
40.85
 70
     8
  0
VERTEX
  8
ガラス
 10
-49.325
 20
40.825
 70
     8
  0
VERTEX
  8
ガラス
 10
-49.375
 20
40.8
 70
     8
  0
VERTEX
  8
ガラス
 10
-49.45
 20
40.8
 70
     8
  0
VERTEX
  8
ガラス
 10
-49.5
 20
40.775
 70
     8
  0
VERTEX
  8
ガラス
 10
-49.55
 20
40.75
 70
     8
  0
VERTEX
  8
ガラス
 10
-49.625
 20
40.725
 70
     8
  0
VERTEX
  8
ガラス
 10
-49.675
 20
40.7
 70
     8
  0
VERTEX
  8
ガラス
 10
-49.725
 20
40.675
 70
     8
  0
VERTEX
  8
ガラス
 10
-49.775
 20
40.675
 70
     8
  0
VERTEX
  8
ガラス
 10
-49.85
 20
40.65
 70
     8
  0
VERTEX
  8
ガラス
 10
-49.9
 20
40.625
 70
     8
  0
VERTEX
  8
ガラス
 10
-49.95
 20
40.6
 70
     8
  0
VERTEX
  8
ガラス
 10
-50.025
 20
40.575
 70
     8
  0
VERTEX
  8
ガラス
 10
-50.075
 20
40.55
 70
     8
  0
VERTEX
  8
ガラス
 10
-50.125
 20
40.525
 70
     8
  0
VERTEX
  8
ガラス
 10
-50.175
 20
40.5
 70
     8
  0
SEQEND
  0
ARC
  8
ガラス
  6
CONTINUOUS
 10
-50.533765
 20
41.397916
 40
0.955135
 50
112.264588
 51
292.264588
  0
ENDBLK
  0
BLOCK
  2
*GRP_0068
 70
    65
 10
0.0
 20
0.0
  0
POLYLINE
  8
ガラス
  6
CONTINUOUS
 66
     1
 70
     4
  0
VERTEX
  8
ガラス
 10
-61.775
 20
38.0
 70
     8
  0
VERTEX
  8
ガラス
 10
-61.75
 20
38.075
 70
     8
  0
VERTEX
  8
ガラス
 10
-61.725
 20
38.15
 70
     8
  0
VERTEX
  8
ガラス
 10
-61.675
 20
38.25
 70
     8
  0
VERTEX
  8
ガラス
 10
-61.65
 20
38.325
 70
     8
  0
VERTEX
  8
ガラス
 10
-61.6
 20
38.425
 70
     8
  0
VERTEX
  8
ガラス
 10
-61.575
 20
38.5
 70
     8
  0
VERTEX
  8
ガラス
 10
-61.525
 20
38.575
 70
     8
  0
VERTEX
  8
ガラス
 10
-61.475
 20
38.675
 70
     8
  0
VERTEX
  8
ガラス
 10
-61.45
 20
38.75
 70
     8
  0
VERTEX
  8
ガラス
 10
-61.4
 20
38.825
 70
     8
  0
VERTEX
  8
ガラス
 10
-61.35
 20
38.9
 70
     8
  0
VERTEX
  8
ガラス
 10
-61.325
 20
38.975
 70
     8
  0
VERTEX
  8
ガラス
 10
-61.275
 20
39.05
 70
     8
  0
VERTEX
  8
ガラス
 10
-61.225
 20
39.125
 70
     8
  0
VERTEX
  8
ガラス
 10
-61.175
 20
39.2
 70
     8
  0
VERTEX
  8
ガラス
 10
-61.125
 20
39.25
 70
     8
  0
VERTEX
  8
ガラス
 10
-61.075
 20
39.325
 70
     8
  0
VERTEX
  8
ガラス
 10
-61.0
 20
39.375
 70
     8
  0
VERTEX
  8
ガラス
 10
-60.95
 20
39.45
 70
     8
  0
VERTEX
  8
ガラス
 10
-60.9
 20
39.5
 70
     8
  0
VERTEX
  8
ガラス
 10
-60.825
 20
39.55
 70
     8
  0
VERTEX
  8
ガラス
 10
-60.75
 20
39.6
 70
     8
  0
VERTEX
  8
ガラス
 10
-60.7
 20
39.65
 70
     8
  0
VERTEX
  8
ガラス
 10
-60.625
 20
39.7
 70
     8
  0
VERTEX
  8
ガラス
 10
-60.55
 20
39.725
 70
     8
  0
VERTEX
  8
ガラス
 10
-60.475
 20
39.775
 70
     8
  0
VERTEX
  8
ガラス
 10
-60.4
 20
39.8
 70
     8
  0
VERTEX
  8
ガラス
 10
-60.3
 20
39.825
 70
     8
  0
VERTEX
  8
ガラス
 10
-60.225
 20
39.875
 70
     8
  0
VERTEX
  8
ガラス
 10
-60.15
 20
39.9
 70
     8
  0
VERTEX
  8
ガラス
 10
-60.05
 20
39.925
 70
     8
  0
VERTEX
  8
ガラス
 10
-59.975
 20
39.95
 70
     8
  0
VERTEX
  8
ガラス
 10
-59.9
 20
39.975
 70
     8
  0
VERTEX
  8
ガラス
 10
-59.8
 20
40.0
 70
     8
  0
VERTEX
  8
ガラス
 10
-59.7
 20
40.025
 70
     8
  0
VERTEX
  8
ガラス
 10
-59.625
 20
40.05
 70
     8
  0
VERTEX
  8
ガラス
 10
-59.525
 20
40.05
 70
     8
  0
VERTEX
  8
ガラス
 10
-59.45
 20
40.075
 70
     8
  0
VERTEX
  8
ガラス
 10
-59.35
 20
40.1
 70
     8
  0
VERTEX
  8
ガラス
 10
-59.25
 20
40.125
 70
     8
  0
SEQEND
  0
POLYLINE
  8
ガラス
  6
CONTINUOUS
 66
     1
 70
     4
  0
VERTEX
  8
ガラス
 10
-59.25
 20
40.125
 70
     8
  0
VERTEX
  8
ガラス
 10
-59.275
 20
40.05
 70
     8
  0
VERTEX
  8
ガラス
 10
-59.3
 20
40.0
 70
     8
  0
VERTEX
  8
ガラス
 10
-59.325
 20
39.95
 70
     8
  0
VERTEX
  8
ガラス
 10
-59.35
 20
39.9
 70
     8
  0
VERTEX
  8
ガラス
 10
-59.375
 20
39.825
 70
     8
  0
VERTEX
  8
ガラス
 10
-59.4
 20
39.775
 70
     8
  0
VERTEX
  8
ガラス
 10
-59.425
 20
39.725
 70
     8
  0
VERTEX
  8
ガラス
 10
-59.45
 20
39.65
 70
     8
  0
VERTEX
  8
ガラス
 10
-59.475
 20
39.6
 70
     8
  0
VERTEX
  8
ガラス
 10
-59.5
 20
39.55
 70
     8
  0
VERTEX
  8
ガラス
 10
-59.525
 20
39.5
 70
     8
  0
VERTEX
  8
ガラス
 10
-59.525
 20
39.425
 70
     8
  0
VERTEX
  8
ガラス
 10
-59.55
 20
39.375
 70
     8
  0
VERTEX
  8
ガラス
 10
-59.575
 20
39.325
 70
     8
  0
VERTEX
  8
ガラス
 10
-59.6
 20
39.25
 70
     8
  0
VERTEX
  8
ガラス
 10
-59.625
 20
39.2
 70
     8
  0
VERTEX
  8
ガラス
 10
-59.625
 20
39.15
 70
     8
  0
VERTEX
  8
ガラス
 10
-59.65
 20
39.075
 70
     8
  0
VERTEX
  8
ガラス
 10
-59.675
 20
39.025
 70
     8
  0
VERTEX
  8
ガラス
 10
-59.7
 20
38.975
 70
     8
  0
VERTEX
  8
ガラス
 10
-59.7
 20
38.9
 70
     8
  0
VERTEX
  8
ガラス
 10
-59.725
 20
38.85
 70
     8
  0
VERTEX
  8
ガラス
 10
-59.725
 20
38.8
 70
     8
  0
VERTEX
  8
ガラス
 10
-59.75
 20
38.725
 70
     8
  0
VERTEX
  8
ガラス
 10
-59.75
 20
38.675
 70
     8
  0
VERTEX
  8
ガラス
 10
-59.775
 20
38.6
 70
     8
  0
VERTEX
  8
ガラス
 10
-59.775
 20
38.55
 70
     8
  0
VERTEX
  8
ガラス
 10
-59.8
 20
38.5
 70
     8
  0
VERTEX
  8
ガラス
 10
-59.8
 20
38.425
 70
     8
  0
VERTEX
  8
ガラス
 10
-59.8
 20
38.375
 70
     8
  0
VERTEX
  8
ガラス
 10
-59.825
 20
38.3
 70
     8
  0
VERTEX
  8
ガラス
 10
-59.825
 20
38.25
 70
     8
  0
VERTEX
  8
ガラス
 10
-59.825
 20
38.175
 70
     8
  0
VERTEX
  8
ガラス
 10
-59.85
 20
38.125
 70
     8
  0
VERTEX
  8
ガラス
 10
-59.85
 20
38.075
 70
     8
  0
VERTEX
  8
ガラス
 10
-59.85
 20
38.0
 70
     8
  0
VERTEX
  8
ガラス
 10
-59.875
 20
37.95
 70
     8
  0
VERTEX
  8
ガラス
 10
-59.875
 20
37.875
 70
     8
  0
VERTEX
  8
ガラス
 10
-59.875
 20
37.825
 70
     8
  0
VERTEX
  8
ガラス
 10
-59.9
 20
37.75
 70
     8
  0
SEQEND
  0
ARC
  8
ガラス
  6
CONTINUOUS
 10
-60.824712
 20
37.886481
 40
0.955135
 50
173.117443
 51
353.117443
  0
ENDBLK
  0
BLOCK
  2
*GRP_0069
 70
    65
 10
0.0
 20
0.0
  0
POLYLINE
  8
ガラス
  6
CONTINUOUS
 66
     1
 70
     4
  0
VERTEX
  8
ガラス
 10
-65.25
 20
29.975
 70
     8
  0
VERTEX
  8
ガラス
 10
-65.2
 20
30.05
 70
     8
  0
VERTEX
  8
ガラス
 10
-65.175
 20
30.125
 70
     8
  0
VERTEX
  8
ガラス
 10
-65.125
 20
30.225
 70
     8
  0
VERTEX
  8
ガラス
 10
-65.1
 20
30.3
 70
     8
  0
VERTEX
  8
ガラス
 10
-65.05
 20
30.4
 70
     8
  0
VERTEX
  8
ガラス
 10
-65.025
 20
30.475
 70
     8
  0
VERTEX
  8
ガラス
 10
-64.975
 20
30.55
 70
     8
  0
VERTEX
  8
ガラス
 10
-64.95
 20
30.65
 70
     8
  0
VERTEX
  8
ガラス
 10
-64.9
 20
30.725
 70
     8
  0
VERTEX
  8
ガラス
 10
-64.85
 20
30.8
 70
     8
  0
VERTEX
  8
ガラス
 10
-64.825
 20
30.875
 70
     8
  0
VERTEX
  8
ガラス
 10
-64.775
 20
30.95
 70
     8
  0
VERTEX
  8
ガラス
 10
-64.725
 20
31.025
 70
     8
  0
VERTEX
  8
ガラス
 10
-64.675
 20
31.1
 70
     8
  0
VERTEX
  8
ガラス
 10
-64.625
 20
31.175
 70
     8
  0
VERTEX
  8
ガラス
 10
-64.575
 20
31.225
 70
     8
  0
VERTEX
  8
ガラス
 10
-64.525
 20
31.3
 70
     8
  0
VERTEX
  8
ガラス
 10
-64.475
 20
31.35
 70
     8
  0
VERTEX
  8
ガラス
 10
-64.4
 20
31.425
 70
     8
  0
VERTEX
  8
ガラス
 10
-64.35
 20
31.475
 70
     8
  0
VERTEX
  8
ガラス
 10
-64.275
 20
31.525
 70
     8
  0
VERTEX
  8
ガラス
 10
-64.225
 20
31.575
 70
     8
  0
VERTEX
  8
ガラス
 10
-64.15
 20
31.625
 70
     8
  0
VERTEX
  8
ガラス
 10
-64.075
 20
31.675
 70
     8
  0
VERTEX
  8
ガラス
 10
-64.0
 20
31.7
 70
     8
  0
VERTEX
  8
ガラス
 10
-63.925
 20
31.75
 70
     8
  0
VERTEX
  8
ガラス
 10
-63.85
 20
31.775
 70
     8
  0
VERTEX
  8
ガラス
 10
-63.775
 20
31.825
 70
     8
  0
VERTEX
  8
ガラス
 10
-63.675
 20
31.85
 70
     8
  0
VERTEX
  8
ガラス
 10
-63.6
 20
31.875
 70
     8
  0
VERTEX
  8
ガラス
 10
-63.525
 20
31.9
 70
     8
  0
VERTEX
  8
ガラス
 10
-63.425
 20
31.925
 70
     8
  0
VERTEX
  8
ガラス
 10
-63.35
 20
31.95
 70
     8
  0
VERTEX
  8
ガラス
 10
-63.25
 20
31.975
 70
     8
  0
VERTEX
  8
ガラス
 10
-63.175
 20
32.0
 70
     8
  0
VERTEX
  8
ガラス
 10
-63.075
 20
32.025
 70
     8
  0
VERTEX
  8
ガラス
 10
-62.975
 20
32.025
 70
     8
  0
VERTEX
  8
ガラス
 10
-62.9
 20
32.05
 70
     8
  0
VERTEX
  8
ガラス
 10
-62.8
 20
32.075
 70
     8
  0
VERTEX
  8
ガラス
 10
-62.725
 20
32.1
 70
     8
  0
SEQEND
  0
POLYLINE
  8
ガラス
  6
CONTINUOUS
 66
     1
 70
     4
  0
VERTEX
  8
ガラス
 10
-62.725
 20
32.1
 70
     8
  0
VERTEX
  8
ガラス
 10
-62.75
 20
32.025
 70
     8
  0
VERTEX
  8
ガラス
 10
-62.775
 20
31.975
 70
     8
  0
VERTEX
  8
ガラス
 10
-62.775
 20
31.925
 70
     8
  0
VERTEX
  8
ガラス
 10
-62.8
 20
31.875
 70
     8
  0
VERTEX
  8
ガラス
 10
-62.825
 20
31.8
 70
     8
  0
VERTEX
  8
ガラス
 10
-62.85
 20
31.75
 70
     8
  0
VERTEX
  8
ガラス
 10
-62.875
 20
31.7
 70
     8
  0
VERTEX
  8
ガラス
 10
-62.9
 20
31.65
 70
     8
  0
VERTEX
  8
ガラス
 10
-62.925
 20
31.575
 70
     8
  0
VERTEX
  8
ガラス
 10
-62.95
 20
31.525
 70
     8
  0
VERTEX
  8
ガラス
 10
-62.975
 20
31.475
 70
     8
  0
VERTEX
  8
ガラス
 10
-63.0
 20
31.4
 70
     8
  0
VERTEX
  8
ガラス
 10
-63.025
 20
31.35
 70
     8
  0
VERTEX
  8
ガラス
 10
-63.025
 20
31.3
 70
     8
  0
VERTEX
  8
ガラス
 10
-63.05
 20
31.225
 70
     8
  0
VERTEX
  8
ガラス
 10
-63.075
 20
31.175
 70
     8
  0
VERTEX
  8
ガラス
 10
-63.1
 20
31.125
 70
     8
  0
VERTEX
  8
ガラス
 10
-63.1
 20
31.05
 70
     8
  0
VERTEX
  8
ガラス
 10
-63.125
 20
31.0
 70
     8
  0
VERTEX
  8
ガラス
 10
-63.15
 20
30.95
 70
     8
  0
VERTEX
  8
ガラス
 10
-63.15
 20
30.875
 70
     8
  0
VERTEX
  8
ガラス
 10
-63.175
 20
30.825
 70
     8
  0
VERTEX
  8
ガラス
 10
-63.175
 20
30.775
 70
     8
  0
VERTEX
  8
ガラス
 10
-63.2
 20
30.7
 70
     8
  0
VERTEX
  8
ガラス
 10
-63.225
 20
30.65
 70
     8
  0
VERTEX
  8
ガラス
 10
-63.225
 20
30.575
 70
     8
  0
VERTEX
  8
ガラス
 10
-63.225
 20
30.525
 70
     8
  0
VERTEX
  8
ガラス
 10
-63.25
 20
30.475
 70
     8
  0
VERTEX
  8
ガラス
 10
-63.25
 20
30.4
 70
     8
  0
VERTEX
  8
ガラス
 10
-63.275
 20
30.35
 70
     8
  0
VERTEX
  8
ガラス
 10
-63.275
 20
30.275
 70
     8
  0
VERTEX
  8
ガラス
 10
-63.275
 20
30.225
 70
     8
  0
VERTEX
  8
ガラス
 10
-63.3
 20
30.175
 70
     8
  0
VERTEX
  8
ガラス
 10
-63.3
 20
30.1
 70
     8
  0
VERTEX
  8
ガラス
 10
-63.3
 20
30.05
 70
     8
  0
VERTEX
  8
ガラス
 10
-63.325
 20
29.975
 70
     8
  0
VERTEX
  8
ガラス
 10
-63.325
 20
29.925
 70
     8
  0
VERTEX
  8
ガラス
 10
-63.325
 20
29.85
 70
     8
  0
VERTEX
  8
ガラス
 10
-63.325
 20
29.8
 70
     8
  0
VERTEX
  8
ガラス
 10
-63.35
 20
29.725
 70
     8
  0
SEQEND
  0
ARC
  8
ガラス
  6
CONTINUOUS
 10
-64.279436
 20
29.862606
 40
0.955135
 50
173.117443
 51
353.117443
  0
ENDBLK
  0
BLOCK
  2
*GRP_0070
 70
    65
 10
0.0
 20
0.0
  0
POLYLINE
  8
ガラス
  6
CONTINUOUS
 66
     1
 70
     4
  0
VERTEX
  8
ガラス
 10
-35.1
 20
-107.35
 70
     8
  0
VERTEX
  8
ガラス
 10
-35.075
 20
-107.25
 70
     8
  0
VERTEX
  8
ガラス
 10
-35.025
 20
-107.175
 70
     8
  0
VERTEX
  8
ガラス
 10
-35.0
 20
-107.075
 70
     8
  0
VERTEX
  8
ガラス
 10
-34.95
 20
-107.0
 70
     8
  0
VERTEX
  8
ガラス
 10
-34.925
 20
-106.925
 70
     8
  0
VERTEX
  8
ガラス
 10
-34.875
 20
-106.825
 70
     8
  0
VERTEX
  8
ガラス
 10
-34.85
 20
-106.75
 70
     8
  0
VERTEX
  8
ガラス
 10
-34.8
 20
-106.675
 70
     8
  0
VERTEX
  8
ガラス
 10
-34.775
 20
-106.575
 70
     8
  0
VERTEX
  8
ガラス
 10
-34.725
 20
-106.5
 70
     8
  0
VERTEX
  8
ガラス
 10
-34.675
 20
-106.425
 70
     8
  0
VERTEX
  8
ガラス
 10
-34.625
 20
-106.35
 70
     8
  0
VERTEX
  8
ガラス
 10
-34.6
 20
-106.275
 70
     8
  0
VERTEX
  8
ガラス
 10
-34.55
 20
-106.2
 70
     8
  0
VERTEX
  8
ガラス
 10
-34.5
 20
-106.15
 70
     8
  0
VERTEX
  8
ガラス
 10
-34.45
 20
-106.075
 70
     8
  0
VERTEX
  8
ガラス
 10
-34.375
 20
-106.0
 70
     8
  0
VERTEX
  8
ガラス
 10
-34.325
 20
-105.95
 70
     8
  0
VERTEX
  8
ガラス
 10
-34.275
 20
-105.875
 70
     8
  0
VERTEX
  8
ガラス
 10
-34.2
 20
-105.825
 70
     8
  0
VERTEX
  8
ガラス
 10
-34.15
 20
-105.775
 70
     8
  0
VERTEX
  8
ガラス
 10
-34.075
 20
-105.725
 70
     8
  0
VERTEX
  8
ガラス
 10
-34.0
 20
-105.675
 70
     8
  0
VERTEX
  8
ガラス
 10
-33.95
 20
-105.65
 70
     8
  0
VERTEX
  8
ガラス
 10
-33.875
 20
-105.6
 70
     8
  0
VERTEX
  8
ガラス
 10
-33.8
 20
-105.575
 70
     8
  0
VERTEX
  8
ガラス
 10
-33.7
 20
-105.525
 70
     8
  0
VERTEX
  8
ガラス
 10
-33.625
 20
-105.5
 70
     8
  0
VERTEX
  8
ガラス
 10
-33.55
 20
-105.475
 70
     8
  0
VERTEX
  8
ガラス
 10
-33.475
 20
-105.425
 70
     8
  0
VERTEX
  8
ガラス
 10
-33.375
 20
-105.4
 70
     8
  0
VERTEX
  8
ガラス
 10
-33.3
 20
-105.375
 70
     8
  0
VERTEX
  8
ガラス
 10
-33.2
 20
-105.35
 70
     8
  0
VERTEX
  8
ガラス
 10
-33.125
 20
-105.325
 70
     8
  0
VERTEX
  8
ガラス
 10
-33.025
 20
-105.325
 70
     8
  0
VERTEX
  8
ガラス
 10
-32.95
 20
-105.3
 70
     8
  0
VERTEX
  8
ガラス
 10
-32.85
 20
-105.275
 70
     8
  0
VERTEX
  8
ガラス
 10
-32.775
 20
-105.25
 70
     8
  0
VERTEX
  8
ガラス
 10
-32.675
 20
-105.225
 70
     8
  0
VERTEX
  8
ガラス
 10
-32.575
 20
-105.225
 70
     8
  0
SEQEND
  0
POLYLINE
  8
ガラス
  6
CONTINUOUS
 66
     1
 70
     4
  0
VERTEX
  8
ガラス
 10
-32.575
 20
-105.225
 70
     8
  0
VERTEX
  8
ガラス
 10
-32.6
 20
-105.275
 70
     8
  0
VERTEX
  8
ガラス
 10
-32.625
 20
-105.325
 70
     8
  0
VERTEX
  8
ガラス
 10
-32.65
 20
-105.375
 70
     8
  0
VERTEX
  8
ガラス
 10
-32.675
 20
-105.45
 70
     8
  0
VERTEX
  8
ガラス
 10
-32.7
 20
-105.5
 70
     8
  0
VERTEX
  8
ガラス
 10
-32.725
 20
-105.55
 70
     8
  0
VERTEX
  8
ガラス
 10
-32.75
 20
-105.6
 70
     8
  0
VERTEX
  8
ガラス
 10
-32.775
 20
-105.675
 70
     8
  0
VERTEX
  8
ガラス
 10
-32.8
 20
-105.725
 70
     8
  0
VERTEX
  8
ガラス
 10
-32.825
 20
-105.775
 70
     8
  0
VERTEX
  8
ガラス
 10
-32.825
 20
-105.85
 70
     8
  0
VERTEX
  8
ガラス
 10
-32.85
 20
-105.9
 70
     8
  0
VERTEX
  8
ガラス
 10
-32.875
 20
-105.95
 70
     8
  0
VERTEX
  8
ガラス
 10
-32.9
 20
-106.025
 70
     8
  0
VERTEX
  8
ガラス
 10
-32.925
 20
-106.075
 70
     8
  0
VERTEX
  8
ガラス
 10
-32.95
 20
-106.125
 70
     8
  0
VERTEX
  8
ガラス
 10
-32.95
 20
-106.2
 70
     8
  0
VERTEX
  8
ガラス
 10
-32.975
 20
-106.25
 70
     8
  0
VERTEX
  8
ガラス
 10
-33.0
 20
-106.3
 70
     8
  0
VERTEX
  8
ガラス
 10
-33.0
 20
-106.375
 70
     8
  0
VERTEX
  8
ガラス
 10
-33.025
 20
-106.425
 70
     8
  0
VERTEX
  8
ガラス
 10
-33.05
 20
-106.475
 70
     8
  0
VERTEX
  8
ガラス
 10
-33.05
 20
-106.55
 70
     8
  0
VERTEX
  8
ガラス
 10
-33.075
 20
-106.6
 70
     8
  0
VERTEX
  8
ガラス
 10
-33.075
 20
-106.65
 70
     8
  0
VERTEX
  8
ガラス
 10
-33.1
 20
-106.725
 70
     8
  0
VERTEX
  8
ガラス
 10
-33.1
 20
-106.775
 70
     8
  0
VERTEX
  8
ガラス
 10
-33.125
 20
-106.85
 70
     8
  0
VERTEX
  8
ガラス
 10
-33.125
 20
-106.9
 70
     8
  0
VERTEX
  8
ガラス
 10
-33.125
 20
-106.95
 70
     8
  0
VERTEX
  8
ガラス
 10
-33.15
 20
-107.025
 70
     8
  0
VERTEX
  8
ガラス
 10
-33.15
 20
-107.075
 70
     8
  0
VERTEX
  8
ガラス
 10
-33.15
 20
-107.15
 70
     8
  0
VERTEX
  8
ガラス
 10
-33.175
 20
-107.2
 70
     8
  0
VERTEX
  8
ガラス
 10
-33.175
 20
-107.275
 70
     8
  0
VERTEX
  8
ガラス
 10
-33.175
 20
-107.325
 70
     8
  0
VERTEX
  8
ガラス
 10
-33.2
 20
-107.4
 70
     8
  0
VERTEX
  8
ガラス
 10
-33.2
 20
-107.45
 70
     8
  0
VERTEX
  8
ガラス
 10
-33.2
 20
-107.5
 70
     8
  0
VERTEX
  8
ガラス
 10
-33.2
 20
-107.575
 70
     8
  0
SEQEND
  0
ARC
  8
ガラス
  6
CONTINUOUS
 10
-34.145483
 20
-107.445485
 40
0.955135
 50
173.117443
 51
353.117443
  0
ENDBLK
  0
BLOCK
  2
*GRP_0071
 70
    65
 10
0.0
 20
0.0
  0
POLYLINE
  8
ガラス
  6
CONTINUOUS
 66
     1
 70
     4
  0
VERTEX
  8
ガラス
 10
-38.125
 20
-115.975
 70
     8
  0
VERTEX
  8
ガラス
 10
-38.075
 20
-115.9
 70
     8
  0
VERTEX
  8
ガラス
 10
-38.05
 20
-115.8
 70
     8
  0
VERTEX
  8
ガラス
 10
-38.0
 20
-115.725
 70
     8
  0
VERTEX
  8
ガラス
 10
-37.975
 20
-115.625
 70
     8
  0
VERTEX
  8
ガラス
 10
-37.925
 20
-115.55
 70
     8
  0
VERTEX
  8
ガラス
 10
-37.9
 20
-115.475
 70
     8
  0
VERTEX
  8
ガラス
 10
-37.85
 20
-115.375
 70
     8
  0
VERTEX
  8
ガラス
 10
-37.825
 20
-115.3
 70
     8
  0
VERTEX
  8
ガラス
 10
-37.775
 20
-115.225
 70
     8
  0
VERTEX
  8
ガラス
 10
-37.725
 20
-115.15
 70
     8
  0
VERTEX
  8
ガラス
 10
-37.7
 20
-115.075
 70
     8
  0
VERTEX
  8
ガラス
 10
-37.65
 20
-115.0
 70
     8
  0
VERTEX
  8
ガラス
 10
-37.6
 20
-114.925
 70
     8
  0
VERTEX
  8
ガラス
 10
-37.55
 20
-114.85
 70
     8
  0
VERTEX
  8
ガラス
 10
-37.5
 20
-114.775
 70
     8
  0
VERTEX
  8
ガラス
 10
-37.45
 20
-114.7
 70
     8
  0
VERTEX
  8
ガラス
 10
-37.4
 20
-114.65
 70
     8
  0
VERTEX
  8
ガラス
 10
-37.35
 20
-114.575
 70
     8
  0
VERTEX
  8
ガラス
 10
-37.275
 20
-114.525
 70
     8
  0
VERTEX
  8
ガラス
 10
-37.225
 20
-114.475
 70
     8
  0
VERTEX
  8
ガラス
 10
-37.15
 20
-114.425
 70
     8
  0
VERTEX
  8
ガラス
 10
-37.1
 20
-114.375
 70
     8
  0
VERTEX
  8
ガラス
 10
-37.025
 20
-114.325
 70
     8
  0
VERTEX
  8
ガラス
 10
-36.95
 20
-114.275
 70
     8
  0
VERTEX
  8
ガラス
 10
-36.875
 20
-114.225
 70
     8
  0
VERTEX
  8
ガラス
 10
-36.8
 20
-114.2
 70
     8
  0
VERTEX
  8
ガラス
 10
-36.725
 20
-114.175
 70
     8
  0
VERTEX
  8
ガラス
 10
-36.65
 20
-114.125
 70
     8
  0
VERTEX
  8
ガラス
 10
-36.55
 20
-114.1
 70
     8
  0
VERTEX
  8
ガラス
 10
-36.475
 20
-114.075
 70
     8
  0
VERTEX
  8
ガラス
 10
-36.4
 20
-114.05
 70
     8
  0
VERTEX
  8
ガラス
 10
-36.3
 20
-114.025
 70
     8
  0
VERTEX
  8
ガラス
 10
-36.225
 20
-114.0
 70
     8
  0
VERTEX
  8
ガラス
 10
-36.125
 20
-113.975
 70
     8
  0
VERTEX
  8
ガラス
 10
-36.05
 20
-113.95
 70
     8
  0
VERTEX
  8
ガラス
 10
-35.95
 20
-113.925
 70
     8
  0
VERTEX
  8
ガラス
 10
-35.85
 20
-113.9
 70
     8
  0
VERTEX
  8
ガラス
 10
-35.775
 20
-113.9
 70
     8
  0
VERTEX
  8
ガラス
 10
-35.675
 20
-113.875
 70
     8
  0
VERTEX
  8
ガラス
 10
-35.6
 20
-113.85
 70
     8
  0
SEQEND
  0
POLYLINE
  8
ガラス
  6
CONTINUOUS
 66
     1
 70
     4
  0
VERTEX
  8
ガラス
 10
-35.6
 20
-113.85
 70
     8
  0
VERTEX
  8
ガラス
 10
-35.625
 20
-113.9
 70
     8
  0
VERTEX
  8
ガラス
 10
-35.65
 20
-113.975
 70
     8
  0
VERTEX
  8
ガラス
 10
-35.65
 20
-114.025
 70
     8
  0
VERTEX
  8
ガラス
 10
-35.675
 20
-114.075
 70
     8
  0
VERTEX
  8
ガラス
 10
-35.7
 20
-114.125
 70
     8
  0
VERTEX
  8
ガラス
 10
-35.725
 20
-114.2
 70
     8
  0
VERTEX
  8
ガラス
 10
-35.75
 20
-114.25
 70
     8
  0
VERTEX
  8
ガラス
 10
-35.775
 20
-114.3
 70
     8
  0
VERTEX
  8
ガラス
 10
-35.8
 20
-114.375
 70
     8
  0
VERTEX
  8
ガラス
 10
-35.825
 20
-114.425
 70
     8
  0
VERTEX
  8
ガラス
 10
-35.85
 20
-114.475
 70
     8
  0
VERTEX
  8
ガラス
 10
-35.875
 20
-114.525
 70
     8
  0
VERTEX
  8
ガラス
 10
-35.9
 20
-114.6
 70
     8
  0
VERTEX
  8
ガラス
 10
-35.9
 20
-114.65
 70
     8
  0
VERTEX
  8
ガラス
 10
-35.925
 20
-114.7
 70
     8
  0
VERTEX
  8
ガラス
 10
-35.95
 20
-114.775
 70
     8
  0
VERTEX
  8
ガラス
 10
-35.975
 20
-114.825
 70
     8
  0
VERTEX
  8
ガラス
 10
-35.975
 20
-114.875
 70
     8
  0
VERTEX
  8
ガラス
 10
-36.0
 20
-114.95
 70
     8
  0
VERTEX
  8
ガラス
 10
-36.025
 20
-115.0
 70
     8
  0
VERTEX
  8
ガラス
 10
-36.025
 20
-115.05
 70
     8
  0
VERTEX
  8
ガラス
 10
-36.05
 20
-115.125
 70
     8
  0
VERTEX
  8
ガラス
 10
-36.05
 20
-115.175
 70
     8
  0
VERTEX
  8
ガラス
 10
-36.075
 20
-115.25
 70
     8
  0
VERTEX
  8
ガラス
 10
-36.1
 20
-115.3
 70
     8
  0
VERTEX
  8
ガラス
 10
-36.1
 20
-115.35
 70
     8
  0
VERTEX
  8
ガラス
 10
-36.1
 20
-115.425
 70
     8
  0
VERTEX
  8
ガラス
 10
-36.125
 20
-115.475
 70
     8
  0
VERTEX
  8
ガラス
 10
-36.125
 20
-115.55
 70
     8
  0
VERTEX
  8
ガラス
 10
-36.15
 20
-115.6
 70
     8
  0
VERTEX
  8
ガラス
 10
-36.15
 20
-115.65
 70
     8
  0
VERTEX
  8
ガラス
 10
-36.15
 20
-115.725
 70
     8
  0
VERTEX
  8
ガラス
 10
-36.175
 20
-115.775
 70
     8
  0
VERTEX
  8
ガラス
 10
-36.175
 20
-115.85
 70
     8
  0
VERTEX
  8
ガラス
 10
-36.175
 20
-115.9
 70
     8
  0
VERTEX
  8
ガラス
 10
-36.2
 20
-115.975
 70
     8
  0
VERTEX
  8
ガラス
 10
-36.2
 20
-116.025
 70
     8
  0
VERTEX
  8
ガラス
 10
-36.2
 20
-116.075
 70
     8
  0
VERTEX
  8
ガラス
 10
-36.2
 20
-116.15
 70
     8
  0
VERTEX
  8
ガラス
 10
-36.225
 20
-116.2
 70
     8
  0
SEQEND
  0
ARC
  8
ガラス
  6
CONTINUOUS
 10
-37.154436
 20
-116.082295
 40
0.955135
 50
173.117443
 51
353.117443
  0
ENDBLK
  0
BLOCK
  2
*GRP_0072
 70
    65
 10
0.0
 20
0.0
  0
POLYLINE
  8
ガラス
  6
CONTINUOUS
 66
     1
 70
     4
  0
VERTEX
  8
ガラス
 10
57.875
 20
-104.75
 70
     8
  0
VERTEX
  8
ガラス
 10
57.975
 20
-104.725
 70
     8
  0
VERTEX
  8
ガラス
 10
58.05
 20
-104.725
 70
     8
  0
VERTEX
  8
ガラス
 10
58.15
 20
-104.7
 70
     8
  0
VERTEX
  8
ガラス
 10
58.25
 20
-104.7
 70
     8
  0
VERTEX
  8
ガラス
 10
58.325
 20
-104.7
 70
     8
  0
VERTEX
  8
ガラス
 10
58.425
 20
-104.675
 70
     8
  0
VERTEX
  8
ガラス
 10
58.525
 20
-104.675
 70
     8
  0
VERTEX
  8
ガラス
 10
58.6
 20
-104.675
 70
     8
  0
VERTEX
  8
ガラス
 10
58.7
 20
-104.675
 70
     8
  0
VERTEX
  8
ガラス
 10
58.8
 20
-104.675
 70
     8
  0
VERTEX
  8
ガラス
 10
58.875
 20
-104.675
 70
     8
  0
VERTEX
  8
ガラス
 10
58.975
 20
-104.675
 70
     8
  0
VERTEX
  8
ガラス
 10
59.05
 20
-104.675
 70
     8
  0
VERTEX
  8
ガラス
 10
59.15
 20
-104.675
 70
     8
  0
VERTEX
  8
ガラス
 10
59.225
 20
-104.7
 70
     8
  0
VERTEX
  8
ガラス
 10
59.3
 20
-104.7
 70
     8
  0
VERTEX
  8
ガラス
 10
59.4
 20
-104.725
 70
     8
  0
VERTEX
  8
ガラス
 10
59.475
 20
-104.725
 70
     8
  0
VERTEX
  8
ガラス
 10
59.55
 20
-104.75
 70
     8
  0
VERTEX
  8
ガラス
 10
59.625
 20
-104.775
 70
     8
  0
VERTEX
  8
ガラス
 10
59.7
 20
-104.825
 70
     8
  0
VERTEX
  8
ガラス
 10
59.775
 20
-104.85
 70
     8
  0
VERTEX
  8
ガラス
 10
59.85
 20
-104.9
 70
     8
  0
VERTEX
  8
ガラス
 10
59.925
 20
-104.925
 70
     8
  0
VERTEX
  8
ガラス
 10
60.0
 20
-104.975
 70
     8
  0
VERTEX
  8
ガラス
 10
60.075
 20
-105.025
 70
     8
  0
VERTEX
  8
ガラス
 10
60.125
 20
-105.075
 70
     8
  0
VERTEX
  8
ガラス
 10
60.2
 20
-105.125
 70
     8
  0
VERTEX
  8
ガラス
 10
60.275
 20
-105.175
 70
     8
  0
VERTEX
  8
ガラス
 10
60.325
 20
-105.25
 70
     8
  0
VERTEX
  8
ガラス
 10
60.4
 20
-105.3
 70
     8
  0
VERTEX
  8
ガラス
 10
60.475
 20
-105.375
 70
     8
  0
VERTEX
  8
ガラス
 10
60.525
 20
-105.425
 70
     8
  0
VERTEX
  8
ガラス
 10
60.6
 20
-105.5
 70
     8
  0
VERTEX
  8
ガラス
 10
60.65
 20
-105.55
 70
     8
  0
VERTEX
  8
ガラス
 10
60.725
 20
-105.625
 70
     8
  0
VERTEX
  8
ガラス
 10
60.775
 20
-105.7
 70
     8
  0
VERTEX
  8
ガラス
 10
60.85
 20
-105.775
 70
     8
  0
VERTEX
  8
ガラス
 10
60.9
 20
-105.85
 70
     8
  0
VERTEX
  8
ガラス
 10
60.95
 20
-105.9
 70
     8
  0
SEQEND
  0
POLYLINE
  8
ガラス
  6
CONTINUOUS
 66
     1
 70
     4
  0
VERTEX
  8
ガラス
 10
60.95
 20
-105.9
 70
     8
  0
VERTEX
  8
ガラス
 10
60.9
 20
-105.925
 70
     8
  0
VERTEX
  8
ガラス
 10
60.85
 20
-105.925
 70
     8
  0
VERTEX
  8
ガラス
 10
60.775
 20
-105.925
 70
     8
  0
VERTEX
  8
ガラス
 10
60.725
 20
-105.925
 70
     8
  0
VERTEX
  8
ガラス
 10
60.65
 20
-105.95
 70
     8
  0
VERTEX
  8
ガラス
 10
60.6
 20
-105.95
 70
     8
  0
VERTEX
  8
ガラス
 10
60.525
 20
-105.95
 70
     8
  0
VERTEX
  8
ガラス
 10
60.475
 20
-105.975
 70
     8
  0
VERTEX
  8
ガラス
 10
60.4
 20
-105.975
 70
     8
  0
VERTEX
  8
ガラス
 10
60.35
 20
-105.975
 70
     8
  0
VERTEX
  8
ガラス
 10
60.3
 20
-106.0
 70
     8
  0
VERTEX
  8
ガラス
 10
60.225
 20
-106.0
 70
     8
  0
VERTEX
  8
ガラス
 10
60.175
 20
-106.0
 70
     8
  0
VERTEX
  8
ガラス
 10
60.1
 20
-106.025
 70
     8
  0
VERTEX
  8
ガラス
 10
60.05
 20
-106.025
 70
     8
  0
VERTEX
  8
ガラス
 10
60.0
 20
-106.05
 70
     8
  0
VERTEX
  8
ガラス
 10
59.925
 20
-106.05
 70
     8
  0
VERTEX
  8
ガラス
 10
59.875
 20
-106.075
 70
     8
  0
VERTEX
  8
ガラス
 10
59.8
 20
-106.075
 70
     8
  0
VERTEX
  8
ガラス
 10
59.75
 20
-106.1
 70
     8
  0
VERTEX
  8
ガラス
 10
59.7
 20
-106.1
 70
     8
  0
VERTEX
  8
ガラス
 10
59.625
 20
-106.125
 70
     8
  0
VERTEX
  8
ガラス
 10
59.575
 20
-106.15
 70
     8
  0
VERTEX
  8
ガラス
 10
59.525
 20
-106.15
 70
     8
  0
VERTEX
  8
ガラス
 10
59.45
 20
-106.175
 70
     8
  0
VERTEX
  8
ガラス
 10
59.4
 20
-106.2
 70
     8
  0
VERTEX
  8
ガラス
 10
59.35
 20
-106.225
 70
     8
  0
VERTEX
  8
ガラス
 10
59.275
 20
-106.225
 70
     8
  0
VERTEX
  8
ガラス
 10
59.225
 20
-106.25
 70
     8
  0
VERTEX
  8
ガラス
 10
59.175
 20
-106.275
 70
     8
  0
VERTEX
  8
ガラス
 10
59.1
 20
-106.3
 70
     8
  0
VERTEX
  8
ガラス
 10
59.05
 20
-106.325
 70
     8
  0
VERTEX
  8
ガラス
 10
59.0
 20
-106.35
 70
     8
  0
VERTEX
  8
ガラス
 10
58.95
 20
-106.375
 70
     8
  0
VERTEX
  8
ガラス
 10
58.875
 20
-106.4
 70
     8
  0
VERTEX
  8
ガラス
 10
58.825
 20
-106.425
 70
     8
  0
VERTEX
  8
ガラス
 10
58.775
 20
-106.425
 70
     8
  0
VERTEX
  8
ガラス
 10
58.7
 20
-106.45
 70
     8
  0
VERTEX
  8
ガラス
 10
58.65
 20
-106.475
 70
     8
  0
VERTEX
  8
ガラス
 10
58.6
 20
-106.5
 70
     8
  0
SEQEND
  0
ARC
  8
ガラス
  6
CONTINUOUS
 10
58.246701
 20
-105.610757
 40
0.955135
 50
112.264588
 51
292.264588
  0
ENDBLK
  0
BLOCK
  2
*GRP_0073
 70
    65
 10
0.0
 20
0.0
  0
POLYLINE
  8
ガラス
  6
CONTINUOUS
 66
     1
 70
     4
  0
VERTEX
  8
ガラス
 10
41.825
 20
-104.75
 70
     8
  0
VERTEX
  8
ガラス
 10
41.925
 20
-104.725
 70
     8
  0
VERTEX
  8
ガラス
 10
42.0
 20
-104.725
 70
     8
  0
VERTEX
  8
ガラス
 10
42.1
 20
-104.7
 70
     8
  0
VERTEX
  8
ガラス
 10
42.2
 20
-104.7
 70
     8
  0
VERTEX
  8
ガラス
 10
42.3
 20
-104.7
 70
     8
  0
VERTEX
  8
ガラス
 10
42.375
 20
-104.675
 70
     8
  0
VERTEX
  8
ガラス
 10
42.475
 20
-104.675
 70
     8
  0
VERTEX
  8
ガラス
 10
42.55
 20
-104.675
 70
     8
  0
VERTEX
  8
ガラス
 10
42.65
 20
-104.675
 70
     8
  0
VERTEX
  8
ガラス
 10
42.75
 20
-104.675
 70
     8
  0
VERTEX
  8
ガラス
 10
42.825
 20
-104.675
 70
     8
  0
VERTEX
  8
ガラス
 10
42.925
 20
-104.675
 70
     8
  0
VERTEX
  8
ガラス
 10
43.0
 20
-104.675
 70
     8
  0
VERTEX
  8
ガラス
 10
43.1
 20
-104.675
 70
     8
  0
VERTEX
  8
ガラス
 10
43.175
 20
-104.7
 70
     8
  0
VERTEX
  8
ガラス
 10
43.25
 20
-104.7
 70
     8
  0
VERTEX
  8
ガラス
 10
43.35
 20
-104.725
 70
     8
  0
VERTEX
  8
ガラス
 10
43.425
 20
-104.725
 70
     8
  0
VERTEX
  8
ガラス
 10
43.5
 20
-104.75
 70
     8
  0
VERTEX
  8
ガラス
 10
43.575
 20
-104.775
 70
     8
  0
VERTEX
  8
ガラス
 10
43.65
 20
-104.825
 70
     8
  0
VERTEX
  8
ガラス
 10
43.725
 20
-104.85
 70
     8
  0
VERTEX
  8
ガラス
 10
43.8
 20
-104.9
 70
     8
  0
VERTEX
  8
ガラス
 10
43.875
 20
-104.925
 70
     8
  0
VERTEX
  8
ガラス
 10
43.95
 20
-104.975
 70
     8
  0
VERTEX
  8
ガラス
 10
44.025
 20
-105.025
 70
     8
  0
VERTEX
  8
ガラス
 10
44.1
 20
-105.075
 70
     8
  0
VERTEX
  8
ガラス
 10
44.15
 20
-105.125
 70
     8
  0
VERTEX
  8
ガラス
 10
44.225
 20
-105.175
 70
     8
  0
VERTEX
  8
ガラス
 10
44.3
 20
-105.25
 70
     8
  0
VERTEX
  8
ガラス
 10
44.35
 20
-105.3
 70
     8
  0
VERTEX
  8
ガラス
 10
44.425
 20
-105.375
 70
     8
  0
VERTEX
  8
ガラス
 10
44.475
 20
-105.425
 70
     8
  0
VERTEX
  8
ガラス
 10
44.55
 20
-105.5
 70
     8
  0
VERTEX
  8
ガラス
 10
44.6
 20
-105.55
 70
     8
  0
VERTEX
  8
ガラス
 10
44.675
 20
-105.625
 70
     8
  0
VERTEX
  8
ガラス
 10
44.725
 20
-105.7
 70
     8
  0
VERTEX
  8
ガラス
 10
44.8
 20
-105.775
 70
     8
  0
VERTEX
  8
ガラス
 10
44.85
 20
-105.85
 70
     8
  0
VERTEX
  8
ガラス
 10
44.925
 20
-105.9
 70
     8
  0
SEQEND
  0
POLYLINE
  8
ガラス
  6
CONTINUOUS
 66
     1
 70
     4
  0
VERTEX
  8
ガラス
 10
44.925
 20
-105.9
 70
     8
  0
VERTEX
  8
ガラス
 10
44.85
 20
-105.925
 70
     8
  0
VERTEX
  8
ガラス
 10
44.8
 20
-105.925
 70
     8
  0
VERTEX
  8
ガラス
 10
44.725
 20
-105.925
 70
     8
  0
VERTEX
  8
ガラス
 10
44.675
 20
-105.925
 70
     8
  0
VERTEX
  8
ガラス
 10
44.6
 20
-105.95
 70
     8
  0
VERTEX
  8
ガラス
 10
44.55
 20
-105.95
 70
     8
  0
VERTEX
  8
ガラス
 10
44.475
 20
-105.95
 70
     8
  0
VERTEX
  8
ガラス
 10
44.425
 20
-105.975
 70
     8
  0
VERTEX
  8
ガラス
 10
44.375
 20
-105.975
 70
     8
  0
VERTEX
  8
ガラス
 10
44.3
 20
-105.975
 70
     8
  0
VERTEX
  8
ガラス
 10
44.25
 20
-106.0
 70
     8
  0
VERTEX
  8
ガラス
 10
44.175
 20
-106.0
 70
     8
  0
VERTEX
  8
ガラス
 10
44.125
 20
-106.0
 70
     8
  0
VERTEX
  8
ガラス
 10
44.05
 20
-106.025
 70
     8
  0
VERTEX
  8
ガラス
 10
44.0
 20
-106.025
 70
     8
  0
VERTEX
  8
ガラス
 10
43.95
 20
-106.05
 70
     8
  0
VERTEX
  8
ガラス
 10
43.875
 20
-106.05
 70
     8
  0
VERTEX
  8
ガラス
 10
43.825
 20
-106.075
 70
     8
  0
VERTEX
  8
ガラス
 10
43.75
 20
-106.075
 70
     8
  0
VERTEX
  8
ガラス
 10
43.7
 20
-106.1
 70
     8
  0
VERTEX
  8
ガラス
 10
43.65
 20
-106.1
 70
     8
  0
VERTEX
  8
ガラス
 10
43.575
 20
-106.125
 70
     8
  0
VERTEX
  8
ガラス
 10
43.525
 20
-106.15
 70
     8
  0
VERTEX
  8
ガラス
 10
43.475
 20
-106.15
 70
     8
  0
VERTEX
  8
ガラス
 10
43.4
 20
-106.175
 70
     8
  0
VERTEX
  8
ガラス
 10
43.35
 20
-106.2
 70
     8
  0
VERTEX
  8
ガラス
 10
43.3
 20
-106.225
 70
     8
  0
VERTEX
  8
ガラス
 10
43.225
 20
-106.225
 70
     8
  0
VERTEX
  8
ガラス
 10
43.175
 20
-106.25
 70
     8
  0
VERTEX
  8
ガラス
 10
43.125
 20
-106.275
 70
     8
  0
VERTEX
  8
ガラス
 10
43.05
 20
-106.3
 70
     8
  0
VERTEX
  8
ガラス
 10
43.0
 20
-106.325
 70
     8
  0
VERTEX
  8
ガラス
 10
42.95
 20
-106.35
 70
     8
  0
VERTEX
  8
ガラス
 10
42.9
 20
-106.375
 70
     8
  0
VERTEX
  8
ガラス
 10
42.825
 20
-106.4
 70
     8
  0
VERTEX
  8
ガラス
 10
42.775
 20
-106.425
 70
     8
  0
VERTEX
  8
ガラス
 10
42.725
 20
-106.425
 70
     8
  0
VERTEX
  8
ガラス
 10
42.65
 20
-106.45
 70
     8
  0
VERTEX
  8
ガラス
 10
42.6
 20
-106.475
 70
     8
  0
VERTEX
  8
ガラス
 10
42.55
 20
-106.5
 70
     8
  0
SEQEND
  0
ARC
  8
ガラス
  6
CONTINUOUS
 10
42.198951
 20
-105.610757
 40
0.955135
 50
112.264588
 51
292.264588
  0
ENDBLK
  0
BLOCK
  2
*GRP_0074
 70
    65
 10
0.0
 20
0.0
  0
POLYLINE
  8
ガラス
  6
CONTINUOUS
 66
     1
 70
     4
  0
VERTEX
  8
ガラス
 10
20.6
 20
-104.75
 70
     8
  0
VERTEX
  8
ガラス
 10
20.7
 20
-104.725
 70
     8
  0
VERTEX
  8
ガラス
 10
20.775
 20
-104.725
 70
     8
  0
VERTEX
  8
ガラス
 10
20.875
 20
-104.7
 70
     8
  0
VERTEX
  8
ガラス
 10
20.975
 20
-104.7
 70
     8
  0
VERTEX
  8
ガラス
 10
21.05
 20
-104.7
 70
     8
  0
VERTEX
  8
ガラス
 10
21.15
 20
-104.675
 70
     8
  0
VERTEX
  8
ガラス
 10
21.25
 20
-104.675
 70
     8
  0
VERTEX
  8
ガラス
 10
21.325
 20
-104.675
 70
     8
  0
VERTEX
  8
ガラス
 10
21.425
 20
-104.675
 70
     8
  0
VERTEX
  8
ガラス
 10
21.5
 20
-104.675
 70
     8
  0
VERTEX
  8
ガラス
 10
21.6
 20
-104.675
 70
     8
  0
VERTEX
  8
ガラス
 10
21.7
 20
-104.675
 70
     8
  0
VERTEX
  8
ガラス
 10
21.775
 20
-104.675
 70
     8
  0
VERTEX
  8
ガラス
 10
21.85
 20
-104.675
 70
     8
  0
VERTEX
  8
ガラス
 10
21.95
 20
-104.7
 70
     8
  0
VERTEX
  8
ガラス
 10
22.025
 20
-104.7
 70
     8
  0
VERTEX
  8
ガラス
 10
22.1
 20
-104.725
 70
     8
  0
VERTEX
  8
ガラス
 10
22.2
 20
-104.725
 70
     8
  0
VERTEX
  8
ガラス
 10
22.275
 20
-104.75
 70
     8
  0
VERTEX
  8
ガラス
 10
22.35
 20
-104.775
 70
     8
  0
VERTEX
  8
ガラス
 10
22.425
 20
-104.825
 70
     8
  0
VERTEX
  8
ガラス
 10
22.5
 20
-104.85
 70
     8
  0
VERTEX
  8
ガラス
 10
22.575
 20
-104.9
 70
     8
  0
VERTEX
  8
ガラス
 10
22.65
 20
-104.925
 70
     8
  0
VERTEX
  8
ガラス
 10
22.725
 20
-104.975
 70
     8
  0
VERTEX
  8
ガラス
 10
22.8
 20
-105.025
 70
     8
  0
VERTEX
  8
ガラス
 10
22.85
 20
-105.075
 70
     8
  0
VERTEX
  8
ガラス
 10
22.925
 20
-105.125
 70
     8
  0
VERTEX
  8
ガラス
 10
23.0
 20
-105.175
 70
     8
  0
VERTEX
  8
ガラス
 10
23.05
 20
-105.25
 70
     8
  0
VERTEX
  8
ガラス
 10
23.125
 20
-105.3
 70
     8
  0
VERTEX
  8
ガラス
 10
23.2
 20
-105.375
 70
     8
  0
VERTEX
  8
ガラス
 10
23.25
 20
-105.425
 70
     8
  0
VERTEX
  8
ガラス
 10
23.325
 20
-105.5
 70
     8
  0
VERTEX
  8
ガラス
 10
23.375
 20
-105.55
 70
     8
  0
VERTEX
  8
ガラス
 10
23.45
 20
-105.625
 70
     8
  0
VERTEX
  8
ガラス
 10
23.5
 20
-105.7
 70
     8
  0
VERTEX
  8
ガラス
 10
23.55
 20
-105.775
 70
     8
  0
VERTEX
  8
ガラス
 10
23.625
 20
-105.85
 70
     8
  0
VERTEX
  8
ガラス
 10
23.675
 20
-105.9
 70
     8
  0
SEQEND
  0
POLYLINE
  8
ガラス
  6
CONTINUOUS
 66
     1
 70
     4
  0
VERTEX
  8
ガラス
 10
23.675
 20
-105.9
 70
     8
  0
VERTEX
  8
ガラス
 10
23.625
 20
-105.925
 70
     8
  0
VERTEX
  8
ガラス
 10
23.55
 20
-105.925
 70
     8
  0
VERTEX
  8
ガラス
 10
23.5
 20
-105.925
 70
     8
  0
VERTEX
  8
ガラス
 10
23.45
 20
-105.925
 70
     8
  0
VERTEX
  8
ガラス
 10
23.375
 20
-105.95
 70
     8
  0
VERTEX
  8
ガラス
 10
23.325
 20
-105.95
 70
     8
  0
VERTEX
  8
ガラス
 10
23.25
 20
-105.95
 70
     8
  0
VERTEX
  8
ガラス
 10
23.2
 20
-105.975
 70
     8
  0
VERTEX
  8
ガラス
 10
23.125
 20
-105.975
 70
     8
  0
VERTEX
  8
ガラス
 10
23.075
 20
-105.975
 70
     8
  0
VERTEX
  8
ガラス
 10
23.0
 20
-106.0
 70
     8
  0
VERTEX
  8
ガラス
 10
22.95
 20
-106.0
 70
     8
  0
VERTEX
  8
ガラス
 10
22.9
 20
-106.0
 70
     8
  0
VERTEX
  8
ガラス
 10
22.825
 20
-106.025
 70
     8
  0
VERTEX
  8
ガラス
 10
22.775
 20
-106.025
 70
     8
  0
VERTEX
  8
ガラス
 10
22.7
 20
-106.05
 70
     8
  0
VERTEX
  8
ガラス
 10
22.65
 20
-106.05
 70
     8
  0
VERTEX
  8
ガラス
 10
22.6
 20
-106.075
 70
     8
  0
VERTEX
  8
ガラス
 10
22.525
 20
-106.075
 70
     8
  0
VERTEX
  8
ガラス
 10
22.475
 20
-106.1
 70
     8
  0
VERTEX
  8
ガラス
 10
22.425
 20
-106.1
 70
     8
  0
VERTEX
  8
ガラス
 10
22.35
 20
-106.125
 70
     8
  0
VERTEX
  8
ガラス
 10
22.3
 20
-106.15
 70
     8
  0
VERTEX
  8
ガラス
 10
22.225
 20
-106.15
 70
     8
  0
VERTEX
  8
ガラス
 10
22.175
 20
-106.175
 70
     8
  0
VERTEX
  8
ガラス
 10
22.125
 20
-106.2
 70
     8
  0
VERTEX
  8
ガラス
 10
22.05
 20
-106.225
 70
     8
  0
VERTEX
  8
ガラス
 10
22.0
 20
-106.225
 70
     8
  0
VERTEX
  8
ガラス
 10
21.95
 20
-106.25
 70
     8
  0
VERTEX
  8
ガラス
 10
21.9
 20
-106.275
 70
     8
  0
VERTEX
  8
ガラス
 10
21.825
 20
-106.3
 70
     8
  0
VERTEX
  8
ガラス
 10
21.775
 20
-106.325
 70
     8
  0
VERTEX
  8
ガラス
 10
21.725
 20
-106.35
 70
     8
  0
VERTEX
  8
ガラス
 10
21.65
 20
-106.375
 70
     8
  0
VERTEX
  8
ガラス
 10
21.6
 20
-106.4
 70
     8
  0
VERTEX
  8
ガラス
 10
21.55
 20
-106.425
 70
     8
  0
VERTEX
  8
ガラス
 10
21.5
 20
-106.425
 70
     8
  0
VERTEX
  8
ガラス
 10
21.425
 20
-106.45
 70
     8
  0
VERTEX
  8
ガラス
 10
21.375
 20
-106.475
 70
     8
  0
VERTEX
  8
ガラス
 10
21.325
 20
-106.5
 70
     8
  0
SEQEND
  0
ARC
  8
ガラス
  6
CONTINUOUS
 10
20.969115
 20
-105.610757
 40
0.955135
 50
112.264588
 51
292.264588
  0
ENDBLK
  0
BLOCK
  2
*GRP_0075
 70
    65
 10
0.0
 20
0.0
  0
POLYLINE
  8
ガラス
  6
CONTINUOUS
 66
     1
 70
     4
  0
VERTEX
  8
ガラス
 10
3.875
 20
-104.75
 70
     8
  0
VERTEX
  8
ガラス
 10
3.975
 20
-104.725
 70
     8
  0
VERTEX
  8
ガラス
 10
4.075
 20
-104.725
 70
     8
  0
VERTEX
  8
ガラス
 10
4.15
 20
-104.7
 70
     8
  0
VERTEX
  8
ガラス
 10
4.25
 20
-104.7
 70
     8
  0
VERTEX
  8
ガラス
 10
4.35
 20
-104.7
 70
     8
  0
VERTEX
  8
ガラス
 10
4.425
 20
-104.675
 70
     8
  0
VERTEX
  8
ガラス
 10
4.525
 20
-104.675
 70
     8
  0
VERTEX
  8
ガラス
 10
4.625
 20
-104.675
 70
     8
  0
VERTEX
  8
ガラス
 10
4.7
 20
-104.675
 70
     8
  0
VERTEX
  8
ガラス
 10
4.8
 20
-104.675
 70
     8
  0
VERTEX
  8
ガラス
 10
4.875
 20
-104.675
 70
     8
  0
VERTEX
  8
ガラス
 10
4.975
 20
-104.675
 70
     8
  0
VERTEX
  8
ガラス
 10
5.05
 20
-104.675
 70
     8
  0
VERTEX
  8
ガラス
 10
5.15
 20
-104.675
 70
     8
  0
VERTEX
  8
ガラス
 10
5.225
 20
-104.7
 70
     8
  0
VERTEX
  8
ガラス
 10
5.325
 20
-104.7
 70
     8
  0
VERTEX
  8
ガラス
 10
5.4
 20
-104.725
 70
     8
  0
VERTEX
  8
ガラス
 10
5.475
 20
-104.725
 70
     8
  0
VERTEX
  8
ガラス
 10
5.55
 20
-104.75
 70
     8
  0
VERTEX
  8
ガラス
 10
5.625
 20
-104.775
 70
     8
  0
VERTEX
  8
ガラス
 10
5.7
 20
-104.825
 70
     8
  0
VERTEX
  8
ガラス
 10
5.8
 20
-104.85
 70
     8
  0
VERTEX
  8
ガラス
 10
5.85
 20
-104.9
 70
     8
  0
VERTEX
  8
ガラス
 10
5.925
 20
-104.925
 70
     8
  0
VERTEX
  8
ガラス
 10
6.0
 20
-104.975
 70
     8
  0
VERTEX
  8
ガラス
 10
6.075
 20
-105.025
 70
     8
  0
VERTEX
  8
ガラス
 10
6.15
 20
-105.075
 70
     8
  0
VERTEX
  8
ガラス
 10
6.2
 20
-105.125
 70
     8
  0
VERTEX
  8
ガラス
 10
6.275
 20
-105.175
 70
     8
  0
VERTEX
  8
ガラス
 10
6.35
 20
-105.25
 70
     8
  0
VERTEX
  8
ガラス
 10
6.4
 20
-105.3
 70
     8
  0
VERTEX
  8
ガラス
 10
6.475
 20
-105.375
 70
     8
  0
VERTEX
  8
ガラス
 10
6.525
 20
-105.425
 70
     8
  0
VERTEX
  8
ガラス
 10
6.6
 20
-105.5
 70
     8
  0
VERTEX
  8
ガラス
 10
6.65
 20
-105.55
 70
     8
  0
VERTEX
  8
ガラス
 10
6.725
 20
-105.625
 70
     8
  0
VERTEX
  8
ガラス
 10
6.775
 20
-105.7
 70
     8
  0
VERTEX
  8
ガラス
 10
6.85
 20
-105.775
 70
     8
  0
VERTEX
  8
ガラス
 10
6.9
 20
-105.85
 70
     8
  0
VERTEX
  8
ガラス
 10
6.975
 20
-105.9
 70
     8
  0
SEQEND
  0
POLYLINE
  8
ガラス
  6
CONTINUOUS
 66
     1
 70
     4
  0
VERTEX
  8
ガラス
 10
6.975
 20
-105.9
 70
     8
  0
VERTEX
  8
ガラス
 10
6.9
 20
-105.925
 70
     8
  0
VERTEX
  8
ガラス
 10
6.85
 20
-105.925
 70
     8
  0
VERTEX
  8
ガラス
 10
6.775
 20
-105.925
 70
     8
  0
VERTEX
  8
ガラス
 10
6.725
 20
-105.925
 70
     8
  0
VERTEX
  8
ガラス
 10
6.65
 20
-105.95
 70
     8
  0
VERTEX
  8
ガラス
 10
6.6
 20
-105.95
 70
     8
  0
VERTEX
  8
ガラス
 10
6.55
 20
-105.95
 70
     8
  0
VERTEX
  8
ガラス
 10
6.475
 20
-105.975
 70
     8
  0
VERTEX
  8
ガラス
 10
6.425
 20
-105.975
 70
     8
  0
VERTEX
  8
ガラス
 10
6.35
 20
-105.975
 70
     8
  0
VERTEX
  8
ガラス
 10
6.3
 20
-106.0
 70
     8
  0
VERTEX
  8
ガラス
 10
6.225
 20
-106.0
 70
     8
  0
VERTEX
  8
ガラス
 10
6.175
 20
-106.0
 70
     8
  0
VERTEX
  8
ガラス
 10
6.125
 20
-106.025
 70
     8
  0
VERTEX
  8
ガラス
 10
6.05
 20
-106.025
 70
     8
  0
VERTEX
  8
ガラス
 10
6.0
 20
-106.05
 70
     8
  0
VERTEX
  8
ガラス
 10
5.925
 20
-106.05
 70
     8
  0
VERTEX
  8
ガラス
 10
5.875
 20
-106.075
 70
     8
  0
VERTEX
  8
ガラス
 10
5.825
 20
-106.075
 70
     8
  0
VERTEX
  8
ガラス
 10
5.75
 20
-106.1
 70
     8
  0
VERTEX
  8
ガラス
 10
5.7
 20
-106.1
 70
     8
  0
VERTEX
  8
ガラス
 10
5.625
 20
-106.125
 70
     8
  0
VERTEX
  8
ガラス
 10
5.575
 20
-106.15
 70
     8
  0
VERTEX
  8
ガラス
 10
5.525
 20
-106.15
 70
     8
  0
VERTEX
  8
ガラス
 10
5.45
 20
-106.175
 70
     8
  0
VERTEX
  8
ガラス
 10
5.4
 20
-106.2
 70
     8
  0
VERTEX
  8
ガラス
 10
5.35
 20
-106.225
 70
     8
  0
VERTEX
  8
ガラス
 10
5.3
 20
-106.225
 70
     8
  0
VERTEX
  8
ガラス
 10
5.225
 20
-106.25
 70
     8
  0
VERTEX
  8
ガラス
 10
5.175
 20
-106.275
 70
     8
  0
VERTEX
  8
ガラス
 10
5.125
 20
-106.3
 70
     8
  0
VERTEX
  8
ガラス
 10
5.05
 20
-106.325
 70
     8
  0
VERTEX
  8
ガラス
 10
5.0
 20
-106.35
 70
     8
  0
VERTEX
  8
ガラス
 10
4.95
 20
-106.375
 70
     8
  0
VERTEX
  8
ガラス
 10
4.875
 20
-106.4
 70
     8
  0
VERTEX
  8
ガラス
 10
4.825
 20
-106.425
 70
     8
  0
VERTEX
  8
ガラス
 10
4.775
 20
-106.425
 70
     8
  0
VERTEX
  8
ガラス
 10
4.725
 20
-106.45
 70
     8
  0
VERTEX
  8
ガラス
 10
4.65
 20
-106.475
 70
     8
  0
VERTEX
  8
ガラス
 10
4.6
 20
-106.5
 70
     8
  0
SEQEND
  0
ARC
  8
ガラス
  6
CONTINUOUS
 10
4.252708
 20
-105.610757
 40
0.955135
 50
112.264588
 51
292.264588
  0
ENDBLK
  0
BLOCK
  2
*GRP_0076
 70
    65
 10
0.0
 20
0.0
  0
POLYLINE
  8
ガラス
  6
CONTINUOUS
 66
     1
 70
     4
  0
VERTEX
  8
ガラス
 10
-23.375
 20
-104.75
 70
     8
  0
VERTEX
  8
ガラス
 10
-23.275
 20
-104.725
 70
     8
  0
VERTEX
  8
ガラス
 10
-23.175
 20
-104.725
 70
     8
  0
VERTEX
  8
ガラス
 10
-23.1
 20
-104.7
 70
     8
  0
VERTEX
  8
ガラス
 10
-23.0
 20
-104.7
 70
     8
  0
VERTEX
  8
ガラス
 10
-22.9
 20
-104.7
 70
     8
  0
VERTEX
  8
ガラス
 10
-22.825
 20
-104.675
 70
     8
  0
VERTEX
  8
ガラス
 10
-22.725
 20
-104.675
 70
     8
  0
VERTEX
  8
ガラス
 10
-22.625
 20
-104.675
 70
     8
  0
VERTEX
  8
ガラス
 10
-22.55
 20
-104.675
 70
     8
  0
VERTEX
  8
ガラス
 10
-22.45
 20
-104.675
 70
     8
  0
VERTEX
  8
ガラス
 10
-22.375
 20
-104.675
 70
     8
  0
VERTEX
  8
ガラス
 10
-22.275
 20
-104.675
 70
     8
  0
VERTEX
  8
ガラス
 10
-22.2
 20
-104.675
 70
     8
  0
VERTEX
  8
ガラス
 10
-22.1
 20
-104.675
 70
     8
  0
VERTEX
  8
ガラス
 10
-22.025
 20
-104.7
 70
     8
  0
VERTEX
  8
ガラス
 10
-21.925
 20
-104.7
 70
     8
  0
VERTEX
  8
ガラス
 10
-21.85
 20
-104.725
 70
     8
  0
VERTEX
  8
ガラス
 10
-21.775
 20
-104.725
 70
     8
  0
VERTEX
  8
ガラス
 10
-21.7
 20
-104.75
 70
     8
  0
VERTEX
  8
ガラス
 10
-21.6
 20
-104.775
 70
     8
  0
VERTEX
  8
ガラス
 10
-21.525
 20
-104.825
 70
     8
  0
VERTEX
  8
ガラス
 10
-21.45
 20
-104.85
 70
     8
  0
VERTEX
  8
ガラス
 10
-21.375
 20
-104.9
 70
     8
  0
VERTEX
  8
ガラス
 10
-21.325
 20
-104.925
 70
     8
  0
VERTEX
  8
ガラス
 10
-21.25
 20
-104.975
 70
     8
  0
VERTEX
  8
ガラス
 10
-21.175
 20
-105.025
 70
     8
  0
VERTEX
  8
ガラス
 10
-21.1
 20
-105.075
 70
     8
  0
VERTEX
  8
ガラス
 10
-21.025
 20
-105.125
 70
     8
  0
VERTEX
  8
ガラス
 10
-20.975
 20
-105.175
 70
     8
  0
VERTEX
  8
ガラス
 10
-20.9
 20
-105.25
 70
     8
  0
VERTEX
  8
ガラス
 10
-20.85
 20
-105.3
 70
     8
  0
VERTEX
  8
ガラス
 10
-20.775
 20
-105.375
 70
     8
  0
VERTEX
  8
ガラス
 10
-20.7
 20
-105.425
 70
     8
  0
VERTEX
  8
ガラス
 10
-20.65
 20
-105.5
 70
     8
  0
VERTEX
  8
ガラス
 10
-20.575
 20
-105.55
 70
     8
  0
VERTEX
  8
ガラス
 10
-20.525
 20
-105.625
 70
     8
  0
VERTEX
  8
ガラス
 10
-20.475
 20
-105.7
 70
     8
  0
VERTEX
  8
ガラス
 10
-20.4
 20
-105.775
 70
     8
  0
VERTEX
  8
ガラス
 10
-20.35
 20
-105.85
 70
     8
  0
VERTEX
  8
ガラス
 10
-20.275
 20
-105.9
 70
     8
  0
SEQEND
  0
POLYLINE
  8
ガラス
  6
CONTINUOUS
 66
     1
 70
     4
  0
VERTEX
  8
ガラス
 10
-20.275
 20
-105.9
 70
     8
  0
VERTEX
  8
ガラス
 10
-20.35
 20
-105.925
 70
     8
  0
VERTEX
  8
ガラス
 10
-20.4
 20
-105.925
 70
     8
  0
VERTEX
  8
ガラス
 10
-20.475
 20
-105.925
 70
     8
  0
VERTEX
  8
ガラス
 10
-20.525
 20
-105.925
 70
     8
  0
VERTEX
  8
ガラス
 10
-20.575
 20
-105.95
 70
     8
  0
VERTEX
  8
ガラス
 10
-20.65
 20
-105.95
 70
     8
  0
VERTEX
  8
ガラス
 10
-20.7
 20
-105.95
 70
     8
  0
VERTEX
  8
ガラス
 10
-20.775
 20
-105.975
 70
     8
  0
VERTEX
  8
ガラス
 10
-20.825
 20
-105.975
 70
     8
  0
VERTEX
  8
ガラス
 10
-20.9
 20
-105.975
 70
     8
  0
VERTEX
  8
ガラス
 10
-20.95
 20
-106.0
 70
     8
  0
VERTEX
  8
ガラス
 10
-21.025
 20
-106.0
 70
     8
  0
VERTEX
  8
ガラス
 10
-21.075
 20
-106.0
 70
     8
  0
VERTEX
  8
ガラス
 10
-21.125
 20
-106.025
 70
     8
  0
VERTEX
  8
ガラス
 10
-21.2
 20
-106.025
 70
     8
  0
VERTEX
  8
ガラス
 10
-21.25
 20
-106.05
 70
     8
  0
VERTEX
  8
ガラス
 10
-21.325
 20
-106.05
 70
     8
  0
VERTEX
  8
ガラス
 10
-21.375
 20
-106.075
 70
     8
  0
VERTEX
  8
ガラス
 10
-21.425
 20
-106.075
 70
     8
  0
VERTEX
  8
ガラス
 10
-21.5
 20
-106.1
 70
     8
  0
VERTEX
  8
ガラス
 10
-21.55
 20
-106.1
 70
     8
  0
VERTEX
  8
ガラス
 10
-21.6
 20
-106.125
 70
     8
  0
VERTEX
  8
ガラス
 10
-21.675
 20
-106.15
 70
     8
  0
VERTEX
  8
ガラス
 10
-21.725
 20
-106.15
 70
     8
  0
VERTEX
  8
ガラス
 10
-21.775
 20
-106.175
 70
     8
  0
VERTEX
  8
ガラス
 10
-21.85
 20
-106.2
 70
     8
  0
VERTEX
  8
ガラス
 10
-21.9
 20
-106.225
 70
     8
  0
VERTEX
  8
ガラス
 10
-21.95
 20
-106.225
 70
     8
  0
VERTEX
  8
ガラス
 10
-22.025
 20
-106.25
 70
     8
  0
VERTEX
  8
ガラス
 10
-22.075
 20
-106.275
 70
     8
  0
VERTEX
  8
ガラス
 10
-22.125
 20
-106.3
 70
     8
  0
VERTEX
  8
ガラス
 10
-22.2
 20
-106.325
 70
     8
  0
VERTEX
  8
ガラス
 10
-22.25
 20
-106.35
 70
     8
  0
VERTEX
  8
ガラス
 10
-22.3
 20
-106.375
 70
     8
  0
VERTEX
  8
ガラス
 10
-22.35
 20
-106.4
 70
     8
  0
VERTEX
  8
ガラス
 10
-22.425
 20
-106.425
 70
     8
  0
VERTEX
  8
ガラス
 10
-22.475
 20
-106.425
 70
     8
  0
VERTEX
  8
ガラス
 10
-22.525
 20
-106.45
 70
     8
  0
VERTEX
  8
ガラス
 10
-22.6
 20
-106.475
 70
     8
  0
VERTEX
  8
ガラス
 10
-22.65
 20
-106.5
 70
     8
  0
SEQEND
  0
ARC
  8
ガラス
  6
CONTINUOUS
 10
-22.995034
 20
-105.610757
 40
0.955135
 50
112.264588
 51
292.264588
  0
ENDBLK
  0
BLOCK
  2
*GRP_0077
 70
    65
 10
0.0
 20
0.0
  0
INSERT
  2
*GRP_0078
  8
補助線
  6
DOT
 10
0.0
 20
0.0
  0
INSERT
  2
*GRP_0079
  8
補助線
  6
DOT
 10
0.0
 20
0.0
  0
LINE
  8
St
  6
CONTINUOUS
 62
   127
 10
34.036525
 20
28.372202
 11
34.036525
 21
9.872215
  0
LINE
  8
St
  6
CONTINUOUS
 62
   127
 10
16.03651
 20
31.622222
 11
10.23652
 21
31.622222
  0
LINE
  8
St
  6
CONTINUOUS
 62
   127
 10
10.23652
 20
31.622222
 11
10.23652
 21
6.622218
  0
LINE
  8
St
  6
CONTINUOUS
 62
   127
 10
16.03651
 20
6.622218
 11
10.23652
 21
6.622218
  0
LINE
  8
St
  6
CONTINUOUS
 62
   127
 10
16.03651
 20
31.622222
 11
16.03651
 21
6.622218
  0
LINE
  8
St
  6
CONTINUOUS
 62
   127
 10
25.534217
 20
11.348792
 11
25.534217
 21
26.89579
  0
LINE
  8
St
  6
CONTINUOUS
 62
   127
 10
26.534267
 20
11.348792
 11
26.534267
 21
26.89579
  0
LINE
  8
St
  6
CONTINUOUS
 62
   127
 10
26.534267
 20
26.89579
 11
25.534217
 21
26.89579
  0
LINE
  8
St
  6
CONTINUOUS
 62
   127
 10
26.534267
 20
11.348792
 11
25.534217
 21
11.348792
  0
LINE
  8
St
  6
CONTINUOUS
 62
   127
 10
30.534258
 20
23.933485
 11
30.18403
 21
24.895675
  0
LINE
  8
St
  6
CONTINUOUS
 62
   127
 10
30.534258
 20
14.31094
 11
30.18403
 21
13.34875
  0
LINE
  8
St
  6
CONTINUOUS
 62
   127
 10
30.534258
 20
23.933485
 11
30.534258
 21
14.31094
  0
LINE
  8
St
  6
CONTINUOUS
 62
   127
 10
30.18403
 20
13.34875
 11
26.534267
 21
13.34875
  0
LINE
  8
St
  6
CONTINUOUS
 62
   127
 10
30.18403
 20
16.235477
 11
26.534267
 21
16.235477
  0
LINE
  8
St
  6
CONTINUOUS
 62
   127
 10
30.18403
 20
24.895675
 11
26.534267
 21
24.895675
  0
LINE
  8
St
  6
CONTINUOUS
 62
   127
 10
30.18403
 20
22.008948
 11
26.534267
 21
22.008948
  0
LINE
  8
St
  6
CONTINUOUS
 62
   127
 10
26.534267
 20
13.34875
 11
26.534267
 21
24.895675
  0
LINE
  8
St
  6
CONTINUOUS
 62
   127
 10
16.534262
 20
19.122213
 11
16.534262
 21
14.37226
  0
LINE
  8
St
  6
CONTINUOUS
 62
   127
 10
16.534262
 20
14.37226
 11
16.034312
 21
14.872135
  0
LINE
  8
St
  6
CONTINUOUS
 62
   127
 10
16.034312
 20
19.122213
 11
16.034312
 21
14.872135
  0
LINE
  8
St
  6
CONTINUOUS
 62
   127
 10
17.034212
 20
14.37226
 11
16.534262
 21
14.37226
  0
LINE
  8
St
  6
CONTINUOUS
 62
   127
 10
22.98376
 20
1.622328
 11
22.98376
 21
19.122213
  0
LINE
  8
St
  6
CONTINUOUS
 62
   127
 10
18.084745
 20
1.622328
 11
18.084745
 21
19.122213
  0
LINE
  8
St
  6
CONTINUOUS
 62
   127
 10
24.534243
 20
19.122213
 11
24.534243
 21
14.37226
  0
LINE
  8
St
  6
CONTINUOUS
 62
   127
 10
24.534243
 20
14.37226
 11
25.034267
 21
14.872135
  0
LINE
  8
St
  6
CONTINUOUS
 62
   127
 10
25.034267
 20
19.122213
 11
25.034267
 21
14.872135
  0
LINE
  8
St
  6
CONTINUOUS
 62
   127
 10
24.034285
 20
14.37226
 11
24.534243
 21
14.37226
  0
LINE
  8
St
  6
CONTINUOUS
 62
   127
 10
18.084745
 20
1.622328
 11
17.534238
 21
1.622328
  0
LINE
  8
St
  6
CONTINUOUS
 62
   127
 10
17.034212
 20
2.122202
 11
17.034212
 21
19.122213
  0
LINE
  8
St
  6
CONTINUOUS
 62
   127
 10
22.98376
 20
1.622328
 11
23.53426
 21
1.622328
  0
LINE
  8
St
  6
CONTINUOUS
 62
   127
 10
24.034285
 20
2.122202
 11
24.034285
 21
19.122213
  0
LINE
  8
St
  6
CONTINUOUS
 62
   127
 10
16.534262
 20
19.122213
 11
16.534262
 21
23.872165
  0
LINE
  8
St
  6
CONTINUOUS
 62
   127
 10
16.534262
 20
23.872165
 11
16.034312
 21
23.37229
  0
LINE
  8
St
  6
CONTINUOUS
 62
   127
 10
16.034312
 20
19.122213
 11
16.034312
 21
23.37229
  0
LINE
  8
St
  6
CONTINUOUS
 62
   127
 10
17.034212
 20
23.872165
 11
16.534262
 21
23.872165
  0
LINE
  8
St
  6
CONTINUOUS
 62
   127
 10
22.98376
 20
36.622248
 11
22.98376
 21
19.122213
  0
LINE
  8
St
  6
CONTINUOUS
 62
   127
 10
18.084745
 20
36.622248
 11
18.084745
 21
19.122213
  0
LINE
  8
St
  6
CONTINUOUS
 62
   127
 10
24.534243
 20
19.122213
 11
24.534243
 21
23.872165
  0
LINE
  8
St
  6
CONTINUOUS
 62
   127
 10
24.534243
 20
23.872165
 11
25.034267
 21
23.37229
  0
LINE
  8
St
  6
CONTINUOUS
 62
   127
 10
25.034267
 20
19.122213
 11
25.034267
 21
23.37229
  0
LINE
  8
St
  6
CONTINUOUS
 62
   127
 10
24.034285
 20
23.872165
 11
24.534243
 21
23.872165
  0
LINE
  8
St
  6
CONTINUOUS
 62
   127
 10
18.084745
 20
36.622248
 11
17.534238
 21
36.622248
  0
LINE
  8
St
  6
CONTINUOUS
 62
   127
 10
17.034212
 20
36.122215
 11
17.034212
 21
19.122213
  0
LINE
  8
St
  6
CONTINUOUS
 62
   127
 10
22.98376
 20
36.622248
 11
23.53426
 21
36.622248
  0
LINE
  8
St
  6
CONTINUOUS
 62
   127
 10
24.034285
 20
36.122215
 11
24.034285
 21
19.122213
  0
LINE
  8
St
  6
CONTINUOUS
 62
   127
 10
34.036525
 20
28.372202
 11
24.034285
 21
28.372202
  0
LINE
  8
St
  6
CONTINUOUS
 62
   127
 10
17.034212
 20
28.372202
 11
16.03651
 21
28.372202
  0
LINE
  8
St
  6
CONTINUOUS
 62
   127
 10
34.036525
 20
9.872215
 11
24.034285
 21
9.872215
  0
LINE
  8
St
  6
CONTINUOUS
 62
   127
 10
17.034212
 20
9.872215
 11
16.03651
 21
9.872215
  0
LINE
  8
St
  6
CONTINUOUS
 62
   127
 10
4.801802
 20
25.872198
 11
5.39356
 21
25.872198
  0
LINE
  8
St
  6
CONTINUOUS
 62
   127
 10
4.801802
 20
12.372205
 11
5.39356
 21
12.372205
  0
LINE
  8
St
  6
CONTINUOUS
 62
   127
 10
34.036525
 20
-50.628898
 11
34.036525
 21
-69.128885
  0
LINE
  8
St
  6
CONTINUOUS
 62
   127
 10
72.441025
 20
-54.87887
 11
62.04103
 21
-54.87887
  0
LINE
  8
St
  6
CONTINUOUS
 62
   127
 10
73.191018
 20
-55.628863
 11
62.04103
 21
-55.628863
  0
LINE
  8
St
  6
CONTINUOUS
 62
   127
 10
73.441052
 20
-63.878878
 11
73.441052
 21
-55.878875
  0
LINE
  8
St
  6
CONTINUOUS
 62
   127
 10
72.441025
 20
-64.878882
 11
72.441025
 21
-54.87887
  0
LINE
  8
St
  6
CONTINUOUS
 62
   127
 10
73.191018
 20
-64.12889
 11
62.04103
 21
-64.12889
  0
LINE
  8
St
  6
CONTINUOUS
 62
   127
 10
72.441025
 20
-64.878882
 11
62.04103
 21
-64.878882
  0
LINE
  8
St
  6
CONTINUOUS
 62
   127
 10
72.441025
 20
-64.878882
 11
73.441052
 21
-63.878878
  0
LINE
  8
St
  6
CONTINUOUS
 62
   127
 10
72.441025
 20
-54.87887
 11
73.441052
 21
-55.878875
  0
LINE
  8
St
  6
CONTINUOUS
 62
   127
 10
16.03651
 20
-47.37887
 11
10.23652
 21
-47.37887
  0
LINE
  8
St
  6
CONTINUOUS
 62
   127
 10
10.23652
 20
-47.37887
 11
10.23652
 21
-72.378882
  0
LINE
  8
St
  6
CONTINUOUS
 62
   127
 10
16.03651
 20
-72.378882
 11
10.23652
 21
-72.378882
  0
LINE
  8
St
  6
CONTINUOUS
 62
   127
 10
16.03651
 20
-47.37887
 11
16.03651
 21
-72.378882
  0
LINE
  8
St
  6
CONTINUOUS
 62
   127
 10
25.534217
 20
-67.652308
 11
25.534217
 21
-52.105317
  0
LINE
  8
St
  6
CONTINUOUS
 62
   127
 10
26.534267
 20
-67.652308
 11
26.534267
 21
-52.105317
  0
LINE
  8
St
  6
CONTINUOUS
 62
   127
 10
26.534267
 20
-52.105317
 11
25.534217
 21
-52.105317
  0
LINE
  8
St
  6
CONTINUOUS
 62
   127
 10
26.534267
 20
-67.652308
 11
25.534217
 21
-67.652308
  0
LINE
  8
St
  6
CONTINUOUS
 62
   127
 10
30.534258
 20
-55.067623
 11
30.18403
 21
-54.105425
  0
LINE
  8
St
  6
CONTINUOUS
 62
   127
 10
30.534258
 20
-64.69016
 11
30.18403
 21
-65.652358
  0
LINE
  8
St
  6
CONTINUOUS
 62
   127
 10
30.534258
 20
-55.067623
 11
30.534258
 21
-64.69016
  0
LINE
  8
St
  6
CONTINUOUS
 62
   127
 10
30.18403
 20
-65.652358
 11
26.534267
 21
-65.652358
  0
LINE
  8
St
  6
CONTINUOUS
 62
   127
 10
30.18403
 20
-62.765622
 11
26.534267
 21
-62.765622
  0
LINE
  8
St
  6
CONTINUOUS
 62
   127
 10
30.18403
 20
-54.105425
 11
26.534267
 21
-54.105425
  0
LINE
  8
St
  6
CONTINUOUS
 62
   127
 10
30.18403
 20
-56.99216
 11
26.534267
 21
-56.99216
  0
LINE
  8
St
  6
CONTINUOUS
 62
   127
 10
26.534267
 20
-65.652358
 11
26.534267
 21
-54.105425
  0
LINE
  8
St
  6
CONTINUOUS
 62
   127
 10
16.534262
 20
-59.878888
 11
16.534262
 21
-64.628848
  0
LINE
  8
St
  6
CONTINUOUS
 62
   127
 10
16.534262
 20
-64.628848
 11
16.034312
 21
-64.128965
  0
LINE
  8
St
  6
CONTINUOUS
 62
   127
 10
16.034312
 20
-59.878888
 11
16.034312
 21
-64.128965
  0
LINE
  8
St
  6
CONTINUOUS
 62
   127
 10
17.034212
 20
-64.628848
 11
16.534262
 21
-64.628848
  0
LINE
  8
St
  6
CONTINUOUS
 62
   127
 10
22.98376
 20
-77.378773
 11
22.98376
 21
-59.878888
  0
LINE
  8
St
  6
CONTINUOUS
 62
   127
 10
18.084745
 20
-77.378773
 11
18.084745
 21
-59.878888
  0
LINE
  8
St
  6
CONTINUOUS
 62
   127
 10
24.534243
 20
-59.878888
 11
24.534243
 21
-64.628848
  0
LINE
  8
St
  6
CONTINUOUS
 62
   127
 10
24.534243
 20
-64.628848
 11
25.034267
 21
-64.128965
  0
LINE
  8
St
  6
CONTINUOUS
 62
   127
 10
25.034267
 20
-59.878888
 11
25.034267
 21
-64.128965
  0
LINE
  8
St
  6
CONTINUOUS
 62
   127
 10
24.034285
 20
-64.628848
 11
24.534243
 21
-64.628848
  0
LINE
  8
St
  6
CONTINUOUS
 62
   127
 10
18.084745
 20
-77.378773
 11
17.534238
 21
-77.378773
  0
LINE
  8
St
  6
CONTINUOUS
 62
   127
 10
17.034212
 20
-76.878898
 11
17.034212
 21
-59.878888
  0
LINE
  8
St
  6
CONTINUOUS
 62
   127
 10
22.98376
 20
-77.378773
 11
23.53426
 21
-77.378773
  0
LINE
  8
St
  6
CONTINUOUS
 62
   127
 10
24.034285
 20
-76.878898
 11
24.034285
 21
-59.878888
  0
LINE
  8
St
  6
CONTINUOUS
 62
   127
 10
16.534262
 20
-59.878888
 11
16.534262
 21
-55.128935
  0
LINE
  8
St
  6
CONTINUOUS
 62
   127
 10
16.534262
 20
-55.128935
 11
16.034312
 21
-55.628817
  0
LINE
  8
St
  6
CONTINUOUS
 62
   127
 10
16.034312
 20
-59.878888
 11
16.034312
 21
-55.628817
  0
LINE
  8
St
  6
CONTINUOUS
 62
   127
 10
17.034212
 20
-55.128935
 11
16.534262
 21
-55.128935
  0
LINE
  8
St
  6
CONTINUOUS
 62
   127
 10
22.98376
 20
-42.37886
 11
22.98376
 21
-59.878888
  0
LINE
  8
St
  6
CONTINUOUS
 62
   127
 10
18.084745
 20
-42.37886
 11
18.084745
 21
-59.878888
  0
LINE
  8
St
  6
CONTINUOUS
 62
   127
 10
24.534243
 20
-59.878888
 11
24.534243
 21
-55.128935
  0
LINE
  8
St
  6
CONTINUOUS
 62
   127
 10
24.534243
 20
-55.128935
 11
25.034267
 21
-55.628817
  0
LINE
  8
St
  6
CONTINUOUS
 62
   127
 10
25.034267
 20
-59.878888
 11
25.034267
 21
-55.628817
  0
LINE
  8
St
  6
CONTINUOUS
 62
   127
 10
24.034285
 20
-55.128935
 11
24.534243
 21
-55.128935
  0
LINE
  8
St
  6
CONTINUOUS
 62
   127
 10
18.084745
 20
-42.37886
 11
17.534238
 21
-42.37886
  0
LINE
  8
St
  6
CONTINUOUS
 62
   127
 10
17.034212
 20
-42.878885
 11
17.034212
 21
-59.878888
  0
LINE
  8
St
  6
CONTINUOUS
 62
   127
 10
22.98376
 20
-42.37886
 11
23.53426
 21
-42.37886
  0
LINE
  8
St
  6
CONTINUOUS
 62
   127
 10
24.034285
 20
-42.878885
 11
24.034285
 21
-59.878888
  0
LINE
  8
St
  6
CONTINUOUS
 62
   127
 10
34.036525
 20
-50.628898
 11
24.034285
 21
-50.628898
  0
LINE
  8
St
  6
CONTINUOUS
 62
   127
 10
17.034212
 20
-50.628898
 11
16.03651
 21
-50.628898
  0
LINE
  8
St
  6
CONTINUOUS
 62
   127
 10
34.036525
 20
-69.128885
 11
24.034285
 21
-69.128885
  0
LINE
  8
St
  6
CONTINUOUS
 62
   127
 10
17.034212
 20
-69.128885
 11
16.03651
 21
-69.128885
  0
LINE
  8
St
  6
CONTINUOUS
 62
   127
 10
4.801802
 20
-53.128903
 11
5.39356
 21
-53.128903
  0
LINE
  8
St
  6
CONTINUOUS
 62
   127
 10
4.801802
 20
-66.628903
 11
5.39356
 21
-66.628903
  0
LINE
  8
St
  6
CONTINUOUS
 62
   127
 10
4.856313
 20
25.772207
 11
10.23652
 21
25.772207
  0
LINE
  8
St
  6
CONTINUOUS
 62
   127
 10
4.856313
 20
12.472218
 11
10.23652
 21
12.472218
  0
LINE
  8
St
  6
CONTINUOUS
 62
   127
 10
4.856313
 20
-53.228892
 11
10.23652
 21
-53.228892
  0
LINE
  8
St
  6
CONTINUOUS
 62
   127
 10
4.856313
 20
-66.528882
 11
10.23652
 21
-66.528882
  0
LINE
  8
St
  6
CONTINUOUS
 62
   127
 10
39.536515
 20
-0.878
 11
37.036533
 21
-0.878
  0
LINE
  8
St
  6
CONTINUOUS
 62
   127
 10
37.036533
 20
39.121983
 11
37.036533
 21
-0.878
  0
LINE
  8
St
  6
CONTINUOUS
 62
   127
 10
39.536515
 20
39.121983
 11
37.036533
 21
39.121983
  0
LINE
  8
St
  6
CONTINUOUS
 62
   127
 10
39.536515
 20
9.121983
 11
59.536548
 21
9.121983
  0
LINE
  8
St
  6
DOT
 62
   127
 10
39.536515
 20
12.12199
 11
59.536548
 21
12.12199
  0
LINE
  8
St
  6
CONTINUOUS
 62
   127
 10
39.536515
 20
29.122
 11
59.536548
 21
29.122
  0
LINE
  8
St
  6
DOT
 62
   127
 10
39.536515
 20
26.122015
 11
59.536548
 21
26.122015
  0
LINE
  8
St
  6
CONTINUOUS
 62
   127
 10
38.036672
 20
6.622
 11
38.036672
 21
1.622005
  0
LINE
  8
St
  6
CONTINUOUS
 62
   127
 10
38.036672
 20
2.329112
 11
46.536678
 21
2.329112
  0
LINE
  8
St
  6
CONTINUOUS
 62
   127
 10
38.036672
 20
5.914855
 11
46.536678
 21
5.914855
  0
LINE
  8
St
  6
CONTINUOUS
 62
   127
 10
45.829563
 20
6.622
 11
45.829563
 21
1.622005
  0
LINE
  8
St
  6
CONTINUOUS
 62
   127
 10
45.829563
 20
1.622005
 11
46.536678
 21
2.329112
  0
LINE
  8
St
  6
CONTINUOUS
 62
   127
 10
38.036672
 20
1.622005
 11
45.829563
 21
1.622005
  0
LINE
  8
St
  6
CONTINUOUS
 62
   127
 10
38.036672
 20
6.622
 11
45.829563
 21
6.622
  0
LINE
  8
St
  6
CONTINUOUS
 62
   127
 10
45.829563
 20
6.622
 11
46.536678
 21
5.914855
  0
LINE
  8
St
  6
CONTINUOUS
 62
   127
 10
46.536678
 20
5.914855
 11
46.536678
 21
2.329112
  0
LINE
  8
St
  6
CONTINUOUS
 62
   127
 10
38.036672
 20
31.622005
 11
38.036672
 21
36.622
  0
LINE
  8
St
  6
CONTINUOUS
 62
   127
 10
38.036672
 20
35.914855
 11
46.536678
 21
35.914855
  0
LINE
  8
St
  6
CONTINUOUS
 62
   127
 10
38.036672
 20
32.329112
 11
46.536678
 21
32.329112
  0
LINE
  8
St
  6
CONTINUOUS
 62
   127
 10
45.829563
 20
31.622005
 11
45.829563
 21
36.622
  0
LINE
  8
St
  6
CONTINUOUS
 62
   127
 10
45.829563
 20
36.622
 11
46.536678
 21
35.914855
  0
LINE
  8
St
  6
CONTINUOUS
 62
   127
 10
38.036672
 20
36.622
 11
45.829563
 21
36.622
  0
LINE
  8
St
  6
CONTINUOUS
 62
   127
 10
38.036672
 20
31.622005
 11
45.829563
 21
31.622005
  0
LINE
  8
St
  6
CONTINUOUS
 62
   127
 10
45.829563
 20
31.622005
 11
46.536678
 21
32.329112
  0
LINE
  8
St
  6
CONTINUOUS
 62
   127
 10
46.536678
 20
32.329112
 11
46.536678
 21
35.914855
  0
LINE
  8
St
  6
CONTINUOUS
 62
   127
 10
68.829422
 20
-79.878867
 11
69.53653
 21
-79.17176
  0
LINE
  8
St
  6
CONTINUOUS
 62
   127
 10
68.829422
 20
-74.878903
 11
69.53653
 21
-75.58601
  0
LINE
  8
St
  6
CONTINUOUS
 62
   127
 10
49.536535
 20
-73.378895
 11
49.536535
 21
-81.378875
  0
LINE
  8
St
  6
CONTINUOUS
 62
   127
 10
49.536535
 20
-73.378895
 11
54.53653
 21
-73.378895
  0
LINE
  8
St
  6
CONTINUOUS
 62
   127
 10
49.536535
 20
-81.378875
 11
54.53653
 21
-81.378875
  0
LINE
  8
St
  6
CONTINUOUS
 62
   127
 10
68.829422
 20
-44.878865
 11
68.829422
 21
-39.8789
  0
LINE
  8
St
  6
CONTINUOUS
 62
   127
 10
68.829422
 20
-39.8789
 11
69.53653
 21
-40.586007
  0
LINE
  8
St
  6
CONTINUOUS
 62
   127
 10
68.829422
 20
-44.878865
 11
69.53653
 21
-44.171757
  0
LINE
  8
St
  6
CONTINUOUS
 62
   127
 10
69.53653
 20
-44.171757
 11
69.53653
 21
-40.586007
  0
LINE
  8
St
  6
CONTINUOUS
 62
   127
 10
49.536535
 20
-46.378873
 11
49.536535
 21
-38.378892
  0
LINE
  8
St
  6
CONTINUOUS
 62
   127
 10
49.536535
 20
-46.378873
 11
54.53653
 21
-46.378873
  0
LINE
  8
St
  6
CONTINUOUS
 62
   127
 10
49.536535
 20
-38.378892
 11
54.53653
 21
-38.378892
  0
LINE
  8
St
  6
DOT
 62
   127
 10
81.836537
 20
-72.379108
 11
84.53653
 21
-72.379108
  0
LINE
  8
St
  6
DOT
 62
   127
 10
81.836537
 20
-47.379118
 11
84.53653
 21
-47.379118
  0
LINE
  8
St
  6
CONTINUOUS
 62
   127
 10
62.03653
 20
-52.978857
 11
62.03653
 21
-66.778873
  0
LINE
  8
St
  6
DOT
 62
   127
 10
64.536535
 20
-71.379125
 11
67.236528
 21
-71.379125
  0
LINE
  8
St
  6
DOT
 62
   127
 10
64.536535
 20
-48.3791
 11
67.236528
 21
-48.3791
  0
LINE
  8
St
  6
DOT
 62
   127
 10
39.5365
 20
9.121983
 11
42.236515
 21
9.121983
  0
LINE
  8
St
  6
DOT
 62
   127
 10
56.836533
 20
9.121983
 11
59.536518
 21
9.121983
  0
LINE
  8
St
  6
DOT
 62
   127
 10
39.5365
 20
29.122
 11
42.236515
 21
29.122
  0
LINE
  8
St
  6
DOT
 62
   127
 10
56.836533
 20
29.122
 11
59.536518
 21
29.122
  0
LINE
  8
St
  6
CONTINUOUS
 62
   127
 10
39.536515
 20
-0.878
 11
39.536515
 21
39.121983
  0
LINE
  8
St
  6
CONTINUOUS
 62
   127
 10
59.536548
 20
29.122
 11
59.536548
 21
9.121983
  0
LINE
  8
St
  6
CONTINUOUS
 62
   127
 10
34.536528
 20
-47.878888
 11
37.036533
 21
-47.878888
  0
LINE
  8
St
  6
CONTINUOUS
 62
   127
 10
37.036533
 20
-71.878895
 11
37.036533
 21
-47.878888
  0
LINE
  8
St
  6
CONTINUOUS
 62
   127
 10
34.536528
 20
-71.878895
 11
37.036533
 21
-71.878895
  0
LINE
  8
St
  6
CONTINUOUS
 62
   127
 10
34.536528
 20
-71.878895
 11
34.536528
 21
-47.878888
  0
LINE
  8
St
  6
DOT
 62
   127
 10
34.536528
 20
-67.378888
 11
37.036533
 21
-67.378888
  0
LINE
  8
St
  6
DOT
 62
   127
 10
34.536528
 20
-52.378888
 11
37.036533
 21
-52.378888
  0
LINE
  8
St
  6
CONTINUOUS
 62
   127
 10
34.536528
 20
31.122213
 11
37.036533
 21
31.122213
  0
LINE
  8
St
  6
CONTINUOUS
 62
   127
 10
37.036533
 20
7.122213
 11
37.036533
 21
31.122213
  0
LINE
  8
St
  6
CONTINUOUS
 62
   127
 10
34.536528
 20
7.122213
 11
37.036533
 21
7.122213
  0
LINE
  8
St
  6
CONTINUOUS
 62
   127
 10
34.536528
 20
7.122213
 11
34.536528
 21
31.122213
  0
LINE
  8
St
  6
DOT
 62
   127
 10
34.536528
 20
11.622213
 11
37.036533
 21
11.622213
  0
LINE
  8
St
  6
DOT
 62
   127
 10
34.536528
 20
26.622213
 11
37.036533
 21
26.622213
  0
LINE
  8
St
  6
CONTINUOUS
 62
   127
 10
59.536518
 20
31.122213
 11
62.03653
 21
31.122213
  0
LINE
  8
St
  6
CONTINUOUS
 62
   127
 10
62.03653
 20
7.122213
 11
62.03653
 21
31.122213
  0
LINE
  8
St
  6
CONTINUOUS
 62
   127
 10
59.536518
 20
7.122213
 11
62.03653
 21
7.122213
  0
LINE
  8
St
  6
CONTINUOUS
 62
   127
 10
59.536518
 20
7.122213
 11
59.536518
 21
31.122213
  0
LINE
  8
St
  6
DOT
 62
   127
 10
59.536518
 20
11.622213
 11
62.03653
 21
11.622213
  0
LINE
  8
St
  6
DOT
 62
   127
 10
59.536518
 20
26.622213
 11
62.03653
 21
26.622213
  0
LINE
  8
St
  6
CONTINUOUS
 62
   127
 10
62.04103
 20
30.122207
 11
63.541037
 21
30.122207
  0
LINE
  8
St
  6
CONTINUOUS
 62
   127
 10
63.541037
 20
8.12221
 11
63.541037
 21
30.122207
  0
LINE
  8
St
  6
CONTINUOUS
 62
   127
 10
62.04103
 20
8.12221
 11
63.541037
 21
8.12221
  0
LINE
  8
St
  6
CONTINUOUS
 62
   127
 10
62.04103
 20
8.12221
 11
62.04103
 21
30.122207
  0
LINE
  8
St
  6
DOT
 62
   127
 10
62.04103
 20
24.372213
 11
63.541037
 21
24.372213
  0
LINE
  8
St
  6
DOT
 62
   127
 10
62.04103
 20
13.87222
 11
63.541037
 21
13.87222
  0
LINE
  8
St
  6
DASHDOTX2
 62
   127
 10
-7.463487
 20
19.122213
 11
73.441052
 21
19.122213
  0
LINE
  8
St
  6
DASHDOTX2
 62
   127
 10
-7.463487
 20
-59.878888
 11
73.441052
 21
-59.878888
  0
LINE
  8
St
  6
CONTINUOUS
 62
   127
 10
69.329395
 20
-69.67889
 11
70.036533
 21
-68.971782
  0
LINE
  8
St
  6
CONTINUOUS
 62
   127
 10
70.036533
 20
-50.785992
 11
69.329395
 21
-50.078885
  0
LINE
  8
St
  6
CONTINUOUS
 62
   127
 10
69.329395
 20
-55.439533
 11
70.036533
 21
-54.732448
  0
LINE
  8
St
  6
CONTINUOUS
 62
   127
 10
69.329395
 20
-64.37888
 11
70.036533
 21
-63.67178
  0
LINE
  8
St
  6
CONTINUOUS
 62
   127
 10
69.329395
 20
-55.439533
 11
70.036533
 21
-56.14667
  0
LINE
  8
St
  6
CONTINUOUS
 62
   127
 10
69.329395
 20
-64.37888
 11
70.036533
 21
-63.67178
  0
LINE
  8
St
  6
CONTINUOUS
 62
   127
 10
69.329395
 20
-64.37888
 11
70.036533
 21
-65.085988
  0
LINE
  8
St
  6
CONTINUOUS
 62
   127
 10
70.536535
 20
-52.628892
 11
71.95681
 21
-52.628892
  0
LINE
  8
St
  6
CONTINUOUS
 62
   127
 10
70.036533
 20
-52.12889
 11
70.036533
 21
-50.785992
  0
LINE
  8
St
  6
CONTINUOUS
 62
   127
 10
70.536535
 20
-67.12889
 11
71.95681
 21
-67.12889
  0
LINE
  8
St
  6
CONTINUOUS
 62
   127
 10
70.036533
 20
-67.628892
 11
70.036533
 21
-68.971782
  0
LINE
  8
St
  6
CONTINUOUS
 62
   127
 10
70.036533
 20
-67.628892
 11
70.036533
 21
-52.12889
  0
LINE
  8
St
  6
CONTINUOUS
 62
   127
 10
62.03653
 20
-50.785992
 11
62.743637
 21
-50.078885
  0
LINE
  8
St
  6
CONTINUOUS
 62
   127
 10
69.329395
 20
-50.078885
 11
62.743637
 21
-50.078885
  0
LINE
  8
St
  6
CONTINUOUS
 62
   127
 10
69.329395
 20
-69.67889
 11
62.743637
 21
-69.67889
  0
LINE
  8
St
  6
CONTINUOUS
 62
   127
 10
62.03653
 20
-68.971782
 11
62.743637
 21
-69.67889
  0
LINE
  8
St
  6
CONTINUOUS
 62
   127
 10
62.03653
 20
-50.785992
 11
62.03653
 21
-68.971782
  0
LINE
  8
St
  6
CONTINUOUS
 62
   127
 10
62.743637
 20
-55.439533
 11
62.0365
 21
-54.732448
  0
LINE
  8
St
  6
CONTINUOUS
 62
   127
 10
62.743637
 20
-64.37888
 11
62.0365
 21
-63.67178
  0
LINE
  8
St
  6
CONTINUOUS
 62
   127
 10
62.743637
 20
-55.439533
 11
62.0365
 21
-56.14667
  0
LINE
  8
St
  6
CONTINUOUS
 62
   127
 10
62.743637
 20
-64.37888
 11
62.0365
 21
-63.67178
  0
LINE
  8
St
  6
CONTINUOUS
 62
   127
 10
62.743637
 20
-64.37888
 11
62.0365
 21
-65.085988
  0
LINE
  8
St
  6
CONTINUOUS
 62
   127
 10
69.329395
 20
-55.439533
 11
62.743637
 21
-55.439533
  0
LINE
  8
St
  6
CONTINUOUS
 62
   127
 10
69.329395
 20
-64.37888
 11
62.743637
 21
-64.37888
  0
LINE
  8
St
  6
DASHDOTX2
 62
   127
 10
77.536533
 20
-59.878888
 11
62.03653
 21
-59.878888
  0
LINE
  8
St
  6
CONTINUOUS
 62
   127
 10
70.829402
 20
9.32221
 11
71.536533
 21
10.029318
  0
LINE
  8
St
  6
CONTINUOUS
 62
   127
 10
71.536533
 20
28.215107
 11
70.829402
 21
28.922215
  0
LINE
  8
St
  6
CONTINUOUS
 62
   127
 10
70.829402
 20
23.561567
 11
71.536533
 21
24.268652
  0
LINE
  8
St
  6
CONTINUOUS
 62
   127
 10
70.829402
 20
14.62222
 11
71.536533
 21
15.32932
  0
LINE
  8
St
  6
CONTINUOUS
 62
   127
 10
70.829402
 20
23.561567
 11
71.536533
 21
22.85443
  0
LINE
  8
St
  6
CONTINUOUS
 62
   127
 10
70.829402
 20
14.62222
 11
71.536533
 21
15.32932
  0
LINE
  8
St
  6
CONTINUOUS
 62
   127
 10
70.829402
 20
14.62222
 11
71.536533
 21
13.915113
  0
LINE
  8
St
  6
CONTINUOUS
 62
   127
 10
72.036535
 20
26.372207
 11
73.456818
 21
26.372207
  0
LINE
  8
St
  6
CONTINUOUS
 62
   127
 10
71.536533
 20
26.87221
 11
71.536533
 21
28.215107
  0
LINE
  8
St
  6
CONTINUOUS
 62
   127
 10
72.036535
 20
11.87221
 11
73.456818
 21
11.87221
  0
LINE
  8
St
  6
CONTINUOUS
 62
   127
 10
71.536533
 20
11.372207
 11
71.536533
 21
10.029318
  0
LINE
  8
St
  6
CONTINUOUS
 62
   127
 10
71.536533
 20
11.372207
 11
71.536533
 21
26.87221
  0
LINE
  8
St
  6
CONTINUOUS
 62
   127
 10
63.53653
 20
28.215107
 11
64.243645
 21
28.922215
  0
LINE
  8
St
  6
CONTINUOUS
 62
   127
 10
70.829402
 20
28.922215
 11
64.243645
 21
28.922215
  0
LINE
  8
St
  6
CONTINUOUS
 62
   127
 10
70.829402
 20
9.32221
 11
64.243645
 21
9.32221
  0
LINE
  8
St
  6
CONTINUOUS
 62
   127
 10
63.53653
 20
10.029318
 11
64.243645
 21
9.32221
  0
LINE
  8
St
  6
CONTINUOUS
 62
   127
 10
63.53653
 20
28.215107
 11
63.53653
 21
10.029318
  0
LINE
  8
St
  6
CONTINUOUS
 62
   127
 10
64.243645
 20
23.561567
 11
63.536507
 21
24.268652
  0
LINE
  8
St
  6
CONTINUOUS
 62
   127
 10
64.243645
 20
14.62222
 11
63.536507
 21
15.32932
  0
LINE
  8
St
  6
CONTINUOUS
 62
   127
 10
64.243645
 20
23.561567
 11
63.536507
 21
22.85443
  0
LINE
  8
St
  6
CONTINUOUS
 62
   127
 10
64.243645
 20
14.62222
 11
63.536507
 21
15.32932
  0
LINE
  8
St
  6
CONTINUOUS
 62
   127
 10
64.243645
 20
14.62222
 11
63.536507
 21
13.915113
  0
LINE
  8
St
  6
CONTINUOUS
 62
   127
 10
70.829402
 20
23.561567
 11
64.243645
 21
23.561567
  0
LINE
  8
St
  6
CONTINUOUS
 62
   127
 10
70.829402
 20
14.62222
 11
64.243645
 21
14.62222
  0
LINE
  8
St
  6
DASHDOTX2
 62
   127
 10
79.036533
 20
19.122213
 11
63.53653
 21
19.122213
  0
LINE
  8
St
  6
CONTINUOUS
 62
   127
 10
54.53653
 20
-81.378875
 11
54.53653
 21
-73.378895
  0
LINE
  8
St
  6
CONTINUOUS
 62
   127
 10
54.53653
 20
-46.378873
 11
54.53653
 21
-38.378892
  0
LINE
  8
St
  6
CONTINUOUS
 62
   127
 10
37.036495
 20
30.621805
 11
38.036672
 21
31.622005
  0
LINE
  8
St
  6
CONTINUOUS
 62
   127
 10
37.036495
 20
30.621805
 11
37.036495
 21
37.622177
  0
LINE
  8
St
  6
CONTINUOUS
 62
   127
 10
37.036495
 20
37.622177
 11
38.036672
 21
36.622
  0
LINE
  8
St
  6
CONTINUOUS
 62
   127
 10
37.036495
 20
0.62182
 11
38.036672
 21
1.622005
  0
LINE
  8
St
  6
CONTINUOUS
 62
   127
 10
37.036495
 20
7.6222
 11
37.036495
 21
0.62182
  0
LINE
  8
St
  6
CONTINUOUS
 62
   127
 10
37.036495
 20
7.6222
 11
38.036672
 21
6.622
  0
LINE
  8
St
  6
DASHDOT
 62
   127
 10
37.036495
 20
4.121988
 11
46.536678
 21
4.121988
  0
LINE
  8
St
  6
DASHDOT
 62
   127
 10
37.036495
 20
34.122003
 11
46.536678
 21
34.122003
  0
LINE
  8
St
  6
DOT
 62
   127
 10
62.036552
 20
-49.378895
 11
62.036552
 21
-70.37891
  0
LINE
  8
St
  6
DOT
 62
   127
 10
37.036533
 20
-66.878878
 11
62.036552
 21
-66.878878
  0
LINE
  8
St
  6
DOT
 62
   127
 10
37.036533
 20
-52.878852
 11
62.036552
 21
-52.878852
  0
LINE
  8
St
  6
CONTINUOUS
 62
   127
 10
54.53653
 20
-82.378888
 11
64.536535
 21
-82.378888
  0
LINE
  8
St
  6
CONTINUOUS
 62
   127
 10
54.53653
 20
-82.378888
 11
54.53653
 21
-37.378888
  0
LINE
  8
St
  6
CONTINUOUS
 62
   127
 10
54.53653
 20
-37.378888
 11
64.536535
 21
-37.378888
  0
LINE
  8
St
  6
CONTINUOUS
 62
   127
 10
64.536535
 20
-82.378888
 11
64.536535
 21
-37.378888
  0
LINE
  8
St
  6
CONTINUOUS
 62
   127
 10
37.036533
 20
-41.878895
 11
37.036533
 21
-77.878888
  0
LINE
  8
St
  6
CONTINUOUS
 62
   127
 10
37.036533
 20
-77.878888
 11
54.53653
 21
-77.878888
  0
LINE
  8
St
  6
CONTINUOUS
 62
   127
 10
37.036533
 20
-41.878895
 11
54.53653
 21
-41.878895
  0
LINE
  8
St
  6
DOT
 62
   127
 10
54.53653
 20
-39.628888
 11
64.536535
 21
-39.628888
  0
LINE
  8
St
  6
DOT
 62
   127
 10
54.53653
 20
-45.128892
 11
64.536535
 21
-45.128892
  0
LINE
  8
St
  6
DOT
 62
   127
 10
54.53653
 20
-74.62889
 11
64.536535
 21
-74.62889
  0
LINE
  8
St
  6
DOT
 62
   127
 10
54.53653
 20
-80.12888
 11
64.536535
 21
-80.12888
  0
LINE
  8
St
  6
DASHDOTX2
 62
   127
 10
52.53652
 20
-42.378882
 11
66.536545
 21
-42.378882
  0
LINE
  8
St
  6
DASHDOTX2
 62
   127
 10
52.53652
 20
-77.378885
 11
66.536545
 21
-77.378885
  0
LINE
  8
St
  6
DOTX2
 62
   127
 10
37.036533
 20
-47.378885
 11
54.53653
 21
-47.378885
  0
LINE
  8
St
  6
DOTX2
 62
   127
 10
37.036533
 20
-72.378882
 11
54.53653
 21
-72.378882
  0
LINE
  8
St
  6
CONTINUOUS
 62
   127
 10
54.53653
 20
-39.8789
 11
68.829422
 21
-39.8789
  0
LINE
  8
St
  6
CONTINUOUS
 62
   127
 10
54.53653
 20
-44.171757
 11
68.829422
 21
-44.171757
  0
LINE
  8
St
  6
CONTINUOUS
 62
   127
 10
54.53653
 20
-44.878865
 11
68.829422
 21
-44.878865
  0
LINE
  8
St
  6
CONTINUOUS
 62
   127
 10
54.53653
 20
-40.586007
 11
69.53653
 21
-40.586007
  0
LINE
  8
St
  6
DASHDOT
 62
   127
 10
49.536535
 20
-42.378882
 11
69.53653
 21
-42.378882
  0
LINE
  8
St
  6
CONTINUOUS
 62
   127
 10
54.53653
 20
-74.878903
 11
68.829422
 21
-74.878903
  0
LINE
  8
St
  6
CONTINUOUS
 62
   127
 10
54.53653
 20
-79.878867
 11
68.829422
 21
-79.878867
  0
LINE
  8
St
  6
CONTINUOUS
 62
   127
 10
68.829422
 20
-74.878903
 11
68.829422
 21
-79.878867
  0
LINE
  8
St
  6
CONTINUOUS
 62
   127
 10
54.53653
 20
-79.17176
 11
69.53653
 21
-79.17176
  0
LINE
  8
St
  6
CONTINUOUS
 62
   127
 10
54.53653
 20
-75.58601
 11
69.53653
 21
-75.58601
  0
LINE
  8
St
  6
CONTINUOUS
 62
   127
 10
69.53653
 20
-75.58601
 11
69.53653
 21
-79.17176
  0
LINE
  8
St
  6
DASHDOT
 62
   127
 10
49.536535
 20
-77.378885
 11
69.53653
 21
-77.378885
  0
LINE
  8
St
  6
DOT
 62
   127
 10
31.036525
 20
26.12221
 11
31.036525
 21
12.122215
  0
LINE
  8
St
  6
DOT
 62
   127
 10
31.036525
 20
26.12221
 11
34.036525
 21
26.12221
  0
LINE
  8
St
  6
DOT
 62
   127
 10
31.036525
 20
12.122215
 11
34.036525
 21
12.122215
  0
LINE
  8
St
  6
DOT
 62
   127
 10
31.036525
 20
24.122207
 11
-20.54018
 21
24.122207
  0
LINE
  8
St
  6
DOT
 62
   127
 10
31.036525
 20
14.122218
 11
-20.54018
 21
14.122218
  0
LINE
  8
St
  6
DOT
 62
   127
 10
31.036525
 20
-52.87889
 11
31.036525
 21
-66.878885
  0
LINE
  8
St
  6
DOT
 62
   127
 10
31.036525
 20
-52.87889
 11
34.036525
 21
-52.87889
  0
LINE
  8
St
  6
DOT
 62
   127
 10
31.036525
 20
-66.878885
 11
34.036525
 21
-66.878885
  0
LINE
  8
St
  6
DOT
 62
   127
 10
31.036525
 20
-54.8789
 11
-20.54018
 21
-54.8789
  0
LINE
  8
St
  6
DOT
 62
   127
 10
31.036525
 20
-64.878882
 11
-20.54018
 21
-64.878882
  0
LINE
  8
St
  6
CONTINUOUS
 62
   127
 10
31.036525
 20
-52.978857
 11
62.03653
 21
-52.978857
  0
LINE
  8
St
  6
CONTINUOUS
 62
   127
 10
62.03653
 20
-66.778873
 11
31.036525
 21
-66.778873
  0
LINE
  8
St
  6
CONTINUOUS
 62
   127
 10
31.036525
 20
-52.978857
 11
31.036525
 21
-66.778873
  0
LINE
  8
St
  6
CONTINUOUS
 62
   127
 10
-16.963475
 20
-63.878878
 11
-16.963475
 21
-55.878875
  0
LINE
  8
St
  6
CONTINUOUS
 62
   127
 10
-15.963447
 20
-64.878882
 11
-15.963447
 21
-54.87887
  0
LINE
  8
St
  6
CONTINUOUS
 62
   127
 10
-15.963447
 20
-64.878882
 11
-16.963475
 21
-63.878878
  0
LINE
  8
St
  6
CONTINUOUS
 62
   127
 10
-15.963447
 20
-54.87887
 11
-16.963475
 21
-55.878875
  0
LINE
  8
St
  6
CONTINUOUS
 62
   127
 10
8.036537
 20
-64.878898
 11
8.036537
 21
-54.878885
  0
LINE
  8
St
  6
CONTINUOUS
 62
   127
 10
-15.963447
 20
-54.87887
 11
31.036525
 21
-54.87887
  0
LINE
  8
St
  6
CONTINUOUS
 62
   127
 10
-15.963447
 20
-64.878882
 11
31.036525
 21
-64.878882
  0
LINE
  8
St
  6
CONTINUOUS
 62
   127
 10
-16.713433
 20
-64.12889
 11
8.036537
 21
-64.12889
  0
LINE
  8
St
  6
CONTINUOUS
 62
   127
 10
-16.713433
 20
-55.628863
 11
8.036537
 21
-55.628863
  0
LINE
  8
St
  6
CONTINUOUS
 62
   127
 10
72.441025
 20
24.12223
 11
62.04103
 21
24.12223
  0
LINE
  8
St
  6
CONTINUOUS
 62
   127
 10
73.191018
 20
23.372237
 11
62.04103
 21
23.372237
  0
LINE
  8
St
  6
CONTINUOUS
 62
   127
 10
73.441052
 20
15.122222
 11
73.441052
 21
23.122225
  0
LINE
  8
St
  6
CONTINUOUS
 62
   127
 10
72.441025
 20
14.122218
 11
72.441025
 21
24.12223
  0
LINE
  8
St
  6
CONTINUOUS
 62
   127
 10
73.191018
 20
14.87221
 11
62.04103
 21
14.87221
  0
LINE
  8
St
  6
CONTINUOUS
 62
   127
 10
72.441025
 20
14.122218
 11
62.04103
 21
14.122218
  0
LINE
  8
St
  6
CONTINUOUS
 62
   127
 10
72.441025
 20
14.122218
 11
73.441052
 21
15.122222
  0
LINE
  8
St
  6
CONTINUOUS
 62
   127
 10
72.441025
 20
24.12223
 11
73.441052
 21
23.122225
  0
LINE
  8
St
  6
CONTINUOUS
 62
   127
 10
62.03653
 20
26.022242
 11
62.03653
 21
12.222228
  0
LINE
  8
St
  6
CONTINUOUS
 62
   127
 10
31.036525
 20
26.022242
 11
62.03653
 21
26.022242
  0
LINE
  8
St
  6
CONTINUOUS
 62
   127
 10
62.03653
 20
12.222228
 11
31.036525
 21
12.222228
  0
LINE
  8
St
  6
CONTINUOUS
 62
   127
 10
31.036525
 20
26.022242
 11
31.036525
 21
12.222228
  0
LINE
  8
St
  6
CONTINUOUS
 62
   127
 10
-16.963475
 20
15.122222
 11
-16.963475
 21
23.122225
  0
LINE
  8
St
  6
CONTINUOUS
 62
   127
 10
-15.963447
 20
14.122218
 11
-15.963447
 21
24.12223
  0
LINE
  8
St
  6
CONTINUOUS
 62
   127
 10
-15.963447
 20
14.122218
 11
-16.963475
 21
15.122222
  0
LINE
  8
St
  6
CONTINUOUS
 62
   127
 10
-15.963447
 20
24.12223
 11
-16.963475
 21
23.122225
  0
LINE
  8
St
  6
CONTINUOUS
 62
   127
 10
8.036537
 20
14.12221
 11
8.036537
 21
24.122215
  0
LINE
  8
St
  6
CONTINUOUS
 62
   127
 10
-15.963447
 20
24.12223
 11
31.036525
 21
24.12223
  0
LINE
  8
St
  6
CONTINUOUS
 62
   127
 10
-15.963447
 20
14.122218
 11
31.036525
 21
14.122218
  0
LINE
  8
St
  6
CONTINUOUS
 62
   127
 10
-16.713433
 20
14.87221
 11
8.036537
 21
14.87221
  0
LINE
  8
St
  6
CONTINUOUS
 62
   127
 10
-16.713433
 20
23.372237
 11
8.036537
 21
23.372237
  0
LINE
  8
St
  6
CONTINUOUS
 62
   127
 10
64.536535
 20
-72.303898
 11
67.536542
 21
-72.303898
  0
LINE
  8
St
  6
DOT
 62
   127
 10
62.036552
 20
-70.37891
 11
67.536542
 21
-70.37891
  0
LINE
  8
St
  6
CONTINUOUS
 62
   127
 10
64.536535
 20
-47.4539
 11
67.536542
 21
-47.4539
  0
LINE
  8
St
  6
CONTINUOUS
 62
   127
 10
67.536542
 20
-72.303898
 11
67.536542
 21
-47.4539
  0
LINE
  8
St
  6
DOT
 62
   127
 10
62.036552
 20
-49.378895
 11
67.536542
 21
-49.378895
  0
CIRCLE
  8
St
  6
CONTINUOUS
 62
   127
 10
-7.463487
 20
19.122213
 40
13.999995
  0
ARC
  8
St
  6
CONTINUOUS
 62
   127
 10
27.384906
 20
23.452457
 40
3.149353
 50
332.71606
 51
359.994507
  0
ARC
  8
St
  6
CONTINUOUS
 62
   127
 10
18.462226
 20
19.12221
 40
12.072068
 50
346.159304
 51
373.829709
  0
ARC
  8
St
  6
CONTINUOUS
 62
   127
 10
27.384906
 20
14.792112
 40
3.149353
 50
359.994522
 51
387.272969
  0
ARC
  8
St
  6
CONTINUOUS
 62
   127
 10
20.534262
 20
1.122151
 40
2.5
 50
11.531655
 51
168.460121
  0
ARC
  8
St
  6
CONTINUOUS
 62
   127
 10
17.534252
 20
2.122204
 40
0.5
 50
179.997253
 51
269.998627
  0
ARC
  8
St
  6
CONTINUOUS
 62
   127
 10
23.534272
 20
2.122204
 40
0.5
 50
269.998627
 51
359.994507
  0
ARC
  8
St
  6
CONTINUOUS
 62
   127
 10
20.534262
 20
37.12227
 40
2.5
 50
191.534401
 51
348.457374
  0
ARC
  8
St
  6
CONTINUOUS
 62
   127
 10
17.534252
 20
36.122217
 40
0.5
 50
89.99588
 51
179.997253
  0
ARC
  8
St
  6
CONTINUOUS
 62
   127
 10
23.534272
 20
36.122217
 40
0.5
 50
359.994507
 51
449.99588
  0
ARC
  8
St
  6
CONTINUOUS
 62
   127
 10
-7.451652
 20
19.12221
 40
15.249999
 50
29.435859
 51
330.558663
  0
ARC
  8
St
  6
CONTINUOUS
 62
   127
 10
5.393568
 20
11.872199
 40
0.5
 50
330.558663
 51
449.99588
  0
ARC
  8
St
  6
CONTINUOUS
 62
   127
 10
5.393568
 20
26.372203
 40
0.5
 50
269.998642
 51
389.435874
  0
CIRCLE
  8
St
  6
CONTINUOUS
 62
   127
 10
-7.463487
 20
-59.878888
 40
13.999995
  0
ARC
  8
St
  6
CONTINUOUS
 62
   127
 10
27.384906
 20
-55.548645
 40
3.149353
 50
332.71606
 51
359.994507
  0
ARC
  8
St
  6
CONTINUOUS
 62
   127
 10
18.462226
 20
-59.878892
 40
12.072068
 50
346.159304
 51
373.829709
  0
ARC
  8
St
  6
CONTINUOUS
 62
   127
 10
27.384906
 20
-64.20899
 40
3.149353
 50
359.994522
 51
387.272969
  0
ARC
  8
St
  6
CONTINUOUS
 62
   127
 10
20.534262
 20
-77.878951
 40
2.5
 50
11.531655
 51
168.460121
  0
ARC
  8
St
  6
CONTINUOUS
 62
   127
 10
17.534252
 20
-76.878898
 40
0.5
 50
179.997253
 51
269.998627
  0
ARC
  8
St
  6
CONTINUOUS
 62
   127
 10
23.534272
 20
-76.878898
 40
0.5
 50
269.998627
 51
359.994507
  0
ARC
  8
St
  6
CONTINUOUS
 62
   127
 10
20.534262
 20
-41.878832
 40
2.5
 50
191.534401
 51
348.457374
  0
ARC
  8
St
  6
CONTINUOUS
 62
   127
 10
17.534252
 20
-42.878885
 40
0.5
 50
89.99588
 51
179.997253
  0
ARC
  8
St
  6
CONTINUOUS
 62
   127
 10
23.534272
 20
-42.878885
 40
0.5
 50
359.994507
 51
449.99588
  0
ARC
  8
St
  6
CONTINUOUS
 62
   127
 10
-7.451652
 20
-59.878892
 40
15.249999
 50
29.435859
 51
330.558663
  0
ARC
  8
St
  6
CONTINUOUS
 62
   127
 10
5.393568
 20
-67.128903
 40
0.5
 50
330.558663
 51
449.99588
  0
ARC
  8
St
  6
CONTINUOUS
 62
   127
 10
5.393568
 20
-52.628905
 40
0.5
 50
269.998642
 51
389.435874
  0
ARC
  8
St
  6
CONTINUOUS
 62
   127
 10
70.036541
 20
-59.878892
 40
7.5
 50
284.833936
 51
435.160571
  0
ARC
  8
St
  6
CONTINUOUS
 62
   127
 10
70.536543
 20
-52.128891
 40
0.5
 50
179.997253
 51
269.998627
  0
ARC
  8
St
  6
CONTINUOUS
 62
   127
 10
70.536543
 20
-67.628893
 40
0.5
 50
89.99588
 51
179.997253
  0
ARC
  8
St
  6
CONTINUOUS
 62
   127
 10
71.536546
 20
19.12221
 40
7.5
 50
284.833936
 51
435.160571
  0
ARC
  8
St
  6
CONTINUOUS
 62
   127
 10
72.036548
 20
26.872211
 40
0.5
 50
179.997253
 51
269.998627
  0
ARC
  8
St
  6
CONTINUOUS
 62
   127
 10
72.036548
 20
11.372209
 40
0.5
 50
89.99588
 51
179.997253
  0
ARC
  8
St
  6
CONTINUOUS
 10
79.536541
 20
-79.879087
 40
5.0
 50
-90.0
 51
0.0
  0
LINE
  8
St
  6
CONTINUOUS
 62
   127
 10
69.536537
 20
-84.879087
 11
79.536528
 21
-84.879087
  0
ARC
  8
St
  6
CONTINUOUS
 10
69.536546
 20
-79.879087
 40
5.0
 50
180.0
 51
270.0
  0
LINE
  8
St
  6
CONTINUOUS
 62
   127
 10
84.53653
 20
-39.87911
 11
84.53653
 21
-79.879085
  0
ARC
  8
St
  6
CONTINUOUS
 10
79.536541
 20
-39.879107
 40
5.0
 50
0.0
 51
90.0
  0
LINE
  8
St
  6
CONTINUOUS
 62
   127
 10
69.536537
 20
-34.879108
 11
79.536528
 21
-34.879108
  0
LINE
  8
St
  6
CONTINUOUS
 62
   127
 10
64.536535
 20
-39.87911
 11
64.536535
 21
-79.879085
  0
ARC
  8
St
  6
CONTINUOUS
 10
69.536546
 20
-39.879107
 40
5.0
 50
90.0
 51
180.0
  0
ARC
  8
St
  6
CONTINUOUS
 10
69.536539
 20
-39.879092
 40
2.3
 50
90.0
 51
180.0
  0
LINE
  8
St
  6
CONTINUOUS
 62
   127
 10
69.53653
 20
-37.579093
 11
79.536535
 21
-37.579093
  0
ARC
  8
St
  6
CONTINUOUS
 10
79.536549
 20
-39.879092
 40
2.3
 50
0.0
 51
90.0
  0
LINE
  8
St
  6
CONTINUOUS
 62
   127
 10
81.836537
 20
-39.879095
 11
81.836537
 21
-79.879078
  0
ARC
  8
St
  6
CONTINUOUS
 10
79.536549
 20
-79.87908
 40
2.3
 50
-90.0
 51
0.0
  0
LINE
  8
St
  6
CONTINUOUS
 62
   127
 10
69.53653
 20
-82.17908
 11
79.536535
 21
-82.17908
  0
LINE
  8
St
  6
CONTINUOUS
 62
   127
 10
67.236528
 20
-39.879095
 11
67.236528
 21
-79.879078
  0
ARC
  8
St
  6
CONTINUOUS
 10
69.536539
 20
-79.87908
 40
2.3
 50
180.0
 51
270.0
  0
ARC
  8
St
  6
CONTINUOUS
 10
44.536511
 20
-0.878017
 40
5.0
 50
180.0
 51
270.0
  0
LINE
  8
St
  6
CONTINUOUS
 62
   127
 10
44.536502
 20
-5.878017
 11
54.536515
 21
-5.878017
  0
ARC
  8
St
  6
CONTINUOUS
 10
54.536529
 20
-0.878017
 40
5.0
 50
-90.0
 51
0.0
  0
LINE
  8
St
  6
CONTINUOUS
 62
   127
 10
59.536518
 20
39.121997
 11
59.536518
 21
-0.878015
  0
ARC
  8
St
  6
CONTINUOUS
 10
54.536529
 20
39.122
 40
5.0
 50
0.0
 51
90.0
  0
LINE
  8
St
  6
CONTINUOUS
 62
   127
 10
44.536502
 20
44.122
 11
54.536515
 21
44.122
  0
LINE
  8
St
  6
CONTINUOUS
 62
   127
 10
39.5365
 20
39.121997
 11
39.5365
 21
-0.878015
  0
ARC
  8
St
  6
CONTINUOUS
 10
44.536511
 20
39.122
 40
5.0
 50
90.0
 51
180.0
  0
ARC
  8
St
  6
CONTINUOUS
 10
44.536526
 20
39.122008
 40
2.3
 50
90.0
 51
180.0
  0
LINE
  8
St
  6
CONTINUOUS
 62
   127
 10
44.536518
 20
41.422007
 11
54.53653
 21
41.422007
  0
ARC
  8
St
  6
CONTINUOUS
 10
54.536544
 20
39.122008
 40
2.3
 50
0.0
 51
90.0
  0
LINE
  8
St
  6
CONTINUOUS
 62
   127
 10
42.236515
 20
39.122005
 11
42.236515
 21
-0.87803
  0
ARC
  8
St
  6
CONTINUOUS
 10
44.536526
 20
-0.878032
 40
2.3
 50
180.0
 51
270.0
  0
LINE
  8
St
  6
CONTINUOUS
 62
   127
 10
44.536518
 20
-3.178032
 11
54.53653
 21
-3.178032
  0
LINE
  8
St
  6
CONTINUOUS
 62
   127
 10
56.836533
 20
39.122005
 11
56.836533
 21
-0.87803
  0
ARC
  8
St
  6
CONTINUOUS
 10
54.536544
 20
-0.878032
 40
2.3
 50
-90.0
 51
0.0
  0
LINE
  8
St
  6
DASHDOT
 10
84.53653
 20
-20.378547
 11
39.536515
 21
-20.378547
  0
LINE
  8
St
  6
DOT
 62
   127
 10
39.536507
 20
-39.879095
 11
39.536507
 21
-79.879078
  0
ARC
  8
St
  6
DOT
 10
44.536504
 20
-39.879083
 40
5.0
 50
90.0
 51
180.0
  0
LINE
  8
St
  6
DOT
 62
   127
 10
44.536495
 20
-34.879078
 11
54.536507
 21
-34.879078
  0
ARC
  8
St
  6
DOT
 10
54.536521
 20
-39.879083
 40
5.0
 50
0.0
 51
90.0
  0
LINE
  8
St
  6
DOT
 62
   127
 10
59.53651
 20
-79.879093
 11
59.53651
 21
-39.87908
  0
ARC
  8
St
  6
DOT
 10
54.536521
 20
-79.8791
 40
5.0
 50
270.0
 51
360.0
  0
LINE
  8
St
  6
DOT
 62
   127
 10
44.536495
 20
-84.879095
 11
54.536507
 21
-84.879095
  0
ARC
  8
St
  6
DOT
 10
44.536504
 20
-79.8791
 40
5.0
 50
180.0
 51
270.0
  0
ARC
  8
St
  6
DOT
 10
44.536519
 20
-79.879108
 40
2.3
 50
180.0
 51
270.0
  0
LINE
  8
St
  6
DOT
 62
   127
 10
44.53651
 20
-82.179103
 11
54.536522
 21
-82.179103
  0
ARC
  8
St
  6
DOT
 10
54.536536
 20
-79.879108
 40
2.3
 50
270.0
 51
360.0
  0
LINE
  8
St
  6
DOT
 62
   127
 10
42.236507
 20
-79.8791
 11
42.236507
 21
-39.879065
  0
ARC
  8
St
  6
DOT
 10
44.536519
 20
-39.879068
 40
2.3
 50
90.0
 51
180.0
  0
LINE
  8
St
  6
DOT
 62
   127
 10
44.53651
 20
-37.579062
 11
54.536522
 21
-37.579062
  0
LINE
  8
St
  6
DOT
 62
   127
 10
56.836525
 20
-79.8791
 11
56.836525
 21
-39.879065
  0
ARC
  8
St
  6
DOT
 10
54.536536
 20
-39.879068
 40
2.3
 50
0.0
 51
90.0
  0
LINE
  8
St
  6
DOT
 62
   127
 10
64.53652
 20
-0.878
 11
64.53652
 21
39.121983
  0
ARC
  8
St
  6
DOT
 10
69.536516
 20
-0.878017
 40
5.0
 50
180.0
 51
270.0
  0
LINE
  8
St
  6
DOT
 62
   127
 10
69.536507
 20
-5.878017
 11
79.53652
 21
-5.878017
  0
ARC
  8
St
  6
DOT
 10
79.536534
 20
-0.878017
 40
5.0
 50
-90.0
 51
0.0
  0
LINE
  8
St
  6
DOT
 62
   127
 10
84.536522
 20
39.121997
 11
84.536522
 21
-0.878015
  0
ARC
  8
St
  6
DOT
 10
79.536534
 20
39.122
 40
5.0
 50
0.0
 51
90.0
  0
LINE
  8
St
  6
DOT
 62
   127
 10
69.536507
 20
44.122
 11
79.53652
 21
44.122
  0
ARC
  8
St
  6
DOT
 10
69.536516
 20
39.122
 40
5.0
 50
90.0
 51
180.0
  0
ARC
  8
St
  6
DOT
 10
69.536531
 20
39.122008
 40
2.3
 50
90.0
 51
180.0
  0
LINE
  8
St
  6
DOT
 62
   127
 10
69.536522
 20
41.422007
 11
79.536535
 21
41.422007
  0
ARC
  8
St
  6
DOT
 10
79.536549
 20
39.122008
 40
2.3
 50
0.0
 51
90.0
  0
LINE
  8
St
  6
DOT
 62
   127
 10
67.23652
 20
39.122005
 11
67.23652
 21
-0.87803
  0
ARC
  8
St
  6
DOT
 10
69.536531
 20
-0.878032
 40
2.3
 50
180.0
 51
270.0
  0
LINE
  8
St
  6
DOT
 62
   127
 10
69.536522
 20
-3.178032
 11
79.536535
 21
-3.178032
  0
LINE
  8
St
  6
DOT
 62
   127
 10
81.836537
 20
39.122005
 11
81.836537
 21
-0.87803
  0
ARC
  8
St
  6
DOT
 10
79.536549
 20
-0.878032
 40
2.3
 50
-90.0
 51
0.0
  0
LINE
  8
St
  6
DOT
 10
84.53653
 20
-39.628888
 11
84.53653
 21
-0.878015
  0
LINE
  8
St
  6
DOT
 10
64.536535
 20
-39.628888
 11
64.536535
 21
-0.893
  0
LINE
  8
St
  6
DOT
 10
39.536515
 20
-0.878
 11
39.536515
 21
-39.866848
  0
LINE
  8
St
  6
DOT
 10
59.536518
 20
-0.878
 11
59.536518
 21
-39.87908
  0
ENDBLK
  0
BLOCK
  2
*GRP_0078
 70
    65
 10
0.0
 20
0.0
  0
LINE
  8
補助線
  6
BYBLOCK
 62
     0
 10
-5.963487
 20
-59.878888
 11
-8.963487
 21
-59.878888
  0
LINE
  8
補助線
  6
BYBLOCK
 62
     0
 10
-7.463487
 20
-61.378888
 11
-7.463487
 21
-58.378888
  0
ENDBLK
  0
BLOCK
  2
*GRP_0079
 70
    65
 10
0.0
 20
0.0
  0
LINE
  8
補助線
  6
BYBLOCK
 62
     0
 10
-5.963487
 20
19.122213
 11
-8.963487
 21
19.122213
  0
LINE
  8
補助線
  6
BYBLOCK
 62
     0
 10
-7.463487
 20
17.622213
 11
-7.463487
 21
20.622213
  0
ENDBLK
  0
BLOCK
  2
*GRP_0080
 70
    65
 10
0.0
 20
0.0
  0
POLYLINE
  8
寸法
  6
CONTINUOUS
 66
     1
  0
VERTEX
  8
寸法
 10
89.057467
 20
-44.41678
  0
VERTEX
  8
寸法
 10
96.6097
 20
-29.246642
  0
VERTEX
  8
寸法
 10
101.019775
 20
-29.246642
  0
SEQEND
  0
ENDBLK
  0
BLOCK
  2
*GRP_0081
 70
    65
 10
0.0
 20
0.0
  0
LINE
  8
寸法
  6
CONTINUOUS
 10
96.6097
 20
-29.246642
 11
88.470522
 21
4.191787
  0
ENDBLK
  0
BLOCK
  2
M8横横
 70
    64
 10
-129.398
 20
116.440225
  0
LINE
  8
ボルト／ビス
 10
-135.89319
 20
121.440225
 11
-135.39319
 21
121.940225
  0
LINE
  8
ボルト／ビス
 10
-123.40281
 20
121.940225
 11
-122.90281
 21
121.440225
  0
POLYLINE
  8
ボルト／ビス
 66
     1
  0
VERTEX
  8
ボルト／ビス
 10
-129.898
 20
121.940225
  0
VERTEX
  8
ボルト／ビス
 10
-129.398
 20
121.440225
  0
VERTEX
  8
ボルト／ビス
 10
-128.898
 20
121.940225
  0
SEQEND
  0
LINE
  8
ボルト／ビス
 10
-135.89319
 20
116.440225
 11
-122.90281
 21
116.440225
  0
LINE
  8
ボルト／ビス
 10
-129.398
 20
116.440225
 11
-129.398
 21
121.440225
  0
LINE
  8
ボルト／ビス
 10
-135.39319
 20
121.940225
 11
-123.40281
 21
121.940225
  0
LINE
  8
ボルト／ビス
 10
-122.90281
 20
116.440225
 11
-122.90281
 21
121.440225
  0
LINE
  8
ボルト／ビス
 10
-135.89319
 20
116.440225
 11
-135.89319
 21
121.440225
  0
ENDBLK
  0
ENDSEC
  0
SECTION
  2
ENTITIES
  0
POLYLINE
  8
通り芯
  6
CONTINUOUS
 66
     1
 70
     1
  0
VERTEX
  8
通り芯
 10
-210.0
 20
-148.5
  0
VERTEX
  8
通り芯
 10
210.0
 20
-148.5
  0
VERTEX
  8
通り芯
 10
210.0
 20
148.5
  0
VERTEX
  8
通り芯
 10
-210.0
 20
148.5
  0
SEQEND
  0
INSERT
  2
*GRP_0002
  8
通り芯
  6
CONTINUOUS
 10
0.0
 20
0.0
  0
INSERT
  2
*GRP_0003
  8
補助線
  6
CONTINUOUS
 10
0.0
 20
0.0
  0
INSERT
  2
*GRP_0004
  8
補助線
  6
CONTINUOUS
 10
0.0
 20
0.0
  0
INSERT
  2
*GRP_0001
  8
型材断面
  6
CONTINUOUS
 10
0.0
 20
0.0
  0
INSERT
  2
*GRP_0005
  8
型材断面
  6
CONTINUOUS
 62
    47
 10
0.0
 20
0.0
  0
INSERT
  2
*GRP_0006
  8
型材断面
  6
CONTINUOUS
 62
    47
 10
0.0
 20
0.0
  0
INSERT
  2
*GRP_0007
  8
型材断面
  6
CONTINUOUS
 62
    47
 10
0.0
 20
0.0
  0
LINE
  8
型材断面
  6
CONTINUOUS
 62
    47
 10
29.536533
 20
-88.961097
 11
31.036528
 21
-88.127768
  0
LINE
  8
型材断面
  6
CONTINUOUS
 62
    47
 10
29.536533
 20
-93.294442
 11
31.036528
 21
-94.127768
  0
LINE
  8
型材断面
  6
CONTINUOUS
 62
    47
 10
29.911533
 20
-93.502772
 11
29.911533
 21
-88.752762
  0
LINE
  8
型材断面
  6
CONTINUOUS
 62
    47
 10
30.286533
 20
-93.711107
 11
30.286533
 21
-88.544433
  0
LINE
  8
型材断面
  6
CONTINUOUS
 62
    47
 10
30.661533
 20
-93.919438
 11
30.661533
 21
-88.336097
  0
LINE
  8
型材断面
  6
CONTINUOUS
 62
    47
 10
9.536513
 20
-22.710387
 11
11.036513
 21
-21.877052
  0
LINE
  8
型材断面
  6
CONTINUOUS
 62
    47
 10
9.536513
 20
-27.043722
 11
11.036513
 21
-27.877052
  0
LINE
  8
型材断面
  6
CONTINUOUS
 62
    47
 10
9.911513
 20
-27.252052
 11
9.911513
 21
-22.502052
  0
LINE
  8
型材断面
  6
CONTINUOUS
 62
    47
 10
10.286513
 20
-27.460387
 11
10.286513
 21
-22.293718
  0
LINE
  8
型材断面
  6
CONTINUOUS
 62
    47
 10
10.661513
 20
-27.668718
 11
10.661513
 21
-22.085387
  0
LINE
  8
型材断面
  6
CONTINUOUS
 62
    47
 10
9.536513
 20
-10.376338
 11
9.536513
 21
-8.876338
  0
ARC
  8
型材断面
  6
CONTINUOUS
 62
    47
 10
11.036518
 20
-34.877787
 40
1.5
 50
180.0
 51
270.0
  0
LINE
  8
型材断面
  6
CONTINUOUS
 62
    47
 10
9.536513
 20
-8.876338
 11
9.536513
 21
-36.377783
  0
LINE
  8
型材断面
  6
CONTINUOUS
 62
    47
 10
9.536513
 20
-36.377783
 11
29.536533
 21
-36.377783
  0
LINE
  8
型材断面
  6
CONTINUOUS
 62
    47
 10
11.036513
 20
-34.877783
 11
11.036513
 21
-8.876338
  0
LINE
  8
型材断面
  6
CONTINUOUS
 62
    47
 10
11.036513
 20
-8.876338
 11
9.536513
 21
-8.876338
  0
ARC
  8
型材断面
  6
CONTINUOUS
 62
    47
 10
29.536535
 20
-36.377781
 40
1.5
 50
0.0
 51
90.0
  0
LINE
  8
型材断面
  6
CONTINUOUS
 62
    47
 10
11.036513
 20
-34.877783
 11
31.036533
 21
-34.877783
  0
LINE
  8
型材断面
  6
CONTINUOUS
 62
    47
 10
29.536533
 20
-106.877762
 11
29.536533
 21
-36.377783
  0
LINE
  8
型材断面
  6
CONTINUOUS
 62
    47
 10
31.036533
 20
-106.877762
 11
31.036533
 21
-34.877783
  0
LINE
  8
型材断面
  6
CONTINUOUS
 10
29.536533
 20
-46.377787
 11
31.036533
 21
-46.377787
  0
LINE
  8
型材断面
  6
CONTINUOUS
 62
    47
 10
29.911533
 20
-46.377787
 11
29.911533
 21
-73.377787
  0
LINE
  8
型材断面
  6
CONTINUOUS
 62
    47
 10
30.286533
 20
-46.377787
 11
30.286533
 21
-73.377787
  0
LINE
  8
型材断面
  6
CONTINUOUS
 62
    47
 10
30.661533
 20
-46.377787
 11
30.661533
 21
-73.377787
  0
LINE
  8
型材断面
  6
CONTINUOUS
 10
31.036533
 20
-73.377787
 11
29.536533
 21
-73.377787
  0
INSERT
  2
*GRP_0008
  8
型材断面
  6
CONTINUOUS
 62
    63
 10
0.0
 20
0.0
  0
INSERT
  2
*GRP_0009
  8
型材断面
  6
CONTINUOUS
 10
0.0
 20
0.0
  0
INSERT
  2
*GRP_0010
  8
型材断面
  6
CONTINUOUS
 62
    47
 10
0.0
 20
0.0
  0
INSERT
  2
*GRP_0011
  8
型材断面
  6
CONTINUOUS
 10
0.0
 20
0.0
  0
INSERT
  2
*GRP_0012
  8
型材断面
  6
CONTINUOUS
 62
    47
 10
0.0
 20
0.0
  0
LINE
  8
型材断面
  6
CONTINUOUS
 62
    47
 10
22.936637
 20
64.122228
 11
22.936637
 21
62.622228
  0
LINE
  8
型材断面
  6
CONTINUOUS
 62
    47
 10
14.936637
 20
64.122228
 11
14.936637
 21
62.622228
  0
LINE
  8
型材断面
  6
CONTINUOUS
 62
    47
 10
23.936637
 20
64.122228
 11
23.936637
 21
62.622228
  0
LINE
  8
型材断面
  6
CONTINUOUS
 62
    47
 10
13.936637
 20
64.122228
 11
13.936637
 21
62.622228
  0
LINE
  8
型材断面
  6
CONTINUOUS
 62
    47
 10
23.936637
 20
63.747228
 11
13.936637
 21
63.747228
  0
LINE
  8
型材断面
  6
CONTINUOUS
 62
    47
 10
23.936637
 20
63.372228
 11
13.936637
 21
63.372228
  0
LINE
  8
型材断面
  6
CONTINUOUS
 62
    47
 10
23.936637
 20
62.997228
 11
13.936637
 21
62.997228
  0
ARC
  8
型材断面
  6
CONTINUOUS
 10
-40.136671
 20
40.122229
 40
0.695595
 50
270.0
 51
270.0
  0
LINE
  8
型材断面
  6
CONTINUOUS
 62
    47
 10
-39.463443
 20
40.122228
 11
-38.630108
 21
38.622228
  0
LINE
  8
型材断面
  6
CONTINUOUS
 62
    47
 10
-34.296773
 20
38.622228
 11
-33.463443
 21
40.122228
  0
LINE
  8
型材断面
  6
CONTINUOUS
 62
    47
 10
-33.671773
 20
39.747228
 11
-39.255108
 21
39.747228
  0
LINE
  8
型材断面
  6
CONTINUOUS
 62
    47
 10
-33.880108
 20
39.372228
 11
-39.046778
 21
39.372228
  0
LINE
  8
型材断面
  6
CONTINUOUS
 62
    47
 10
-34.088443
 20
38.997228
 11
-38.838443
 21
38.997228
  0
LINE
  8
型材断面
  6
CONTINUOUS
 62
    47
 10
-16.863472
 20
-7.377777
 11
-15.363472
 21
-8.211107
  0
LINE
  8
型材断面
  6
CONTINUOUS
 62
    47
 10
-16.863472
 20
-13.377777
 11
-15.363472
 21
-12.544442
  0
LINE
  8
型材断面
  6
CONTINUOUS
 62
    47
 10
-16.488472
 20
-7.586107
 11
-16.488472
 21
-13.169442
  0
LINE
  8
型材断面
  6
CONTINUOUS
 62
    47
 10
-16.113472
 20
-7.794442
 11
-16.113472
 21
-12.961107
  0
LINE
  8
型材断面
  6
CONTINUOUS
 62
    47
 10
-15.738472
 20
-8.002777
 11
-15.738472
 21
-12.752777
  0
INSERT
  2
*GRP_0013
  8
型材断面
  6
CONTINUOUS
 62
    47
 10
0.0
 20
0.0
  0
LINE
  8
型材断面
  6
CONTINUOUS
 62
    47
 10
-34.713443
 20
37.122228
 11
-34.713443
 21
38.622228
  0
LINE
  8
型材断面
  6
CONTINUOUS
 62
    47
 10
-38.213443
 20
37.122228
 11
-38.213443
 21
38.622228
  0
LINE
  8
型材断面
  6
CONTINUOUS
 62
    47
 10
-34.713443
 20
38.247228
 11
-38.213443
 21
38.247228
  0
LINE
  8
型材断面
  6
CONTINUOUS
 62
    47
 10
-34.713443
 20
37.872228
 11
-38.213443
 21
37.872228
  0
LINE
  8
型材断面
  6
CONTINUOUS
 62
    47
 10
-34.713443
 20
37.497228
 11
-38.213443
 21
37.497228
  0
LINE
  8
型材断面
  6
DASHDOT
 62
    47
 10
-36.463443
 20
41.267002
 11
-36.463443
 21
35.361398
  0
INSERT
  2
*GRP_0014
  8
型材断面
  6
CONTINUOUS
 62
    47
 10
0.0
 20
0.0
  0
LINE
  8
型材断面
  6
CONTINUOUS
 62
    47
 10
29.536533
 20
30.622213
 11
28.036533
 21
30.622213
  0
LINE
  8
型材断面
  6
CONTINUOUS
 62
    47
 10
29.536533
 20
7.622213
 11
28.036533
 21
7.622213
  0
LINE
  8
型材断面
  6
CONTINUOUS
 62
    47
 10
28.411533
 20
7.622213
 11
28.411533
 21
30.622213
  0
LINE
  8
型材断面
  6
CONTINUOUS
 62
    47
 10
28.786533
 20
7.622213
 11
28.786533
 21
30.622213
  0
LINE
  8
型材断面
  6
CONTINUOUS
 62
    47
 10
29.161533
 20
7.622213
 11
29.161533
 21
30.622213
  0
LINE
  8
型材断面
  6
CONTINUOUS
 62
    47
 10
28.036533
 20
47.788877
 11
29.536533
 21
48.622213
  0
LINE
  8
型材断面
  6
CONTINUOUS
 62
    47
 10
28.036533
 20
43.455543
 11
29.536533
 21
42.622213
  0
LINE
  8
型材断面
  6
CONTINUOUS
 62
    47
 10
28.411533
 20
47.997213
 11
28.411533
 21
43.247213
  0
LINE
  8
型材断面
  6
CONTINUOUS
 62
    47
 10
28.786533
 20
48.205543
 11
28.786533
 21
43.038877
  0
LINE
  8
型材断面
  6
CONTINUOUS
 62
    47
 10
29.161533
 20
48.413877
 11
29.161533
 21
42.830543
  0
LINE
  8
型材断面
  6
CONTINUOUS
 62
    47
 10
-13.863472
 20
-12.127777
 11
-15.363472
 21
-12.127777
  0
LINE
  8
型材断面
  6
CONTINUOUS
 62
    47
 10
-13.863472
 20
-8.627777
 11
-15.363472
 21
-8.627777
  0
LINE
  8
型材断面
  6
CONTINUOUS
 62
    47
 10
-14.238472
 20
-8.627777
 11
-14.238472
 21
-12.127777
  0
LINE
  8
型材断面
  6
CONTINUOUS
 62
    47
 10
-14.988472
 20
-8.627777
 11
-14.988472
 21
-12.127777
  0
LINE
  8
型材断面
  6
CONTINUOUS
 62
    47
 10
-14.613472
 20
-8.627777
 11
-14.613472
 21
-12.127777
  0
LINE
  8
型材断面
  6
DASHDOT
 62
    47
 10
-16.863472
 20
-10.377777
 11
-10.221342
 21
-10.377777
  0
LINE
  8
型材断面
  6
DASHDOT
 62
    47
 10
31.913157
 20
45.622213
 11
25.536533
 21
45.622213
  0
INSERT
  2
*GRP_0015
  8
型材断面
  6
CONTINUOUS
 62
    63
 10
0.0
 20
0.0
  0
LINE
  8
型材断面
  6
CONTINUOUS
 62
    63
 10
16.036533
 20
-37.877783
 11
16.036533
 21
-41.877787
  0
LINE
  8
型材断面
  6
CONTINUOUS
 62
    63
 10
18.286533
 20
-77.877787
 11
18.286533
 21
-81.877793
  0
LINE
  8
型材断面
  6
CONTINUOUS
 62
    63
 10
13.786533
 20
-77.877787
 11
13.786533
 21
-81.877793
  0
LINE
  8
型材断面
  6
CONTINUOUS
 62
    63
 10
21.036533
 20
-37.877783
 11
18.536533
 21
-41.177783
  0
LINE
  8
型材断面
  6
CONTINUOUS
 62
    63
 10
13.536533
 20
-41.177783
 11
18.536533
 21
-41.177783
  0
LINE
  8
型材断面
  6
CONTINUOUS
 62
    63
 10
11.036533
 20
-37.877783
 11
13.536533
 21
-41.177783
  0
LINE
  8
型材断面
  6
CONTINUOUS
 62
    63
 10
19.036533
 20
-40.517782
 11
13.036533
 21
-40.517782
  0
LINE
  8
型材断面
  6
CONTINUOUS
 62
    63
 10
1.536518
 20
-16.164448
 11
1.536518
 21
-10.376338
  0
LINE
  8
型材断面
  6
CONTINUOUS
 62
    63
 10
6.536513
 20
-24.877052
 11
9.536513
 21
-24.877052
  0
LINE
  8
型材断面
  6
CONTINUOUS
 62
    63
 10
-16.963443
 20
-103.877762
 11
-16.963443
 21
-106.877762
  0
LINE
  8
型材断面
  6
CONTINUOUS
 62
    63
 10
11.536533
 20
-38.537782
 11
20.536533
 21
-38.537782
  0
LINE
  8
型材断面
  6
CONTINUOUS
 62
    63
 10
12.036533
 20
-39.197782
 11
20.036533
 21
-39.197782
  0
LINE
  8
型材断面
  6
CONTINUOUS
 62
    63
 10
12.536533
 20
-39.857783
 11
19.536533
 21
-39.857783
  0
LINE
  8
型材断面
  6
CONTINUOUS
 62
    63
 10
13.786533
 20
-78.877787
 11
18.286533
 21
-78.877787
  0
LINE
  8
型材断面
  6
CONTINUOUS
 62
    63
 10
13.786533
 20
-79.877787
 11
18.286533
 21
-79.877787
  0
LINE
  8
型材断面
  6
CONTINUOUS
 62
    63
 10
13.786533
 20
-80.877793
 11
18.286533
 21
-80.877793
  0
LINE
  8
型材断面
  6
CONTINUOUS
 62
    63
 10
25.536533
 20
47.372213
 11
28.036533
 21
47.372213
  0
LINE
  8
型材断面
  6
CONTINUOUS
 62
    63
 10
25.536533
 20
43.872213
 11
28.036533
 21
43.872213
  0
LINE
  8
型材断面
  6
CONTINUOUS
 62
    63
 10
26.161533
 20
43.872213
 11
26.161533
 21
47.372213
  0
LINE
  8
型材断面
  6
CONTINUOUS
 62
    63
 10
26.786533
 20
43.872213
 11
26.786533
 21
47.372213
  0
LINE
  8
型材断面
  6
CONTINUOUS
 62
    63
 10
27.411533
 20
43.872213
 11
27.411533
 21
47.372213
  0
LINE
  8
型材断面
  6
CONTINUOUS
 62
    63
 10
16.036533
 20
-2.877777
 11
16.036533
 21
3.122228
  0
LINE
  8
型材断面
  6
CONTINUOUS
 62
    63
 10
13.286533
 20
0.422222
 11
11.036533
 21
-2.877777
  0
LINE
  8
型材断面
  6
CONTINUOUS
 62
    63
 10
18.786533
 20
0.422222
 11
21.036533
 21
-2.877777
  0
LINE
  8
型材断面
  6
CONTINUOUS
 62
    63
 10
13.286533
 20
0.422222
 11
18.786533
 21
0.422222
  0
LINE
  8
型材断面
  6
CONTINUOUS
 62
    63
 10
18.387008
 20
37.122213
 11
22.686008
 21
37.122213
  0
LINE
  8
型材断面
  6
CONTINUOUS
 62
    63
 10
18.136533
 20
37.122213
 11
18.136533
 21
41.122213
  0
LINE
  8
型材断面
  6
CONTINUOUS
 62
    63
 10
13.936533
 20
37.122213
 11
13.936533
 21
41.122213
  0
LINE
  8
型材断面
  6
CONTINUOUS
 62
    63
 10
13.936533
 20
37.747213
 11
18.136533
 21
37.747213
  0
LINE
  8
型材断面
  6
CONTINUOUS
 62
    63
 10
13.936533
 20
38.372213
 11
18.136533
 21
38.372213
  0
LINE
  8
型材断面
  6
CONTINUOUS
 62
    63
 10
13.936533
 20
38.997213
 11
18.136533
 21
38.997213
  0
LINE
  8
型材断面
  6
CONTINUOUS
 62
    63
 10
13.936533
 20
39.622213
 11
18.136533
 21
39.622213
  0
LINE
  8
型材断面
  6
CONTINUOUS
 62
    63
 10
13.936533
 20
40.247213
 11
18.136533
 21
40.247213
  0
LINE
  8
型材断面
  6
CONTINUOUS
 62
    63
 10
12.836533
 20
-0.237777
 11
19.236533
 21
-0.237777
  0
LINE
  8
型材断面
  6
CONTINUOUS
 62
    63
 10
12.386533
 20
-0.897778
 11
19.686533
 21
-0.897778
  0
LINE
  8
型材断面
  6
CONTINUOUS
 62
    63
 10
11.936533
 20
-1.557777
 11
20.136533
 21
-1.557777
  0
LINE
  8
型材断面
  6
CONTINUOUS
 62
    63
 10
11.486533
 20
-2.217778
 11
20.586533
 21
-2.217778
  0
LINE
  8
型材断面
  6
CONTINUOUS
 62
    47
 10
31.036533
 20
-106.877762
 11
29.536533
 21
-106.877762
  0
LINE
  8
型材断面
  6
CONTINUOUS
 62
    47
 10
22.936637
 20
64.122228
 11
22.936637
 21
62.622228
  0
LINE
  8
型材断面
  6
CONTINUOUS
 62
    47
 10
14.936637
 20
64.122228
 11
14.936637
 21
62.622228
  0
LINE
  8
型材断面
  6
CONTINUOUS
 10
51.517132
 20
68.122233
 11
105.565898
 21
122.170997
  0
LINE
  8
型材断面
  6
CONTINUOUS
 10
44.446065
 20
68.122233
 11
98.49483
 21
122.170997
  0
LINE
  8
型材断面
  6
CONTINUOUS
 10
35.26048
 20
68.122233
 11
89.309245
 21
122.170997
  0
LINE
  8
型材断面
  6
CONTINUOUS
 10
23.232868
 20
68.122233
 11
77.281632
 21
122.170997
  0
LINE
  8
型材断面
  6
CONTINUOUS
 10
30.303932
 20
68.122233
 11
84.352698
 21
122.170997
  0
LINE
  8
型材断面
  6
CONTINUOUS
 10
4.140978
 20
68.122233
 11
58.189742
 21
122.170997
  0
LINE
  8
型材断面
  6
CONTINUOUS
 10
11.919155
 20
68.122233
 11
65.96792
 21
122.170997
  0
LINE
  8
型材断面
  6
CONTINUOUS
 10
46.875293
 20
122.170997
 11
1.443182
 21
76.738888
  0
LINE
  8
型材断面
  6
CONTINUOUS
 10
13.21773
 20
122.170997
 11
-8.314535
 21
100.63873
  0
LINE
  8
型材断面
  6
CONTINUOUS
 10
24.53106
 20
122.170997
 11
-2.65787
 21
94.982068
  0
LINE
  8
型材断面
  6
CONTINUOUS
 10
-8.314538
 20
100.638732
 11
1.584967
 21
90.739233
  0
INSERT
  2
M8横横
  8
型材断面
  6
CONTINUOUS
 10
18.936628
 20
60.122215
 50
180.0
  0
INSERT
  2
*GRP_0016
  8
型材断面
  6
CONTINUOUS
 10
0.0
 20
0.0
  0
POLYLINE
  8
型材断面
  6
CONTINUOUS
 66
     1
  0
VERTEX
  8
型材断面
 10
28.036528
 20
62.622222
  0
VERTEX
  8
型材断面
 10
28.036528
 20
120.013365
  0
VERTEX
  8
型材断面
 10
158.231423
 20
120.013365
  0
SEQEND
  0
POLYLINE
  8
型材断面
  6
CONTINUOUS
 66
     1
  0
VERTEX
  8
型材断面
 10
158.231423
 20
120.013365
  0
VERTEX
  8
型材断面
 10
151.999285
 20
122.116612
  0
VERTEX
  8
型材断面
 10
151.911145
 20
120.013365
  0
SEQEND
  0
POLYLINE
  8
型材断面
  6
CONTINUOUS
 66
     1
  0
VERTEX
  8
型材断面
 10
155.64306
 20
120.013365
  0
VERTEX
  8
型材断面
 10
149.410923
 20
122.116612
  0
VERTEX
  8
型材断面
 10
149.322782
 20
120.013365
  0
SEQEND
  0
LINE
  8
型材断面
  6
CONTINUOUS
 10
158.715037
 20
114.13701
 11
85.536528
 21
114.13701
  0
POLYLINE
  8
型材断面
  6
CONTINUOUS
 66
     1
  0
VERTEX
  8
型材断面
 10
158.715037
 20
114.13701
  0
VERTEX
  8
型材断面
 10
152.4829
 20
116.240258
  0
VERTEX
  8
型材断面
 10
152.39476
 20
114.13701
  0
SEQEND
  0
POLYLINE
  8
型材断面
  6
CONTINUOUS
 66
     1
  0
VERTEX
  8
型材断面
 10
156.126675
 20
114.13701
  0
VERTEX
  8
型材断面
 10
149.894537
 20
116.240258
  0
VERTEX
  8
型材断面
 10
149.806397
 20
114.13701
  0
SEQEND
  0
LINE
  8
型材断面
  6
DASHDOT
 10
28.036533
 20
62.622228
 11
28.036533
 21
133.5
  0
LINE
  8
型材断面
  6
CONTINUOUS
 10
-10.78941
 20
86.85015
 11
-17.860475
 21
79.779085
  0
LINE
  8
型材断面
  6
CONTINUOUS
 10
-22.45667
 20
84.37528
 11
-17.860475
 21
79.779085
  0
LINE
  8
型材断面
  6
CONTINUOUS
 10
-17.860475
 20
79.779085
 11
-15.385603
 21
91.446348
  0
LINE
  8
ガラス
  6
CONTINUOUS
 10
-10.789405
 20
77.657755
 11
33.723838
 21
122.170997
  0
LINE
  8
ガラス
  6
CONTINUOUS
 10
-11.142958
 20
78.011307
 11
33.016733
 21
122.170997
  0
LINE
  8
ガラス
  6
CONTINUOUS
 10
-6.688185
 20
73.556535
 11
41.926277
 21
122.170997
  0
LINE
  8
ガラス
  6
CONTINUOUS
 10
-6.334633
 20
73.202982
 11
42.633382
 21
122.170997
  0
INSERT
  2
*GRP_0063
  8
ガラス
  6
CONTINUOUS
 10
0.0
 20
0.0
  0
INSERT
  2
*GRP_0064
  8
ガラス
  6
CONTINUOUS
 10
0.0
 20
0.0
  0
INSERT
  2
*GRP_0065
  8
ガラス
  6
CONTINUOUS
 10
0.0
 20
0.0
  0
INSERT
  2
*GRP_0066
  8
ガラス
  6
CONTINUOUS
 10
0.0
 20
0.0
  0
INSERT
  2
*GRP_0067
  8
ガラス
  6
CONTINUOUS
 10
0.0
 20
0.0
  0
INSERT
  2
*GRP_0068
  8
ガラス
  6
CONTINUOUS
 10
0.0
 20
0.0
  0
INSERT
  2
*GRP_0069
  8
ガラス
  6
CONTINUOUS
 10
0.0
 20
0.0
  0
INSERT
  2
*GRP_0070
  8
ガラス
  6
CONTINUOUS
 10
0.0
 20
0.0
  0
INSERT
  2
*GRP_0071
  8
ガラス
  6
CONTINUOUS
 10
0.0
 20
0.0
  0
INSERT
  2
*GRP_0072
  8
ガラス
  6
CONTINUOUS
 10
0.0
 20
0.0
  0
INSERT
  2
*GRP_0073
  8
ガラス
  6
CONTINUOUS
 10
0.0
 20
0.0
  0
INSERT
  2
*GRP_0074
  8
ガラス
  6
CONTINUOUS
 10
0.0
 20
0.0
  0
INSERT
  2
*GRP_0075
  8
ガラス
  6
CONTINUOUS
 10
0.0
 20
0.0
  0
INSERT
  2
*GRP_0076
  8
ガラス
  6
CONTINUOUS
 10
0.0
 20
0.0
  0
INSERT
  2
*GRP_0017
  8
ゴム等
  6
CONTINUOUS
 10
0.0
 20
0.0
  0
INSERT
  2
*GRP_0018
  8
ゴム等
  6
CONTINUOUS
 10
0.0
 20
0.0
  0
INSERT
  2
*GRP_0019
  8
ゴム等
  6
CONTINUOUS
 10
0.0
 20
0.0
  0
INSERT
  2
*GRP_0020
  8
ボルト／ビス
  6
CONTINUOUS
 10
0.0
 20
0.0
  0
INSERT
  2
*GRP_0021
  8
ボルト／ビス
  6
CONTINUOUS
 10
0.0
 20
0.0
  0
INSERT
  2
*GRP_0022
  8
ボルト／ビス
  6
CONTINUOUS
 10
0.0
 20
0.0
  0
LINE
  8
ボルト／ビス
  6
CONTINUOUS
 10
18.936628
 20
60.122215
 11
18.936628
 21
77.50489
  0
INSERT
  2
*GRP_0023
  8
ボルト／ビス
  6
CONTINUOUS
 10
0.0
 20
0.0
  0
LINE
  8
ボルト／ビス
  6
CONTINUOUS
 10
14.936628
 20
79.122215
 11
15.936628
 21
80.122215
  0
LINE
  8
ボルト／ビス
  6
CONTINUOUS
 10
21.936628
 20
80.122215
 11
22.936628
 21
79.139705
  0
LINE
  8
ボルト／ビス
  6
CONTINUOUS
 10
21.936628
 20
60.122215
 11
21.936628
 21
80.122215
  0
LINE
  8
ボルト／ビス
  6
CONTINUOUS
 10
21.936628
 20
80.122215
 11
15.936628
 21
80.122215
  0
LINE
  8
ボルト／ビス
  6
CONTINUOUS
 10
15.936628
 20
60.122215
 11
15.936628
 21
80.122215
  0
LINE
  8
ボルト／ビス
  6
CONTINUOUS
 10
14.936628
 20
60.122215
 11
14.936628
 21
79.122215
  0
LINE
  8
ボルト／ビス
  6
CONTINUOUS
 10
14.936628
 20
79.122215
 11
22.936628
 21
79.122215
  0
LINE
  8
ボルト／ビス
  6
CONTINUOUS
 10
22.936628
 20
60.122215
 11
22.936628
 21
79.122215
  0
INSERT
  2
*GRP_0024
  8
ボルト／ビス
  6
CONTINUOUS
 10
0.0
 20
0.0
  0
INSERT
  2
*GRP_0025
  8
ボルト／ビス
  6
CONTINUOUS
 10
0.0
 20
0.0
  0
INSERT
  2
*GRP_0026
  8
ボルト／ビス
  6
CONTINUOUS
 10
0.0
 20
0.0
  0
INSERT
  2
*GRP_0027
  8
ボルト／ビス
  6
CONTINUOUS
 10
0.0
 20
0.0
  0
INSERT
  2
*GRP_0028
  8
ボルト／ビス
  6
CONTINUOUS
 10
0.0
 20
0.0
  0
INSERT
  2
*GRP_0029
  8
ボルト／ビス
  6
CONTINUOUS
 10
0.0
 20
0.0
  0
CIRCLE
  8
ボルト／ビス
  6
CONTINUOUS
 10
-7.463472
 20
-59.877787
 40
11.5
  0
CIRCLE
  8
ボルト／ビス
  6
CONTINUOUS
 10
-7.463487
 20
19.122213
 40
11.5
  0
TEXT
  7
TextStyle03
  8
文字
  6
CONTINUOUS
 10
80.3
 20
120.95
  1
呼称寸法
 40
4.0
 72
     5
 11
97.8
 21
120.95
  0
TEXT
  7
TextStyle03
  8
文字
  6
CONTINUOUS
 10
110.05
 20
114.7
  1
有効開口寸法
 40
4.0
 72
     5
 11
136.55
 21
114.7
  0
TEXT
  7
TextStyle03
  8
文字
  6
CONTINUOUS
 10
-55.325
 20
8.45
  1
TK-1130
 40
4.0
 72
     5
 11
-39.825
 21
8.45
  0
TEXT
  7
TextStyle03
  8
文字
  6
CONTINUOUS
 10
-58.375
 20
-76.275
  1
TK-1128
 40
4.0
 72
     5
 11
-42.875
 21
-76.275
  0
TEXT
  7
TextStyle03
  8
文字
  6
CONTINUOUS
 10
31.275
 20
88.075
  1
TKR-1206
 40
4.0
 72
     5
 11
49.025
 21
88.075
  0
TEXT
  7
TextStyle03
  8
文字
  6
CONTINUOUS
 10
-48.925
 20
57.1
  1
TKR-1105
 40
4.0
 72
     5
 11
-31.175
 21
57.1
  0
TEXT
  7
TextStyle03
  8
文字
  6
CONTINUOUS
 10
-48.875
 20
-13.675
  1
TKR-1108
 40
4.0
 72
     5
 11
-31.125
 21
-13.675
  0
TEXT
  7
TextStyle03
  8
文字
  6
CONTINUOUS
 10
-179.875
 20
102.125
  1
ＮＳコード：ＮＳ４ＣＳ
 40
5.0
 72
     5
 11
-118.625
 21
102.125
  0
TEXT
  7
TextStyle03
  8
文字
  6
CONTINUOUS
 10
-179.875
 20
121.7
  1
シリーズ：ＳＴＦ４
 40
5.0
 72
     5
 11
-129.875
 21
121.7
  0
TEXT
  7
TextStyle03
  8
文字
  6
CONTINUOUS
 10
-179.875
 20
116.075
  1
　　　　　四角錘（上下可動）シングルガラス
 40
5.0
 72
     5
 11
-62.375
 21
116.075
  0
TEXT
  7
TextStyle03
  8
文字
  6
CONTINUOUS
 10
-179.875
 20
110.45
  1
図面名　：下枠断面詳細図(可動装置側)
 40
5.0
 72
     5
 11
-78.9375
 21
110.45
  0
TEXT
  7
TextStyle03
  8
文字
  6
CONTINUOUS
 10
101.725
 20
-30.8
  1
バランスステー
 40
3.0
 72
     5
 11
124.975
 21
-30.8
  0
INSERT
  2
*DIM_0030
  8
寸法
  6
CONTINUOUS
 10
0.0
 20
0.0
  0
INSERT
  2
*DIM_0031
  8
寸法
  6
CONTINUOUS
 10
0.0
 20
0.0
  0
INSERT
  2
*DIM_0032
  8
寸法
  6
CONTINUOUS
 10
0.0
 20
0.0
  0
INSERT
  2
*DIM_0033
  8
寸法
  6
CONTINUOUS
 10
0.0
 20
0.0
  0
INSERT
  2
*DIM_0034
  8
寸法
  6
CONTINUOUS
 10
0.0
 20
0.0
  0
INSERT
  2
*DIM_0035
  8
寸法
  6
CONTINUOUS
 10
0.0
 20
0.0
  0
INSERT
  2
*DIM_0036
  8
寸法
  6
CONTINUOUS
 10
0.0
 20
0.0
  0
INSERT
  2
*DIM_0037
  8
寸法
  6
CONTINUOUS
 10
0.0
 20
0.0
  0
INSERT
  2
*DIM_0038
  8
寸法
  6
CONTINUOUS
 10
0.0
 20
0.0
  0
INSERT
  2
*DIM_0039
  8
寸法
  6
CONTINUOUS
 10
0.0
 20
0.0
  0
INSERT
  2
*DIM_0040
  8
寸法
  6
CONTINUOUS
 10
0.0
 20
0.0
  0
INSERT
  2
*DIM_0041
  8
寸法
  6
CONTINUOUS
 10
0.0
 20
0.0
  0
INSERT
  2
*DIM_0042
  8
寸法
  6
CONTINUOUS
 10
0.0
 20
0.0
  0
INSERT
  2
*DIM_0043
  8
寸法
  6
CONTINUOUS
 10
0.0
 20
0.0
  0
INSERT
  2
*DIM_0044
  8
寸法
  6
CONTINUOUS
 10
0.0
 20
0.0
  0
INSERT
  2
*DIM_0045
  8
寸法
  6
CONTINUOUS
 10
0.0
 20
0.0
  0
INSERT
  2
*DIM_0046
  8
寸法
  6
CONTINUOUS
 10
0.0
 20
0.0
  0
INSERT
  2
*DIM_0047
  8
寸法
  6
CONTINUOUS
 10
0.0
 20
0.0
  0
INSERT
  2
*DIM_0048
  8
寸法
  6
CONTINUOUS
 10
0.0
 20
0.0
  0
INSERT
  2
*DIM_0049
  8
寸法
  6
CONTINUOUS
 10
0.0
 20
0.0
  0
INSERT
  2
*DIM_0050
  8
寸法
  6
CONTINUOUS
 10
0.0
 20
0.0
  0
INSERT
  2
*DIM_0051
  8
寸法
  6
CONTINUOUS
 10
0.0
 20
0.0
  0
INSERT
  2
*DIM_0052
  8
寸法
  6
CONTINUOUS
 10
0.0
 20
0.0
  0
INSERT
  2
*GRP_0053
  8
寸法
  6
CONTINUOUS
 10
0.0
 20
0.0
  0
INSERT
  2
*GRP_0054
  8
寸法
  6
CONTINUOUS
 10
0.0
 20
0.0
  0
INSERT
  2
*GRP_0055
  8
寸法
  6
CONTINUOUS
 10
0.0
 20
0.0
  0
INSERT
  2
*GRP_0056
  8
寸法
  6
CONTINUOUS
 10
0.0
 20
0.0
  0
INSERT
  2
*GRP_0059
  8
寸法
  6
CONTINUOUS
 10
0.0
 20
0.0
  0
INSERT
  2
*DIM_0060
  8
寸法
  6
CONTINUOUS
 10
0.0
 20
0.0
  0
INSERT
  2
*DIM_0061
  8
寸法
  6
CONTINUOUS
 10
0.0
 20
0.0
  0
INSERT
  2
*DIM_0062
  8
寸法
  6
CONTINUOUS
 10
0.0
 20
0.0
  0
INSERT
  2
*GRP_0080
  8
寸法
  6
CONTINUOUS
 10
0.0
 20
0.0
  0
INSERT
  2
*GRP_0081
  8
寸法
  6
CONTINUOUS
 10
0.0
 20
0.0
  0
INSERT
  2
*GRP_0057
  8
別途部材
  6
CONTINUOUS
 10
0.0
 20
0.0
  0
INSERT
  2
*GRP_0058
  8
別途部材
  6
CONTINUOUS
 10
0.0
 20
0.0
  0
ARC
  8
St
  6
CONTINUOUS
 10
-40.832266
 20
40.122229
 40
0.695595
 50
270.0
 51
270.0
  0
LINE
  8
St
  6
CONTINUOUS
 62
    47
 10
31.036533
 20
-104.877762
 11
29.536533
 21
-104.877762
  0
LINE
  8
St
  6
CONTINUOUS
 62
    47
 10
29.536533
 20
-105.302023
 11
29.960793
 21
-104.877762
  0
LINE
  8
St
  6
CONTINUOUS
 62
    47
 10
29.536533
 20
-105.726293
 11
30.385062
 21
-104.877762
  0
LINE
  8
St
  6
CONTINUOUS
 62
    47
 10
29.536533
 20
-106.150552
 11
30.809323
 21
-104.877762
  0
LINE
  8
St
  6
CONTINUOUS
 62
    47
 10
29.536533
 20
-106.574823
 11
31.036533
 21
-105.074823
  0
LINE
  8
St
  6
CONTINUOUS
 62
    47
 10
29.657853
 20
-106.877762
 11
31.036533
 21
-105.499082
  0
LINE
  8
St
  6
CONTINUOUS
 62
    47
 10
30.082113
 20
-106.877762
 11
31.036533
 21
-105.923343
  0
LINE
  8
St
  6
CONTINUOUS
 62
    47
 10
30.506382
 20
-106.877762
 11
31.036533
 21
-106.347613
  0
LINE
  8
St
  6
CONTINUOUS
 62
    47
 10
30.930643
 20
-106.877762
 11
31.036533
 21
-106.771872
  0
LINE
  8
St
  6
CONTINUOUS
 10
-22.863472
 20
68.122233
 11
-22.863472
 21
64.122228
  0
LINE
  8
St
  6
CONTINUOUS
 10
-22.863472
 20
68.122233
 11
54.036528
 21
68.122233
  0
INSERT
  2
*GRP_0077
  8
St
  6
CONTINUOUS
 10
0.0
 20
0.0
  0
LINE
  8
St
  6
DOT
 10
84.53653
 20
-42.878885
 11
146.853062
 21
-42.878885
  0
LINE
  8
St
  6
DOT
 10
84.53653
 20
-76.87889
 11
146.853062
 21
-76.87889
  0
LINE
  8
St
  6
DOT
 10
59.536518
 20
2.12221
 11
146.853062
 21
2.12221
  0
LINE
  8
St
  6
DOT
 10
59.536518
 20
36.122215
 11
146.853062
 21
36.122215
  0
LINE
  8
その他部品等
  6
CONTINUOUS
 10
-15.385603
 20
93.567663
 11
4.413398
 21
93.567663
  0
INSERT
  2
*HAT_0005
  8
その他部品等
 10
0.0
 20
0.0
  0
INSERT
  2
*HAT_0006
  8
その他部品等
 10
0.0
 20
0.0
  0
LINE
  8
その他部品等
  6
CONTINUOUS
 10
-33.318935
 20
69.074575
 11
-26.24786
 21
76.14565
  0
LINE
  8
その他部品等
  6
CONTINUOUS
 10
-31.295503
 20
67.051152
 11
-26.24786
 21
76.14565
  0
INSERT
  2
*HAT_0007
  8
その他部品等
 10
0.0
 20
0.0
  0
ENDSEC
  0
EOF
