  0
SECTION
  2
HEADER
  9
$EXTMIN
 10
-210.0
 20
-148.5
  9
$EXTMAX
 10
210.0
 20
148.5
  9
$PDMODE
 70
    32
  9
$PDSIZE
 40
0.3
  9
$LTSCALE
 40
10.0
  0
ENDSEC
  0
SECTION
  2
TABLES
  0
TABLE
  2
LTYPE
 70
    15
  0
LTYPE
  2
CONTINUOUS
 70
    64
  3
実線
 72
    65
 73
     0
 40
0.0
  0
LTYPE
  2
DASHED
 70
    64
  3
破線A
 72
    65
 73
     2
 40
0.6
 49
0.4
 49
-0.2
  0
LTYPE
  2
DASHEDX2
 70
    64
  3
破線B
 72
    65
 73
     2
 40
1.3
 49
0.9
 49
-0.4
  0
LTYPE
  2
DASHDOT
 70
    64
  3
１点鎖線A
 72
    65
 73
     4
 40
0.5375
 49
0.375
 49
-0.05
 49
0.0625
 49
-0.05
  0
LTYPE
  2
DASHDOTX2
 70
    64
  3
１点鎖線B
 72
    65
 73
     4
 40
1.075
 49
0.75
 49
-0.1
 49
0.125
 49
-0.1
  0
LTYPE
  2
DIVIDE2
 70
    64
  3
２点鎖線A
 72
    65
 73
     6
 40
0.5125
 49
0.3
 49
-0.0375
 49
0.05
 49
-0.0375
 49
0.05
 49
-0.0375
  0
LTYPE
  2
DIVIDE
 70
    64
  3
２点鎖線B
 72
    65
 73
     6
 40
1.05
 49
0.55
 49
-0.1
 49
0.1
 49
-0.1
 49
0.1
 49
-0.1
  0
LTYPE
  2
DOT
 70
    64
  3
点線A
 72
    65
 73
     2
 40
0.1125
 49
0.0625
 49
-0.05
  0
LTYPE
  2
DOTX2
 70
    64
  3
点線B
 72
    65
 73
     2
 40
0.275
 49
0.15
 49
-0.125
  0
LTYPE
  2
CONTINUOUS
 70
    64
  3
実線
 72
    65
 73
     0
 40
0.0
  0
LTYPE
  2
CONTINUOUS
 70
    64
  3
実線
 72
    65
 73
     0
 40
0.0
  0
LTYPE
  2
CONTINUOUS
 70
    64
  3
実線
 72
    65
 73
     0
 40
0.0
  0
LTYPE
  2
CONTINUOUS
 70
    64
  3
実線
 72
    65
 73
     0
 40
0.0
  0
LTYPE
  2
CONTINUOUS
 70
    64
  3
実線
 72
    65
 73
     0
 40
0.0
  0
LTYPE
  2
CONTINUOUS
 70
    64
  3
実線
 72
    65
 73
     0
 40
0.0
  0
ENDTAB
  0
TABLE
  2
LAYER
 70
    34
  0
LAYER
  2
通り芯
 70
     0
 62
    15
  6
CONTINUOUS
  0
LAYER
  2
補助線
 70
     0
 62
    16
  6
DOT
  0
LAYER
  2
躯体
 70
     0
 62
    31
  6
CONTINUOUS
  0
LAYER
  2
型材
 70
     0
 62
    32
  6
CONTINUOUS
  0
LAYER
  2
型材断面
 70
     0
 62
    47
  6
CONTINUOUS
  0
LAYER
  2
ガラス
 70
     0
 62
    48
  6
CONTINUOUS
  0
LAYER
  2
ゴム等
 70
     0
 62
    63
  6
CONTINUOUS
  0
LAYER
  2
ボルト／ビス
 70
     0
 62
    64
  6
CONTINUOUS
  0
LAYER
  2
文字
 70
     0
 62
    79
  6
CONTINUOUS
  0
LAYER
  2
寸法
 70
     0
 62
    80
  6
CONTINUOUS
  0
LAYER
  2
ﾊｯﾁﾝｸﾞ
 70
     0
 62
    95
  6
CONTINUOUS
  0
LAYER
  2
別途部材
 70
     0
 62
    96
  6
CONTINUOUS
  0
LAYER
  2
曲げ物
 70
     0
 62
   111
  6
CONTINUOUS
  0
LAYER
  2
鉄骨等
 70
     0
 62
   112
  6
CONTINUOUS
  0
LAYER
  2
St
 70
     0
 62
   127
  6
CONTINUOUS
  0
LAYER
  2
その他部品等
 70
     0
 62
   128
  6
CONTINUOUS
  0
LAYER
  2
ｶﾞｽｹｯﾄ
 70
     0
 62
   143
  6
CONTINUOUS
  0
LAYER
  2
ｽｹｯﾁ
 70
     0
 62
    14
  6
CONTINUOUS
  0
LAYER
  2
0
 70
     0
 62
    17
  6
CONTINUOUS
  0
LAYER
  2
1
 70
     0
 62
    30
  6
CONTINUOUS
  0
LAYER
  2
4
 70
     0
 62
    33
  6
CONTINUOUS
  0
LAYER
  2
ﾚｲﾔ3
 70
     0
 62
    46
  6
CONTINUOUS
  0
LAYER
  2
外形線
 70
     0
 62
    49
  6
CONTINUOUS
  0
LAYER
  2
部品
 70
     0
 62
    14
  6
CONTINUOUS
  0
LAYER
  2
サッシ芯
 70
     0
 62
    17
  6
DASHDOTX2
  0
LAYER
  2
寸法線
 70
     0
 62
    62
  6
CONTINUOUS
  0
LAYER
  2
姿図外形線
 70
     0
 62
    65
  6
CONTINUOUS
  0
LAYER
  2
姿補助線
 70
     0
 62
    30
  6
CONTINUOUS
  0
LAYER
  2
透視線
 70
     0
 62
    78
  6
DOT
  0
LAYER
  2
用紙
 70
     0
 62
    81
  6
CONTINUOUS
  0
LAYER
  2
実線図枠
 70
     0
 62
    94
  6
CONTINUOUS
  0
LAYER
  2
補助図枠
 70
     0
 62
    97
  6
CONTINUOUS
  0
LAYER
  2
建具記号
 70
     0
 62
   110
  6
CONTINUOUS
  0
LAYER
  2
補助文字
 70
     0
 62
   113
  6
CONTINUOUS
  0
ENDTAB
  0
TABLE
  2
STYLE
 70
    10
  0
STYLE
  2
STANDARD
 70
     0
 40
1.0
 41
1.0
 42
1.0
 50
0.0
 71
     0
  3
TXT
  4
BIGFONT
  0
STYLE
  2
TATE
 70
     4
 40
1.0
 41
1.0
 42
1.0
 50
0.0
 71
     0
  3
TXT
  4
BIGFONT
  0
STYLE
  2
TextStyle03
 70
     0
 40
1.0
 41
1.0
 42
1.0
 50
0.0
 71
     0
  3
MONOTXT
  4
BIGFONT
  0
STYLE
  2
TextStyle04
 70
     0
 40
1.0
 41
1.0
 42
1.0
 50
0.0
 71
     0
  3
MONOTXT
  4
BIGFONT
  0
STYLE
  2
TextStyle05
 70
     0
 40
1.0
 41
1.0
 42
1.0
 50
0.0
 71
     0
  3
MONOTXT
  4
BIGFONT
  0
STYLE
  2
TextStyle06
 70
     0
 40
1.0
 41
1.0
 42
1.0
 50
0.0
 71
     0
  3
MONOTXT
  4
BIGFONT
  0
STYLE
  2
TextStyle07
 70
     0
 40
1.0
 41
1.0
 42
1.0
 50
0.0
 71
     0
  3
MONOTXT
  4
BIGFONT
  0
STYLE
  2
TextStyle08
 70
     0
 40
1.0
 41
1.0
 42
1.0
 50
0.0
 71
     0
  3
MONOTXT
  4
BIGFONT
  0
STYLE
  2
TextStyle09
 70
     0
 40
1.0
 41
1.0
 42
1.0
 50
0.0
 71
     0
  3
MONOTXT
  4
BIGFONT
  0
STYLE
  2
TextStyle10
 70
     0
 40
1.0
 41
1.0
 42
1.0
 50
0.0
 71
     0
  3
MONOTXT
  4
BIGFONT
  0
ENDTAB
  0
ENDSEC
  0
SECTION
  2
BLOCKS
  0
BLOCK
  2
*HAT_0001
 70
    65
 10
0.0
 20
0.0
  0
LINE
  8
ゴム等
 10
4.9
 20
-23.8
 11
4.9
 21
-23.8
  0
LINE
  8
ゴム等
 10
3.4
 20
-23.8
 11
4.9
 21
-22.55
  0
LINE
  8
ゴム等
 10
2.15
 20
-23.8
 11
4.9
 21
-21.05
  0
LINE
  8
ゴム等
 10
0.65
 20
-23.8
 11
4.9
 21
-19.55
  0
LINE
  8
ゴム等
 10
-0.85
 20
-23.8
 11
4.9
 21
-18.3
  0
LINE
  8
ゴム等
 10
-2.1
 20
-23.8
 11
3.9
 21
-17.8
  0
LINE
  8
ゴム等
 10
-3.6
 20
-23.8
 11
2.4
 21
-17.8
  0
LINE
  8
ゴム等
 10
-5.1
 20
-23.8
 11
-0.1
 21
-18.8
  0
LINE
  8
ゴム等
 10
0.9
 20
-18.05
 11
0.9
 21
-17.8
  0
LINE
  8
ゴム等
 10
-6.35
 20
-23.8
 11
-1.35
 21
-18.8
  0
LINE
  8
ゴム等
 10
-7.85
 20
-23.8
 11
-2.85
 21
-18.8
  0
LINE
  8
ゴム等
 10
-8.1
 20
-22.8
 11
-3.35
 21
-18.05
  0
LINE
  8
ゴム等
 10
-8.1
 20
-21.3
 11
-4.85
 21
-18.05
  0
LINE
  8
ゴム等
 10
-8.1
 20
-20.05
 11
-6.35
 21
-18.3
  0
LINE
  8
ゴム等
 10
-9.1
 20
-19.55
 11
-8.35
 21
-18.55
  0
LINE
  8
ゴム等
 10
-10.6
 20
-19.55
 11
-9.6
 21
-18.8
  0
LINE
  8
ゴム等
 10
-11.6
 20
-19.05
 11
-11.1
 21
-18.8
  0
ENDBLK
  0
BLOCK
  2
*HAT_0002
 70
    65
 10
0.0
 20
0.0
  0
LINE
  8
型材断面
 10
-7.25
 20
52.125
 11
-6.0
 21
53.375
  0
LINE
  8
型材断面
 10
-7.5
 20
53.325
 11
-6.0
 21
54.825
  0
LINE
  8
型材断面
 10
-7.5
 20
54.725
 11
-6.0
 21
56.225
  0
LINE
  8
型材断面
 10
0.4
 20
62.625
 11
3.95
 21
66.175
  0
LINE
  8
型材断面
 10
-7.5
 20
56.125
 11
-6.0
 21
57.625
  0
LINE
  8
型材断面
 10
-7.5
 20
57.525
 11
-6.0
 21
59.025
  0
LINE
  8
型材断面
 10
-7.5
 20
58.975
 11
-6.0
 21
60.475
  0
LINE
  8
型材断面
 10
-7.5
 20
60.375
 11
-6.0
 21
61.875
  0
LINE
  8
型材断面
 10
-1.0
 20
62.625
 11
0.5
 21
64.125
  0
LINE
  8
型材断面
 10
-2.4
 20
62.625
 11
-0.9
 21
64.125
  0
LINE
  8
型材断面
 10
-3.8
 20
62.625
 11
-2.3
 21
64.125
  0
LINE
  8
型材断面
 10
-5.2
 20
62.625
 11
-3.7
 21
64.125
  0
LINE
  8
型材断面
 10
-7.5
 20
61.775
 11
-5.15
 21
64.125
  0
LINE
  8
型材断面
 10
-7.5
 20
63.175
 11
-6.55
 21
64.125
  0
ENDBLK
  0
BLOCK
  2
*HAT_0003
 70
    65
 10
0.0
 20
0.0
  0
LINE
  8
ゴム等
 10
12.075
 20
73.025
 11
12.075
 21
75.5
  0
LINE
  8
ゴム等
 10
10.725
 20
73.825
 11
10.725
 21
76.85
  0
LINE
  8
ゴム等
 10
9.375
 20
72.475
 11
9.375
 21
76.725
  0
LINE
  8
ゴム等
 10
8.075
 20
71.175
 11
8.075
 21
75.4
  0
LINE
  8
ゴム等
 10
6.725
 20
70.95
 11
6.725
 21
74.075
  0
LINE
  8
ゴム等
 10
5.4
 20
72.3
 11
5.4
 21
72.725
  0
ENDBLK
  0
BLOCK
  2
*HAT_0004
 70
    65
 10
0.0
 20
0.0
  0
LINE
  8
ゴム等
 62
    63
 10
-0.225
 20
64.175
 11
5.925
 21
70.275
  0
LINE
  8
ゴム等
 62
    63
 10
-2.125
 20
64.175
 11
4.975
 21
71.225
  0
LINE
  8
ゴム等
 62
    63
 10
-3.975
 20
64.175
 11
4.025
 21
72.175
  0
LINE
  8
ゴム等
 62
    63
 10
-5.875
 20
64.175
 11
3.075
 21
73.125
  0
LINE
  8
ゴム等
 62
    63
 10
-9.275
 20
62.675
 11
-8.575
 21
63.375
  0
LINE
  8
ゴム等
 62
    63
 10
-7.775
 20
64.175
 11
2.125
 21
74.075
  0
LINE
  8
ゴム等
 62
    63
 10
-11.175
 20
62.675
 11
1.175
 21
75.025
  0
LINE
  8
ゴム等
 62
    63
 10
-13.025
 20
62.675
 11
0.275
 21
75.925
  0
LINE
  8
ゴム等
 62
    63
 10
-14.175
 20
63.375
 11
-0.675
 21
76.875
  0
LINE
  8
ゴム等
 62
    63
 10
-14.175
 20
65.275
 11
-1.625
 21
77.825
  0
LINE
  8
ゴム等
 62
    63
 10
-14.175
 20
67.175
 11
-2.575
 21
78.775
  0
ENDBLK
  0
BLOCK
  2
*HAT_0005
 70
    65
 10
0.0
 20
0.0
  0
LINE
  8
その他部品等
 10
-22.95
 20
68.025
 11
-15.875
 21
75.1
  0
LINE
  8
その他部品等
 10
-23.65
 20
68.75
 11
-16.575
 21
75.8
  0
LINE
  8
その他部品等
 10
-24.35
 20
69.45
 11
-17.275
 21
76.525
  0
LINE
  8
その他部品等
 10
-25.05
 20
70.15
 11
-17.975
 21
77.225
  0
LINE
  8
その他部品等
 10
-25.75
 20
70.85
 11
-18.7
 21
77.925
  0
LINE
  8
その他部品等
 10
-25.2
 20
71.475
 11
-21.925
 21
68.175
  0
LINE
  8
その他部品等
 10
-24.5
 20
72.175
 11
-21.225
 21
68.9
  0
LINE
  8
その他部品等
 10
-23.8
 20
72.875
 11
-20.525
 21
69.6
  0
LINE
  8
その他部品等
 10
-23.075
 20
73.575
 11
-19.8
 21
70.3
  0
LINE
  8
その他部品等
 10
-22.375
 20
74.275
 11
-19.1
 21
71.0
  0
LINE
  8
その他部品等
 10
-21.675
 20
75.0
 11
-18.4
 21
71.725
  0
LINE
  8
その他部品等
 10
-20.975
 20
75.7
 11
-17.7
 21
72.425
  0
LINE
  8
その他部品等
 10
-20.25
 20
76.4
 11
-16.975
 21
73.125
  0
LINE
  8
その他部品等
 10
-19.55
 20
77.1
 11
-16.275
 21
73.825
  0
LINE
  8
その他部品等
 10
-18.85
 20
77.825
 11
-15.575
 21
74.55
  0
ENDBLK
  0
BLOCK
  2
*HAT_0006
 70
    65
 10
0.0
 20
0.0
  0
LINE
  8
その他部品等
 10
-0.325
 20
76.525
 11
15.075
 21
91.925
  0
LINE
  8
その他部品等
 10
-1.025
 20
77.25
 11
13.825
 21
92.1
  0
LINE
  8
その他部品等
 10
-1.75
 20
77.95
 11
12.425
 21
92.1
  0
LINE
  8
その他部品等
 10
-2.45
 20
78.65
 11
11.0
 21
92.1
  0
LINE
  8
その他部品等
 10
-3.15
 20
79.35
 11
9.6
 21
92.1
  0
LINE
  8
その他部品等
 10
-3.85
 20
80.05
 11
8.175
 21
92.1
  0
LINE
  8
その他部品等
 10
-4.575
 20
80.75
 11
6.775
 21
92.1
  0
LINE
  8
その他部品等
 10
0.4
 20
87.125
 11
5.35
 21
92.1
  0
LINE
  8
その他部品等
 10
-0.325
 20
87.85
 11
3.95
 21
92.1
  0
LINE
  8
その他部品等
 10
-1.025
 20
88.55
 11
2.525
 21
92.1
  0
LINE
  8
その他部品等
 10
-1.725
 20
89.25
 11
1.125
 21
92.1
  0
LINE
  8
その他部品等
 10
-2.425
 20
89.95
 11
-0.3
 21
92.1
  0
LINE
  8
その他部品等
 10
-3.125
 20
90.675
 11
-1.7
 21
92.1
  0
LINE
  8
その他部品等
 10
-3.85
 20
91.375
 11
-3.125
 21
92.1
  0
LINE
  8
その他部品等
 10
-4.55
 20
92.075
 11
-4.525
 21
92.1
  0
LINE
  8
その他部品等
 10
-4.025
 20
81.325
 11
0.575
 21
76.75
  0
LINE
  8
その他部品等
 10
-3.3
 20
82.05
 11
1.25
 21
77.475
  0
LINE
  8
その他部品等
 10
-2.6
 20
82.75
 11
1.95
 21
78.2
  0
LINE
  8
その他部品等
 10
-1.9
 20
83.45
 11
2.625
 21
78.925
  0
LINE
  8
その他部品等
 10
-1.2
 20
84.15
 11
3.325
 21
79.65
  0
LINE
  8
その他部品等
 10
-0.475
 20
84.875
 11
4.025
 21
80.375
  0
LINE
  8
その他部品等
 10
0.225
 20
85.575
 11
4.7
 21
81.075
  0
LINE
  8
その他部品等
 10
0.925
 20
86.275
 11
5.4
 21
81.8
  0
LINE
  8
その他部品等
 10
-3.475
 20
92.1
 11
6.075
 21
82.525
  0
LINE
  8
その他部品等
 10
-2.075
 20
92.1
 11
6.775
 21
83.25
  0
LINE
  8
その他部品等
 10
-0.65
 20
92.1
 11
7.475
 21
83.975
  0
LINE
  8
その他部品等
 10
0.75
 20
92.1
 11
8.15
 21
84.7
  0
LINE
  8
その他部品等
 10
2.175
 20
92.1
 11
8.85
 21
85.425
  0
LINE
  8
その他部品等
 10
3.575
 20
92.1
 11
9.525
 21
86.15
  0
LINE
  8
その他部品等
 10
5.0
 20
92.1
 11
10.225
 21
86.85
  0
LINE
  8
その他部品等
 10
6.4
 20
92.1
 11
10.925
 21
87.575
  0
LINE
  8
その他部品等
 10
7.825
 20
92.1
 11
11.6
 21
88.3
  0
LINE
  8
その他部品等
 10
9.225
 20
92.1
 11
12.3
 21
89.025
  0
LINE
  8
その他部品等
 10
10.65
 20
92.1
 11
12.975
 21
89.75
  0
LINE
  8
その他部品等
 10
12.05
 20
92.1
 11
13.675
 21
90.475
  0
LINE
  8
その他部品等
 10
13.475
 20
92.1
 11
14.375
 21
91.2
  0
LINE
  8
その他部品等
 10
14.875
 20
92.1
 11
15.05
 21
91.925
  0
ENDBLK
  0
BLOCK
  2
*HAT_0007
 70
    65
 10
0.0
 20
0.0
  0
LINE
  8
その他部品等
 10
9.575
 20
92.075
 11
9.575
 21
92.075
  0
LINE
  8
その他部品等
 10
8.175
 20
92.075
 11
8.875
 21
92.8
  0
LINE
  8
その他部品等
 10
6.75
 20
92.075
 11
8.175
 21
93.5
  0
LINE
  8
その他部品等
 10
5.35
 20
92.075
 11
7.475
 21
94.2
  0
LINE
  8
その他部品等
 10
3.925
 20
92.075
 11
6.75
 21
94.9
  0
LINE
  8
その他部品等
 10
2.525
 20
92.075
 11
6.05
 21
95.625
  0
LINE
  8
その他部品等
 10
1.125
 20
92.1
 11
5.35
 21
96.325
  0
LINE
  8
その他部品等
 10
-0.3
 20
92.1
 11
4.65
 21
97.025
  0
LINE
  8
その他部品等
 10
-1.7
 20
92.1
 11
3.925
 21
97.725
  0
LINE
  8
その他部品等
 10
-3.125
 20
92.1
 11
3.225
 21
98.45
  0
LINE
  8
その他部品等
 10
-4.525
 20
92.1
 11
2.525
 21
99.15
  0
LINE
  8
その他部品等
 10
-4.025
 20
92.65
 11
-3.475
 21
92.1
  0
LINE
  8
その他部品等
 10
-3.325
 20
93.35
 11
-2.05
 21
92.1
  0
LINE
  8
その他部品等
 10
-2.6
 20
94.05
 11
-0.65
 21
92.1
  0
LINE
  8
その他部品等
 10
-1.9
 20
94.75
 11
0.775
 21
92.1
  0
LINE
  8
その他部品等
 10
-1.2
 20
95.475
 11
2.175
 21
92.1
  0
LINE
  8
その他部品等
 10
-0.5
 20
96.175
 11
3.6
 21
92.1
  0
LINE
  8
その他部品等
 10
0.2
 20
96.875
 11
5.0
 21
92.075
  0
LINE
  8
その他部品等
 10
0.925
 20
97.575
 11
6.425
 21
92.075
  0
LINE
  8
その他部品等
 10
1.625
 20
98.3
 11
7.825
 21
92.075
  0
LINE
  8
その他部品等
 10
2.325
 20
99.0
 11
9.25
 21
92.075
  0
ENDBLK
  0
BLOCK
  2
*GRP_0001
 70
    65
 10
0.0
 20
0.0
  0
LINE
  8
型材断面
  6
CONTINUOUS
 10
195.0
 20
133.5
 11
195.0
 21
-133.5
  0
LINE
  8
型材断面
  6
CONTINUOUS
 10
195.0
 20
-133.5
 11
-185.0
 21
-133.5
  0
LINE
  8
型材断面
  6
CONTINUOUS
 10
-185.0
 20
-133.5
 11
-185.0
 21
133.5
  0
LINE
  8
型材断面
  6
CONTINUOUS
 10
195.0
 20
133.5
 11
-185.0
 21
133.5
  0
LINE
  8
型材断面
  6
CONTINUOUS
 10
145.0
 20
-133.5
 11
145.0
 21
-118.5
  0
LINE
  8
型材断面
  6
CONTINUOUS
 10
195.0
 20
-118.5
 11
145.0
 21
-118.5
  0
ENDBLK
  0
BLOCK
  2
*GRP_0002
 70
    65
 10
0.0
 20
0.0
  0
LINE
  8
型材断面
  6
CONTINUOUS
 62
    47
 10
6.895843
 20
-109.842665
 11
6.895843
 21
-111.342665
  0
LINE
  8
型材断面
  6
CONTINUOUS
 62
    47
 10
-1.604158
 20
-111.342665
 11
6.895843
 21
-111.342665
  0
LINE
  8
型材断面
  6
CONTINUOUS
 62
    47
 10
-3.104158
 20
-124.842665
 11
-1.604158
 21
-124.842665
  0
LINE
  8
型材断面
  6
CONTINUOUS
 62
    47
 10
-1.604158
 20
-111.342665
 11
-1.604158
 21
-124.842665
  0
ARC
  8
型材断面
  6
CONTINUOUS
 62
    47
 10
-1.604138
 20
-111.342677
 40
1.5
 50
90.0
 51
180.0
  0
LINE
  8
型材断面
  6
CONTINUOUS
 62
    47
 10
6.895843
 20
-109.842665
 11
-3.104158
 21
-109.842665
  0
LINE
  8
型材断面
  6
CONTINUOUS
 62
    47
 10
-3.104158
 20
-124.842665
 11
-3.104158
 21
-109.842665
  0
ENDBLK
  0
BLOCK
  2
*GRP_0003
 70
    65
 10
0.0
 20
0.0
  0
LINE
  8
型材断面
  6
CONTINUOUS
 10
-18.604158
 20
-108.342665
 11
-20.104158
 21
-108.342665
  0
LINE
  8
型材断面
  6
CONTINUOUS
 10
-18.604158
 20
-102.342665
 11
-20.104158
 21
-102.342665
  0
LINE
  8
型材断面
  6
CONTINUOUS
 10
-19.729158
 20
-102.342665
 11
-19.729158
 21
-108.342665
  0
LINE
  8
型材断面
  6
CONTINUOUS
 10
-19.354158
 20
-102.342665
 11
-19.354158
 21
-108.342665
  0
LINE
  8
型材断面
  6
CONTINUOUS
 10
-18.979158
 20
-102.342665
 11
-18.979158
 21
-108.342665
  0
ARC
  8
型材断面
  6
CONTINUOUS
 62
    47
 10
-18.604151
 20
-108.342671
 40
1.5
 50
180.0
 51
270.0
  0
ARC
  8
型材断面
  6
CONTINUOUS
 62
    47
 10
94.895819
 20
-108.342671
 40
1.5
 50
270.0
 51
360.0
  0
LINE
  8
型材断面
  6
CONTINUOUS
 62
    47
 10
-18.604158
 20
-108.342665
 11
94.895812
 21
-108.342665
  0
LINE
  8
型材断面
  6
CONTINUOUS
 62
    47
 10
-20.104158
 20
-109.842665
 11
96.395812
 21
-109.842665
  0
ARC
  8
型材断面
  6
CONTINUOUS
 62
    47
 10
4.895854
 20
-23.842686
 40
1.5
 50
-90.0
 51
0.0
  0
ARC
  8
型材断面
  6
CONTINUOUS
 62
    47
 10
-18.604151
 20
-25.342686
 40
1.5
 50
90.0
 51
180.0
  0
LINE
  8
型材断面
  6
CONTINUOUS
 62
    47
 10
6.395847
 20
-25.34268
 11
-18.604158
 21
-25.34268
  0
LINE
  8
型材断面
  6
CONTINUOUS
 62
    47
 10
-18.604158
 20
-108.342665
 11
-18.604158
 21
-25.34268
  0
LINE
  8
型材断面
  6
CONTINUOUS
 62
    47
 10
4.895847
 20
-23.84268
 11
-20.104158
 21
-23.84268
  0
LINE
  8
型材断面
  6
CONTINUOUS
 62
    47
 10
-20.104158
 20
-109.842665
 11
-20.104158
 21
-23.84268
  0
ARC
  8
型材断面
  6
CONTINUOUS
 62
    47
 10
6.395854
 20
-11.842671
 40
1.5
 50
90.0
 51
180.0
  0
LINE
  8
型材断面
  6
CONTINUOUS
 62
    47
 10
6.395847
 20
-25.34268
 11
6.395847
 21
-11.842665
  0
LINE
  8
型材断面
  6
CONTINUOUS
 62
    47
 10
4.895847
 20
-23.84268
 11
4.895847
 21
-10.342665
  0
LINE
  8
型材断面
  6
CONTINUOUS
 62
    47
 10
6.395847
 20
-11.842665
 11
18.895797
 21
-11.842665
  0
LINE
  8
型材断面
  6
CONTINUOUS
 10
18.895797
 20
-20.342665
 11
18.895797
 21
-11.842665
  0
ARC
  8
型材断面
  6
CONTINUOUS
 10
18.895802
 20
-11.842666
 40
1.5
 50
0.0
 51
90.0
  0
LINE
  8
型材断面
  6
CONTINUOUS
 62
    47
 10
4.895847
 20
-10.342665
 11
20.395797
 21
-10.342665
  0
LINE
  8
型材断面
  6
CONTINUOUS
 62
    47
 10
20.395797
 20
-10.342665
 11
20.395797
 21
-20.342665
  0
LINE
  8
型材断面
  6
CONTINUOUS
 10
18.895797
 20
-20.342665
 11
20.395797
 21
-20.342665
  0
LINE
  8
型材断面
  6
CONTINUOUS
 62
    47
 10
96.395812
 20
-109.842665
 11
96.395812
 21
-89.842665
  0
LINE
  8
型材断面
  6
CONTINUOUS
 10
96.395812
 20
-89.842665
 11
94.895812
 21
-89.842665
  0
LINE
  8
型材断面
  6
CONTINUOUS
 62
    47
 10
94.895812
 20
-108.342665
 11
94.895812
 21
-89.842665
  0
LINE
  8
St
  6
DOT
 62
    47
 10
20.395797
 20
-13.342665
 11
18.895797
 21
-14.175995
  0
LINE
  8
St
  6
DOT
 62
    47
 10
20.395797
 20
-19.342665
 11
18.895797
 21
-18.50933
  0
LINE
  8
St
  6
DOT
 62
    47
 10
20.020797
 20
-13.550995
 11
20.020797
 21
-19.13433
  0
LINE
  8
St
  6
DOT
 62
    47
 10
19.645797
 20
-13.75933
 11
19.645797
 21
-18.925995
  0
LINE
  8
St
  6
DOT
 62
    47
 10
19.270797
 20
-13.967665
 11
19.270797
 21
-18.717665
  0
ENDBLK
  0
BLOCK
  2
*GRP_0004
 70
    65
 10
0.0
 20
0.0
  0
LINE
  8
ゴム等
  6
CONTINUOUS
 10
-3.104158
 20
-18.842685
 11
0.895843
 21
-18.842685
  0
LINE
  8
ゴム等
  6
CONTINUOUS
 10
0.895843
 20
-18.842685
 11
0.895843
 21
-17.842685
  0
LINE
  8
ゴム等
  6
CONTINUOUS
 10
-3.104158
 20
-18.842685
 11
-3.104158
 21
-17.842685
  0
LINE
  8
ゴム等
  6
CONTINUOUS
 10
0.895843
 20
-17.842685
 11
4.895843
 21
-17.842685
  0
LINE
  8
ゴム等
  6
CONTINUOUS
 10
4.895843
 20
-17.842685
 11
4.895843
 21
-23.842685
  0
LINE
  8
ゴム等
  6
CONTINUOUS
 10
4.895843
 20
-23.842685
 11
-8.104158
 21
-23.842685
  0
LINE
  8
ゴム等
  6
CONTINUOUS
 10
-8.104158
 20
-23.842685
 11
-8.104158
 21
-20.183235
  0
LINE
  8
ゴム等
  6
CONTINUOUS
 10
-3.104158
 20
-17.842685
 11
-7.086132
 21
-18.22196
  0
LINE
  8
ゴム等
  6
CONTINUOUS
 10
-7.086132
 20
-18.22196
 11
-7.059933
 21
-18.49691
  0
ARC
  8
ゴム等
  6
CONTINUOUS
 10
-11.187761
 20
-19.092549
 40
0.4
 50
91.441077
 51
274.310481
  0
LINE
  8
ゴム等
  6
CONTINUOUS
 10
-11.197833
 20
-18.69266
 11
-7.863857
 21
-18.573485
  0
LINE
  8
ゴム等
  6
CONTINUOUS
 10
-7.059933
 20
-18.49691
 11
-7.863857
 21
-18.573485
  0
ARC
  8
ゴム等
  6
CONTINUOUS
 10
-10.104136
 20
-20.18324
 40
2.0
 50
0.0
 51
17.753828
  0
LINE
  8
ゴム等
  6
CONTINUOUS
 10
-11.157708
 20
-19.49141
 11
-8.199407
 21
-19.573385
  0
INSERT
  2
*HAT_0001
  8
ゴム等
 10
0.0
 20
0.0
  0
ENDBLK
  0
BLOCK
  2
*GRP_0005
 70
    65
 10
0.0
 20
0.0
  0
LINE
  8
ボルト／ビス
  6
CONTINUOUS
 10
-4.104158
 20
-104.342665
 11
-4.604158
 21
-103.842665
  0
LINE
  8
ボルト／ビス
  6
CONTINUOUS
 10
-8.104158
 20
-104.342665
 11
-7.604158
 21
-103.842665
  0
LINE
  8
ボルト／ビス
  6
CONTINUOUS
 10
-4.604158
 20
-103.842665
 11
-7.604158
 21
-103.842665
  0
LINE
  8
ボルト／ビス
  6
CONTINUOUS
 10
-4.104158
 20
-104.342665
 11
-8.104158
 21
-104.342665
  0
LINE
  8
ボルト／ビス
  6
CONTINUOUS
 10
-4.104158
 20
-104.342665
 11
-4.104158
 21
-108.042665
  0
LINE
  8
ボルト／ビス
  6
CONTINUOUS
 10
-4.604158
 20
-103.842665
 11
-4.604158
 21
-108.042665
  0
LINE
  8
ボルト／ビス
  6
CONTINUOUS
 10
-7.604158
 20
-103.842665
 11
-7.604158
 21
-108.042665
  0
LINE
  8
ボルト／ビス
  6
CONTINUOUS
 10
-8.104158
 20
-104.342665
 11
-8.104158
 21
-108.042665
  0
LINE
  8
ボルト／ビス
  6
CONTINUOUS
 10
-4.104158
 20
-108.042665
 11
-8.104158
 21
-108.042665
  0
LINE
  8
ボルト／ビス
  6
CONTINUOUS
 10
-3.104158
 20
-109.842665
 11
-4.104158
 21
-108.042665
  0
LINE
  8
ボルト／ビス
  6
CONTINUOUS
 10
-3.104158
 20
-109.842665
 11
-9.104158
 21
-109.842665
  0
LINE
  8
ボルト／ビス
  6
CONTINUOUS
 10
-9.104158
 20
-109.842665
 11
-8.104158
 21
-108.042665
  0
LINE
  8
ボルト／ビス
  6
CONTINUOUS
 10
-6.104158
 20
-102.26219
 11
-6.104158
 21
-111.326195
  0
ENDBLK
  0
BLOCK
  2
*GRP_0006
 70
    65
 10
0.0
 20
0.0
  0
LINE
  8
ボルト／ビス
  6
CONTINUOUS
 10
14.895797
 20
-14.342665
 11
14.395797
 21
-14.842665
  0
LINE
  8
ボルト／ビス
  6
CONTINUOUS
 10
14.895797
 20
-18.342665
 11
14.395797
 21
-17.842665
  0
LINE
  8
ボルト／ビス
  6
CONTINUOUS
 10
14.395797
 20
-14.842665
 11
14.395797
 21
-17.842665
  0
LINE
  8
ボルト／ビス
  6
CONTINUOUS
 10
14.895797
 20
-14.342665
 11
14.895797
 21
-18.342665
  0
LINE
  8
ボルト／ビス
  6
CONTINUOUS
 10
14.895797
 20
-14.342665
 11
18.595797
 21
-14.342665
  0
LINE
  8
ボルト／ビス
  6
CONTINUOUS
 10
14.395797
 20
-14.842665
 11
18.595797
 21
-14.842665
  0
LINE
  8
ボルト／ビス
  6
CONTINUOUS
 10
14.395797
 20
-17.842665
 11
18.595797
 21
-17.842665
  0
LINE
  8
ボルト／ビス
  6
CONTINUOUS
 10
14.895797
 20
-18.342665
 11
18.595797
 21
-18.342665
  0
LINE
  8
ボルト／ビス
  6
CONTINUOUS
 10
18.595797
 20
-14.342665
 11
18.595797
 21
-18.342665
  0
LINE
  8
ボルト／ビス
  6
CONTINUOUS
 10
20.395797
 20
-13.342665
 11
18.595797
 21
-14.342665
  0
LINE
  8
ボルト／ビス
  6
CONTINUOUS
 10
20.395797
 20
-13.342665
 11
20.395797
 21
-19.342665
  0
LINE
  8
ボルト／ビス
  6
CONTINUOUS
 10
20.395797
 20
-19.342665
 11
18.595797
 21
-18.342665
  0
LINE
  8
ボルト／ビス
  6
CONTINUOUS
 10
12.815323
 20
-16.342665
 11
21.879327
 21
-16.342665
  0
ENDBLK
  0
BLOCK
  2
*DIM_0007
 70
    65
 10
0.0
 20
0.0
  0
LINE
  8
寸法
  6
BYBLOCK
 62
     0
 10
97.395812
 20
-89.842665
 11
129.14176
 21
-89.842665
  0
LINE
  8
寸法
  6
BYBLOCK
 62
     0
 10
129.14176
 20
-10.342665
 11
129.14176
 21
-89.842665
  0
POINT
  8
寸法
 62
     0
 10
129.14176
 20
-89.842665
  0
TEXT
  7
TextStyle03
  8
寸法
  6
CONTINUOUS
 62
     0
 10
128.75
 20
-53.38125
  1
79.5
 40
3.0
 50
90.0
 72
     5
 11
128.75
 21
-46.81875
  0
ENDBLK
  0
BLOCK
  2
*DIM_0008
 70
    65
 10
0.0
 20
0.0
  0
LINE
  8
寸法
  6
BYBLOCK
 62
     0
 10
98.395812
 20
-109.842665
 11
129.14176
 21
-109.842665
  0
LINE
  8
寸法
  6
BYBLOCK
 62
     0
 10
129.14176
 20
-89.842665
 11
129.14176
 21
-109.842665
  0
POINT
  8
寸法
 62
     0
 10
129.14176
 20
-109.842665
  0
TEXT
  7
TextStyle03
  8
寸法
  6
CONTINUOUS
 62
     0
 10
128.75
 20
-101.44375
  1
20
 40
3.0
 50
90.0
 72
     5
 11
128.75
 21
-98.25625
  0
ENDBLK
  0
BLOCK
  2
*DIM_0009
 70
    65
 10
0.0
 20
0.0
  0
LINE
  8
寸法
  6
BYBLOCK
 62
     0
 10
-46.604187
 20
53.524905
 11
-46.604187
 21
120.048478
  0
LINE
  8
寸法
  6
BYBLOCK
 62
     0
 10
38.895812
 20
120.048478
 11
-46.604187
 21
120.048478
  0
POINT
  8
寸法
 62
     0
 10
38.895812
 20
120.048478
  0
POINT
  8
寸法
 62
     0
 10
-46.604187
 20
120.048478
  0
TEXT
  7
TextStyle03
  8
寸法
  6
CONTINUOUS
 62
     0
 10
-7.6875
 20
120.425
  1
85.5
 40
3.5
 72
     5
 11
-0.0125
 21
120.425
  0
ENDBLK
  0
BLOCK
  2
*DIM_0010
 70
    65
 10
0.0
 20
0.0
  0
LINE
  8
寸法
  6
BYBLOCK
 62
     0
 10
-46.604187
 20
115.880088
 11
-46.604187
 21
114.172122
  0
LINE
  8
寸法
  6
BYBLOCK
 62
     0
 10
96.395812
 20
-91.34409
 11
96.395812
 21
114.172122
  0
LINE
  8
寸法
  6
BYBLOCK
 62
     0
 10
-46.604187
 20
114.172122
 11
96.395812
 21
114.172122
  0
POINT
  8
寸法
 62
     0
 10
-46.604187
 20
114.172122
  0
POINT
  8
寸法
 62
     0
 10
96.395812
 20
114.172122
  0
TEXT
  7
TextStyle03
  8
寸法
  6
CONTINUOUS
 62
     0
 10
22.025
 20
114.525
  1
143
 40
3.5
 72
     5
 11
27.725
 21
114.525
  0
ENDBLK
  0
BLOCK
  2
*DIM_0011
 70
    65
 10
0.0
 20
0.0
  0
LINE
  8
寸法
  6
BYBLOCK
 62
     0
 10
38.895812
 20
106.31636
 11
38.895812
 21
107.78816
  0
LINE
  8
寸法
  6
BYBLOCK
 62
     0
 10
96.395812
 20
107.247808
 11
96.395812
 21
107.78816
  0
LINE
  8
寸法
  6
BYBLOCK
 62
     0
 10
38.895812
 20
107.78816
 11
96.395812
 21
107.78816
  0
POINT
  8
寸法
 62
     0
 10
38.895812
 20
107.78816
  0
POINT
  8
寸法
 62
     0
 10
96.395812
 20
107.78816
  0
TEXT
  7
TextStyle03
  8
寸法
  6
CONTINUOUS
 62
     0
 10
63.7875
 20
108.15
  1
57.5
 40
3.5
 72
     5
 11
71.4625
 21
108.15
  0
ENDBLK
  0
BLOCK
  2
*DIM_0012
 70
    65
 10
0.0
 20
0.0
  0
LINE
  8
寸法
  6
BYBLOCK
 62
     0
 10
-46.604187
 20
95.602775
 11
-46.604187
 21
102.43891
  0
LINE
  8
寸法
  6
BYBLOCK
 62
     0
 10
66.395812
 20
79.65734
 11
66.395812
 21
102.43891
  0
LINE
  8
寸法
  6
BYBLOCK
 62
     0
 10
-46.604187
 20
102.43891
 11
66.395812
 21
102.43891
  0
POINT
  8
寸法
 62
     0
 10
-46.604187
 20
102.43891
  0
POINT
  8
寸法
 62
     0
 10
66.395812
 20
102.43891
  0
TEXT
  7
TextStyle03
  8
寸法
  6
CONTINUOUS
 62
     0
 10
7.025
 20
102.8
  1
113
 40
3.5
 72
     5
 11
12.725
 21
102.8
  0
ENDBLK
  0
BLOCK
  2
*DIM_0013
 70
    65
 10
0.0
 20
0.0
  0
LINE
  8
寸法
  6
BYBLOCK
 62
     0
 10
96.395812
 20
79.657332
 11
96.395812
 21
102.43891
  0
LINE
  8
寸法
  6
BYBLOCK
 62
     0
 10
66.395812
 20
102.43891
 11
96.395812
 21
102.43891
  0
POINT
  8
寸法
 62
     0
 10
96.395812
 20
102.43891
  0
TEXT
  7
TextStyle03
  8
寸法
  6
CONTINUOUS
 62
     0
 10
79.5125
 20
102.8
  1
30
 40
3.5
 72
     5
 11
83.2375
 21
102.8
  0
ENDBLK
  0
BLOCK
  2
*GRP_0014
 70
    65
 10
0.0
 20
0.0
  0
POLYLINE
  8
寸法
  6
BYBLOCK
 62
     0
 66
     1
  0
VERTEX
  8
寸法
 10
12.84025
 20
80.334293
  0
VERTEX
  8
寸法
 10
11.34025
 20
77.736215
  0
VERTEX
  8
寸法
 10
13.938325
 20
79.236215
  0
SEQEND
  0
POLYLINE
  8
寸法
  6
BYBLOCK
 62
     0
 66
     1
  0
VERTEX
  8
寸法
 10
11.34025
 20
77.736215
  0
VERTEX
  8
寸法
 10
23.61481
 20
90.010775
  0
VERTEX
  8
寸法
 10
41.49265
 20
90.010775
  0
SEQEND
  0
ENDBLK
  0
BLOCK
  2
*GRP_0015
 70
    65
 10
0.0
 20
0.0
  0
POLYLINE
  8
寸法
  6
BYBLOCK
 62
     0
 66
     1
  0
VERTEX
  8
寸法
 10
-8.013882
 20
-19.839825
  0
VERTEX
  8
寸法
 10
-5.415808
 20
-21.339825
  0
VERTEX
  8
寸法
 10
-6.915808
 20
-18.74175
  0
SEQEND
  0
POLYLINE
  8
寸法
  6
BYBLOCK
 62
     0
 66
     1
  0
VERTEX
  8
寸法
 10
-5.415808
 20
-21.339825
  0
VERTEX
  8
寸法
 10
-13.630357
 20
-13.125275
  0
VERTEX
  8
寸法
 10
-23.209455
 20
-13.125275
  0
SEQEND
  0
ENDBLK
  0
BLOCK
  2
*GRP_0016
 70
    65
 10
0.0
 20
0.0
  0
POLYLINE
  8
寸法
  6
BYBLOCK
 62
     0
 66
     1
  0
VERTEX
  8
寸法
 10
-7.81079
 20
67.333575
  0
VERTEX
  8
寸法
 10
-6.31079
 20
69.93165
  0
VERTEX
  8
寸法
 10
-8.908867
 20
68.43165
  0
SEQEND
  0
POLYLINE
  8
寸法
  6
BYBLOCK
 62
     0
 66
     1
  0
VERTEX
  8
寸法
 10
-6.31079
 20
69.93165
  0
VERTEX
  8
寸法
 10
-17.23765
 20
59.00479
  0
VERTEX
  8
寸法
 10
-20.47066
 20
59.00479
  0
SEQEND
  0
ENDBLK
  0
BLOCK
  2
*GRP_0017
 70
    65
 10
0.0
 20
0.0
  0
POLYLINE
  8
寸法
  6
CONTINUOUS
 62
     0
 66
     1
  0
VERTEX
  8
寸法
 10
14.04229
 20
14.29186
  0
VERTEX
  8
寸法
 10
11.379467
 20
4.068515
  0
VERTEX
  8
寸法
 10
7.38523
 20
4.068515
  0
SEQEND
  0
ENDBLK
  0
BLOCK
  2
*GRP_0018
 70
    65
 10
0.0
 20
0.0
  0
POLYLINE
  8
寸法
  6
BYBLOCK
 62
     0
 66
     1
  0
VERTEX
  8
寸法
 10
-17.185303
 20
-89.861815
  0
VERTEX
  8
寸法
 10
-31.482168
 20
-75.56495
  0
VERTEX
  8
寸法
 10
-33.83588
 20
-75.56495
  0
SEQEND
  0
ENDBLK
  0
BLOCK
  2
*GRP_0019
 70
    65
 10
0.0
 20
0.0
  0
POLYLINE
  8
寸法
  6
BYBLOCK
 62
     0
 66
     1
  0
VERTEX
  8
寸法
 10
40.395802
 20
34.214697
  0
VERTEX
  8
寸法
 10
45.044982
 20
29.565517
  0
VERTEX
  8
寸法
 10
48.925145
 20
29.565517
  0
SEQEND
  0
ENDBLK
  0
BLOCK
  2
*GRP_0020
 70
    65
 10
0.0
 20
0.0
  0
POLYLINE
  8
寸法
  6
BYBLOCK
 62
     0
 66
     1
  0
VERTEX
  8
寸法
 10
40.395797
 20
-58.342665
  0
VERTEX
  8
寸法
 10
45.439115
 20
-53.299348
  0
VERTEX
  8
寸法
 10
48.826585
 20
-53.299348
  0
SEQEND
  0
ENDBLK
  0
BLOCK
  2
*GRP_0021
 70
    65
 10
0.0
 20
0.0
  0
POLYLINE
  8
寸法
  6
BYBLOCK
 62
     0
 66
     1
  0
VERTEX
  8
寸法
 10
44.261743
 20
-88.842665
  0
VERTEX
  8
寸法
 10
50.589777
 20
-82.514632
  0
VERTEX
  8
寸法
 10
55.967867
 20
-82.514632
  0
SEQEND
  0
ENDBLK
  0
BLOCK
  2
*GRP_0022
 70
    65
 10
0.0
 20
0.0
  0
LINE
  8
通り芯
  6
CONTINUOUS
 10
-44.004158
 20
40.157343
 11
-44.004158
 21
41.657343
  0
ARC
  8
通り芯
  6
CONTINUOUS
 10
-33.104156
 20
40.157342
 40
1.5
 50
45.0
 51
90.0
  0
ARC
  8
通り芯
  6
CONTINUOUS
 10
-30.982835
 20
40.157342
 40
1.5
 50
225.0
 51
270.0
  0
LINE
  8
通り芯
  6
CONTINUOUS
 10
-33.104158
 20
40.157343
 11
-31.604158
 21
38.657343
  0
LINE
  8
通り芯
  6
CONTINUOUS
 10
-30.982838
 20
40.157343
 11
-32.482838
 21
41.657343
  0
LINE
  8
型材断面
  6
CONTINUOUS
 62
    15
 10
-20.104158
 20
40.157343
 11
-20.104158
 21
38.657343
  0
LINE
  8
型材断面
  6
CONTINUOUS
 62
    15
 10
-44.004158
 20
40.157343
 11
-33.104158
 21
40.157343
  0
LINE
  8
型材断面
  6
CONTINUOUS
 62
    15
 10
-20.104158
 20
40.157343
 11
-30.982838
 21
40.157343
  0
LINE
  8
型材断面
  6
CONTINUOUS
 62
    15
 10
-20.104158
 20
38.657343
 11
-31.604158
 21
38.657343
  0
LINE
  8
型材断面
  6
CONTINUOUS
 62
    15
 10
-44.004158
 20
41.657343
 11
-32.482838
 21
41.657343
  0
ENDBLK
  0
BLOCK
  2
*GRP_0023
 70
    65
 10
0.0
 20
0.0
  0
LINE
  8
型材断面
  6
CONTINUOUS
 10
-10.183168
 20
71.596675
 11
-19.122508
 21
62.65734
  0
ARC
  8
型材断面
  6
CONTINUOUS
 10
-19.122496
 20
62.657342
 40
1.5
 50
134.999994
 51
270.0
  0
LINE
  8
型材断面
  6
CONTINUOUS
 10
-17.254237
 20
66.64693
 11
-16.193577
 21
65.58627
  0
LINE
  8
型材断面
  6
CONTINUOUS
 10
-14.425807
 20
69.475355
 11
-13.365147
 21
68.414695
  0
LINE
  8
型材断面
  6
CONTINUOUS
 10
-14.160642
 20
69.21019
 11
-16.989073
 21
66.381765
  0
LINE
  8
型材断面
  6
CONTINUOUS
 10
-13.895478
 20
68.945025
 11
-16.723908
 21
66.1166
  0
LINE
  8
型材断面
  6
CONTINUOUS
 10
-13.630313
 20
68.67986
 11
-16.458742
 21
65.851435
  0
LINE
  8
型材断面
  6
CONTINUOUS
 10
-11.243828
 20
72.657335
 11
-10.183168
 21
71.596675
  0
LINE
  8
型材断面
  6
CONTINUOUS
 10
-11.243828
 20
72.657335
 11
-22.743828
 21
61.15734
  0
LINE
  8
型材断面
  6
CONTINUOUS
 10
-17.004187
 20
62.65734
 11
-17.004187
 21
61.15734
  0
LINE
  8
型材断面
  6
CONTINUOUS
 10
-9.004187
 20
62.28234
 11
-17.004187
 21
62.28234
  0
LINE
  8
型材断面
  6
CONTINUOUS
 10
-9.004187
 20
61.90734
 11
-17.004187
 21
61.90734
  0
LINE
  8
型材断面
  6
CONTINUOUS
 10
-9.004187
 20
61.53234
 11
-17.004187
 21
61.53234
  0
LINE
  8
型材断面
  6
CONTINUOUS
 10
-22.743828
 20
61.15734
 11
-9.004187
 21
61.15734
  0
LINE
  8
型材断面
  6
CONTINUOUS
 10
-9.004187
 20
62.65734
 11
-9.004187
 21
49.15734
  0
ARC
  8
型材断面
  6
CONTINUOUS
 10
-9.004179
 20
61.157342
 40
1.5
 50
0.0
 51
90.0
  0
ARC
  8
型材断面
  6
CONTINUOUS
 10
-9.004179
 20
50.657342
 40
1.5
 50
-90.0
 51
0.0
  0
LINE
  8
型材断面
  6
CONTINUOUS
 10
-19.122508
 20
62.65734
 11
-7.504187
 21
62.65734
  0
LINE
  8
型材断面
  6
CONTINUOUS
 10
-7.504187
 20
49.15734
 11
-7.504187
 21
62.65734
  0
LINE
  8
型材断面
  6
CONTINUOUS
 10
-9.004187
 20
50.65734
 11
-15.504187
 21
50.65734
  0
LINE
  8
型材断面
  6
CONTINUOUS
 10
-9.004187
 20
50.28234
 11
-15.504187
 21
50.28234
  0
LINE
  8
型材断面
  6
CONTINUOUS
 10
-9.004187
 20
49.90734
 11
-15.504187
 21
49.90734
  0
LINE
  8
型材断面
  6
CONTINUOUS
 10
-9.004187
 20
49.53234
 11
-15.504187
 21
49.53234
  0
LINE
  8
型材断面
  6
CONTINUOUS
 10
-7.504187
 20
49.15734
 11
-15.504187
 21
49.15734
  0
LINE
  8
型材断面
  6
CONTINUOUS
 10
-15.504187
 20
49.15734
 11
-15.504187
 21
50.65734
  0
ENDBLK
  0
BLOCK
  2
*GRP_0024
 70
    65
 10
0.0
 20
0.0
  0
LINE
  8
型材断面
  6
CONTINUOUS
 62
    47
 10
-13.365147
 20
72.657335
 11
-20.436218
 21
65.586265
  0
LINE
  8
型材断面
  6
CONTINUOUS
 62
    47
 10
-25.739523
 20
68.768255
 11
-45.104187
 21
49.4036
  0
ARC
  8
型材断面
  6
CONTINUOUS
 62
    47
 10
-16.547124
 20
77.960642
 40
1.5
 50
135.0
 51
225.0
  0
ARC
  8
型材断面
  6
CONTINUOUS
 62
    47
 10
-25.739519
 20
68.768248
 40
1.5
 50
45.000054
 51
134.999993
  0
ARC
  8
型材断面
  6
CONTINUOUS
 62
    47
 10
-13.36514
 20
72.657338
 40
1.5
 50
-45.000012
 51
45.0
  0
ARC
  8
型材断面
  6
CONTINUOUS
 62
    47
 10
-20.436213
 20
65.586268
 40
1.5
 50
224.999946
 51
314.999986
  0
ARC
  8
型材断面
  6
CONTINUOUS
 62
    47
 10
-45.10418
 20
49.403592
 40
1.5
 50
134.999993
 51
180.0
  0
LINE
  8
型材断面
  6
CONTINUOUS
 62
    47
 10
-13.365147
 20
72.657335
 11
-18.668452
 21
77.96064
  0
LINE
  8
型材断面
  6
CONTINUOUS
 62
    47
 10
-20.436218
 20
65.586265
 11
-25.739527
 21
70.889565
  0
LINE
  8
型材断面
  6
CONTINUOUS
 62
    47
 10
-25.739527
 20
70.889565
 11
-46.604187
 21
50.02491
  0
LINE
  8
型材断面
  6
CONTINUOUS
 62
    47
 10
-16.547133
 20
77.96064
 11
-11.243828
 21
72.657335
  0
LINE
  8
型材断面
  6
CONTINUOUS
 62
    47
 10
-25.739523
 20
68.768255
 11
-20.436218
 21
63.464945
  0
LINE
  8
型材断面
  6
CONTINUOUS
 62
    47
 10
-45.104187
 20
49.4036
 11
-45.104187
 21
40.15734
  0
ARC
  8
型材断面
  6
CONTINUOUS
 62
    47
 10
-45.10418
 20
40.157343
 40
1.5
 50
180.0
 51
270.0
  0
LINE
  8
型材断面
  6
CONTINUOUS
 62
    47
 10
-46.604187
 20
50.02491
 11
-46.604187
 21
38.65734
  0
LINE
  8
型材断面
  6
CONTINUOUS
 62
    47
 10
-46.604187
 20
44.65734
 11
-45.104187
 21
44.65734
  0
LINE
  8
型材断面
  6
CONTINUOUS
 62
    47
 10
-45.479187
 20
39.78234
 11
-45.479187
 21
44.65734
  0
LINE
  8
型材断面
  6
CONTINUOUS
 62
    47
 10
-45.854187
 20
39.40734
 11
-45.854187
 21
44.65734
  0
LINE
  8
型材断面
  6
CONTINUOUS
 62
    47
 10
-46.229187
 20
39.03234
 11
-46.229187
 21
44.65734
  0
LINE
  8
型材断面
  6
CONTINUOUS
 62
    47
 10
1.130537
 20
86.445925
 11
-4.526318
 21
92.102775
  0
LINE
  8
型材断面
  6
CONTINUOUS
 62
    47
 10
0.069878
 20
85.385265
 11
1.130537
 21
86.445925
  0
LINE
  8
型材断面
  6
CONTINUOUS
 62
    47
 10
0.069878
 20
85.385265
 11
-4.526318
 21
89.98146
  0
ARC
  8
型材断面
  6
CONTINUOUS
 62
    47
 10
-4.52631
 20
89.981457
 40
1.5
 50
45.0
 51
135.0
  0
LINE
  8
型材断面
  6
CONTINUOUS
 62
    47
 10
1.130537
 20
86.445925
 11
-4.526318
 21
92.102775
  0
LINE
  8
型材断面
  6
CONTINUOUS
 62
    47
 10
-18.668452
 20
77.96064
 11
-4.526318
 21
92.102775
  0
LINE
  8
型材断面
  6
CONTINUOUS
 62
    47
 10
-16.547133
 20
77.96064
 11
-4.526318
 21
89.981455
  0
LINE
  8
型材断面
  6
CONTINUOUS
 62
    47
 10
-38.604187
 20
38.65734
 11
-38.604187
 21
40.15734
  0
LINE
  8
型材断面
  6
CONTINUOUS
 62
    47
 10
-45.104187
 20
40.15734
 11
-38.604187
 21
40.15734
  0
LINE
  8
型材断面
  6
CONTINUOUS
 62
    47
 10
-45.479187
 20
39.78234
 11
-38.604187
 21
39.78234
  0
LINE
  8
型材断面
  6
CONTINUOUS
 62
    47
 10
-45.854187
 20
39.40734
 11
-38.604187
 21
39.40734
  0
LINE
  8
型材断面
  6
CONTINUOUS
 62
    47
 10
-46.229187
 20
39.03234
 11
-38.604187
 21
39.03234
  0
LINE
  8
型材断面
  6
CONTINUOUS
 62
    47
 10
-11.243828
 20
72.657335
 11
-20.436218
 21
63.464945
  0
LINE
  8
型材断面
  6
CONTINUOUS
 62
    47
 10
-46.604187
 20
38.65734
 11
-38.604187
 21
38.65734
  0
LINE
  8
St
  6
CONTINUOUS
 62
    47
 10
-14.072253
 20
69.82891
 11
-15.132913
 21
70.88957
  0
LINE
  8
St
  6
CONTINUOUS
 62
    47
 10
-17.607787
 20
66.293375
 11
-18.668448
 21
67.354035
  0
LINE
  8
St
  6
CONTINUOUS
 62
    47
 10
-18.403283
 20
67.08887
 11
-14.867748
 21
70.624405
  0
LINE
  8
St
  6
CONTINUOUS
 62
    47
 10
-18.138118
 20
66.823705
 11
-14.602582
 21
70.35924
  0
LINE
  8
St
  6
CONTINUOUS
 62
    47
 10
-17.872952
 20
66.55854
 11
-14.337417
 21
70.094075
  0
LINE
  8
St
  6
DASHDOT
 62
    47
 10
-19.398448
 20
71.619565
 11
-13.822052
 21
66.04318
  0
ENDBLK
  0
BLOCK
  2
*GRP_0025
 70
    65
 10
0.0
 20
0.0
  0
LINE
  8
型材断面
  6
CONTINUOUS
 62
    47
 10
1.186537
 20
64.15734
 11
5.100748
 21
68.07155
  0
LINE
  8
型材断面
  6
CONTINUOUS
 62
    47
 10
3.575627
 20
66.54643
 11
4.636288
 21
65.48577
  0
LINE
  8
型材断面
  6
CONTINUOUS
 62
    47
 10
1.186537
 20
64.15734
 11
10.888617
 21
73.85942
  0
LINE
  8
型材断面
  6
CONTINUOUS
 62
    47
 10
1.807857
 20
62.65734
 11
11.949278
 21
72.79876
  0
LINE
  8
型材断面
  6
CONTINUOUS
 10
10.888617
 20
73.85942
 11
11.949278
 21
72.79876
  0
ARC
  8
型材断面
  6
CONTINUOUS
 10
-6.004179
 20
62.657343
 40
1.5
 50
90.0
 51
180.0
  0
LINE
  8
型材断面
  6
CONTINUOUS
 10
-7.504187
 20
52.15734
 11
-7.504187
 21
64.15734
  0
LINE
  8
型材断面
  6
CONTINUOUS
 62
    47
 10
1.186537
 20
64.15734
 11
-7.504187
 21
64.15734
  0
LINE
  8
型材断面
  6
CONTINUOUS
 62
    47
 10
-6.004187
 20
52.15734
 11
-6.004187
 21
62.65734
  0
LINE
  8
型材断面
  6
CONTINUOUS
 10
-7.504187
 20
52.15734
 11
-6.004187
 21
52.15734
  0
LINE
  8
型材断面
  6
CONTINUOUS
 62
    47
 10
1.807857
 20
62.65734
 11
-6.004187
 21
62.65734
  0
INSERT
  2
*HAT_0002
  8
型材断面
 10
0.0
 20
0.0
  0
ENDBLK
  0
BLOCK
  2
*GRP_0026
 70
    65
 10
0.0
 20
0.0
  0
LINE
  8
型材断面
  6
CONTINUOUS
 62
    47
 10
-31.604152
 20
35.65734
 11
-31.604152
 21
37.15734
  0
LINE
  8
型材断面
  6
CONTINUOUS
 62
    47
 10
-31.604152
 20
35.65734
 11
-20.104158
 21
35.65734
  0
ARC
  8
型材断面
  6
CONTINUOUS
 62
    47
 10
-20.104148
 20
35.657337
 40
1.5
 50
0.0
 51
90.0
  0
ARC
  8
型材断面
  6
CONTINUOUS
 62
    47
 10
-18.604148
 20
-4.342668
 40
1.5
 50
180.0
 51
270.0
  0
LINE
  8
型材断面
  6
CONTINUOUS
 62
    47
 10
-18.604158
 20
-4.342665
 11
-18.604158
 21
37.15734
  0
ARC
  8
型材断面
  6
CONTINUOUS
 62
    47
 10
-6.004178
 20
-5.842668
 40
1.5
 50
0.0
 51
90.0
  0
LINE
  8
型材断面
  6
CONTINUOUS
 62
    47
 10
-28.004183
 20
-22.344105
 11
-28.004183
 21
-31.02342
  0
LINE
  8
型材断面
  6
CONTINUOUS
 62
    47
 10
-28.004183
 20
-31.02342
 11
-29.504183
 21
-31.02342
  0
ARC
  8
型材断面
  6
CONTINUOUS
 62
    47
 10
-28.004175
 20
-22.344102
 40
1.5
 50
97.275006
 51
180.0
  0
LINE
  8
型材断面
  6
CONTINUOUS
 62
    47
 10
-29.504183
 20
-31.02342
 11
-29.504183
 21
-21.023415
  0
LINE
  8
型材断面
  6
CONTINUOUS
 62
    47
 10
-29.504183
 20
-21.023415
 11
-6.004187
 21
-18.023415
  0
LINE
  8
型材断面
  6
CONTINUOUS
 62
    47
 10
-6.004187
 20
-5.842665
 11
-6.004187
 21
-18.023415
  0
ARC
  8
型材断面
  6
CONTINUOUS
 62
    47
 10
-6.00418
 20
-18.023417
 40
1.5
 50
-82.724994
 51
0.0
  0
LINE
  8
型材断面
  6
CONTINUOUS
 62
    47
 10
-28.004183
 20
-22.344105
 11
-4.504187
 21
-19.344105
  0
LINE
  8
型材断面
  6
CONTINUOUS
 62
    47
 10
-4.504187
 20
-4.342665
 11
-4.504187
 21
-19.344105
  0
LINE
  8
型材断面
  6
CONTINUOUS
 62
    47
 10
-20.104158
 20
35.65734
 11
-20.104158
 21
-5.842665
  0
LINE
  8
型材断面
  6
CONTINUOUS
 62
    47
 10
-6.004187
 20
-5.842665
 11
-20.104158
 21
-5.842665
  0
LINE
  8
型材断面
  6
CONTINUOUS
 62
    47
 10
-18.604158
 20
-4.342665
 11
-4.504187
 21
-4.342665
  0
LINE
  8
型材断面
  6
CONTINUOUS
 62
    47
 10
-18.604158
 20
37.15734
 11
-31.604152
 21
37.15734
  0
ENDBLK
  0
BLOCK
  2
*GRP_0027
 70
    65
 10
0.0
 20
0.0
  0
LINE
  8
型材断面
  6
CONTINUOUS
 62
    47
 10
-33.104187
 20
24.65734
 11
-33.104187
 21
16.15734
  0
LINE
  8
型材断面
  6
CONTINUOUS
 62
    47
 10
-31.604187
 20
16.15734
 11
-33.104187
 21
16.15734
  0
LINE
  8
型材断面
  6
CONTINUOUS
 62
    47
 10
-45.104187
 20
37.15734
 11
-45.104187
 21
26.15734
  0
ARC
  8
型材断面
  6
CONTINUOUS
 62
    47
 10
-4.504182
 20
61.157342
 40
1.5
 50
90.0
 51
180.0
  0
ARC
  8
型材断面
  6
CONTINUOUS
 62
    47
 10
-6.004182
 20
49.157342
 40
1.5
 50
-90.0
 51
0.0
  0
ARC
  8
型材断面
  6
CONTINUOUS
 62
    47
 10
-18.604152
 20
47.657342
 40
1.5
 50
90.0
 51
180.0
  0
ARC
  8
型材断面
  6
CONTINUOUS
 62
    47
 10
-20.104152
 20
38.657342
 40
1.5
 50
-90.0
 51
0.0
  0
ARC
  8
型材断面
  6
CONTINUOUS
 62
    47
 10
-45.104182
 20
37.157342
 40
1.5
 50
90.0
 51
180.0
  0
ARC
  8
型材断面
  6
CONTINUOUS
 62
    47
 10
-45.104182
 20
26.157342
 40
1.5
 50
180.0
 51
270.0
  0
ARC
  8
型材断面
  6
CONTINUOUS
 62
    47
 10
-33.104182
 20
24.657342
 40
1.5
 50
0.0
 51
90.0
  0
LINE
  8
型材断面
  6
CONTINUOUS
 62
    47
 10
-46.604187
 20
38.65734
 11
-46.604187
 21
24.65734
  0
LINE
  8
型材断面
  6
CONTINUOUS
 62
    47
 10
-33.104187
 20
24.65734
 11
-46.604187
 21
24.65734
  0
LINE
  8
型材断面
  6
CONTINUOUS
 62
    47
 10
-45.104187
 20
26.15734
 11
-31.604187
 21
26.15734
  0
LINE
  8
型材断面
  6
CONTINUOUS
 62
    47
 10
-31.604187
 20
16.15734
 11
-31.604187
 21
26.15734
  0
LINE
  8
型材断面
  6
CONTINUOUS
 62
    47
 10
-18.604158
 20
47.65734
 11
-18.604158
 21
37.15734
  0
LINE
  8
型材断面
  6
CONTINUOUS
 62
    47
 10
-45.104187
 20
37.15734
 11
-18.604158
 21
37.15734
  0
LINE
  8
型材断面
  6
CONTINUOUS
 62
    47
 10
-20.104158
 20
38.65734
 11
-20.104158
 21
49.15734
  0
LINE
  8
型材断面
  6
CONTINUOUS
 62
    47
 10
-20.104158
 20
49.15734
 11
-6.004187
 21
49.15734
  0
LINE
  8
型材断面
  6
CONTINUOUS
 62
    47
 10
-18.604158
 20
47.65734
 11
-4.504187
 21
47.65734
  0
LINE
  8
型材断面
  6
CONTINUOUS
 62
    47
 10
-4.504187
 20
61.15734
 11
-4.504187
 21
47.65734
  0
LINE
  8
型材断面
  6
CONTINUOUS
 62
    47
 10
-6.004187
 20
49.15734
 11
-6.004187
 21
62.65734
  0
LINE
  8
型材断面
  6
CONTINUOUS
 62
    47
 10
-45.104187
 20
38.65734
 11
-20.104158
 21
38.65734
  0
LINE
  8
型材断面
  6
CONTINUOUS
 62
    47
 10
-6.004187
 20
62.65734
 11
64.895812
 21
62.65734
  0
LINE
  8
型材断面
  6
CONTINUOUS
 62
    47
 10
-4.504187
 20
61.15734
 11
66.395812
 21
61.15734
  0
ARC
  8
型材断面
  6
CONTINUOUS
 62
    47
 10
64.895816
 20
62.657343
 40
1.5
 50
-90.0
 51
0.0
  0
LINE
  8
型材断面
  6
CONTINUOUS
 62
    47
 10
66.395812
 20
61.15734
 11
66.395812
 21
76.15734
  0
LINE
  8
型材断面
  6
CONTINUOUS
 10
66.395812
 20
76.15734
 11
64.895812
 21
76.15734
  0
LINE
  8
型材断面
  6
CONTINUOUS
 62
    47
 10
64.895812
 20
62.65734
 11
64.895812
 21
76.15734
  0
ENDBLK
  0
BLOCK
  2
*GRP_0028
 70
    65
 10
0.0
 20
0.0
  0
LINE
  8
ゴム等
  6
CONTINUOUS
 62
    63
 10
11.949278
 20
72.79876
 11
10.888617
 21
73.85942
  0
LINE
  8
ゴム等
  6
CONTINUOUS
 62
    63
 10
13.36349
 20
74.212975
 11
10.18151
 21
77.394955
  0
LINE
  8
ゴム等
  6
CONTINUOUS
 62
    63
 10
5.231762
 20
72.445215
 11
7.353082
 21
70.323887
  0
LINE
  8
ゴム等
  6
CONTINUOUS
 62
    63
 10
10.18151
 20
77.394955
 11
5.231762
 21
72.445215
  0
LINE
  8
ゴム等
  6
CONTINUOUS
 62
    63
 10
13.36349
 20
74.212975
 11
11.949278
 21
72.79876
  0
LINE
  8
ゴム等
  6
CONTINUOUS
 62
    63
 10
10.888617
 20
73.85942
 11
7.353082
 21
70.323887
  0
INSERT
  2
*HAT_0003
  8
ゴム等
 10
0.0
 20
0.0
  0
ENDBLK
  0
BLOCK
  2
*GRP_0029
 70
    65
 10
0.0
 20
0.0
  0
LINE
  8
ゴム等
  6
CONTINUOUS
 10
6.645977
 20
69.616775
 11
-2.758543
 21
79.021295
  0
LINE
  8
ゴム等
  6
CONTINUOUS
 10
-14.122502
 20
67.65734
 11
-14.122502
 21
62.65734
  0
LINE
  8
ゴム等
  6
CONTINUOUS
 10
-2.758543
 20
79.021295
 11
-14.122502
 21
67.65734
  0
LINE
  8
ゴム等
  6
CONTINUOUS
 10
-8.504183
 20
64.15734
 11
-8.504183
 21
62.65734
  0
POLYLINE
  8
ゴム等
  6
CONTINUOUS
 66
     1
  0
VERTEX
  8
ゴム等
 10
-8.504183
 20
64.15734
  0
VERTEX
  8
ゴム等
 10
1.186542
 20
64.15734
  0
VERTEX
  8
ゴム等
 10
6.645977
 20
69.616775
  0
SEQEND
  0
LINE
  8
ゴム等
  6
CONTINUOUS
 10
-14.122502
 20
62.65734
 11
-8.504183
 21
62.65734
  0
INSERT
  2
*HAT_0004
  8
ゴム等
 10
0.0
 20
0.0
  0
ENDBLK
  0
BLOCK
  2
*GRP_0030
 70
    65
 10
0.0
 20
0.0
  0
LINE
  8
ボルト／ビス
  6
CONTINUOUS
 10
5.945808
 20
60.85734
 11
9.945808
 21
60.85734
  0
LINE
  8
ボルト／ビス
  6
CONTINUOUS
 10
4.945808
 20
62.65734
 11
5.945808
 21
60.85734
  0
LINE
  8
ボルト／ビス
  6
CONTINUOUS
 10
4.945808
 20
62.65734
 11
10.945808
 21
62.65734
  0
LINE
  8
ボルト／ビス
  6
CONTINUOUS
 10
10.945808
 20
62.65734
 11
9.945808
 21
60.85734
  0
LINE
  8
ボルト／ビス
  6
CONTINUOUS
 10
7.945808
 20
64.14087
 11
7.945808
 21
49.82251
  0
LINE
  8
ボルト／ビス
  6
CONTINUOUS
 10
5.945808
 20
51.15734
 11
6.445808
 21
50.65734
  0
LINE
  8
ボルト／ビス
  6
CONTINUOUS
 10
9.945808
 20
51.15734
 11
9.445808
 21
50.65734
  0
LINE
  8
ボルト／ビス
  6
CONTINUOUS
 10
6.445808
 20
50.65734
 11
9.445808
 21
50.65734
  0
LINE
  8
ボルト／ビス
  6
CONTINUOUS
 10
5.945808
 20
51.15734
 11
9.945808
 21
51.15734
  0
LINE
  8
ボルト／ビス
  6
CONTINUOUS
 10
9.445808
 20
60.85734
 11
9.445808
 21
50.65734
  0
LINE
  8
ボルト／ビス
  6
CONTINUOUS
 10
6.445808
 20
60.85734
 11
6.445808
 21
50.65734
  0
LINE
  8
ボルト／ビス
  6
CONTINUOUS
 10
5.945808
 20
60.85734
 11
5.945808
 21
51.15734
  0
LINE
  8
ボルト／ビス
  6
CONTINUOUS
 10
9.945808
 20
60.85734
 11
9.945808
 21
51.15734
  0
ENDBLK
  0
BLOCK
  2
*GRP_0031
 70
    65
 10
0.0
 20
0.0
  0
LINE
  8
ボルト／ビス
  6
CONTINUOUS
 10
-0.504187
 20
-9.842665
 11
-0.004187
 21
-10.342665
  0
LINE
  8
ボルト／ビス
  6
CONTINUOUS
 10
-0.504187
 20
-13.842665
 11
-0.004187
 21
-13.342665
  0
LINE
  8
ボルト／ビス
  6
CONTINUOUS
 10
-0.004187
 20
-10.342665
 11
-0.004187
 21
-13.342665
  0
LINE
  8
ボルト／ビス
  6
CONTINUOUS
 10
-0.504187
 20
-9.842665
 11
-0.504187
 21
-13.842665
  0
LINE
  8
ボルト／ビス
  6
CONTINUOUS
 10
-0.504187
 20
-9.842665
 11
-4.204187
 21
-9.842665
  0
LINE
  8
ボルト／ビス
  6
CONTINUOUS
 10
-0.004187
 20
-10.342665
 11
-4.204187
 21
-10.342665
  0
LINE
  8
ボルト／ビス
  6
CONTINUOUS
 10
-0.004187
 20
-13.342665
 11
-4.204187
 21
-13.342665
  0
LINE
  8
ボルト／ビス
  6
CONTINUOUS
 10
-0.504187
 20
-13.842665
 11
-4.204187
 21
-13.842665
  0
LINE
  8
ボルト／ビス
  6
CONTINUOUS
 10
-4.204187
 20
-9.842665
 11
-4.204187
 21
-13.842665
  0
LINE
  8
ボルト／ビス
  6
CONTINUOUS
 10
-6.004187
 20
-8.842665
 11
-4.204187
 21
-9.842665
  0
LINE
  8
ボルト／ビス
  6
CONTINUOUS
 10
-6.004187
 20
-8.842665
 11
-6.004187
 21
-14.842665
  0
LINE
  8
ボルト／ビス
  6
CONTINUOUS
 10
-6.004187
 20
-14.842665
 11
-4.204187
 21
-13.842665
  0
LINE
  8
ボルト／ビス
  6
CONTINUOUS
 10
1.576288
 20
-11.842665
 11
-7.487717
 21
-11.842665
  0
ENDBLK
  0
BLOCK
  2
*GRP_0032
 70
    65
 10
0.0
 20
0.0
  0
LINE
  8
ボルト／ビス
  6
CONTINUOUS
 10
-23.604158
 20
33.15734
 11
-24.104158
 21
32.65734
  0
LINE
  8
ボルト／ビス
  6
CONTINUOUS
 10
-27.604158
 20
33.15734
 11
-27.104158
 21
32.65734
  0
LINE
  8
ボルト／ビス
  6
CONTINUOUS
 10
-24.104158
 20
32.65734
 11
-27.104158
 21
32.65734
  0
LINE
  8
ボルト／ビス
  6
CONTINUOUS
 10
-23.604158
 20
33.15734
 11
-27.604158
 21
33.15734
  0
LINE
  8
ボルト／ビス
  6
CONTINUOUS
 10
-23.604158
 20
33.15734
 11
-23.604158
 21
36.85734
  0
LINE
  8
ボルト／ビス
  6
CONTINUOUS
 10
-24.104158
 20
32.65734
 11
-24.104158
 21
36.85734
  0
LINE
  8
ボルト／ビス
  6
CONTINUOUS
 10
-27.104158
 20
32.65734
 11
-27.104158
 21
36.85734
  0
LINE
  8
ボルト／ビス
  6
CONTINUOUS
 10
-27.604158
 20
33.15734
 11
-27.604158
 21
36.85734
  0
LINE
  8
ボルト／ビス
  6
CONTINUOUS
 10
-23.604158
 20
36.85734
 11
-27.604158
 21
36.85734
  0
LINE
  8
ボルト／ビス
  6
CONTINUOUS
 10
-22.604158
 20
38.65734
 11
-23.604158
 21
36.85734
  0
LINE
  8
ボルト／ビス
  6
CONTINUOUS
 10
-22.604158
 20
38.65734
 11
-28.604158
 21
38.65734
  0
LINE
  8
ボルト／ビス
  6
CONTINUOUS
 10
-28.604158
 20
38.65734
 11
-27.604158
 21
36.85734
  0
LINE
  8
ボルト／ビス
  6
CONTINUOUS
 10
-25.604158
 20
31.076865
 11
-25.604158
 21
40.14087
  0
ENDBLK
  0
BLOCK
  2
*GRP_0033
 70
    65
 10
0.0
 20
0.0
  0
LINE
  8
ボルト／ビス
  6
CONTINUOUS
 10
-14.425805
 20
71.596678
 11
-15.231812
 21
72.272998
  0
ARC
  8
ボルト／ビス
  6
CONTINUOUS
 10
-16.324552
 20
70.970721
 40
1.7
 50
49.999982
 51
134.999993
  0
LINE
  8
ボルト／ビス
  6
CONTINUOUS
 10
-17.526632
 20
72.172805
 11
-18.739155
 21
70.960282
  0
LINE
  8
ボルト／ビス
  6
CONTINUOUS
 10
-19.375552
 20
66.64693
 11
-20.051872
 21
67.452938
  0
ARC
  8
ボルト／ビス
  6
CONTINUOUS
 10
-18.749599
 20
68.545675
 40
1.7
 50
134.999993
 51
220.000004
  0
LINE
  8
ボルト／ビス
  6
CONTINUOUS
 10
-19.95168
 20
69.747758
 11
-18.739155
 21
70.960282
  0
LINE
  8
ボルト／ビス
  6
CONTINUOUS
 10
-16.772307
 20
72.382792
 11
-16.94354
 21
72.554027
  0
LINE
  8
ボルト／ビス
  6
CONTINUOUS
 10
-17.512335
 20
70.72341
 11
-18.00731
 21
70.228435
  0
LINE
  8
ボルト／ビス
  6
CONTINUOUS
 10
-17.68917
 20
71.46593
 11
-16.772307
 21
72.382792
  0
LINE
  8
ボルト／ビス
  6
CONTINUOUS
 10
-17.512335
 20
70.72341
 11
-17.68917
 21
70.900245
  0
ARC
  8
ボルト／ビス
  6
CONTINUOUS
 10
-17.406328
 20
71.183085
 40
0.4
 50
134.999993
 51
224.999993
  0
LINE
  8
ボルト／ビス
  6
CONTINUOUS
 10
-20.161668
 20
68.993433
 11
-20.332902
 21
69.164667
  0
LINE
  8
ボルト／ビス
  6
CONTINUOUS
 10
-18.502285
 20
69.73346
 11
-18.00731
 21
70.228435
  0
LINE
  8
ボルト／ビス
  6
CONTINUOUS
 10
-19.244805
 20
69.910295
 11
-20.161668
 21
68.993433
  0
LINE
  8
ボルト／ビス
  6
CONTINUOUS
 10
-18.502285
 20
69.73346
 11
-18.67912
 21
69.910295
  0
ARC
  8
ボルト／ビス
  6
CONTINUOUS
 10
-18.961963
 20
69.627451
 40
0.4
 50
44.999993
 51
134.999993
  0
LINE
  8
ボルト／ビス
  6
CONTINUOUS
 10
-14.425805
 20
71.596678
 11
-19.375552
 21
66.64693
  0
LINE
  8
ボルト／ビス
  6
CONTINUOUS
 10
-20.133137
 20
72.354263
 11
-9.652485
 21
61.873608
  0
LINE
  8
ボルト／ビス
  6
CONTINUOUS
 10
-11.597378
 20
66.64693
 11
-11.597378
 21
65.939823
  0
LINE
  8
ボルト／ビス
  6
CONTINUOUS
 10
-14.425805
 20
63.818503
 11
-13.718697
 21
63.818503
  0
LINE
  8
ボルト／ビス
  6
CONTINUOUS
 10
-11.597378
 20
66.64693
 11
-14.425805
 21
63.818503
  0
LINE
  8
ボルト／ビス
  6
CONTINUOUS
 10
-11.597378
 20
65.939823
 11
-13.718697
 21
63.818503
  0
LINE
  8
ボルト／ビス
  6
CONTINUOUS
 10
-15.840017
 20
70.182462
 11
-11.597378
 21
65.939823
  0
LINE
  8
ボルト／ビス
  6
CONTINUOUS
 10
-17.96134
 20
68.061142
 11
-13.718697
 21
63.818503
  0
LINE
  8
ボルト／ビス
  6
CONTINUOUS
 10
-18.314893
 20
67.70759
 11
-14.425805
 21
63.818503
  0
LINE
  8
ボルト／ビス
  6
CONTINUOUS
 10
-15.486465
 20
70.536017
 11
-11.597378
 21
66.64693
  0
ENDBLK
  0
BLOCK
  2
*GRP_0034
 70
    65
 10
0.0
 20
0.0
  0
LINE
  8
通り芯
  6
CONTINUOUS
 10
-33.604187
 20
40.15734
 11
-33.604187
 21
49.157343
  0
LINE
  8
通り芯
  6
CONTINUOUS
 10
-45.104187
 20
49.157343
 11
-33.604187
 21
49.157343
  0
LINE
  8
通り芯
  6
CONTINUOUS
 10
-43.604187
 20
49.157343
 11
-43.604187
 21
40.157343
  0
LINE
  8
通り芯
  6
DOT
 10
-35.104187
 20
40.15734
 11
-35.104187
 21
49.157343
  0
POINT
  8
通り芯
 10
-42.026585
 20
47.742247
  0
POINT
  8
通り芯
 10
-41.35793
 20
45.234787
  0
POINT
  8
通り芯
 10
-38.627582
 20
46.739263
  0
POINT
  8
通り芯
 10
-37.568877
 20
43.953195
  0
POINT
  8
通り芯
 10
-40.243502
 20
42.95021
  0
POINT
  8
通り芯
 10
-41.8037
 20
41.055685
  0
POINT
  8
通り芯
 10
-37.457435
 20
40.944242
  0
POINT
  8
通り芯
 10
-36.175845
 20
46.070608
  0
POINT
  8
通り芯
 10
-36.565892
 20
47.909412
  0
ENDBLK
  0
BLOCK
  2
*GRP_0035
 70
    65
 10
0.0
 20
0.0
  0
LINE
  8
ボルト／ビス
  6
CONTINUOUS
 10
36.050553
 20
56.00734
 11
37.301477
 21
56.462637
  0
ARC
  8
ボルト／ビス
  6
CONTINUOUS
 10
35.425093
 20
60.101509
 40
4.09417
 50
242.722034
 51
270.0
  0
LINE
  8
ボルト／ビス
  6
CONTINUOUS
 10
23.541293
 20
56.00734
 11
22.290367
 21
56.462637
  0
ARC
  8
ボルト／ビス
  6
CONTINUOUS
 10
24.166758
 20
60.101509
 40
4.09417
 50
270.0
 51
297.277966
  0
ARC
  8
ボルト／ビス
  6
CONTINUOUS
 10
29.795926
 20
71.701071
 40
15.693732
 50
256.165046
 51
283.834954
  0
LINE
  8
ボルト／ビス
  6
CONTINUOUS
 10
37.301477
 20
61.15734
 11
37.301477
 21
56.462637
  0
LINE
  8
ボルト／ビス
  6
CONTINUOUS
 10
22.290367
 20
61.15734
 11
22.290367
 21
56.462637
  0
LINE
  8
ボルト／ビス
  6
CONTINUOUS
 10
23.541293
 20
56.00734
 11
36.050553
 21
56.00734
  0
LINE
  8
ボルト／ビス
  6
CONTINUOUS
 10
26.043145
 20
56.462637
 11
26.043145
 21
61.15734
  0
LINE
  8
ボルト／ビス
  6
CONTINUOUS
 10
33.5487
 20
56.462637
 11
33.5487
 21
61.15734
  0
LINE
  8
ボルト／ビス
  6
CONTINUOUS
 10
22.290367
 20
61.15734
 11
37.301477
 21
61.15734
  0
LINE
  8
ボルト／ビス
  6
CONTINUOUS
 10
29.795923
 20
61.15734
 11
29.795923
 21
62.95734
  0
LINE
  8
ボルト／ビス
  6
CONTINUOUS
 10
25.795923
 20
79.95734
 11
26.595923
 21
81.15734
  0
LINE
  8
ボルト／ビス
  6
CONTINUOUS
 10
33.795923
 20
79.95734
 11
32.995923
 21
81.15734
  0
LINE
  8
ボルト／ビス
  6
CONTINUOUS
 10
26.595923
 20
81.15734
 11
32.995923
 21
81.15734
  0
LINE
  8
ボルト／ビス
  6
CONTINUOUS
 10
25.795923
 20
79.95734
 11
33.795923
 21
79.95734
  0
LINE
  8
ボルト／ビス
  6
CONTINUOUS
 10
29.795923
 20
51.00734
 11
29.795923
 21
86.15734
  0
LINE
  8
ボルト／ビス
  6
CONTINUOUS
 10
32.995923
 20
81.15734
 11
32.995923
 21
61.15734
  0
LINE
  8
ボルト／ビス
  6
CONTINUOUS
 10
33.795923
 20
79.95734
 11
33.795923
 21
61.15734
  0
LINE
  8
ボルト／ビス
  6
CONTINUOUS
 10
25.795923
 20
79.95734
 11
25.795923
 21
61.15734
  0
LINE
  8
ボルト／ビス
  6
CONTINUOUS
 10
26.595923
 20
81.15734
 11
26.595923
 21
61.15734
  0
ENDBLK
  0
BLOCK
  2
*GRP_0036
 70
    65
 10
0.0
 20
0.0
  0
LINE
  8
ボルト／ビス
  6
CONTINUOUS
 10
36.050553
 20
74.607345
 11
37.301477
 21
74.152047
  0
ARC
  8
ボルト／ビス
  6
CONTINUOUS
 10
35.425093
 20
70.513175
 40
4.09417
 50
90.0
 51
117.277966
  0
LINE
  8
ボルト／ビス
  6
CONTINUOUS
 10
23.541293
 20
74.607345
 11
22.290367
 21
74.152047
  0
ARC
  8
ボルト／ビス
  6
CONTINUOUS
 10
24.166758
 20
70.513175
 40
4.09417
 50
62.722034
 51
90.0
  0
ARC
  8
ボルト／ビス
  6
CONTINUOUS
 10
29.795926
 20
58.913613
 40
15.693732
 50
76.165046
 51
103.834954
  0
LINE
  8
ボルト／ビス
  6
CONTINUOUS
 10
37.301477
 20
69.457345
 11
37.301477
 21
74.152047
  0
LINE
  8
ボルト／ビス
  6
CONTINUOUS
 10
22.290367
 20
69.457345
 11
22.290367
 21
74.152047
  0
LINE
  8
ボルト／ビス
  6
CONTINUOUS
 10
23.541293
 20
74.607345
 11
36.050553
 21
74.607345
  0
LINE
  8
ボルト／ビス
  6
CONTINUOUS
 10
26.043145
 20
74.152047
 11
26.043145
 21
69.457345
  0
LINE
  8
ボルト／ビス
  6
CONTINUOUS
 10
33.5487
 20
74.152047
 11
33.5487
 21
69.457345
  0
LINE
  8
ボルト／ビス
  6
CONTINUOUS
 10
22.290367
 20
69.457345
 11
37.301477
 21
69.457345
  0
LINE
  8
ボルト／ビス
  6
CONTINUOUS
 10
38.545923
 20
67.657345
 11
38.545923
 21
66.657345
  0
LINE
  8
ボルト／ビス
  6
CONTINUOUS
 10
21.045923
 20
67.657345
 11
21.045923
 21
66.657345
  0
LINE
  8
ボルト／ビス
  6
CONTINUOUS
 10
38.545923
 20
67.657345
 11
21.045923
 21
67.657345
  0
LINE
  8
ボルト／ビス
  6
CONTINUOUS
 10
38.545923
 20
66.657345
 11
21.045923
 21
66.657345
  0
LINE
  8
ボルト／ビス
  6
CONTINUOUS
 10
29.795923
 20
69.457345
 11
29.795923
 21
67.657345
  0
LINE
  8
ボルト／ビス
  6
CONTINUOUS
 10
21.895923
 20
69.457345
 11
21.895923
 21
67.657345
  0
LINE
  8
ボルト／ビス
  6
CONTINUOUS
 10
37.695923
 20
69.457345
 11
37.695923
 21
67.657345
  0
LINE
  8
ボルト／ビス
  6
CONTINUOUS
 10
21.895923
 20
69.457345
 11
37.695923
 21
69.457345
  0
ENDBLK
  0
BLOCK
  2
*DIM_0037
 70
    65
 10
0.0
 20
0.0
  0
LINE
  8
寸法
  6
BYBLOCK
 62
     0
 10
-21.104158
 20
-109.842665
 11
-109.551722
 21
-109.842665
  0
LINE
  8
寸法
  6
BYBLOCK
 62
     0
 10
-5.526318
 20
92.102775
 11
-109.551722
 21
92.102775
  0
LINE
  8
寸法
  6
BYBLOCK
 62
     0
 10
-109.551722
 20
-109.842665
 11
-109.551722
 21
92.102775
  0
POINT
  8
寸法
 62
     0
 10
-109.551722
 20
-109.842665
  0
POINT
  8
寸法
 62
     0
 10
-109.551722
 20
92.102775
  0
TEXT
  7
TextStyle03
  8
寸法
  6
CONTINUOUS
 62
     0
 10
-109.95
 20
-12.125
  1
202
 40
4.0
 50
90.0
 72
     5
 11
-109.95
 21
-5.625
  0
ENDBLK
  0
BLOCK
  2
*DIM_0038
 70
    65
 10
0.0
 20
0.0
  0
LINE
  8
寸法
  6
BYBLOCK
 62
     0
 10
-100.581335
 20
92.102775
 11
-98.572383
 21
92.102775
  0
LINE
  8
寸法
  6
BYBLOCK
 62
     0
 10
-47.604187
 20
50.02491
 11
-98.572383
 21
50.02491
  0
LINE
  8
寸法
  6
BYBLOCK
 62
     0
 10
-98.572383
 20
92.102775
 11
-98.572383
 21
50.02491
  0
POINT
  8
寸法
 62
     0
 10
-98.572383
 20
92.102775
  0
POINT
  8
寸法
 62
     0
 10
-98.572383
 20
50.02491
  0
TEXT
  7
TextStyle03
  8
寸法
  6
CONTINUOUS
 62
     0
 10
-98.95
 20
66.675
  1
42.1
 40
4.0
 50
90.0
 72
     5
 11
-98.95
 21
75.425
  0
ENDBLK
  0
BLOCK
  2
*DIM_0039
 70
    65
 10
0.0
 20
0.0
  0
LINE
  8
寸法
  6
BYBLOCK
 62
     0
 10
-47.604187
 20
24.65734
 11
-98.572383
 21
24.65734
  0
LINE
  8
寸法
  6
BYBLOCK
 62
     0
 10
-98.572383
 20
50.02491
 11
-98.572383
 21
24.65734
  0
POINT
  8
寸法
 62
     0
 10
-98.572383
 20
24.65734
  0
TEXT
  7
TextStyle03
  8
寸法
  6
CONTINUOUS
 62
     0
 10
-98.95
 20
32.95
  1
25.4
 40
4.0
 50
90.0
 72
     5
 11
-98.95
 21
41.7
  0
ENDBLK
  0
BLOCK
  2
*DIM_0040
 70
    65
 10
0.0
 20
0.0
  0
LINE
  8
寸法
  6
BYBLOCK
 62
     0
 10
-34.104187
 20
16.15734
 11
-98.572383
 21
16.15734
  0
LINE
  8
寸法
  6
BYBLOCK
 62
     0
 10
-98.572383
 20
24.65734
 11
-98.572383
 21
16.15734
  0
POINT
  8
寸法
 62
     0
 10
-98.572383
 20
16.15734
  0
TEXT
  7
TextStyle03
  8
寸法
  6
CONTINUOUS
 62
     0
 10
-98.95
 20
17.15
  1
8.5
 40
4.0
 50
90.0
 72
     5
 11
-98.95
 21
23.65
  0
ENDBLK
  0
BLOCK
  2
*DIM_0041
 70
    65
 10
0.0
 20
0.0
  0
LINE
  8
寸法
  6
BYBLOCK
 62
     0
 10
-21.104158
 20
-5.842665
 11
-98.572383
 21
-5.842665
  0
LINE
  8
寸法
  6
BYBLOCK
 62
     0
 10
-98.572383
 20
16.15734
 11
-98.572383
 21
-5.842665
  0
POINT
  8
寸法
 62
     0
 10
-98.572383
 20
-5.842665
  0
TEXT
  7
TextStyle03
  8
寸法
  6
CONTINUOUS
 62
     0
 10
-98.95
 20
3.025
  1
22
 40
4.0
 50
90.0
 72
     5
 11
-98.95
 21
7.275
  0
ENDBLK
  0
BLOCK
  2
*DIM_0042
 70
    65
 10
0.0
 20
0.0
  0
LINE
  8
寸法
  6
BYBLOCK
 62
     0
 10
-30.504183
 20
-21.023415
 11
-98.572383
 21
-21.023415
  0
LINE
  8
寸法
  6
BYBLOCK
 62
     0
 10
-98.572383
 20
-5.842665
 11
-98.572383
 21
-21.023415
  0
POINT
  8
寸法
 62
     0
 10
-98.572383
 20
-21.023415
  0
TEXT
  7
TextStyle03
  8
寸法
  6
CONTINUOUS
 62
     0
 10
-98.95
 20
-17.825
  1
15.2
 40
4.0
 50
90.0
 72
     5
 11
-98.95
 21
-9.075
  0
ENDBLK
  0
BLOCK
  2
*DIM_0043
 70
    65
 10
0.0
 20
0.0
  0
LINE
  8
寸法
  6
BYBLOCK
 62
     0
 10
-30.504183
 20
-31.02342
 11
-98.572383
 21
-31.02342
  0
LINE
  8
寸法
  6
BYBLOCK
 62
     0
 10
-98.572383
 20
-21.023415
 11
-98.572383
 21
-31.02342
  0
POINT
  8
寸法
 62
     0
 10
-98.572383
 20
-31.02342
  0
TEXT
  7
TextStyle03
  8
寸法
  6
CONTINUOUS
 62
     0
 10
-98.95
 20
-28.15
  1
10
 40
4.0
 50
90.0
 72
     5
 11
-98.95
 21
-23.9
  0
ENDBLK
  0
BLOCK
  2
*DIM_0044
 70
    65
 10
0.0
 20
0.0
  0
LINE
  8
寸法
  6
BYBLOCK
 62
     0
 10
-22.104158
 20
-109.842665
 11
-98.572383
 21
-109.842665
  0
LINE
  8
寸法
  6
BYBLOCK
 62
     0
 10
-98.572383
 20
-31.02342
 11
-98.572383
 21
-109.842665
  0
POINT
  8
寸法
 62
     0
 10
-98.572383
 20
-109.842665
  0
TEXT
  7
TextStyle03
  8
寸法
  6
CONTINUOUS
 62
     0
 10
-98.95
 20
-74.825
  1
78.8
 40
4.0
 50
90.0
 72
     5
 11
-98.95
 21
-66.075
  0
ENDBLK
  0
BLOCK
  2
*DIM_0045
 70
    65
 10
0.0
 20
0.0
  0
LINE
  8
寸法
  6
BYBLOCK
 62
     0
 10
97.395812
 20
-109.842665
 11
139.367035
 21
-109.842665
  0
LINE
  8
寸法
  6
BYBLOCK
 62
     0
 10
67.395812
 20
76.15734
 11
139.367035
 21
76.15734
  0
LINE
  8
寸法
  6
BYBLOCK
 62
     0
 10
139.367035
 20
-109.842665
 11
139.367035
 21
76.15734
  0
POINT
  8
寸法
 62
     0
 10
139.367035
 20
-109.842665
  0
POINT
  8
寸法
 62
     0
 10
139.367035
 20
76.15734
  0
TEXT
  7
TextStyle03
  8
寸法
  6
CONTINUOUS
 62
     0
 10
138.975
 20
-20.1
  1
186
 40
4.0
 50
90.0
 72
     5
 11
138.975
 21
-13.6
  0
ENDBLK
  0
BLOCK
  2
*DIM_0046
 70
    65
 10
0.0
 20
0.0
  0
LINE
  8
寸法
  6
BYBLOCK
 62
     0
 10
21.395797
 20
-10.342665
 11
129.14176
 21
-10.342665
  0
LINE
  8
寸法
  6
BYBLOCK
 62
     0
 10
21.395802
 20
-5.842665
 11
129.14176
 21
-5.842665
  0
LINE
  8
寸法
  6
BYBLOCK
 62
     0
 10
129.14176
 20
-10.342665
 11
129.14176
 21
-5.842665
  0
POINT
  8
寸法
 62
     0
 10
129.14176
 20
-10.342665
  0
POINT
  8
寸法
 62
     0
 10
129.14176
 20
-5.842665
  0
TEXT
  7
TextStyle03
  8
寸法
  6
CONTINUOUS
 62
     0
 10
133.25
 20
-11.35
  1
4.5
 40
4.0
 50
90.0
 72
     5
 11
133.25
 21
-4.85
  0
ENDBLK
  0
BLOCK
  2
*DIM_0047
 70
    65
 10
0.0
 20
0.0
  0
LINE
  8
寸法
  6
BYBLOCK
 62
     0
 10
67.395812
 20
61.15734
 11
129.14176
 21
61.15734
  0
LINE
  8
寸法
  6
BYBLOCK
 62
     0
 10
129.14176
 20
-5.842665
 11
129.14176
 21
61.15734
  0
POINT
  8
寸法
 62
     0
 10
129.14176
 20
61.15734
  0
TEXT
  7
TextStyle03
  8
寸法
  6
CONTINUOUS
 62
     0
 10
128.75
 20
25.525
  1
67
 40
4.0
 50
90.0
 72
     5
 11
128.75
 21
29.775
  0
ENDBLK
  0
BLOCK
  2
*DIM_0048
 70
    65
 10
0.0
 20
0.0
  0
LINE
  8
寸法
  6
BYBLOCK
 62
     0
 10
129.14176
 20
61.15734
 11
129.14176
 21
76.15734
  0
POINT
  8
寸法
 62
     0
 10
129.14176
 20
61.15734
  0
POINT
  8
寸法
 62
     0
 10
129.14176
 20
76.15734
  0
TEXT
  7
TextStyle03
  8
寸法
  6
CONTINUOUS
 62
     0
 10
128.75
 20
66.525
  1
15
 40
4.0
 50
90.0
 72
     5
 11
128.75
 21
70.775
  0
ENDBLK
  0
BLOCK
  2
*DIM_0049
 70
    65
 10
0.0
 20
0.0
  0
LINE
  8
寸法
  6
BYBLOCK
 62
     0
 10
119.070897
 20
-109.842665
 11
118.57239
 21
-109.842665
  0
LINE
  8
寸法
  6
BYBLOCK
 62
     0
 10
29.967182
 20
-95.342665
 11
118.57239
 21
-95.342665
  0
LINE
  8
寸法
  6
BYBLOCK
 62
     0
 10
118.57239
 20
-109.842665
 11
118.57239
 21
-95.342665
  0
POINT
  8
寸法
 62
     0
 10
118.57239
 20
-109.842665
  0
POINT
  8
寸法
 62
     0
 10
118.57239
 20
-95.342665
  0
TEXT
  7
TextStyle03
  8
寸法
  6
CONTINUOUS
 62
     0
 10
118.175
 20
-106.975
  1
14.5
 40
4.0
 50
90.0
 72
     5
 11
118.175
 21
-98.225
  0
ENDBLK
  0
BLOCK
  2
*DIM_0050
 70
    65
 10
0.0
 20
0.0
  0
LINE
  8
寸法
  6
BYBLOCK
 62
     0
 10
29.781003
 20
-86.342665
 11
118.57239
 21
-86.342665
  0
LINE
  8
寸法
  6
BYBLOCK
 62
     0
 10
118.57239
 20
-95.342665
 11
118.57239
 21
-86.342665
  0
POINT
  8
寸法
 62
     0
 10
118.57239
 20
-86.342665
  0
TEXT
  7
TextStyle03
  8
寸法
  6
CONTINUOUS
 62
     0
 10
118.175
 20
-91.85
  1
9
 40
4.0
 50
90.0
 72
     5
 11
118.175
 21
-89.85
  0
ENDBLK
  0
BLOCK
  2
*DIM_0051
 70
    65
 10
0.0
 20
0.0
  0
LINE
  8
寸法
  6
BYBLOCK
 62
     0
 10
29.781003
 20
-66.342665
 11
118.57239
 21
-66.342665
  0
LINE
  8
寸法
  6
BYBLOCK
 62
     0
 10
118.57239
 20
-86.342665
 11
118.57239
 21
-66.342665
  0
POINT
  8
寸法
 62
     0
 10
118.57239
 20
-66.342665
  0
TEXT
  7
TextStyle03
  8
寸法
  6
CONTINUOUS
 62
     0
 10
118.175
 20
-78.475
  1
20
 40
4.0
 50
90.0
 72
     5
 11
118.175
 21
-74.225
  0
ENDBLK
  0
BLOCK
  2
*DIM_0052
 70
    65
 10
0.0
 20
0.0
  0
LINE
  8
寸法
  6
BYBLOCK
 62
     0
 10
41.395797
 20
-58.342665
 11
118.57239
 21
-58.342665
  0
LINE
  8
寸法
  6
BYBLOCK
 62
     0
 10
118.57239
 20
-66.342665
 11
118.57239
 21
-58.342665
  0
POINT
  8
寸法
 62
     0
 10
118.57239
 20
-66.342665
  0
POINT
  8
寸法
 62
     0
 10
118.57239
 20
-58.342665
  0
TEXT
  7
TextStyle03
  8
寸法
  6
CONTINUOUS
 62
     0
 10
118.175
 20
-63.35
  1
8
 40
4.0
 50
90.0
 72
     5
 11
118.175
 21
-61.35
  0
ENDBLK
  0
BLOCK
  2
*DIM_0053
 70
    65
 10
0.0
 20
0.0
  0
LINE
  8
寸法
  6
BYBLOCK
 62
     0
 10
41.395802
 20
11.15734
 11
118.57239
 21
11.15734
  0
LINE
  8
寸法
  6
BYBLOCK
 62
     0
 10
118.57239
 20
-58.342665
 11
118.57239
 21
11.15734
  0
POINT
  8
寸法
 62
     0
 10
118.57239
 20
11.15734
  0
TEXT
  7
TextStyle03
  8
寸法
  6
CONTINUOUS
 62
     0
 10
118.175
 20
-27.975
  1
69.5
 40
4.0
 50
90.0
 72
     5
 11
118.175
 21
-19.225
  0
ENDBLK
  0
BLOCK
  2
*DIM_0054
 70
    65
 10
0.0
 20
0.0
  0
LINE
  8
寸法
  6
BYBLOCK
 62
     0
 10
29.781007
 20
19.15734
 11
118.57239
 21
19.15734
  0
LINE
  8
寸法
  6
BYBLOCK
 62
     0
 10
118.57239
 20
11.15734
 11
118.57239
 21
19.15734
  0
POINT
  8
寸法
 62
     0
 10
118.57239
 20
11.15734
  0
POINT
  8
寸法
 62
     0
 10
118.57239
 20
19.15734
  0
TEXT
  7
TextStyle03
  8
寸法
  6
CONTINUOUS
 62
     0
 10
118.175
 20
14.15
  1
8
 40
4.0
 50
90.0
 72
     5
 11
118.175
 21
16.15
  0
ENDBLK
  0
BLOCK
  2
*DIM_0055
 70
    65
 10
0.0
 20
0.0
  0
LINE
  8
寸法
  6
BYBLOCK
 62
     0
 10
29.781007
 20
39.15734
 11
118.57239
 21
39.15734
  0
LINE
  8
寸法
  6
BYBLOCK
 62
     0
 10
118.57239
 20
19.15734
 11
118.57239
 21
39.15734
  0
POINT
  8
寸法
 62
     0
 10
118.57239
 20
39.15734
  0
TEXT
  7
TextStyle03
  8
寸法
  6
CONTINUOUS
 62
     0
 10
118.175
 20
27.025
  1
20
 40
4.0
 50
90.0
 72
     5
 11
118.175
 21
31.275
  0
ENDBLK
  0
BLOCK
  2
*DIM_0056
 70
    65
 10
0.0
 20
0.0
  0
LINE
  8
寸法
  6
BYBLOCK
 62
     0
 10
68.395812
 20
61.15734
 11
118.57239
 21
61.15734
  0
LINE
  8
寸法
  6
BYBLOCK
 62
     0
 10
118.57239
 20
39.15734
 11
118.57239
 21
61.15734
  0
POINT
  8
寸法
 62
     0
 10
118.57239
 20
61.15734
  0
TEXT
  7
TextStyle03
  8
寸法
  6
CONTINUOUS
 62
     0
 10
118.175
 20
48.025
  1
22
 40
4.0
 50
90.0
 72
     5
 11
118.175
 21
52.275
  0
ENDBLK
  0
BLOCK
  2
*DIM_0057
 70
    65
 10
0.0
 20
0.0
  0
LINE
  8
寸法
  6
BYBLOCK
 62
     0
 10
-4.104158
 20
-124.842665
 11
-109.551722
 21
-124.842665
  0
LINE
  8
寸法
  6
BYBLOCK
 62
     0
 10
-109.551722
 20
-109.842665
 11
-109.551722
 21
-124.842665
  0
POINT
  8
寸法
 62
     0
 10
-109.551722
 20
-109.842665
  0
POINT
  8
寸法
 62
     0
 10
-109.551722
 20
-124.842665
  0
TEXT
  7
TextStyle03
  8
寸法
  6
CONTINUOUS
 62
     0
 10
-109.95
 20
-118.94375
  1
15
 40
3.0
 50
90.0
 72
     5
 11
-109.95
 21
-115.75625
  0
ENDBLK
  0
BLOCK
  2
*DIM_0058
 70
    65
 10
0.0
 20
0.0
  0
LINE
  8
寸法
  6
BYBLOCK
 62
     0
 10
-20.104158
 20
-110.842665
 11
-20.104158
 21
-131.14342
  0
LINE
  8
寸法
  6
BYBLOCK
 62
     0
 10
-3.104158
 20
-125.842665
 11
-3.104158
 21
-131.14342
  0
LINE
  8
寸法
  6
BYBLOCK
 62
     0
 10
-20.104158
 20
-131.14342
 11
-3.104158
 21
-131.14342
  0
POINT
  8
寸法
 62
     0
 10
-20.104158
 20
-131.14342
  0
POINT
  8
寸法
 62
     0
 10
-3.104158
 20
-131.14342
  0
TEXT
  7
TextStyle03
  8
寸法
  6
CONTINUOUS
 62
     0
 10
-13.21875
 20
-130.775
  1
17
 40
3.0
 72
     5
 11
-10.03125
 21
-130.775
  0
ENDBLK
  0
BLOCK
  2
*DIM_0059
 70
    65
 10
0.0
 20
0.0
  0
LINE
  8
寸法
  6
BYBLOCK
 62
     0
 10
96.395812
 20
-110.842665
 11
96.395812
 21
-131.14342
  0
LINE
  8
寸法
  6
BYBLOCK
 62
     0
 10
-3.104158
 20
-131.14342
 11
96.395812
 21
-131.14342
  0
POINT
  8
寸法
 62
     0
 10
96.395812
 20
-131.14342
  0
TEXT
  7
TextStyle03
  8
寸法
  6
CONTINUOUS
 62
     0
 10
43.34375
 20
-130.775
  1
99.5
 40
3.0
 72
     5
 11
49.90625
 21
-130.775
  0
ENDBLK
  0
BLOCK
  2
*GRP_0060
 70
    65
 10
0.0
 20
0.0
  0
LINE
  8
ボルト／ビス
  6
CONTINUOUS
 10
28.395805
 20
23.157345
 11
26.095805
 21
21.657345
  0
LINE
  8
ボルト／ビス
  6
CONTINUOUS
 10
28.395805
 20
15.157345
 11
26.095805
 21
16.657345
  0
LINE
  8
ボルト／ビス
  6
CONTINUOUS
 10
28.395805
 20
23.157345
 11
28.395805
 21
15.157345
  0
LINE
  8
ボルト／ビス
  6
CONTINUOUS
 10
26.095805
 20
21.657345
 11
26.095805
 21
16.657345
  0
LINE
  8
ボルト／ビス
  6
CONTINUOUS
 10
30.78101
 20
19.157345
 11
13.395805
 21
19.157345
  0
LINE
  8
ボルト／ビス
  6
CONTINUOUS
 10
13.895805
 20
21.657345
 11
13.395805
 21
21.157345
  0
LINE
  8
ボルト／ビス
  6
CONTINUOUS
 10
13.895805
 20
16.657345
 11
13.395805
 21
17.157345
  0
LINE
  8
ボルト／ビス
  6
CONTINUOUS
 10
13.395805
 20
17.157345
 11
13.395805
 21
21.157345
  0
LINE
  8
ボルト／ビス
  6
CONTINUOUS
 10
13.895805
 20
16.657345
 11
13.895805
 21
21.657345
  0
LINE
  8
ボルト／ビス
  6
CONTINUOUS
 10
26.095805
 20
21.157345
 11
13.395805
 21
21.157345
  0
LINE
  8
ボルト／ビス
  6
CONTINUOUS
 10
26.095805
 20
17.157345
 11
13.395805
 21
17.157345
  0
LINE
  8
ボルト／ビス
  6
CONTINUOUS
 10
26.095805
 20
16.657345
 11
13.895805
 21
16.657345
  0
LINE
  8
ボルト／ビス
  6
CONTINUOUS
 10
26.095805
 20
21.657345
 11
13.895805
 21
21.657345
  0
ENDBLK
  0
BLOCK
  2
*GRP_0061
 70
    65
 10
0.0
 20
0.0
  0
LINE
  8
ボルト／ビス
  6
CONTINUOUS
 10
28.395805
 20
43.157345
 11
26.095805
 21
41.657345
  0
LINE
  8
ボルト／ビス
  6
CONTINUOUS
 10
28.395805
 20
35.157345
 11
26.095805
 21
36.657345
  0
LINE
  8
ボルト／ビス
  6
CONTINUOUS
 10
28.395805
 20
43.157345
 11
28.395805
 21
35.157345
  0
LINE
  8
ボルト／ビス
  6
CONTINUOUS
 10
26.095805
 20
41.657345
 11
26.095805
 21
36.657345
  0
LINE
  8
ボルト／ビス
  6
CONTINUOUS
 10
30.78101
 20
39.157345
 11
13.395805
 21
39.157345
  0
LINE
  8
ボルト／ビス
  6
CONTINUOUS
 10
13.895805
 20
41.657345
 11
13.395805
 21
41.157345
  0
LINE
  8
ボルト／ビス
  6
CONTINUOUS
 10
13.895805
 20
36.657345
 11
13.395805
 21
37.157345
  0
LINE
  8
ボルト／ビス
  6
CONTINUOUS
 10
13.395805
 20
37.157345
 11
13.395805
 21
41.157345
  0
LINE
  8
ボルト／ビス
  6
CONTINUOUS
 10
13.895805
 20
36.657345
 11
13.895805
 21
41.657345
  0
LINE
  8
ボルト／ビス
  6
CONTINUOUS
 10
26.095805
 20
41.157345
 11
13.395805
 21
41.157345
  0
LINE
  8
ボルト／ビス
  6
CONTINUOUS
 10
26.095805
 20
37.157345
 11
13.395805
 21
37.157345
  0
LINE
  8
ボルト／ビス
  6
CONTINUOUS
 10
26.095805
 20
36.657345
 11
13.895805
 21
36.657345
  0
LINE
  8
ボルト／ビス
  6
CONTINUOUS
 10
26.095805
 20
41.657345
 11
13.895805
 21
41.657345
  0
ENDBLK
  0
BLOCK
  2
*GRP_0062
 70
    65
 10
0.0
 20
0.0
  0
LINE
  8
別途部材
  6
CONTINUOUS
 10
30.895802
 20
54.65735
 11
30.895802
 21
10.657347
  0
ARC
  8
別途部材
  6
CONTINUOUS
 10
36.895811
 20
54.657349
 40
6.0
 50
90.0
 51
180.0
  0
LINE
  8
別途部材
  6
CONTINUOUS
 10
42.895802
 20
54.65735
 11
42.895802
 21
10.657347
  0
ARC
  8
別途部材
  6
CONTINUOUS
 10
36.895811
 20
54.657349
 40
6.0
 50
0.0
 51
90.0
  0
CIRCLE
  8
別途部材
  6
CONTINUOUS
 10
36.895802
 20
54.65735
 40
3.0
  0
LINE
  8
別途部材
  6
CONTINUOUS
 10
33.895802
 20
54.65735
 11
39.895802
 21
54.65735
  0
LINE
  8
別途部材
  6
CONTINUOUS
 10
36.895802
 20
57.65735
 11
36.895802
 21
51.65735
  0
LINE
  8
別途部材
  6
CONTINUOUS
 10
30.895802
 20
10.657347
 11
32.895812
 21
10.657347
  0
LINE
  8
別途部材
  6
CONTINUOUS
 10
40.895808
 20
10.657347
 11
42.895802
 21
10.657347
  0
LINE
  8
別途部材
  6
CONTINUOUS
 10
32.895812
 20
10.657347
 11
32.895812
 21
48.65735
  0
LINE
  8
別途部材
  6
CONTINUOUS
 10
32.895812
 20
48.65735
 11
40.895808
 21
48.65735
  0
LINE
  8
別途部材
  6
CONTINUOUS
 10
40.895808
 20
10.657347
 11
40.895808
 21
48.65735
  0
ARC
  8
別途部材
  6
CONTINUOUS
 10
36.895811
 20
11.115682
 40
2.541667
 50
10.38896
 51
169.61104
  0
LINE
  8
別途部材
  6
CONTINUOUS
 10
40.395812
 20
10.657347
 11
39.395808
 21
10.657347
  0
LINE
  8
別途部材
  6
CONTINUOUS
 10
33.395808
 20
10.657347
 11
34.395812
 21
10.657347
  0
CIRCLE
  8
別途部材
  6
CONTINUOUS
 10
36.895802
 20
44.657352
 40
0.999997
  0
LINE
  8
別途部材
  6
CONTINUOUS
 10
37.895808
 20
44.657352
 11
35.895812
 21
44.657352
  0
LINE
  8
別途部材
  6
CONTINUOUS
 10
36.895802
 20
45.65735
 11
36.895802
 21
43.657347
  0
ARC
  8
別途部材
  6
CONTINUOUS
 10
36.895811
 20
46.199022
 40
2.541667
 50
190.38896
 51
349.61104
  0
LINE
  8
別途部材
  6
CONTINUOUS
 10
40.395812
 20
46.657347
 11
39.395808
 21
46.657347
  0
LINE
  8
別途部材
  6
CONTINUOUS
 10
34.395812
 20
46.657347
 11
33.395808
 21
46.657347
  0
LINE
  8
別途部材
  6
CONTINUOUS
 10
39.395808
 20
10.657347
 11
39.395808
 21
46.657347
  0
LINE
  8
別途部材
  6
CONTINUOUS
 10
40.395812
 20
10.657347
 11
40.395812
 21
46.657347
  0
LINE
  8
別途部材
  6
CONTINUOUS
 10
34.395812
 20
10.657347
 11
34.395812
 21
46.657347
  0
LINE
  8
別途部材
  6
CONTINUOUS
 10
33.395808
 20
10.657347
 11
33.395808
 21
46.657347
  0
ENDBLK
  0
BLOCK
  2
*GRP_0063
 70
    65
 10
0.0
 20
0.0
  0
LINE
  8
別途部材
  6
CONTINUOUS
 10
36.895802
 20
60.65735
 11
36.895802
 21
60.65735
  0
LINE
  8
別途部材
  6
CONTINUOUS
 10
30.895802
 20
47.657345
 11
28.395805
 21
47.657345
  0
LINE
  8
別途部材
  6
CONTINUOUS
 10
36.895802
 20
61.157345
 11
36.89581
 21
60.657343
  0
LINE
  8
別途部材
  6
CONTINUOUS
 10
20.395802
 20
48.65735
 11
28.395805
 21
48.65735
  0
ARC
  8
別途部材
  6
CONTINUOUS
 10
21.395805
 20
11.657351
 40
1.0
 50
180.0
 51
270.0
  0
LINE
  8
別途部材
  6
CONTINUOUS
 10
27.395808
 20
10.657347
 11
21.395808
 21
10.657347
  0
ARC
  8
別途部材
  6
CONTINUOUS
 10
27.395805
 20
11.657351
 40
1.0
 50
270.0
 51
360.0
  0
LINE
  8
別途部材
  6
CONTINUOUS
 10
20.395802
 20
11.657345
 11
20.395802
 21
60.157347
  0
ARC
  8
別途部材
  6
CONTINUOUS
 10
21.395805
 20
60.157351
 40
1.0
 50
90.0
 51
180.0
  0
LINE
  8
別途部材
  6
CONTINUOUS
 10
28.395805
 20
11.657345
 11
28.395805
 21
60.157347
  0
ARC
  8
別途部材
  6
CONTINUOUS
 10
27.395805
 20
60.157351
 40
1.0
 50
0.0
 51
90.0
  0
LINE
  8
別途部材
  6
CONTINUOUS
 10
21.395808
 20
61.157345
 11
36.895802
 21
61.157345
  0
LINE
  8
別途部材
  6
CONTINUOUS
 10
26.095802
 20
41.657345
 11
26.095802
 21
36.65735
  0
LINE
  8
別途部材
  6
CONTINUOUS
 10
26.095802
 20
21.65735
 11
26.095802
 21
16.65734
  0
POLYLINE
  8
別途部材
  6
CONTINUOUS
 66
     1
  0
VERTEX
  8
別途部材
 10
28.395805
 20
43.157345
  0
VERTEX
  8
別途部材
 10
26.095802
 20
41.657345
  0
VERTEX
  8
別途部材
 10
20.395802
 20
41.657345
  0
SEQEND
  0
LINE
  8
別途部材
  6
CONTINUOUS
 10
28.395805
 20
39.15734
 11
20.395802
 21
39.15734
  0
POLYLINE
  8
別途部材
  6
CONTINUOUS
 66
     1
  0
VERTEX
  8
別途部材
 10
28.395805
 20
35.15735
  0
VERTEX
  8
別途部材
 10
26.095802
 20
36.65735
  0
VERTEX
  8
別途部材
 10
20.395802
 20
36.65735
  0
SEQEND
  0
POLYLINE
  8
別途部材
  6
CONTINUOUS
 66
     1
  0
VERTEX
  8
別途部材
 10
28.395805
 20
23.15735
  0
VERTEX
  8
別途部材
 10
26.095802
 20
21.65735
  0
VERTEX
  8
別途部材
 10
20.395802
 20
21.65735
  0
SEQEND
  0
LINE
  8
別途部材
  6
CONTINUOUS
 10
28.395805
 20
19.157345
 11
20.395802
 21
19.157345
  0
POLYLINE
  8
別途部材
  6
CONTINUOUS
 66
     1
  0
VERTEX
  8
別途部材
 10
28.395805
 20
15.15734
  0
VERTEX
  8
別途部材
 10
26.095802
 20
16.65734
  0
VERTEX
  8
別途部材
 10
20.395802
 20
16.65734
  0
SEQEND
  0
ENDBLK
  0
BLOCK
  2
*GRP_0064
 70
    65
 10
0.0
 20
0.0
  0
LINE
  8
ボルト／ビス
  6
CONTINUOUS
 10
28.3958
 20
-82.34267
 11
26.0958
 21
-83.84267
  0
LINE
  8
ボルト／ビス
  6
CONTINUOUS
 10
28.3958
 20
-90.34267
 11
26.0958
 21
-88.84267
  0
LINE
  8
ボルト／ビス
  6
CONTINUOUS
 10
28.3958
 20
-82.34267
 11
28.3958
 21
-90.34267
  0
LINE
  8
ボルト／ビス
  6
CONTINUOUS
 10
26.0958
 20
-83.84267
 11
26.0958
 21
-88.84267
  0
LINE
  8
ボルト／ビス
  6
CONTINUOUS
 10
30.781005
 20
-86.34267
 11
13.3958
 21
-86.34267
  0
LINE
  8
ボルト／ビス
  6
CONTINUOUS
 10
13.8958
 20
-83.84267
 11
13.3958
 21
-84.34267
  0
LINE
  8
ボルト／ビス
  6
CONTINUOUS
 10
13.8958
 20
-88.84267
 11
13.3958
 21
-88.34267
  0
LINE
  8
ボルト／ビス
  6
CONTINUOUS
 10
13.3958
 20
-88.34267
 11
13.3958
 21
-84.34267
  0
LINE
  8
ボルト／ビス
  6
CONTINUOUS
 10
13.8958
 20
-88.84267
 11
13.8958
 21
-83.84267
  0
LINE
  8
ボルト／ビス
  6
CONTINUOUS
 10
26.0958
 20
-84.34267
 11
13.3958
 21
-84.34267
  0
LINE
  8
ボルト／ビス
  6
CONTINUOUS
 10
26.0958
 20
-88.34267
 11
13.3958
 21
-88.34267
  0
LINE
  8
ボルト／ビス
  6
CONTINUOUS
 10
26.0958
 20
-88.84267
 11
13.8958
 21
-88.84267
  0
LINE
  8
ボルト／ビス
  6
CONTINUOUS
 10
26.0958
 20
-83.84267
 11
13.8958
 21
-83.84267
  0
ENDBLK
  0
BLOCK
  2
*GRP_0065
 70
    65
 10
0.0
 20
0.0
  0
LINE
  8
ボルト／ビス
  6
CONTINUOUS
 10
28.3958
 20
-62.34267
 11
26.0958
 21
-63.84267
  0
LINE
  8
ボルト／ビス
  6
CONTINUOUS
 10
28.3958
 20
-70.34267
 11
26.0958
 21
-68.84267
  0
LINE
  8
ボルト／ビス
  6
CONTINUOUS
 10
28.3958
 20
-62.34267
 11
28.3958
 21
-70.34267
  0
LINE
  8
ボルト／ビス
  6
CONTINUOUS
 10
26.0958
 20
-63.84267
 11
26.0958
 21
-68.84267
  0
LINE
  8
ボルト／ビス
  6
CONTINUOUS
 10
30.781005
 20
-66.34267
 11
13.3958
 21
-66.34267
  0
LINE
  8
ボルト／ビス
  6
CONTINUOUS
 10
13.8958
 20
-63.84267
 11
13.3958
 21
-64.34267
  0
LINE
  8
ボルト／ビス
  6
CONTINUOUS
 10
13.8958
 20
-68.84267
 11
13.3958
 21
-68.34267
  0
LINE
  8
ボルト／ビス
  6
CONTINUOUS
 10
13.3958
 20
-68.34267
 11
13.3958
 21
-64.34267
  0
LINE
  8
ボルト／ビス
  6
CONTINUOUS
 10
13.8958
 20
-68.84267
 11
13.8958
 21
-63.84267
  0
LINE
  8
ボルト／ビス
  6
CONTINUOUS
 10
26.0958
 20
-64.34267
 11
13.3958
 21
-64.34267
  0
LINE
  8
ボルト／ビス
  6
CONTINUOUS
 10
26.0958
 20
-68.34267
 11
13.3958
 21
-68.34267
  0
LINE
  8
ボルト／ビス
  6
CONTINUOUS
 10
26.0958
 20
-68.84267
 11
13.8958
 21
-68.84267
  0
LINE
  8
ボルト／ビス
  6
CONTINUOUS
 10
26.0958
 20
-63.84267
 11
13.8958
 21
-63.84267
  0
ENDBLK
  0
BLOCK
  2
*GRP_0066
 70
    65
 10
0.0
 20
0.0
  0
LINE
  8
ボルト／ビス
  6
CONTINUOUS
 10
28.395808
 20
-71.842673
 11
26.095808
 21
-73.342673
  0
LINE
  8
ボルト／ビス
  6
CONTINUOUS
 10
28.395808
 20
-79.842673
 11
26.095808
 21
-78.342673
  0
LINE
  8
ボルト／ビス
  6
CONTINUOUS
 10
28.395808
 20
-71.842673
 11
28.395808
 21
-79.842673
  0
LINE
  8
ボルト／ビス
  6
CONTINUOUS
 10
26.095808
 20
-73.342673
 11
26.095808
 21
-78.342673
  0
LINE
  8
ボルト／ビス
  6
CONTINUOUS
 10
30.781012
 20
-75.842673
 11
13.395808
 21
-75.842673
  0
LINE
  8
ボルト／ビス
  6
CONTINUOUS
 10
13.895808
 20
-73.342673
 11
13.395808
 21
-73.842673
  0
LINE
  8
ボルト／ビス
  6
CONTINUOUS
 10
13.895808
 20
-78.342673
 11
13.395808
 21
-77.842673
  0
LINE
  8
ボルト／ビス
  6
CONTINUOUS
 10
13.395808
 20
-77.842673
 11
13.395808
 21
-73.842673
  0
LINE
  8
ボルト／ビス
  6
CONTINUOUS
 10
13.895808
 20
-78.342673
 11
13.895808
 21
-73.342673
  0
LINE
  8
ボルト／ビス
  6
CONTINUOUS
 10
26.095808
 20
-73.842673
 11
13.395808
 21
-73.842673
  0
LINE
  8
ボルト／ビス
  6
CONTINUOUS
 10
26.095808
 20
-77.842673
 11
13.395808
 21
-77.842673
  0
LINE
  8
ボルト／ビス
  6
CONTINUOUS
 10
26.095808
 20
-78.342673
 11
13.895808
 21
-78.342673
  0
LINE
  8
ボルト／ビス
  6
CONTINUOUS
 10
26.095808
 20
-73.342673
 11
13.895808
 21
-73.342673
  0
ENDBLK
  0
BLOCK
  2
*GRP_0067
 70
    65
 10
0.0
 20
0.0
  0
LINE
  8
別途部材
  6
CONTINUOUS
 10
30.895797
 20
-101.842675
 11
30.895797
 21
-57.842673
  0
ARC
  8
別途部材
  6
CONTINUOUS
 10
36.895806
 20
-101.842673
 40
6.0
 50
180.0
 51
270.0
  0
LINE
  8
別途部材
  6
CONTINUOUS
 10
42.895797
 20
-101.842675
 11
42.895797
 21
-57.842673
  0
ARC
  8
別途部材
  6
CONTINUOUS
 10
36.895806
 20
-101.842673
 40
6.0
 50
-90.0
 51
0.0
  0
CIRCLE
  8
別途部材
  6
CONTINUOUS
 10
36.895797
 20
-101.842675
 40
3.0
  0
LINE
  8
別途部材
  6
CONTINUOUS
 10
33.895797
 20
-101.842675
 11
39.895797
 21
-101.842675
  0
LINE
  8
別途部材
  6
CONTINUOUS
 10
36.895797
 20
-104.842675
 11
36.895797
 21
-98.842675
  0
LINE
  8
別途部材
  6
CONTINUOUS
 10
30.895797
 20
-57.842673
 11
32.895808
 21
-57.842673
  0
LINE
  8
別途部材
  6
CONTINUOUS
 10
40.895802
 20
-57.842673
 11
42.895797
 21
-57.842673
  0
LINE
  8
別途部材
  6
CONTINUOUS
 10
32.895808
 20
-57.842673
 11
32.895808
 21
-95.842675
  0
LINE
  8
別途部材
  6
CONTINUOUS
 10
32.895808
 20
-95.842675
 11
40.895802
 21
-95.842675
  0
LINE
  8
別途部材
  6
CONTINUOUS
 10
40.895802
 20
-57.842673
 11
40.895802
 21
-95.842675
  0
ARC
  8
別途部材
  6
CONTINUOUS
 10
36.895806
 20
-58.301006
 40
2.541667
 50
190.38896
 51
349.61104
  0
LINE
  8
別途部材
  6
CONTINUOUS
 10
40.395808
 20
-57.842673
 11
39.395802
 21
-57.842673
  0
LINE
  8
別途部材
  6
CONTINUOUS
 10
33.395802
 20
-57.842673
 11
34.395808
 21
-57.842673
  0
CIRCLE
  8
別途部材
  6
CONTINUOUS
 10
36.895797
 20
-91.842677
 40
0.999997
  0
LINE
  8
別途部材
  6
CONTINUOUS
 10
37.895802
 20
-91.842677
 11
35.895808
 21
-91.842677
  0
LINE
  8
別途部材
  6
CONTINUOUS
 10
36.895797
 20
-92.842675
 11
36.895797
 21
-90.842673
  0
ARC
  8
別途部材
  6
CONTINUOUS
 10
36.895806
 20
-93.384346
 40
2.541667
 50
10.38896
 51
169.61104
  0
LINE
  8
別途部材
  6
CONTINUOUS
 10
40.395808
 20
-93.842673
 11
39.395802
 21
-93.842673
  0
LINE
  8
別途部材
  6
CONTINUOUS
 10
34.395808
 20
-93.842673
 11
33.395802
 21
-93.842673
  0
LINE
  8
別途部材
  6
CONTINUOUS
 10
39.395802
 20
-57.842673
 11
39.395802
 21
-93.842673
  0
LINE
  8
別途部材
  6
CONTINUOUS
 10
40.395808
 20
-57.842673
 11
40.395808
 21
-93.842673
  0
LINE
  8
別途部材
  6
CONTINUOUS
 10
34.395808
 20
-57.842673
 11
34.395808
 21
-93.842673
  0
LINE
  8
別途部材
  6
CONTINUOUS
 10
33.395802
 20
-57.842673
 11
33.395802
 21
-93.842673
  0
ENDBLK
  0
BLOCK
  2
*GRP_0068
 70
    65
 10
0.0
 20
0.0
  0
LINE
  8
別途部材
  6
CONTINUOUS
 10
36.895797
 20
-107.842675
 11
36.895797
 21
-107.842675
  0
LINE
  8
別途部材
  6
CONTINUOUS
 10
30.895797
 20
-94.84267
 11
28.3958
 21
-94.84267
  0
LINE
  8
別途部材
  6
CONTINUOUS
 10
36.895797
 20
-108.34267
 11
36.895805
 21
-107.842667
  0
LINE
  8
別途部材
  6
CONTINUOUS
 10
20.395797
 20
-95.842675
 11
28.3958
 21
-95.842675
  0
ARC
  8
別途部材
  6
CONTINUOUS
 10
21.3958
 20
-58.842675
 40
1.0
 50
90.0
 51
180.0
  0
LINE
  8
別途部材
  6
CONTINUOUS
 10
27.395802
 20
-57.842673
 11
21.395802
 21
-57.842673
  0
ARC
  8
別途部材
  6
CONTINUOUS
 10
27.3958
 20
-58.842675
 40
1.0
 50
0.0
 51
90.0
  0
LINE
  8
別途部材
  6
CONTINUOUS
 10
20.395797
 20
-58.84267
 11
20.395797
 21
-107.342673
  0
ARC
  8
別途部材
  6
CONTINUOUS
 10
21.3958
 20
-107.342675
 40
1.0
 50
180.0
 51
270.0
  0
LINE
  8
別途部材
  6
CONTINUOUS
 10
28.3958
 20
-58.84267
 11
28.3958
 21
-107.342673
  0
ARC
  8
別途部材
  6
CONTINUOUS
 10
27.3958
 20
-107.342675
 40
1.0
 50
-90.0
 51
0.0
  0
LINE
  8
別途部材
  6
CONTINUOUS
 10
21.395802
 20
-108.34267
 11
36.895797
 21
-108.34267
  0
LINE
  8
別途部材
  6
CONTINUOUS
 10
26.095797
 20
-88.84267
 11
26.095797
 21
-83.842675
  0
LINE
  8
別途部材
  6
CONTINUOUS
 10
26.095797
 20
-68.842675
 11
26.095797
 21
-63.842665
  0
POLYLINE
  8
別途部材
  6
CONTINUOUS
 66
     1
  0
VERTEX
  8
別途部材
 10
28.3958
 20
-90.34267
  0
VERTEX
  8
別途部材
 10
26.095797
 20
-88.84267
  0
VERTEX
  8
別途部材
 10
20.395797
 20
-88.84267
  0
SEQEND
  0
LINE
  8
別途部材
  6
CONTINUOUS
 10
28.3958
 20
-86.342665
 11
20.395797
 21
-86.342665
  0
POLYLINE
  8
別途部材
  6
CONTINUOUS
 66
     1
  0
VERTEX
  8
別途部材
 10
28.3958
 20
-82.342675
  0
VERTEX
  8
別途部材
 10
26.095797
 20
-83.842675
  0
VERTEX
  8
別途部材
 10
20.395797
 20
-83.842675
  0
SEQEND
  0
POLYLINE
  8
別途部材
  6
CONTINUOUS
 66
     1
  0
VERTEX
  8
別途部材
 10
28.3958
 20
-70.342675
  0
VERTEX
  8
別途部材
 10
26.095797
 20
-68.842675
  0
VERTEX
  8
別途部材
 10
20.395797
 20
-68.842675
  0
SEQEND
  0
LINE
  8
別途部材
  6
CONTINUOUS
 10
28.3958
 20
-66.34267
 11
20.395797
 21
-66.34267
  0
POLYLINE
  8
別途部材
  6
CONTINUOUS
 66
     1
  0
VERTEX
  8
別途部材
 10
28.3958
 20
-62.342665
  0
VERTEX
  8
別途部材
 10
26.095797
 20
-63.842665
  0
VERTEX
  8
別途部材
 10
20.395797
 20
-63.842665
  0
SEQEND
  0
ENDBLK
  0
BLOCK
  2
*GRP_0069
 70
    65
 10
0.0
 20
0.0
  0
LINE
  8
別途部材
  6
CONTINUOUS
 10
26.895808
 20
-85.842677
 11
70.895802
 21
-85.842677
  0
ARC
  8
別途部材
  6
CONTINUOUS
 10
26.895806
 20
-91.84268
 40
6.0
 50
90.0
 51
180.0
  0
LINE
  8
別途部材
  6
CONTINUOUS
 10
26.895808
 20
-97.842677
 11
70.895802
 21
-97.842677
  0
ARC
  8
別途部材
  6
CONTINUOUS
 10
26.895806
 20
-91.84268
 40
6.0
 50
180.0
 51
270.0
  0
CIRCLE
  8
別途部材
  6
CONTINUOUS
 10
26.895808
 20
-91.842677
 40
3.0
  0
LINE
  8
別途部材
  6
CONTINUOUS
 10
26.895808
 20
-88.842677
 11
26.895808
 21
-94.842677
  0
LINE
  8
別途部材
  6
CONTINUOUS
 10
23.895808
 20
-91.842677
 11
29.895808
 21
-91.842677
  0
LINE
  8
別途部材
  6
CONTINUOUS
 10
70.895802
 20
-85.842677
 11
70.895802
 21
-87.84268
  0
LINE
  8
別途部材
  6
CONTINUOUS
 10
70.895802
 20
-95.842682
 11
70.895802
 21
-97.842677
  0
LINE
  8
別途部材
  6
CONTINUOUS
 10
70.895802
 20
-87.84268
 11
32.895808
 21
-87.84268
  0
LINE
  8
別途部材
  6
CONTINUOUS
 10
32.895808
 20
-87.84268
 11
32.895808
 21
-95.842682
  0
LINE
  8
別途部材
  6
CONTINUOUS
 10
70.895802
 20
-95.842682
 11
32.895808
 21
-95.842682
  0
ARC
  8
別途部材
  6
CONTINUOUS
 10
34.354139
 20
-91.84268
 40
2.541667
 50
180.0
 51
180.0
  0
ARC
  8
別途部材
  6
CONTINUOUS
 10
70.437474
 20
-91.84268
 40
2.541667
 50
100.38896
 51
259.61104
  0
LINE
  8
別途部材
  6
CONTINUOUS
 10
70.895802
 20
-95.34268
 11
70.895802
 21
-94.342682
  0
LINE
  8
別途部材
  6
CONTINUOUS
 10
70.895802
 20
-88.342682
 11
70.895802
 21
-89.34268
  0
CIRCLE
  8
別途部材
  6
CONTINUOUS
 10
36.895797
 20
-91.842677
 40
0.999997
  0
LINE
  8
別途部材
  6
CONTINUOUS
 10
36.895797
 20
-92.842682
 11
36.895797
 21
-90.84268
  0
LINE
  8
別途部材
  6
CONTINUOUS
 10
35.8958
 20
-91.842677
 11
37.895802
 21
-91.842677
  0
ARC
  8
別途部材
  6
CONTINUOUS
 10
35.354134
 20
-91.84268
 40
2.541667
 50
280.38896
 51
439.61104
  0
LINE
  8
別途部材
  6
CONTINUOUS
 10
34.895802
 20
-95.34268
 11
34.895802
 21
-94.342682
  0
LINE
  8
別途部材
  6
CONTINUOUS
 10
34.895802
 20
-89.34268
 11
34.895802
 21
-88.342682
  0
LINE
  8
別途部材
  6
CONTINUOUS
 10
70.895802
 20
-94.342682
 11
34.895802
 21
-94.342682
  0
LINE
  8
別途部材
  6
CONTINUOUS
 10
70.895802
 20
-95.34268
 11
34.895802
 21
-95.34268
  0
LINE
  8
別途部材
  6
CONTINUOUS
 10
70.895802
 20
-89.34268
 11
34.895802
 21
-89.34268
  0
LINE
  8
別途部材
  6
CONTINUOUS
 10
70.895802
 20
-88.342682
 11
34.895802
 21
-88.342682
  0
ENDBLK
  0
BLOCK
  2
*GRP_0070
 70
    65
 10
0.0
 20
0.0
  0
LINE
  8
別途部材
  6
CONTINUOUS
 10
20.895808
 20
-91.842677
 11
20.895808
 21
-91.842677
  0
LINE
  8
別途部材
  6
CONTINUOUS
 10
26.095805
 20
-73.342667
 11
26.095805
 21
-78.34267
  0
LINE
  8
別途部材
  6
CONTINUOUS
 10
28.395808
 20
-75.842673
 11
20.395805
 21
-75.842673
  0
POLYLINE
  8
別途部材
  6
CONTINUOUS
 66
     1
  0
VERTEX
  8
別途部材
 10
28.395808
 20
-79.84267
  0
VERTEX
  8
別途部材
 10
26.095805
 20
-78.34267
  0
VERTEX
  8
別途部材
 10
20.395805
 20
-78.34267
  0
SEQEND
  0
POLYLINE
  8
別途部材
  6
CONTINUOUS
 66
     1
  0
VERTEX
  8
別途部材
 10
28.395808
 20
-71.842667
  0
VERTEX
  8
別途部材
 10
26.095805
 20
-73.342667
  0
VERTEX
  8
別途部材
 10
20.395805
 20
-73.342667
  0
SEQEND
  0
LINE
  8
別途部材
  6
CONTINUOUS
 10
20.395805
 20
-91.842677
 11
20.895808
 21
-91.842677
  0
ARC
  8
別途部材
  6
CONTINUOUS
 10
27.395805
 20
-66.842671
 40
1.0
 50
0.0
 51
90.0
  0
LINE
  8
別途部材
  6
CONTINUOUS
 10
27.395802
 20
-65.842675
 11
21.395802
 21
-65.842675
  0
ARC
  8
別途部材
  6
CONTINUOUS
 10
21.395805
 20
-66.842671
 40
1.0
 50
90.0
 51
180.0
  0
ARC
  8
別途部材
  6
CONTINUOUS
 10
27.395805
 20
-82.842671
 40
1.0
 50
-90.0
 51
0.0
  0
LINE
  8
別途部材
  6
CONTINUOUS
 10
21.395802
 20
-83.842675
 11
27.395802
 21
-83.842675
  0
ARC
  8
別途部材
  6
CONTINUOUS
 10
21.395805
 20
-82.842671
 40
1.0
 50
180.0
 51
270.0
  0
LINE
  8
別途部材
  6
CONTINUOUS
 10
20.395805
 20
-66.842673
 11
20.395805
 21
-91.842677
  0
LINE
  8
別途部材
  6
CONTINUOUS
 10
28.395808
 20
-66.842673
 11
28.395808
 21
-85.842677
  0
ENDBLK
  0
BLOCK
  2
*GRP_0071
 70
    65
 10
0.0
 20
0.0
  0
POLYLINE
  8
ガラス
  6
CONTINUOUS
 66
     1
 70
     4
  0
VERTEX
  8
ガラス
 10
-13.025
 20
58.6
 70
     8
  0
VERTEX
  8
ガラス
 10
-13.0
 20
58.7
 70
     8
  0
VERTEX
  8
ガラス
 10
-12.975
 20
58.775
 70
     8
  0
VERTEX
  8
ガラス
 10
-12.925
 20
58.85
 70
     8
  0
VERTEX
  8
ガラス
 10
-12.9
 20
58.95
 70
     8
  0
VERTEX
  8
ガラス
 10
-12.85
 20
59.025
 70
     8
  0
VERTEX
  8
ガラス
 10
-12.825
 20
59.125
 70
     8
  0
VERTEX
  8
ガラス
 10
-12.775
 20
59.2
 70
     8
  0
VERTEX
  8
ガラス
 10
-12.725
 20
59.275
 70
     8
  0
VERTEX
  8
ガラス
 10
-12.7
 20
59.35
 70
     8
  0
VERTEX
  8
ガラス
 10
-12.65
 20
59.45
 70
     8
  0
VERTEX
  8
ガラス
 10
-12.6
 20
59.525
 70
     8
  0
VERTEX
  8
ガラス
 10
-12.575
 20
59.6
 70
     8
  0
VERTEX
  8
ガラス
 10
-12.525
 20
59.675
 70
     8
  0
VERTEX
  8
ガラス
 10
-12.475
 20
59.75
 70
     8
  0
VERTEX
  8
ガラス
 10
-12.425
 20
59.8
 70
     8
  0
VERTEX
  8
ガラス
 10
-12.375
 20
59.875
 70
     8
  0
VERTEX
  8
ガラス
 10
-12.325
 20
59.95
 70
     8
  0
VERTEX
  8
ガラス
 10
-12.25
 20
60.0
 70
     8
  0
VERTEX
  8
ガラス
 10
-12.2
 20
60.05
 70
     8
  0
VERTEX
  8
ガラス
 10
-12.15
 20
60.125
 70
     8
  0
VERTEX
  8
ガラス
 10
-12.075
 20
60.175
 70
     8
  0
VERTEX
  8
ガラス
 10
-12.0
 20
60.225
 70
     8
  0
VERTEX
  8
ガラス
 10
-11.95
 20
60.25
 70
     8
  0
VERTEX
  8
ガラス
 10
-11.875
 20
60.3
 70
     8
  0
VERTEX
  8
ガラス
 10
-11.8
 20
60.35
 70
     8
  0
VERTEX
  8
ガラス
 10
-11.725
 20
60.375
 70
     8
  0
VERTEX
  8
ガラス
 10
-11.65
 20
60.425
 70
     8
  0
VERTEX
  8
ガラス
 10
-11.55
 20
60.45
 70
     8
  0
VERTEX
  8
ガラス
 10
-11.475
 20
60.475
 70
     8
  0
VERTEX
  8
ガラス
 10
-11.4
 20
60.5
 70
     8
  0
VERTEX
  8
ガラス
 10
-11.3
 20
60.55
 70
     8
  0
VERTEX
  8
ガラス
 10
-11.225
 20
60.575
 70
     8
  0
VERTEX
  8
ガラス
 10
-11.15
 20
60.575
 70
     8
  0
VERTEX
  8
ガラス
 10
-11.05
 20
60.6
 70
     8
  0
VERTEX
  8
ガラス
 10
-10.95
 20
60.625
 70
     8
  0
VERTEX
  8
ガラス
 10
-10.875
 20
60.65
 70
     8
  0
VERTEX
  8
ガラス
 10
-10.775
 20
60.675
 70
     8
  0
VERTEX
  8
ガラス
 10
-10.7
 20
60.7
 70
     8
  0
VERTEX
  8
ガラス
 10
-10.6
 20
60.7
 70
     8
  0
VERTEX
  8
ガラス
 10
-10.5
 20
60.725
 70
     8
  0
SEQEND
  0
POLYLINE
  8
ガラス
  6
CONTINUOUS
 66
     1
 70
     4
  0
VERTEX
  8
ガラス
 10
-10.5
 20
60.725
 70
     8
  0
VERTEX
  8
ガラス
 10
-10.525
 20
60.675
 70
     8
  0
VERTEX
  8
ガラス
 10
-10.55
 20
60.625
 70
     8
  0
VERTEX
  8
ガラス
 10
-10.575
 20
60.55
 70
     8
  0
VERTEX
  8
ガラス
 10
-10.6
 20
60.5
 70
     8
  0
VERTEX
  8
ガラス
 10
-10.625
 20
60.45
 70
     8
  0
VERTEX
  8
ガラス
 10
-10.65
 20
60.4
 70
     8
  0
VERTEX
  8
ガラス
 10
-10.675
 20
60.325
 70
     8
  0
VERTEX
  8
ガラス
 10
-10.7
 20
60.275
 70
     8
  0
VERTEX
  8
ガラス
 10
-10.725
 20
60.225
 70
     8
  0
VERTEX
  8
ガラス
 10
-10.75
 20
60.15
 70
     8
  0
VERTEX
  8
ガラス
 10
-10.775
 20
60.1
 70
     8
  0
VERTEX
  8
ガラス
 10
-10.775
 20
60.05
 70
     8
  0
VERTEX
  8
ガラス
 10
-10.8
 20
60.0
 70
     8
  0
VERTEX
  8
ガラス
 10
-10.825
 20
59.925
 70
     8
  0
VERTEX
  8
ガラス
 10
-10.85
 20
59.875
 70
     8
  0
VERTEX
  8
ガラス
 10
-10.875
 20
59.825
 70
     8
  0
VERTEX
  8
ガラス
 10
-10.875
 20
59.75
 70
     8
  0
VERTEX
  8
ガラス
 10
-10.9
 20
59.7
 70
     8
  0
VERTEX
  8
ガラス
 10
-10.925
 20
59.65
 70
     8
  0
VERTEX
  8
ガラス
 10
-10.925
 20
59.575
 70
     8
  0
VERTEX
  8
ガラス
 10
-10.95
 20
59.525
 70
     8
  0
VERTEX
  8
ガラス
 10
-10.975
 20
59.475
 70
     8
  0
VERTEX
  8
ガラス
 10
-10.975
 20
59.4
 70
     8
  0
VERTEX
  8
ガラス
 10
-11.0
 20
59.35
 70
     8
  0
VERTEX
  8
ガラス
 10
-11.0
 20
59.275
 70
     8
  0
VERTEX
  8
ガラス
 10
-11.025
 20
59.225
 70
     8
  0
VERTEX
  8
ガラス
 10
-11.025
 20
59.175
 70
     8
  0
VERTEX
  8
ガラス
 10
-11.05
 20
59.1
 70
     8
  0
VERTEX
  8
ガラス
 10
-11.05
 20
59.05
 70
     8
  0
VERTEX
  8
ガラス
 10
-11.05
 20
58.975
 70
     8
  0
VERTEX
  8
ガラス
 10
-11.075
 20
58.925
 70
     8
  0
VERTEX
  8
ガラス
 10
-11.075
 20
58.85
 70
     8
  0
VERTEX
  8
ガラス
 10
-11.075
 20
58.8
 70
     8
  0
VERTEX
  8
ガラス
 10
-11.1
 20
58.75
 70
     8
  0
VERTEX
  8
ガラス
 10
-11.1
 20
58.675
 70
     8
  0
VERTEX
  8
ガラス
 10
-11.1
 20
58.625
 70
     8
  0
VERTEX
  8
ガラス
 10
-11.125
 20
58.55
 70
     8
  0
VERTEX
  8
ガラス
 10
-11.125
 20
58.5
 70
     8
  0
VERTEX
  8
ガラス
 10
-11.125
 20
58.425
 70
     8
  0
VERTEX
  8
ガラス
 10
-11.15
 20
58.375
 70
     8
  0
SEQEND
  0
ARC
  8
ガラス
  6
CONTINUOUS
 10
-12.074001
 20
58.500351
 40
0.955135
 50
173.117443
 51
353.117443
  0
ENDBLK
  0
BLOCK
  2
*GRP_0072
 70
    65
 10
0.0
 20
0.0
  0
POLYLINE
  8
ガラス
  6
CONTINUOUS
 66
     1
 70
     4
  0
VERTEX
  8
ガラス
 10
-16.65
 20
52.525
 70
     8
  0
VERTEX
  8
ガラス
 10
-16.625
 20
52.625
 70
     8
  0
VERTEX
  8
ガラス
 10
-16.575
 20
52.7
 70
     8
  0
VERTEX
  8
ガラス
 10
-16.55
 20
52.775
 70
     8
  0
VERTEX
  8
ガラス
 10
-16.5
 20
52.875
 70
     8
  0
VERTEX
  8
ガラス
 10
-16.475
 20
52.95
 70
     8
  0
VERTEX
  8
ガラス
 10
-16.425
 20
53.05
 70
     8
  0
VERTEX
  8
ガラス
 10
-16.4
 20
53.125
 70
     8
  0
VERTEX
  8
ガラス
 10
-16.35
 20
53.2
 70
     8
  0
VERTEX
  8
ガラス
 10
-16.325
 20
53.275
 70
     8
  0
VERTEX
  8
ガラス
 10
-16.275
 20
53.375
 70
     8
  0
VERTEX
  8
ガラス
 10
-16.225
 20
53.45
 70
     8
  0
VERTEX
  8
ガラス
 10
-16.175
 20
53.525
 70
     8
  0
VERTEX
  8
ガラス
 10
-16.15
 20
53.6
 70
     8
  0
VERTEX
  8
ガラス
 10
-16.1
 20
53.675
 70
     8
  0
VERTEX
  8
ガラス
 10
-16.05
 20
53.725
 70
     8
  0
VERTEX
  8
ガラス
 10
-16.0
 20
53.8
 70
     8
  0
VERTEX
  8
ガラス
 10
-15.925
 20
53.875
 70
     8
  0
VERTEX
  8
ガラス
 10
-15.875
 20
53.925
 70
     8
  0
VERTEX
  8
ガラス
 10
-15.825
 20
53.975
 70
     8
  0
VERTEX
  8
ガラス
 10
-15.75
 20
54.05
 70
     8
  0
VERTEX
  8
ガラス
 10
-15.7
 20
54.1
 70
     8
  0
VERTEX
  8
ガラス
 10
-15.625
 20
54.15
 70
     8
  0
VERTEX
  8
ガラス
 10
-15.55
 20
54.2
 70
     8
  0
VERTEX
  8
ガラス
 10
-15.5
 20
54.225
 70
     8
  0
VERTEX
  8
ガラス
 10
-15.425
 20
54.275
 70
     8
  0
VERTEX
  8
ガラス
 10
-15.35
 20
54.3
 70
     8
  0
VERTEX
  8
ガラス
 10
-15.25
 20
54.35
 70
     8
  0
VERTEX
  8
ガラス
 10
-15.175
 20
54.375
 70
     8
  0
VERTEX
  8
ガラス
 10
-15.1
 20
54.4
 70
     8
  0
VERTEX
  8
ガラス
 10
-15.025
 20
54.425
 70
     8
  0
VERTEX
  8
ガラス
 10
-14.925
 20
54.475
 70
     8
  0
VERTEX
  8
ガラス
 10
-14.85
 20
54.5
 70
     8
  0
VERTEX
  8
ガラス
 10
-14.75
 20
54.525
 70
     8
  0
VERTEX
  8
ガラス
 10
-14.675
 20
54.525
 70
     8
  0
VERTEX
  8
ガラス
 10
-14.575
 20
54.55
 70
     8
  0
VERTEX
  8
ガラス
 10
-14.5
 20
54.575
 70
     8
  0
VERTEX
  8
ガラス
 10
-14.4
 20
54.6
 70
     8
  0
VERTEX
  8
ガラス
 10
-14.325
 20
54.625
 70
     8
  0
VERTEX
  8
ガラス
 10
-14.225
 20
54.65
 70
     8
  0
VERTEX
  8
ガラス
 10
-14.125
 20
54.65
 70
     8
  0
SEQEND
  0
POLYLINE
  8
ガラス
  6
CONTINUOUS
 66
     1
 70
     4
  0
VERTEX
  8
ガラス
 10
-14.125
 20
54.65
 70
     8
  0
VERTEX
  8
ガラス
 10
-14.15
 20
54.6
 70
     8
  0
VERTEX
  8
ガラス
 10
-14.175
 20
54.55
 70
     8
  0
VERTEX
  8
ガラス
 10
-14.2
 20
54.5
 70
     8
  0
VERTEX
  8
ガラス
 10
-14.225
 20
54.425
 70
     8
  0
VERTEX
  8
ガラス
 10
-14.25
 20
54.375
 70
     8
  0
VERTEX
  8
ガラス
 10
-14.275
 20
54.325
 70
     8
  0
VERTEX
  8
ガラス
 10
-14.3
 20
54.25
 70
     8
  0
VERTEX
  8
ガラス
 10
-14.325
 20
54.2
 70
     8
  0
VERTEX
  8
ガラス
 10
-14.35
 20
54.15
 70
     8
  0
VERTEX
  8
ガラス
 10
-14.375
 20
54.1
 70
     8
  0
VERTEX
  8
ガラス
 10
-14.375
 20
54.025
 70
     8
  0
VERTEX
  8
ガラス
 10
-14.4
 20
53.975
 70
     8
  0
VERTEX
  8
ガラス
 10
-14.425
 20
53.925
 70
     8
  0
VERTEX
  8
ガラス
 10
-14.45
 20
53.85
 70
     8
  0
VERTEX
  8
ガラス
 10
-14.475
 20
53.8
 70
     8
  0
VERTEX
  8
ガラス
 10
-14.5
 20
53.75
 70
     8
  0
VERTEX
  8
ガラス
 10
-14.5
 20
53.675
 70
     8
  0
VERTEX
  8
ガラス
 10
-14.525
 20
53.625
 70
     8
  0
VERTEX
  8
ガラス
 10
-14.55
 20
53.575
 70
     8
  0
VERTEX
  8
ガラス
 10
-14.55
 20
53.5
 70
     8
  0
VERTEX
  8
ガラス
 10
-14.575
 20
53.45
 70
     8
  0
VERTEX
  8
ガラス
 10
-14.6
 20
53.4
 70
     8
  0
VERTEX
  8
ガラス
 10
-14.6
 20
53.325
 70
     8
  0
VERTEX
  8
ガラス
 10
-14.625
 20
53.275
 70
     8
  0
VERTEX
  8
ガラス
 10
-14.625
 20
53.2
 70
     8
  0
VERTEX
  8
ガラス
 10
-14.65
 20
53.15
 70
     8
  0
VERTEX
  8
ガラス
 10
-14.65
 20
53.1
 70
     8
  0
VERTEX
  8
ガラス
 10
-14.675
 20
53.025
 70
     8
  0
VERTEX
  8
ガラス
 10
-14.675
 20
52.975
 70
     8
  0
VERTEX
  8
ガラス
 10
-14.675
 20
52.9
 70
     8
  0
VERTEX
  8
ガラス
 10
-14.7
 20
52.85
 70
     8
  0
VERTEX
  8
ガラス
 10
-14.7
 20
52.8
 70
     8
  0
VERTEX
  8
ガラス
 10
-14.7
 20
52.725
 70
     8
  0
VERTEX
  8
ガラス
 10
-14.725
 20
52.675
 70
     8
  0
VERTEX
  8
ガラス
 10
-14.725
 20
52.6
 70
     8
  0
VERTEX
  8
ガラス
 10
-14.725
 20
52.55
 70
     8
  0
VERTEX
  8
ガラス
 10
-14.75
 20
52.475
 70
     8
  0
VERTEX
  8
ガラス
 10
-14.75
 20
52.425
 70
     8
  0
VERTEX
  8
ガラス
 10
-14.75
 20
52.35
 70
     8
  0
VERTEX
  8
ガラス
 10
-14.75
 20
52.3
 70
     8
  0
SEQEND
  0
ARC
  8
ガラス
  6
CONTINUOUS
 10
-15.695889
 20
52.426723
 40
0.955135
 50
173.117443
 51
353.117443
  0
ENDBLK
  0
BLOCK
  2
*GRP_0073
 70
    65
 10
0.0
 20
0.0
  0
POLYLINE
  8
ガラス
  6
CONTINUOUS
 66
     1
 70
     4
  0
VERTEX
  8
ガラス
 10
-24.175
 20
46.9
 70
     8
  0
VERTEX
  8
ガラス
 10
-24.15
 20
46.975
 70
     8
  0
VERTEX
  8
ガラス
 10
-24.1
 20
47.075
 70
     8
  0
VERTEX
  8
ガラス
 10
-24.075
 20
47.15
 70
     8
  0
VERTEX
  8
ガラス
 10
-24.025
 20
47.225
 70
     8
  0
VERTEX
  8
ガラス
 10
-24.0
 20
47.325
 70
     8
  0
VERTEX
  8
ガラス
 10
-23.95
 20
47.4
 70
     8
  0
VERTEX
  8
ガラス
 10
-23.925
 20
47.475
 70
     8
  0
VERTEX
  8
ガラス
 10
-23.875
 20
47.575
 70
     8
  0
VERTEX
  8
ガラス
 10
-23.85
 20
47.65
 70
     8
  0
VERTEX
  8
ガラス
 10
-23.8
 20
47.725
 70
     8
  0
VERTEX
  8
ガラス
 10
-23.75
 20
47.8
 70
     8
  0
VERTEX
  8
ガラス
 10
-23.7
 20
47.875
 70
     8
  0
VERTEX
  8
ガラス
 10
-23.675
 20
47.95
 70
     8
  0
VERTEX
  8
ガラス
 10
-23.625
 20
48.025
 70
     8
  0
VERTEX
  8
ガラス
 10
-23.575
 20
48.1
 70
     8
  0
VERTEX
  8
ガラス
 10
-23.525
 20
48.175
 70
     8
  0
VERTEX
  8
ガラス
 10
-23.45
 20
48.225
 70
     8
  0
VERTEX
  8
ガラス
 10
-23.4
 20
48.3
 70
     8
  0
VERTEX
  8
ガラス
 10
-23.35
 20
48.35
 70
     8
  0
VERTEX
  8
ガラス
 10
-23.275
 20
48.4
 70
     8
  0
VERTEX
  8
ガラス
 10
-23.225
 20
48.45
 70
     8
  0
VERTEX
  8
ガラス
 10
-23.15
 20
48.5
 70
     8
  0
VERTEX
  8
ガラス
 10
-23.075
 20
48.55
 70
     8
  0
VERTEX
  8
ガラス
 10
-23.025
 20
48.6
 70
     8
  0
VERTEX
  8
ガラス
 10
-22.95
 20
48.625
 70
     8
  0
VERTEX
  8
ガラス
 10
-22.875
 20
48.675
 70
     8
  0
VERTEX
  8
ガラス
 10
-22.775
 20
48.7
 70
     8
  0
VERTEX
  8
ガラス
 10
-22.7
 20
48.75
 70
     8
  0
VERTEX
  8
ガラス
 10
-22.625
 20
48.775
 70
     8
  0
VERTEX
  8
ガラス
 10
-22.55
 20
48.8
 70
     8
  0
VERTEX
  8
ガラス
 10
-22.45
 20
48.825
 70
     8
  0
VERTEX
  8
ガラス
 10
-22.375
 20
48.85
 70
     8
  0
VERTEX
  8
ガラス
 10
-22.275
 20
48.875
 70
     8
  0
VERTEX
  8
ガラス
 10
-22.2
 20
48.9
 70
     8
  0
VERTEX
  8
ガラス
 10
-22.1
 20
48.925
 70
     8
  0
VERTEX
  8
ガラス
 10
-22.025
 20
48.95
 70
     8
  0
VERTEX
  8
ガラス
 10
-21.925
 20
48.95
 70
     8
  0
VERTEX
  8
ガラス
 10
-21.825
 20
48.975
 70
     8
  0
VERTEX
  8
ガラス
 10
-21.75
 20
49.0
 70
     8
  0
VERTEX
  8
ガラス
 10
-21.65
 20
49.025
 70
     8
  0
SEQEND
  0
POLYLINE
  8
ガラス
  6
CONTINUOUS
 66
     1
 70
     4
  0
VERTEX
  8
ガラス
 10
-21.65
 20
49.025
 70
     8
  0
VERTEX
  8
ガラス
 10
-21.675
 20
48.975
 70
     8
  0
VERTEX
  8
ガラス
 10
-21.7
 20
48.9
 70
     8
  0
VERTEX
  8
ガラス
 10
-21.725
 20
48.85
 70
     8
  0
VERTEX
  8
ガラス
 10
-21.75
 20
48.8
 70
     8
  0
VERTEX
  8
ガラス
 10
-21.775
 20
48.725
 70
     8
  0
VERTEX
  8
ガラス
 10
-21.8
 20
48.675
 70
     8
  0
VERTEX
  8
ガラス
 10
-21.825
 20
48.625
 70
     8
  0
VERTEX
  8
ガラス
 10
-21.85
 20
48.575
 70
     8
  0
VERTEX
  8
ガラス
 10
-21.875
 20
48.5
 70
     8
  0
VERTEX
  8
ガラス
 10
-21.9
 20
48.45
 70
     8
  0
VERTEX
  8
ガラス
 10
-21.9
 20
48.4
 70
     8
  0
VERTEX
  8
ガラス
 10
-21.925
 20
48.325
 70
     8
  0
VERTEX
  8
ガラス
 10
-21.95
 20
48.275
 70
     8
  0
VERTEX
  8
ガラス
 10
-21.975
 20
48.225
 70
     8
  0
VERTEX
  8
ガラス
 10
-22.0
 20
48.175
 70
     8
  0
VERTEX
  8
ガラス
 10
-22.0
 20
48.1
 70
     8
  0
VERTEX
  8
ガラス
 10
-22.025
 20
48.05
 70
     8
  0
VERTEX
  8
ガラス
 10
-22.05
 20
48.0
 70
     8
  0
VERTEX
  8
ガラス
 10
-22.075
 20
47.925
 70
     8
  0
VERTEX
  8
ガラス
 10
-22.075
 20
47.875
 70
     8
  0
VERTEX
  8
ガラス
 10
-22.1
 20
47.8
 70
     8
  0
VERTEX
  8
ガラス
 10
-22.125
 20
47.75
 70
     8
  0
VERTEX
  8
ガラス
 10
-22.125
 20
47.7
 70
     8
  0
VERTEX
  8
ガラス
 10
-22.15
 20
47.625
 70
     8
  0
VERTEX
  8
ガラス
 10
-22.15
 20
47.575
 70
     8
  0
VERTEX
  8
ガラス
 10
-22.175
 20
47.525
 70
     8
  0
VERTEX
  8
ガラス
 10
-22.175
 20
47.45
 70
     8
  0
VERTEX
  8
ガラス
 10
-22.175
 20
47.4
 70
     8
  0
VERTEX
  8
ガラス
 10
-22.2
 20
47.325
 70
     8
  0
VERTEX
  8
ガラス
 10
-22.2
 20
47.275
 70
     8
  0
VERTEX
  8
ガラス
 10
-22.225
 20
47.2
 70
     8
  0
VERTEX
  8
ガラス
 10
-22.225
 20
47.15
 70
     8
  0
VERTEX
  8
ガラス
 10
-22.225
 20
47.1
 70
     8
  0
VERTEX
  8
ガラス
 10
-22.25
 20
47.025
 70
     8
  0
VERTEX
  8
ガラス
 10
-22.25
 20
46.975
 70
     8
  0
VERTEX
  8
ガラス
 10
-22.25
 20
46.9
 70
     8
  0
VERTEX
  8
ガラス
 10
-22.25
 20
46.85
 70
     8
  0
VERTEX
  8
ガラス
 10
-22.275
 20
46.775
 70
     8
  0
VERTEX
  8
ガラス
 10
-22.275
 20
46.725
 70
     8
  0
VERTEX
  8
ガラス
 10
-22.275
 20
46.65
 70
     8
  0
SEQEND
  0
ARC
  8
ガラス
  6
CONTINUOUS
 10
-23.218811
 20
46.789201
 40
0.955135
 50
173.117443
 51
353.117443
  0
ENDBLK
  0
BLOCK
  2
*GRP_0074
 70
    65
 10
0.0
 20
0.0
  0
POLYLINE
  8
ガラス
  6
CONTINUOUS
 66
     1
 70
     4
  0
VERTEX
  8
ガラス
 10
-28.575
 20
40.8
 70
     8
  0
VERTEX
  8
ガラス
 10
-28.475
 20
40.825
 70
     8
  0
VERTEX
  8
ガラス
 10
-28.375
 20
40.825
 70
     8
  0
VERTEX
  8
ガラス
 10
-28.3
 20
40.825
 70
     8
  0
VERTEX
  8
ガラス
 10
-28.2
 20
40.85
 70
     8
  0
VERTEX
  8
ガラス
 10
-28.1
 20
40.85
 70
     8
  0
VERTEX
  8
ガラス
 10
-28.025
 20
40.85
 70
     8
  0
VERTEX
  8
ガラス
 10
-27.925
 20
40.875
 70
     8
  0
VERTEX
  8
ガラス
 10
-27.825
 20
40.875
 70
     8
  0
VERTEX
  8
ガラス
 10
-27.75
 20
40.875
 70
     8
  0
VERTEX
  8
ガラス
 10
-27.65
 20
40.875
 70
     8
  0
VERTEX
  8
ガラス
 10
-27.575
 20
40.875
 70
     8
  0
VERTEX
  8
ガラス
 10
-27.475
 20
40.875
 70
     8
  0
VERTEX
  8
ガラス
 10
-27.4
 20
40.875
 70
     8
  0
VERTEX
  8
ガラス
 10
-27.3
 20
40.875
 70
     8
  0
VERTEX
  8
ガラス
 10
-27.225
 20
40.85
 70
     8
  0
VERTEX
  8
ガラス
 10
-27.125
 20
40.85
 70
     8
  0
VERTEX
  8
ガラス
 10
-27.05
 20
40.825
 70
     8
  0
VERTEX
  8
ガラス
 10
-26.975
 20
40.8
 70
     8
  0
VERTEX
  8
ガラス
 10
-26.9
 20
40.775
 70
     8
  0
VERTEX
  8
ガラス
 10
-26.825
 20
40.75
 70
     8
  0
VERTEX
  8
ガラス
 10
-26.725
 20
40.725
 70
     8
  0
VERTEX
  8
ガラス
 10
-26.65
 20
40.7
 70
     8
  0
VERTEX
  8
ガラス
 10
-26.575
 20
40.65
 70
     8
  0
VERTEX
  8
ガラス
 10
-26.525
 20
40.625
 70
     8
  0
VERTEX
  8
ガラス
 10
-26.45
 20
40.575
 70
     8
  0
VERTEX
  8
ガラス
 10
-26.375
 20
40.525
 70
     8
  0
VERTEX
  8
ガラス
 10
-26.3
 20
40.475
 70
     8
  0
VERTEX
  8
ガラス
 10
-26.25
 20
40.425
 70
     8
  0
VERTEX
  8
ガラス
 10
-26.175
 20
40.35
 70
     8
  0
VERTEX
  8
ガラス
 10
-26.1
 20
40.3
 70
     8
  0
VERTEX
  8
ガラス
 10
-26.05
 20
40.25
 70
     8
  0
VERTEX
  8
ガラス
 10
-25.975
 20
40.175
 70
     8
  0
VERTEX
  8
ガラス
 10
-25.925
 20
40.125
 70
     8
  0
VERTEX
  8
ガラス
 10
-25.85
 20
40.05
 70
     8
  0
VERTEX
  8
ガラス
 10
-25.8
 20
39.975
 70
     8
  0
VERTEX
  8
ガラス
 10
-25.725
 20
39.925
 70
     8
  0
VERTEX
  8
ガラス
 10
-25.675
 20
39.85
 70
     8
  0
VERTEX
  8
ガラス
 10
-25.6
 20
39.775
 70
     8
  0
VERTEX
  8
ガラス
 10
-25.55
 20
39.7
 70
     8
  0
VERTEX
  8
ガラス
 10
-25.475
 20
39.625
 70
     8
  0
SEQEND
  0
POLYLINE
  8
ガラス
  6
CONTINUOUS
 66
     1
 70
     4
  0
VERTEX
  8
ガラス
 10
-25.475
 20
39.625
 70
     8
  0
VERTEX
  8
ガラス
 10
-25.55
 20
39.625
 70
     8
  0
VERTEX
  8
ガラス
 10
-25.6
 20
39.625
 70
     8
  0
VERTEX
  8
ガラス
 10
-25.675
 20
39.625
 70
     8
  0
VERTEX
  8
ガラス
 10
-25.725
 20
39.6
 70
     8
  0
VERTEX
  8
ガラス
 10
-25.775
 20
39.6
 70
     8
  0
VERTEX
  8
ガラス
 10
-25.85
 20
39.6
 70
     8
  0
VERTEX
  8
ガラス
 10
-25.9
 20
39.575
 70
     8
  0
VERTEX
  8
ガラス
 10
-25.975
 20
39.575
 70
     8
  0
VERTEX
  8
ガラス
 10
-26.025
 20
39.575
 70
     8
  0
VERTEX
  8
ガラス
 10
-26.1
 20
39.55
 70
     8
  0
VERTEX
  8
ガラス
 10
-26.15
 20
39.55
 70
     8
  0
VERTEX
  8
ガラス
 10
-26.225
 20
39.55
 70
     8
  0
VERTEX
  8
ガラス
 10
-26.275
 20
39.525
 70
     8
  0
VERTEX
  8
ガラス
 10
-26.325
 20
39.525
 70
     8
  0
VERTEX
  8
ガラス
 10
-26.4
 20
39.525
 70
     8
  0
VERTEX
  8
ガラス
 10
-26.45
 20
39.5
 70
     8
  0
VERTEX
  8
ガラス
 10
-26.525
 20
39.5
 70
     8
  0
VERTEX
  8
ガラス
 10
-26.575
 20
39.475
 70
     8
  0
VERTEX
  8
ガラス
 10
-26.625
 20
39.475
 70
     8
  0
VERTEX
  8
ガラス
 10
-26.7
 20
39.45
 70
     8
  0
VERTEX
  8
ガラス
 10
-26.75
 20
39.425
 70
     8
  0
VERTEX
  8
ガラス
 10
-26.8
 20
39.425
 70
     8
  0
VERTEX
  8
ガラス
 10
-26.875
 20
39.4
 70
     8
  0
VERTEX
  8
ガラス
 10
-26.925
 20
39.375
 70
     8
  0
VERTEX
  8
ガラス
 10
-26.975
 20
39.375
 70
     8
  0
VERTEX
  8
ガラス
 10
-27.05
 20
39.35
 70
     8
  0
VERTEX
  8
ガラス
 10
-27.1
 20
39.325
 70
     8
  0
VERTEX
  8
ガラス
 10
-27.15
 20
39.3
 70
     8
  0
VERTEX
  8
ガラス
 10
-27.225
 20
39.275
 70
     8
  0
VERTEX
  8
ガラス
 10
-27.275
 20
39.275
 70
     8
  0
VERTEX
  8
ガラス
 10
-27.325
 20
39.25
 70
     8
  0
VERTEX
  8
ガラス
 10
-27.4
 20
39.225
 70
     8
  0
VERTEX
  8
ガラス
 10
-27.45
 20
39.2
 70
     8
  0
VERTEX
  8
ガラス
 10
-27.5
 20
39.175
 70
     8
  0
VERTEX
  8
ガラス
 10
-27.55
 20
39.15
 70
     8
  0
VERTEX
  8
ガラス
 10
-27.625
 20
39.125
 70
     8
  0
VERTEX
  8
ガラス
 10
-27.675
 20
39.1
 70
     8
  0
VERTEX
  8
ガラス
 10
-27.725
 20
39.075
 70
     8
  0
VERTEX
  8
ガラス
 10
-27.8
 20
39.05
 70
     8
  0
VERTEX
  8
ガラス
 10
-27.85
 20
39.025
 70
     8
  0
SEQEND
  0
ARC
  8
ガラス
  6
CONTINUOUS
 10
-28.195881
 20
39.933014
 40
0.955135
 50
112.264588
 51
292.264588
  0
ENDBLK
  0
BLOCK
  2
*GRP_0075
 70
    65
 10
0.0
 20
0.0
  0
POLYLINE
  8
ガラス
  6
CONTINUOUS
 66
     1
 70
     4
  0
VERTEX
  8
ガラス
 10
-40.05
 20
40.8
 70
     8
  0
VERTEX
  8
ガラス
 10
-39.95
 20
40.825
 70
     8
  0
VERTEX
  8
ガラス
 10
-39.875
 20
40.825
 70
     8
  0
VERTEX
  8
ガラス
 10
-39.775
 20
40.825
 70
     8
  0
VERTEX
  8
ガラス
 10
-39.675
 20
40.85
 70
     8
  0
VERTEX
  8
ガラス
 10
-39.575
 20
40.85
 70
     8
  0
VERTEX
  8
ガラス
 10
-39.5
 20
40.85
 70
     8
  0
VERTEX
  8
ガラス
 10
-39.4
 20
40.875
 70
     8
  0
VERTEX
  8
ガラス
 10
-39.3
 20
40.875
 70
     8
  0
VERTEX
  8
ガラス
 10
-39.225
 20
40.875
 70
     8
  0
VERTEX
  8
ガラス
 10
-39.125
 20
40.875
 70
     8
  0
VERTEX
  8
ガラス
 10
-39.05
 20
40.875
 70
     8
  0
VERTEX
  8
ガラス
 10
-38.95
 20
40.875
 70
     8
  0
VERTEX
  8
ガラス
 10
-38.875
 20
40.875
 70
     8
  0
VERTEX
  8
ガラス
 10
-38.775
 20
40.875
 70
     8
  0
VERTEX
  8
ガラス
 10
-38.7
 20
40.85
 70
     8
  0
VERTEX
  8
ガラス
 10
-38.625
 20
40.85
 70
     8
  0
VERTEX
  8
ガラス
 10
-38.525
 20
40.825
 70
     8
  0
VERTEX
  8
ガラス
 10
-38.45
 20
40.8
 70
     8
  0
VERTEX
  8
ガラス
 10
-38.375
 20
40.775
 70
     8
  0
VERTEX
  8
ガラス
 10
-38.3
 20
40.75
 70
     8
  0
VERTEX
  8
ガラス
 10
-38.225
 20
40.725
 70
     8
  0
VERTEX
  8
ガラス
 10
-38.15
 20
40.7
 70
     8
  0
VERTEX
  8
ガラス
 10
-38.075
 20
40.65
 70
     8
  0
VERTEX
  8
ガラス
 10
-38.0
 20
40.625
 70
     8
  0
VERTEX
  8
ガラス
 10
-37.925
 20
40.575
 70
     8
  0
VERTEX
  8
ガラス
 10
-37.85
 20
40.525
 70
     8
  0
VERTEX
  8
ガラス
 10
-37.775
 20
40.475
 70
     8
  0
VERTEX
  8
ガラス
 10
-37.725
 20
40.425
 70
     8
  0
VERTEX
  8
ガラス
 10
-37.65
 20
40.35
 70
     8
  0
VERTEX
  8
ガラス
 10
-37.575
 20
40.3
 70
     8
  0
VERTEX
  8
ガラス
 10
-37.525
 20
40.25
 70
     8
  0
VERTEX
  8
ガラス
 10
-37.45
 20
40.175
 70
     8
  0
VERTEX
  8
ガラス
 10
-37.4
 20
40.125
 70
     8
  0
VERTEX
  8
ガラス
 10
-37.325
 20
40.05
 70
     8
  0
VERTEX
  8
ガラス
 10
-37.275
 20
39.975
 70
     8
  0
VERTEX
  8
ガラス
 10
-37.2
 20
39.925
 70
     8
  0
VERTEX
  8
ガラス
 10
-37.15
 20
39.85
 70
     8
  0
VERTEX
  8
ガラス
 10
-37.075
 20
39.775
 70
     8
  0
VERTEX
  8
ガラス
 10
-37.025
 20
39.7
 70
     8
  0
VERTEX
  8
ガラス
 10
-36.95
 20
39.625
 70
     8
  0
SEQEND
  0
POLYLINE
  8
ガラス
  6
CONTINUOUS
 66
     1
 70
     4
  0
VERTEX
  8
ガラス
 10
-36.95
 20
39.625
 70
     8
  0
VERTEX
  8
ガラス
 10
-37.025
 20
39.625
 70
     8
  0
VERTEX
  8
ガラス
 10
-37.075
 20
39.625
 70
     8
  0
VERTEX
  8
ガラス
 10
-37.15
 20
39.625
 70
     8
  0
VERTEX
  8
ガラス
 10
-37.2
 20
39.6
 70
     8
  0
VERTEX
  8
ガラス
 10
-37.275
 20
39.6
 70
     8
  0
VERTEX
  8
ガラス
 10
-37.325
 20
39.6
 70
     8
  0
VERTEX
  8
ガラス
 10
-37.4
 20
39.575
 70
     8
  0
VERTEX
  8
ガラス
 10
-37.45
 20
39.575
 70
     8
  0
VERTEX
  8
ガラス
 10
-37.5
 20
39.575
 70
     8
  0
VERTEX
  8
ガラス
 10
-37.575
 20
39.55
 70
     8
  0
VERTEX
  8
ガラス
 10
-37.625
 20
39.55
 70
     8
  0
VERTEX
  8
ガラス
 10
-37.7
 20
39.55
 70
     8
  0
VERTEX
  8
ガラス
 10
-37.75
 20
39.525
 70
     8
  0
VERTEX
  8
ガラス
 10
-37.825
 20
39.525
 70
     8
  0
VERTEX
  8
ガラス
 10
-37.875
 20
39.525
 70
     8
  0
VERTEX
  8
ガラス
 10
-37.925
 20
39.5
 70
     8
  0
VERTEX
  8
ガラス
 10
-38.0
 20
39.5
 70
     8
  0
VERTEX
  8
ガラス
 10
-38.05
 20
39.475
 70
     8
  0
VERTEX
  8
ガラス
 10
-38.1
 20
39.475
 70
     8
  0
VERTEX
  8
ガラス
 10
-38.175
 20
39.45
 70
     8
  0
VERTEX
  8
ガラス
 10
-38.225
 20
39.425
 70
     8
  0
VERTEX
  8
ガラス
 10
-38.3
 20
39.425
 70
     8
  0
VERTEX
  8
ガラス
 10
-38.35
 20
39.4
 70
     8
  0
VERTEX
  8
ガラス
 10
-38.4
 20
39.375
 70
     8
  0
VERTEX
  8
ガラス
 10
-38.475
 20
39.375
 70
     8
  0
VERTEX
  8
ガラス
 10
-38.525
 20
39.35
 70
     8
  0
VERTEX
  8
ガラス
 10
-38.575
 20
39.325
 70
     8
  0
VERTEX
  8
ガラス
 10
-38.65
 20
39.3
 70
     8
  0
VERTEX
  8
ガラス
 10
-38.7
 20
39.275
 70
     8
  0
VERTEX
  8
ガラス
 10
-38.75
 20
39.275
 70
     8
  0
VERTEX
  8
ガラス
 10
-38.8
 20
39.25
 70
     8
  0
VERTEX
  8
ガラス
 10
-38.875
 20
39.225
 70
     8
  0
VERTEX
  8
ガラス
 10
-38.925
 20
39.2
 70
     8
  0
VERTEX
  8
ガラス
 10
-38.975
 20
39.175
 70
     8
  0
VERTEX
  8
ガラス
 10
-39.05
 20
39.15
 70
     8
  0
VERTEX
  8
ガラス
 10
-39.1
 20
39.125
 70
     8
  0
VERTEX
  8
ガラス
 10
-39.15
 20
39.1
 70
     8
  0
VERTEX
  8
ガラス
 10
-39.2
 20
39.075
 70
     8
  0
VERTEX
  8
ガラス
 10
-39.275
 20
39.05
 70
     8
  0
VERTEX
  8
ガラス
 10
-39.325
 20
39.025
 70
     8
  0
SEQEND
  0
ARC
  8
ガラス
  6
CONTINUOUS
 10
-39.67448
 20
39.933014
 40
0.955135
 50
112.264588
 51
292.264588
  0
ENDBLK
  0
BLOCK
  2
*GRP_0076
 70
    65
 10
0.0
 20
0.0
  0
POLYLINE
  8
ガラス
  6
CONTINUOUS
 66
     1
 70
     4
  0
VERTEX
  8
ガラス
 10
-50.925
 20
36.525
 70
     8
  0
VERTEX
  8
ガラス
 10
-50.9
 20
36.6
 70
     8
  0
VERTEX
  8
ガラス
 10
-50.85
 20
36.7
 70
     8
  0
VERTEX
  8
ガラス
 10
-50.825
 20
36.775
 70
     8
  0
VERTEX
  8
ガラス
 10
-50.775
 20
36.875
 70
     8
  0
VERTEX
  8
ガラス
 10
-50.75
 20
36.95
 70
     8
  0
VERTEX
  8
ガラス
 10
-50.7
 20
37.025
 70
     8
  0
VERTEX
  8
ガラス
 10
-50.675
 20
37.125
 70
     8
  0
VERTEX
  8
ガラス
 10
-50.625
 20
37.2
 70
     8
  0
VERTEX
  8
ガラス
 10
-50.575
 20
37.275
 70
     8
  0
VERTEX
  8
ガラス
 10
-50.55
 20
37.35
 70
     8
  0
VERTEX
  8
ガラス
 10
-50.5
 20
37.45
 70
     8
  0
VERTEX
  8
ガラス
 10
-50.45
 20
37.525
 70
     8
  0
VERTEX
  8
ガラス
 10
-50.4
 20
37.575
 70
     8
  0
VERTEX
  8
ガラス
 10
-50.35
 20
37.65
 70
     8
  0
VERTEX
  8
ガラス
 10
-50.3
 20
37.725
 70
     8
  0
VERTEX
  8
ガラス
 10
-50.25
 20
37.8
 70
     8
  0
VERTEX
  8
ガラス
 10
-50.2
 20
37.85
 70
     8
  0
VERTEX
  8
ガラス
 10
-50.15
 20
37.925
 70
     8
  0
VERTEX
  8
ガラス
 10
-50.1
 20
37.975
 70
     8
  0
VERTEX
  8
ガラス
 10
-50.025
 20
38.025
 70
     8
  0
VERTEX
  8
ガラス
 10
-49.975
 20
38.1
 70
     8
  0
VERTEX
  8
ガラス
 10
-49.9
 20
38.125
 70
     8
  0
VERTEX
  8
ガラス
 10
-49.825
 20
38.175
 70
     8
  0
VERTEX
  8
ガラス
 10
-49.75
 20
38.225
 70
     8
  0
VERTEX
  8
ガラス
 10
-49.675
 20
38.275
 70
     8
  0
VERTEX
  8
ガラス
 10
-49.6
 20
38.3
 70
     8
  0
VERTEX
  8
ガラス
 10
-49.525
 20
38.35
 70
     8
  0
VERTEX
  8
ガラス
 10
-49.45
 20
38.375
 70
     8
  0
VERTEX
  8
ガラス
 10
-49.375
 20
38.4
 70
     8
  0
VERTEX
  8
ガラス
 10
-49.275
 20
38.425
 70
     8
  0
VERTEX
  8
ガラス
 10
-49.2
 20
38.45
 70
     8
  0
VERTEX
  8
ガラス
 10
-49.125
 20
38.475
 70
     8
  0
VERTEX
  8
ガラス
 10
-49.025
 20
38.5
 70
     8
  0
VERTEX
  8
ガラス
 10
-48.95
 20
38.525
 70
     8
  0
VERTEX
  8
ガラス
 10
-48.85
 20
38.55
 70
     8
  0
VERTEX
  8
ガラス
 10
-48.775
 20
38.575
 70
     8
  0
VERTEX
  8
ガラス
 10
-48.675
 20
38.6
 70
     8
  0
VERTEX
  8
ガラス
 10
-48.575
 20
38.625
 70
     8
  0
VERTEX
  8
ガラス
 10
-48.5
 20
38.625
 70
     8
  0
VERTEX
  8
ガラス
 10
-48.4
 20
38.65
 70
     8
  0
SEQEND
  0
POLYLINE
  8
ガラス
  6
CONTINUOUS
 66
     1
 70
     4
  0
VERTEX
  8
ガラス
 10
-48.4
 20
38.65
 70
     8
  0
VERTEX
  8
ガラス
 10
-48.425
 20
38.6
 70
     8
  0
VERTEX
  8
ガラス
 10
-48.45
 20
38.55
 70
     8
  0
VERTEX
  8
ガラス
 10
-48.475
 20
38.475
 70
     8
  0
VERTEX
  8
ガラス
 10
-48.5
 20
38.425
 70
     8
  0
VERTEX
  8
ガラス
 10
-48.525
 20
38.375
 70
     8
  0
VERTEX
  8
ガラス
 10
-48.55
 20
38.3
 70
     8
  0
VERTEX
  8
ガラス
 10
-48.575
 20
38.25
 70
     8
  0
VERTEX
  8
ガラス
 10
-48.6
 20
38.2
 70
     8
  0
VERTEX
  8
ガラス
 10
-48.6
 20
38.15
 70
     8
  0
VERTEX
  8
ガラス
 10
-48.625
 20
38.075
 70
     8
  0
VERTEX
  8
ガラス
 10
-48.65
 20
38.025
 70
     8
  0
VERTEX
  8
ガラス
 10
-48.675
 20
37.975
 70
     8
  0
VERTEX
  8
ガラス
 10
-48.7
 20
37.9
 70
     8
  0
VERTEX
  8
ガラス
 10
-48.725
 20
37.85
 70
     8
  0
VERTEX
  8
ガラス
 10
-48.75
 20
37.8
 70
     8
  0
VERTEX
  8
ガラス
 10
-48.75
 20
37.725
 70
     8
  0
VERTEX
  8
ガラス
 10
-48.775
 20
37.675
 70
     8
  0
VERTEX
  8
ガラス
 10
-48.8
 20
37.625
 70
     8
  0
VERTEX
  8
ガラス
 10
-48.8
 20
37.55
 70
     8
  0
VERTEX
  8
ガラス
 10
-48.825
 20
37.5
 70
     8
  0
VERTEX
  8
ガラス
 10
-48.85
 20
37.45
 70
     8
  0
VERTEX
  8
ガラス
 10
-48.85
 20
37.375
 70
     8
  0
VERTEX
  8
ガラス
 10
-48.875
 20
37.325
 70
     8
  0
VERTEX
  8
ガラス
 10
-48.875
 20
37.275
 70
     8
  0
VERTEX
  8
ガラス
 10
-48.9
 20
37.2
 70
     8
  0
VERTEX
  8
ガラス
 10
-48.9
 20
37.15
 70
     8
  0
VERTEX
  8
ガラス
 10
-48.925
 20
37.075
 70
     8
  0
VERTEX
  8
ガラス
 10
-48.925
 20
37.025
 70
     8
  0
VERTEX
  8
ガラス
 10
-48.95
 20
36.975
 70
     8
  0
VERTEX
  8
ガラス
 10
-48.95
 20
36.9
 70
     8
  0
VERTEX
  8
ガラス
 10
-48.95
 20
36.85
 70
     8
  0
VERTEX
  8
ガラス
 10
-48.975
 20
36.775
 70
     8
  0
VERTEX
  8
ガラス
 10
-48.975
 20
36.725
 70
     8
  0
VERTEX
  8
ガラス
 10
-48.975
 20
36.65
 70
     8
  0
VERTEX
  8
ガラス
 10
-49.0
 20
36.6
 70
     8
  0
VERTEX
  8
ガラス
 10
-49.0
 20
36.55
 70
     8
  0
VERTEX
  8
ガラス
 10
-49.0
 20
36.475
 70
     8
  0
VERTEX
  8
ガラス
 10
-49.025
 20
36.425
 70
     8
  0
VERTEX
  8
ガラス
 10
-49.025
 20
36.35
 70
     8
  0
VERTEX
  8
ガラス
 10
-49.025
 20
36.3
 70
     8
  0
SEQEND
  0
ARC
  8
ガラス
  6
CONTINUOUS
 10
-49.965427
 20
36.421578
 40
0.955135
 50
173.117443
 51
353.117443
  0
ENDBLK
  0
BLOCK
  2
*GRP_0077
 70
    65
 10
0.0
 20
0.0
  0
POLYLINE
  8
ガラス
  6
CONTINUOUS
 66
     1
 70
     4
  0
VERTEX
  8
ガラス
 10
-54.375
 20
28.5
 70
     8
  0
VERTEX
  8
ガラス
 10
-54.35
 20
28.575
 70
     8
  0
VERTEX
  8
ガラス
 10
-54.3
 20
28.675
 70
     8
  0
VERTEX
  8
ガラス
 10
-54.275
 20
28.75
 70
     8
  0
VERTEX
  8
ガラス
 10
-54.225
 20
28.85
 70
     8
  0
VERTEX
  8
ガラス
 10
-54.2
 20
28.925
 70
     8
  0
VERTEX
  8
ガラス
 10
-54.15
 20
29.0
 70
     8
  0
VERTEX
  8
ガラス
 10
-54.125
 20
29.1
 70
     8
  0
VERTEX
  8
ガラス
 10
-54.075
 20
29.175
 70
     8
  0
VERTEX
  8
ガラス
 10
-54.05
 20
29.25
 70
     8
  0
VERTEX
  8
ガラス
 10
-54.0
 20
29.325
 70
     8
  0
VERTEX
  8
ガラス
 10
-53.95
 20
29.425
 70
     8
  0
VERTEX
  8
ガラス
 10
-53.9
 20
29.5
 70
     8
  0
VERTEX
  8
ガラス
 10
-53.875
 20
29.575
 70
     8
  0
VERTEX
  8
ガラス
 10
-53.825
 20
29.625
 70
     8
  0
VERTEX
  8
ガラス
 10
-53.775
 20
29.7
 70
     8
  0
VERTEX
  8
ガラス
 10
-53.725
 20
29.775
 70
     8
  0
VERTEX
  8
ガラス
 10
-53.65
 20
29.825
 70
     8
  0
VERTEX
  8
ガラス
 10
-53.6
 20
29.9
 70
     8
  0
VERTEX
  8
ガラス
 10
-53.55
 20
29.95
 70
     8
  0
VERTEX
  8
ガラス
 10
-53.475
 20
30.0
 70
     8
  0
VERTEX
  8
ガラス
 10
-53.425
 20
30.075
 70
     8
  0
VERTEX
  8
ガラス
 10
-53.35
 20
30.125
 70
     8
  0
VERTEX
  8
ガラス
 10
-53.275
 20
30.15
 70
     8
  0
VERTEX
  8
ガラス
 10
-53.225
 20
30.2
 70
     8
  0
VERTEX
  8
ガラス
 10
-53.15
 20
30.25
 70
     8
  0
VERTEX
  8
ガラス
 10
-53.075
 20
30.275
 70
     8
  0
VERTEX
  8
ガラス
 10
-52.975
 20
30.325
 70
     8
  0
VERTEX
  8
ガラス
 10
-52.9
 20
30.35
 70
     8
  0
VERTEX
  8
ガラス
 10
-52.825
 20
30.375
 70
     8
  0
VERTEX
  8
ガラス
 10
-52.75
 20
30.4
 70
     8
  0
VERTEX
  8
ガラス
 10
-52.65
 20
30.425
 70
     8
  0
VERTEX
  8
ガラス
 10
-52.575
 20
30.45
 70
     8
  0
VERTEX
  8
ガラス
 10
-52.475
 20
30.475
 70
     8
  0
VERTEX
  8
ガラス
 10
-52.4
 20
30.5
 70
     8
  0
VERTEX
  8
ガラス
 10
-52.3
 20
30.525
 70
     8
  0
VERTEX
  8
ガラス
 10
-52.225
 20
30.55
 70
     8
  0
VERTEX
  8
ガラス
 10
-52.125
 20
30.575
 70
     8
  0
VERTEX
  8
ガラス
 10
-52.025
 20
30.6
 70
     8
  0
VERTEX
  8
ガラス
 10
-51.95
 20
30.6
 70
     8
  0
VERTEX
  8
ガラス
 10
-51.85
 20
30.625
 70
     8
  0
SEQEND
  0
POLYLINE
  8
ガラス
  6
CONTINUOUS
 66
     1
 70
     4
  0
VERTEX
  8
ガラス
 10
-51.85
 20
30.625
 70
     8
  0
VERTEX
  8
ガラス
 10
-51.875
 20
30.575
 70
     8
  0
VERTEX
  8
ガラス
 10
-51.9
 20
30.525
 70
     8
  0
VERTEX
  8
ガラス
 10
-51.925
 20
30.45
 70
     8
  0
VERTEX
  8
ガラス
 10
-51.95
 20
30.4
 70
     8
  0
VERTEX
  8
ガラス
 10
-51.975
 20
30.35
 70
     8
  0
VERTEX
  8
ガラス
 10
-52.0
 20
30.3
 70
     8
  0
VERTEX
  8
ガラス
 10
-52.025
 20
30.225
 70
     8
  0
VERTEX
  8
ガラス
 10
-52.05
 20
30.175
 70
     8
  0
VERTEX
  8
ガラス
 10
-52.075
 20
30.125
 70
     8
  0
VERTEX
  8
ガラス
 10
-52.1
 20
30.05
 70
     8
  0
VERTEX
  8
ガラス
 10
-52.1
 20
30.0
 70
     8
  0
VERTEX
  8
ガラス
 10
-52.125
 20
29.95
 70
     8
  0
VERTEX
  8
ガラス
 10
-52.15
 20
29.875
 70
     8
  0
VERTEX
  8
ガラス
 10
-52.175
 20
29.825
 70
     8
  0
VERTEX
  8
ガラス
 10
-52.2
 20
29.775
 70
     8
  0
VERTEX
  8
ガラス
 10
-52.225
 20
29.725
 70
     8
  0
VERTEX
  8
ガラス
 10
-52.225
 20
29.65
 70
     8
  0
VERTEX
  8
ガラス
 10
-52.25
 20
29.6
 70
     8
  0
VERTEX
  8
ガラス
 10
-52.275
 20
29.55
 70
     8
  0
VERTEX
  8
ガラス
 10
-52.275
 20
29.475
 70
     8
  0
VERTEX
  8
ガラス
 10
-52.3
 20
29.425
 70
     8
  0
VERTEX
  8
ガラス
 10
-52.325
 20
29.35
 70
     8
  0
VERTEX
  8
ガラス
 10
-52.325
 20
29.3
 70
     8
  0
VERTEX
  8
ガラス
 10
-52.35
 20
29.25
 70
     8
  0
VERTEX
  8
ガラス
 10
-52.35
 20
29.175
 70
     8
  0
VERTEX
  8
ガラス
 10
-52.375
 20
29.125
 70
     8
  0
VERTEX
  8
ガラス
 10
-52.375
 20
29.05
 70
     8
  0
VERTEX
  8
ガラス
 10
-52.375
 20
29.0
 70
     8
  0
VERTEX
  8
ガラス
 10
-52.4
 20
28.95
 70
     8
  0
VERTEX
  8
ガラス
 10
-52.4
 20
28.875
 70
     8
  0
VERTEX
  8
ガラス
 10
-52.425
 20
28.825
 70
     8
  0
VERTEX
  8
ガラス
 10
-52.425
 20
28.75
 70
     8
  0
VERTEX
  8
ガラス
 10
-52.425
 20
28.7
 70
     8
  0
VERTEX
  8
ガラス
 10
-52.45
 20
28.65
 70
     8
  0
VERTEX
  8
ガラス
 10
-52.45
 20
28.575
 70
     8
  0
VERTEX
  8
ガラス
 10
-52.45
 20
28.525
 70
     8
  0
VERTEX
  8
ガラス
 10
-52.475
 20
28.45
 70
     8
  0
VERTEX
  8
ガラス
 10
-52.475
 20
28.4
 70
     8
  0
VERTEX
  8
ガラス
 10
-52.475
 20
28.325
 70
     8
  0
VERTEX
  8
ガラス
 10
-52.475
 20
28.275
 70
     8
  0
SEQEND
  0
ARC
  8
ガラス
  6
CONTINUOUS
 10
-53.420151
 20
28.397703
 40
0.955135
 50
173.117443
 51
353.117443
  0
ENDBLK
  0
BLOCK
  2
*GRP_0078
 70
    65
 10
0.0
 20
0.0
  0
POLYLINE
  8
ガラス
  6
CONTINUOUS
 66
     1
 70
     4
  0
VERTEX
  8
ガラス
 10
-24.25
 20
-108.8
 70
     8
  0
VERTEX
  8
ガラス
 10
-24.2
 20
-108.725
 70
     8
  0
VERTEX
  8
ガラス
 10
-24.175
 20
-108.625
 70
     8
  0
VERTEX
  8
ガラス
 10
-24.15
 20
-108.55
 70
     8
  0
VERTEX
  8
ガラス
 10
-24.1
 20
-108.475
 70
     8
  0
VERTEX
  8
ガラス
 10
-24.075
 20
-108.375
 70
     8
  0
VERTEX
  8
ガラス
 10
-24.025
 20
-108.3
 70
     8
  0
VERTEX
  8
ガラス
 10
-24.0
 20
-108.225
 70
     8
  0
VERTEX
  8
ガラス
 10
-23.95
 20
-108.125
 70
     8
  0
VERTEX
  8
ガラス
 10
-23.9
 20
-108.05
 70
     8
  0
VERTEX
  8
ガラス
 10
-23.875
 20
-107.975
 70
     8
  0
VERTEX
  8
ガラス
 10
-23.825
 20
-107.9
 70
     8
  0
VERTEX
  8
ガラス
 10
-23.775
 20
-107.825
 70
     8
  0
VERTEX
  8
ガラス
 10
-23.725
 20
-107.75
 70
     8
  0
VERTEX
  8
ガラス
 10
-23.675
 20
-107.675
 70
     8
  0
VERTEX
  8
ガラス
 10
-23.625
 20
-107.6
 70
     8
  0
VERTEX
  8
ガラス
 10
-23.575
 20
-107.525
 70
     8
  0
VERTEX
  8
ガラス
 10
-23.525
 20
-107.475
 70
     8
  0
VERTEX
  8
ガラス
 10
-23.475
 20
-107.4
 70
     8
  0
VERTEX
  8
ガラス
 10
-23.4
 20
-107.35
 70
     8
  0
VERTEX
  8
ガラス
 10
-23.35
 20
-107.3
 70
     8
  0
VERTEX
  8
ガラス
 10
-23.275
 20
-107.25
 70
     8
  0
VERTEX
  8
ガラス
 10
-23.225
 20
-107.2
 70
     8
  0
VERTEX
  8
ガラス
 10
-23.15
 20
-107.15
 70
     8
  0
VERTEX
  8
ガラス
 10
-23.075
 20
-107.1
 70
     8
  0
VERTEX
  8
ガラス
 10
-23.0
 20
-107.075
 70
     8
  0
VERTEX
  8
ガラス
 10
-22.925
 20
-107.025
 70
     8
  0
VERTEX
  8
ガラス
 10
-22.85
 20
-107.0
 70
     8
  0
VERTEX
  8
ガラス
 10
-22.775
 20
-106.95
 70
     8
  0
VERTEX
  8
ガラス
 10
-22.7
 20
-106.925
 70
     8
  0
VERTEX
  8
ガラス
 10
-22.6
 20
-106.9
 70
     8
  0
VERTEX
  8
ガラス
 10
-22.525
 20
-106.875
 70
     8
  0
VERTEX
  8
ガラス
 10
-22.425
 20
-106.85
 70
     8
  0
VERTEX
  8
ガラス
 10
-22.35
 20
-106.825
 70
     8
  0
VERTEX
  8
ガラス
 10
-22.25
 20
-106.8
 70
     8
  0
VERTEX
  8
ガラス
 10
-22.175
 20
-106.775
 70
     8
  0
VERTEX
  8
ガラス
 10
-22.075
 20
-106.75
 70
     8
  0
VERTEX
  8
ガラス
 10
-22.0
 20
-106.725
 70
     8
  0
VERTEX
  8
ガラス
 10
-21.9
 20
-106.725
 70
     8
  0
VERTEX
  8
ガラス
 10
-21.8
 20
-106.7
 70
     8
  0
VERTEX
  8
ガラス
 10
-21.725
 20
-106.675
 70
     8
  0
SEQEND
  0
POLYLINE
  8
ガラス
  6
CONTINUOUS
 66
     1
 70
     4
  0
VERTEX
  8
ガラス
 10
-21.725
 20
-106.675
 70
     8
  0
VERTEX
  8
ガラス
 10
-21.75
 20
-106.725
 70
     8
  0
VERTEX
  8
ガラス
 10
-21.775
 20
-106.8
 70
     8
  0
VERTEX
  8
ガラス
 10
-21.8
 20
-106.85
 70
     8
  0
VERTEX
  8
ガラス
 10
-21.825
 20
-106.9
 70
     8
  0
VERTEX
  8
ガラス
 10
-21.85
 20
-106.975
 70
     8
  0
VERTEX
  8
ガラス
 10
-21.875
 20
-107.025
 70
     8
  0
VERTEX
  8
ガラス
 10
-21.875
 20
-107.075
 70
     8
  0
VERTEX
  8
ガラス
 10
-21.9
 20
-107.125
 70
     8
  0
VERTEX
  8
ガラス
 10
-21.925
 20
-107.2
 70
     8
  0
VERTEX
  8
ガラス
 10
-21.95
 20
-107.25
 70
     8
  0
VERTEX
  8
ガラス
 10
-21.975
 20
-107.3
 70
     8
  0
VERTEX
  8
ガラス
 10
-22.0
 20
-107.375
 70
     8
  0
VERTEX
  8
ガラス
 10
-22.025
 20
-107.425
 70
     8
  0
VERTEX
  8
ガラス
 10
-22.05
 20
-107.475
 70
     8
  0
VERTEX
  8
ガラス
 10
-22.05
 20
-107.525
 70
     8
  0
VERTEX
  8
ガラス
 10
-22.075
 20
-107.6
 70
     8
  0
VERTEX
  8
ガラス
 10
-22.1
 20
-107.65
 70
     8
  0
VERTEX
  8
ガラス
 10
-22.125
 20
-107.7
 70
     8
  0
VERTEX
  8
ガラス
 10
-22.125
 20
-107.775
 70
     8
  0
VERTEX
  8
ガラス
 10
-22.15
 20
-107.825
 70
     8
  0
VERTEX
  8
ガラス
 10
-22.175
 20
-107.9
 70
     8
  0
VERTEX
  8
ガラス
 10
-22.175
 20
-107.95
 70
     8
  0
VERTEX
  8
ガラス
 10
-22.2
 20
-108.0
 70
     8
  0
VERTEX
  8
ガラス
 10
-22.2
 20
-108.075
 70
     8
  0
VERTEX
  8
ガラス
 10
-22.225
 20
-108.125
 70
     8
  0
VERTEX
  8
ガラス
 10
-22.225
 20
-108.175
 70
     8
  0
VERTEX
  8
ガラス
 10
-22.25
 20
-108.25
 70
     8
  0
VERTEX
  8
ガラス
 10
-22.25
 20
-108.3
 70
     8
  0
VERTEX
  8
ガラス
 10
-22.275
 20
-108.375
 70
     8
  0
VERTEX
  8
ガラス
 10
-22.275
 20
-108.425
 70
     8
  0
VERTEX
  8
ガラス
 10
-22.275
 20
-108.5
 70
     8
  0
VERTEX
  8
ガラス
 10
-22.3
 20
-108.55
 70
     8
  0
VERTEX
  8
ガラス
 10
-22.3
 20
-108.6
 70
     8
  0
VERTEX
  8
ガラス
 10
-22.3
 20
-108.675
 70
     8
  0
VERTEX
  8
ガラス
 10
-22.325
 20
-108.725
 70
     8
  0
VERTEX
  8
ガラス
 10
-22.325
 20
-108.8
 70
     8
  0
VERTEX
  8
ガラス
 10
-22.325
 20
-108.85
 70
     8
  0
VERTEX
  8
ガラス
 10
-22.325
 20
-108.925
 70
     8
  0
VERTEX
  8
ガラス
 10
-22.35
 20
-108.975
 70
     8
  0
VERTEX
  8
ガラス
 10
-22.35
 20
-109.025
 70
     8
  0
SEQEND
  0
ARC
  8
ガラス
  6
CONTINUOUS
 10
-23.286198
 20
-108.910388
 40
0.955135
 50
173.117443
 51
353.117443
  0
ENDBLK
  0
BLOCK
  2
*GRP_0079
 70
    65
 10
0.0
 20
0.0
  0
POLYLINE
  8
ガラス
  6
CONTINUOUS
 66
     1
 70
     4
  0
VERTEX
  8
ガラス
 10
-27.25
 20
-117.45
 70
     8
  0
VERTEX
  8
ガラス
 10
-27.225
 20
-117.35
 70
     8
  0
VERTEX
  8
ガラス
 10
-27.175
 20
-117.275
 70
     8
  0
VERTEX
  8
ガラス
 10
-27.15
 20
-117.175
 70
     8
  0
VERTEX
  8
ガラス
 10
-27.1
 20
-117.1
 70
     8
  0
VERTEX
  8
ガラス
 10
-27.075
 20
-117.025
 70
     8
  0
VERTEX
  8
ガラス
 10
-27.025
 20
-116.925
 70
     8
  0
VERTEX
  8
ガラス
 10
-27.0
 20
-116.85
 70
     8
  0
VERTEX
  8
ガラス
 10
-26.95
 20
-116.775
 70
     8
  0
VERTEX
  8
ガラス
 10
-26.925
 20
-116.675
 70
     8
  0
VERTEX
  8
ガラス
 10
-26.875
 20
-116.6
 70
     8
  0
VERTEX
  8
ガラス
 10
-26.825
 20
-116.525
 70
     8
  0
VERTEX
  8
ガラス
 10
-26.775
 20
-116.45
 70
     8
  0
VERTEX
  8
ガラス
 10
-26.75
 20
-116.375
 70
     8
  0
VERTEX
  8
ガラス
 10
-26.7
 20
-116.3
 70
     8
  0
VERTEX
  8
ガラス
 10
-26.65
 20
-116.25
 70
     8
  0
VERTEX
  8
ガラス
 10
-26.6
 20
-116.175
 70
     8
  0
VERTEX
  8
ガラス
 10
-26.525
 20
-116.1
 70
     8
  0
VERTEX
  8
ガラス
 10
-26.475
 20
-116.05
 70
     8
  0
VERTEX
  8
ガラス
 10
-26.425
 20
-116.0
 70
     8
  0
VERTEX
  8
ガラス
 10
-26.35
 20
-115.925
 70
     8
  0
VERTEX
  8
ガラス
 10
-26.3
 20
-115.875
 70
     8
  0
VERTEX
  8
ガラス
 10
-26.225
 20
-115.825
 70
     8
  0
VERTEX
  8
ガラス
 10
-26.15
 20
-115.775
 70
     8
  0
VERTEX
  8
ガラス
 10
-26.1
 20
-115.75
 70
     8
  0
VERTEX
  8
ガラス
 10
-26.025
 20
-115.7
 70
     8
  0
VERTEX
  8
ガラス
 10
-25.95
 20
-115.675
 70
     8
  0
VERTEX
  8
ガラス
 10
-25.85
 20
-115.625
 70
     8
  0
VERTEX
  8
ガラス
 10
-25.775
 20
-115.6
 70
     8
  0
VERTEX
  8
ガラス
 10
-25.7
 20
-115.575
 70
     8
  0
VERTEX
  8
ガラス
 10
-25.625
 20
-115.525
 70
     8
  0
VERTEX
  8
ガラス
 10
-25.525
 20
-115.5
 70
     8
  0
VERTEX
  8
ガラス
 10
-25.45
 20
-115.475
 70
     8
  0
VERTEX
  8
ガラス
 10
-25.35
 20
-115.45
 70
     8
  0
VERTEX
  8
ガラス
 10
-25.275
 20
-115.425
 70
     8
  0
VERTEX
  8
ガラス
 10
-25.175
 20
-115.425
 70
     8
  0
VERTEX
  8
ガラス
 10
-25.1
 20
-115.4
 70
     8
  0
VERTEX
  8
ガラス
 10
-25.0
 20
-115.375
 70
     8
  0
VERTEX
  8
ガラス
 10
-24.9
 20
-115.35
 70
     8
  0
VERTEX
  8
ガラス
 10
-24.825
 20
-115.325
 70
     8
  0
VERTEX
  8
ガラス
 10
-24.725
 20
-115.325
 70
     8
  0
SEQEND
  0
POLYLINE
  8
ガラス
  6
CONTINUOUS
 66
     1
 70
     4
  0
VERTEX
  8
ガラス
 10
-24.725
 20
-115.325
 70
     8
  0
VERTEX
  8
ガラス
 10
-24.75
 20
-115.375
 70
     8
  0
VERTEX
  8
ガラス
 10
-24.775
 20
-115.425
 70
     8
  0
VERTEX
  8
ガラス
 10
-24.8
 20
-115.475
 70
     8
  0
VERTEX
  8
ガラス
 10
-24.825
 20
-115.55
 70
     8
  0
VERTEX
  8
ガラス
 10
-24.85
 20
-115.6
 70
     8
  0
VERTEX
  8
ガラス
 10
-24.875
 20
-115.65
 70
     8
  0
VERTEX
  8
ガラス
 10
-24.9
 20
-115.725
 70
     8
  0
VERTEX
  8
ガラス
 10
-24.925
 20
-115.775
 70
     8
  0
VERTEX
  8
ガラス
 10
-24.95
 20
-115.825
 70
     8
  0
VERTEX
  8
ガラス
 10
-24.975
 20
-115.875
 70
     8
  0
VERTEX
  8
ガラス
 10
-24.975
 20
-115.95
 70
     8
  0
VERTEX
  8
ガラス
 10
-25.0
 20
-116.0
 70
     8
  0
VERTEX
  8
ガラス
 10
-25.025
 20
-116.05
 70
     8
  0
VERTEX
  8
ガラス
 10
-25.05
 20
-116.125
 70
     8
  0
VERTEX
  8
ガラス
 10
-25.075
 20
-116.175
 70
     8
  0
VERTEX
  8
ガラス
 10
-25.1
 20
-116.225
 70
     8
  0
VERTEX
  8
ガラス
 10
-25.1
 20
-116.3
 70
     8
  0
VERTEX
  8
ガラス
 10
-25.125
 20
-116.35
 70
     8
  0
VERTEX
  8
ガラス
 10
-25.15
 20
-116.4
 70
     8
  0
VERTEX
  8
ガラス
 10
-25.15
 20
-116.475
 70
     8
  0
VERTEX
  8
ガラス
 10
-25.175
 20
-116.525
 70
     8
  0
VERTEX
  8
ガラス
 10
-25.2
 20
-116.575
 70
     8
  0
VERTEX
  8
ガラス
 10
-25.2
 20
-116.65
 70
     8
  0
VERTEX
  8
ガラス
 10
-25.225
 20
-116.7
 70
     8
  0
VERTEX
  8
ガラス
 10
-25.225
 20
-116.775
 70
     8
  0
VERTEX
  8
ガラス
 10
-25.25
 20
-116.825
 70
     8
  0
VERTEX
  8
ガラス
 10
-25.25
 20
-116.875
 70
     8
  0
VERTEX
  8
ガラス
 10
-25.25
 20
-116.95
 70
     8
  0
VERTEX
  8
ガラス
 10
-25.275
 20
-117.0
 70
     8
  0
VERTEX
  8
ガラス
 10
-25.275
 20
-117.075
 70
     8
  0
VERTEX
  8
ガラス
 10
-25.3
 20
-117.125
 70
     8
  0
VERTEX
  8
ガラス
 10
-25.3
 20
-117.175
 70
     8
  0
VERTEX
  8
ガラス
 10
-25.3
 20
-117.25
 70
     8
  0
VERTEX
  8
ガラス
 10
-25.325
 20
-117.3
 70
     8
  0
VERTEX
  8
ガラス
 10
-25.325
 20
-117.375
 70
     8
  0
VERTEX
  8
ガラス
 10
-25.325
 20
-117.425
 70
     8
  0
VERTEX
  8
ガラス
 10
-25.35
 20
-117.5
 70
     8
  0
VERTEX
  8
ガラス
 10
-25.35
 20
-117.55
 70
     8
  0
VERTEX
  8
ガラス
 10
-25.35
 20
-117.625
 70
     8
  0
VERTEX
  8
ガラス
 10
-25.35
 20
-117.675
 70
     8
  0
SEQEND
  0
ARC
  8
ガラス
  6
CONTINUOUS
 10
-26.295151
 20
-117.547198
 40
0.955135
 50
173.117443
 51
353.117443
  0
ENDBLK
  0
BLOCK
  2
*GRP_0080
 70
    65
 10
0.0
 20
0.0
  0
POLYLINE
  8
ガラス
  6
CONTINUOUS
 66
     1
 70
     4
  0
VERTEX
  8
ガラス
 10
68.725
 20
-106.2
 70
     8
  0
VERTEX
  8
ガラス
 10
68.825
 20
-106.2
 70
     8
  0
VERTEX
  8
ガラス
 10
68.925
 20
-106.175
 70
     8
  0
VERTEX
  8
ガラス
 10
69.0
 20
-106.175
 70
     8
  0
VERTEX
  8
ガラス
 10
69.1
 20
-106.175
 70
     8
  0
VERTEX
  8
ガラス
 10
69.2
 20
-106.15
 70
     8
  0
VERTEX
  8
ガラス
 10
69.275
 20
-106.15
 70
     8
  0
VERTEX
  8
ガラス
 10
69.375
 20
-106.15
 70
     8
  0
VERTEX
  8
ガラス
 10
69.475
 20
-106.125
 70
     8
  0
VERTEX
  8
ガラス
 10
69.55
 20
-106.125
 70
     8
  0
VERTEX
  8
ガラス
 10
69.65
 20
-106.125
 70
     8
  0
VERTEX
  8
ガラス
 10
69.725
 20
-106.125
 70
     8
  0
VERTEX
  8
ガラス
 10
69.825
 20
-106.125
 70
     8
  0
VERTEX
  8
ガラス
 10
69.9
 20
-106.125
 70
     8
  0
VERTEX
  8
ガラス
 10
70.0
 20
-106.15
 70
     8
  0
VERTEX
  8
ガラス
 10
70.075
 20
-106.15
 70
     8
  0
VERTEX
  8
ガラス
 10
70.175
 20
-106.175
 70
     8
  0
VERTEX
  8
ガラス
 10
70.25
 20
-106.175
 70
     8
  0
VERTEX
  8
ガラス
 10
70.325
 20
-106.2
 70
     8
  0
VERTEX
  8
ガラス
 10
70.4
 20
-106.225
 70
     8
  0
VERTEX
  8
ガラス
 10
70.5
 20
-106.25
 70
     8
  0
VERTEX
  8
ガラス
 10
70.575
 20
-106.275
 70
     8
  0
VERTEX
  8
ガラス
 10
70.65
 20
-106.325
 70
     8
  0
VERTEX
  8
ガラス
 10
70.725
 20
-106.35
 70
     8
  0
VERTEX
  8
ガラス
 10
70.775
 20
-106.4
 70
     8
  0
VERTEX
  8
ガラス
 10
70.85
 20
-106.45
 70
     8
  0
VERTEX
  8
ガラス
 10
70.925
 20
-106.475
 70
     8
  0
VERTEX
  8
ガラス
 10
71.0
 20
-106.55
 70
     8
  0
VERTEX
  8
ガラス
 10
71.075
 20
-106.6
 70
     8
  0
VERTEX
  8
ガラス
 10
71.125
 20
-106.65
 70
     8
  0
VERTEX
  8
ガラス
 10
71.2
 20
-106.7
 70
     8
  0
VERTEX
  8
ガラス
 10
71.25
 20
-106.775
 70
     8
  0
VERTEX
  8
ガラス
 10
71.325
 20
-106.825
 70
     8
  0
VERTEX
  8
ガラス
 10
71.4
 20
-106.9
 70
     8
  0
VERTEX
  8
ガラス
 10
71.45
 20
-106.95
 70
     8
  0
VERTEX
  8
ガラス
 10
71.525
 20
-107.025
 70
     8
  0
VERTEX
  8
ガラス
 10
71.575
 20
-107.1
 70
     8
  0
VERTEX
  8
ガラス
 10
71.65
 20
-107.175
 70
     8
  0
VERTEX
  8
ガラス
 10
71.7
 20
-107.225
 70
     8
  0
VERTEX
  8
ガラス
 10
71.75
 20
-107.3
 70
     8
  0
VERTEX
  8
ガラス
 10
71.825
 20
-107.375
 70
     8
  0
SEQEND
  0
POLYLINE
  8
ガラス
  6
CONTINUOUS
 66
     1
 70
     4
  0
VERTEX
  8
ガラス
 10
71.825
 20
-107.375
 70
     8
  0
VERTEX
  8
ガラス
 10
71.75
 20
-107.375
 70
     8
  0
VERTEX
  8
ガラス
 10
71.7
 20
-107.375
 70
     8
  0
VERTEX
  8
ガラス
 10
71.625
 20
-107.4
 70
     8
  0
VERTEX
  8
ガラス
 10
71.575
 20
-107.4
 70
     8
  0
VERTEX
  8
ガラス
 10
71.525
 20
-107.4
 70
     8
  0
VERTEX
  8
ガラス
 10
71.45
 20
-107.425
 70
     8
  0
VERTEX
  8
ガラス
 10
71.4
 20
-107.425
 70
     8
  0
VERTEX
  8
ガラス
 10
71.325
 20
-107.425
 70
     8
  0
VERTEX
  8
ガラス
 10
71.275
 20
-107.45
 70
     8
  0
VERTEX
  8
ガラス
 10
71.2
 20
-107.45
 70
     8
  0
VERTEX
  8
ガラス
 10
71.15
 20
-107.45
 70
     8
  0
VERTEX
  8
ガラス
 10
71.1
 20
-107.475
 70
     8
  0
VERTEX
  8
ガラス
 10
71.025
 20
-107.475
 70
     8
  0
VERTEX
  8
ガラス
 10
70.975
 20
-107.475
 70
     8
  0
VERTEX
  8
ガラス
 10
70.9
 20
-107.5
 70
     8
  0
VERTEX
  8
ガラス
 10
70.85
 20
-107.5
 70
     8
  0
VERTEX
  8
ガラス
 10
70.775
 20
-107.525
 70
     8
  0
VERTEX
  8
ガラス
 10
70.725
 20
-107.525
 70
     8
  0
VERTEX
  8
ガラス
 10
70.675
 20
-107.55
 70
     8
  0
VERTEX
  8
ガラス
 10
70.6
 20
-107.55
 70
     8
  0
VERTEX
  8
ガラス
 10
70.55
 20
-107.575
 70
     8
  0
VERTEX
  8
ガラス
 10
70.5
 20
-107.6
 70
     8
  0
VERTEX
  8
ガラス
 10
70.425
 20
-107.6
 70
     8
  0
VERTEX
  8
ガラス
 10
70.375
 20
-107.625
 70
     8
  0
VERTEX
  8
ガラス
 10
70.325
 20
-107.65
 70
     8
  0
VERTEX
  8
ガラス
 10
70.25
 20
-107.65
 70
     8
  0
VERTEX
  8
ガラス
 10
70.2
 20
-107.675
 70
     8
  0
VERTEX
  8
ガラス
 10
70.15
 20
-107.7
 70
     8
  0
VERTEX
  8
ガラス
 10
70.075
 20
-107.725
 70
     8
  0
VERTEX
  8
ガラス
 10
70.025
 20
-107.75
 70
     8
  0
VERTEX
  8
ガラス
 10
69.975
 20
-107.775
 70
     8
  0
VERTEX
  8
ガラス
 10
69.9
 20
-107.775
 70
     8
  0
VERTEX
  8
ガラス
 10
69.85
 20
-107.8
 70
     8
  0
VERTEX
  8
ガラス
 10
69.8
 20
-107.825
 70
     8
  0
VERTEX
  8
ガラス
 10
69.75
 20
-107.85
 70
     8
  0
VERTEX
  8
ガラス
 10
69.675
 20
-107.875
 70
     8
  0
VERTEX
  8
ガラス
 10
69.625
 20
-107.9
 70
     8
  0
VERTEX
  8
ガラス
 10
69.575
 20
-107.925
 70
     8
  0
VERTEX
  8
ガラス
 10
69.5
 20
-107.95
 70
     8
  0
VERTEX
  8
ガラス
 10
69.45
 20
-107.975
 70
     8
  0
SEQEND
  0
ARC
  8
ガラス
  6
CONTINUOUS
 10
69.105986
 20
-107.075659
 40
0.955135
 50
112.264588
 51
292.264588
  0
ENDBLK
  0
BLOCK
  2
*GRP_0081
 70
    65
 10
0.0
 20
0.0
  0
POLYLINE
  8
ガラス
  6
CONTINUOUS
 66
     1
 70
     4
  0
VERTEX
  8
ガラス
 10
52.675
 20
-106.2
 70
     8
  0
VERTEX
  8
ガラス
 10
52.775
 20
-106.2
 70
     8
  0
VERTEX
  8
ガラス
 10
52.875
 20
-106.175
 70
     8
  0
VERTEX
  8
ガラス
 10
52.95
 20
-106.175
 70
     8
  0
VERTEX
  8
ガラス
 10
53.05
 20
-106.175
 70
     8
  0
VERTEX
  8
ガラス
 10
53.15
 20
-106.15
 70
     8
  0
VERTEX
  8
ガラス
 10
53.25
 20
-106.15
 70
     8
  0
VERTEX
  8
ガラス
 10
53.325
 20
-106.15
 70
     8
  0
VERTEX
  8
ガラス
 10
53.425
 20
-106.125
 70
     8
  0
VERTEX
  8
ガラス
 10
53.5
 20
-106.125
 70
     8
  0
VERTEX
  8
ガラス
 10
53.6
 20
-106.125
 70
     8
  0
VERTEX
  8
ガラス
 10
53.7
 20
-106.125
 70
     8
  0
VERTEX
  8
ガラス
 10
53.775
 20
-106.125
 70
     8
  0
VERTEX
  8
ガラス
 10
53.875
 20
-106.125
 70
     8
  0
VERTEX
  8
ガラス
 10
53.95
 20
-106.15
 70
     8
  0
VERTEX
  8
ガラス
 10
54.025
 20
-106.15
 70
     8
  0
VERTEX
  8
ガラス
 10
54.125
 20
-106.175
 70
     8
  0
VERTEX
  8
ガラス
 10
54.2
 20
-106.175
 70
     8
  0
VERTEX
  8
ガラス
 10
54.275
 20
-106.2
 70
     8
  0
VERTEX
  8
ガラス
 10
54.375
 20
-106.225
 70
     8
  0
VERTEX
  8
ガラス
 10
54.45
 20
-106.25
 70
     8
  0
VERTEX
  8
ガラス
 10
54.525
 20
-106.275
 70
     8
  0
VERTEX
  8
ガラス
 10
54.6
 20
-106.325
 70
     8
  0
VERTEX
  8
ガラス
 10
54.675
 20
-106.35
 70
     8
  0
VERTEX
  8
ガラス
 10
54.75
 20
-106.4
 70
     8
  0
VERTEX
  8
ガラス
 10
54.8
 20
-106.45
 70
     8
  0
VERTEX
  8
ガラス
 10
54.875
 20
-106.475
 70
     8
  0
VERTEX
  8
ガラス
 10
54.95
 20
-106.55
 70
     8
  0
VERTEX
  8
ガラス
 10
55.025
 20
-106.6
 70
     8
  0
VERTEX
  8
ガラス
 10
55.075
 20
-106.65
 70
     8
  0
VERTEX
  8
ガラス
 10
55.15
 20
-106.7
 70
     8
  0
VERTEX
  8
ガラス
 10
55.225
 20
-106.775
 70
     8
  0
VERTEX
  8
ガラス
 10
55.275
 20
-106.825
 70
     8
  0
VERTEX
  8
ガラス
 10
55.35
 20
-106.9
 70
     8
  0
VERTEX
  8
ガラス
 10
55.4
 20
-106.95
 70
     8
  0
VERTEX
  8
ガラス
 10
55.475
 20
-107.025
 70
     8
  0
VERTEX
  8
ガラス
 10
55.525
 20
-107.1
 70
     8
  0
VERTEX
  8
ガラス
 10
55.6
 20
-107.175
 70
     8
  0
VERTEX
  8
ガラス
 10
55.65
 20
-107.225
 70
     8
  0
VERTEX
  8
ガラス
 10
55.725
 20
-107.3
 70
     8
  0
VERTEX
  8
ガラス
 10
55.775
 20
-107.375
 70
     8
  0
SEQEND
  0
POLYLINE
  8
ガラス
  6
CONTINUOUS
 66
     1
 70
     4
  0
VERTEX
  8
ガラス
 10
55.775
 20
-107.375
 70
     8
  0
VERTEX
  8
ガラス
 10
55.7
 20
-107.375
 70
     8
  0
VERTEX
  8
ガラス
 10
55.65
 20
-107.375
 70
     8
  0
VERTEX
  8
ガラス
 10
55.6
 20
-107.4
 70
     8
  0
VERTEX
  8
ガラス
 10
55.525
 20
-107.4
 70
     8
  0
VERTEX
  8
ガラス
 10
55.475
 20
-107.4
 70
     8
  0
VERTEX
  8
ガラス
 10
55.4
 20
-107.425
 70
     8
  0
VERTEX
  8
ガラス
 10
55.35
 20
-107.425
 70
     8
  0
VERTEX
  8
ガラス
 10
55.275
 20
-107.425
 70
     8
  0
VERTEX
  8
ガラス
 10
55.225
 20
-107.45
 70
     8
  0
VERTEX
  8
ガラス
 10
55.15
 20
-107.45
 70
     8
  0
VERTEX
  8
ガラス
 10
55.1
 20
-107.45
 70
     8
  0
VERTEX
  8
ガラス
 10
55.05
 20
-107.475
 70
     8
  0
VERTEX
  8
ガラス
 10
54.975
 20
-107.475
 70
     8
  0
VERTEX
  8
ガラス
 10
54.925
 20
-107.475
 70
     8
  0
VERTEX
  8
ガラス
 10
54.85
 20
-107.5
 70
     8
  0
VERTEX
  8
ガラス
 10
54.8
 20
-107.5
 70
     8
  0
VERTEX
  8
ガラス
 10
54.75
 20
-107.525
 70
     8
  0
VERTEX
  8
ガラス
 10
54.675
 20
-107.525
 70
     8
  0
VERTEX
  8
ガラス
 10
54.625
 20
-107.55
 70
     8
  0
VERTEX
  8
ガラス
 10
54.55
 20
-107.55
 70
     8
  0
VERTEX
  8
ガラス
 10
54.5
 20
-107.575
 70
     8
  0
VERTEX
  8
ガラス
 10
54.45
 20
-107.6
 70
     8
  0
VERTEX
  8
ガラス
 10
54.375
 20
-107.6
 70
     8
  0
VERTEX
  8
ガラス
 10
54.325
 20
-107.625
 70
     8
  0
VERTEX
  8
ガラス
 10
54.275
 20
-107.65
 70
     8
  0
VERTEX
  8
ガラス
 10
54.2
 20
-107.65
 70
     8
  0
VERTEX
  8
ガラス
 10
54.15
 20
-107.675
 70
     8
  0
VERTEX
  8
ガラス
 10
54.1
 20
-107.7
 70
     8
  0
VERTEX
  8
ガラス
 10
54.025
 20
-107.725
 70
     8
  0
VERTEX
  8
ガラス
 10
53.975
 20
-107.75
 70
     8
  0
VERTEX
  8
ガラス
 10
53.925
 20
-107.775
 70
     8
  0
VERTEX
  8
ガラス
 10
53.875
 20
-107.775
 70
     8
  0
VERTEX
  8
ガラス
 10
53.8
 20
-107.8
 70
     8
  0
VERTEX
  8
ガラス
 10
53.75
 20
-107.825
 70
     8
  0
VERTEX
  8
ガラス
 10
53.7
 20
-107.85
 70
     8
  0
VERTEX
  8
ガラス
 10
53.625
 20
-107.875
 70
     8
  0
VERTEX
  8
ガラス
 10
53.575
 20
-107.9
 70
     8
  0
VERTEX
  8
ガラス
 10
53.525
 20
-107.925
 70
     8
  0
VERTEX
  8
ガラス
 10
53.475
 20
-107.95
 70
     8
  0
VERTEX
  8
ガラス
 10
53.4
 20
-107.975
 70
     8
  0
SEQEND
  0
ARC
  8
ガラス
  6
CONTINUOUS
 10
53.058236
 20
-107.075659
 40
0.955135
 50
112.264588
 51
292.264588
  0
ENDBLK
  0
BLOCK
  2
*GRP_0082
 70
    65
 10
0.0
 20
0.0
  0
POLYLINE
  8
ガラス
  6
CONTINUOUS
 66
     1
 70
     4
  0
VERTEX
  8
ガラス
 10
31.45
 20
-106.2
 70
     8
  0
VERTEX
  8
ガラス
 10
31.55
 20
-106.2
 70
     8
  0
VERTEX
  8
ガラス
 10
31.65
 20
-106.175
 70
     8
  0
VERTEX
  8
ガラス
 10
31.725
 20
-106.175
 70
     8
  0
VERTEX
  8
ガラス
 10
31.825
 20
-106.175
 70
     8
  0
VERTEX
  8
ガラス
 10
31.925
 20
-106.15
 70
     8
  0
VERTEX
  8
ガラス
 10
32.0
 20
-106.15
 70
     8
  0
VERTEX
  8
ガラス
 10
32.1
 20
-106.15
 70
     8
  0
VERTEX
  8
ガラス
 10
32.2
 20
-106.125
 70
     8
  0
VERTEX
  8
ガラス
 10
32.275
 20
-106.125
 70
     8
  0
VERTEX
  8
ガラス
 10
32.375
 20
-106.125
 70
     8
  0
VERTEX
  8
ガラス
 10
32.45
 20
-106.125
 70
     8
  0
VERTEX
  8
ガラス
 10
32.55
 20
-106.125
 70
     8
  0
VERTEX
  8
ガラス
 10
32.625
 20
-106.125
 70
     8
  0
VERTEX
  8
ガラス
 10
32.725
 20
-106.15
 70
     8
  0
VERTEX
  8
ガラス
 10
32.8
 20
-106.15
 70
     8
  0
VERTEX
  8
ガラス
 10
32.9
 20
-106.175
 70
     8
  0
VERTEX
  8
ガラス
 10
32.975
 20
-106.175
 70
     8
  0
VERTEX
  8
ガラス
 10
33.05
 20
-106.2
 70
     8
  0
VERTEX
  8
ガラス
 10
33.125
 20
-106.225
 70
     8
  0
VERTEX
  8
ガラス
 10
33.2
 20
-106.25
 70
     8
  0
VERTEX
  8
ガラス
 10
33.3
 20
-106.275
 70
     8
  0
VERTEX
  8
ガラス
 10
33.375
 20
-106.325
 70
     8
  0
VERTEX
  8
ガラス
 10
33.425
 20
-106.35
 70
     8
  0
VERTEX
  8
ガラス
 10
33.5
 20
-106.4
 70
     8
  0
VERTEX
  8
ガラス
 10
33.575
 20
-106.45
 70
     8
  0
VERTEX
  8
ガラス
 10
33.65
 20
-106.475
 70
     8
  0
VERTEX
  8
ガラス
 10
33.725
 20
-106.55
 70
     8
  0
VERTEX
  8
ガラス
 10
33.775
 20
-106.6
 70
     8
  0
VERTEX
  8
ガラス
 10
33.85
 20
-106.65
 70
     8
  0
VERTEX
  8
ガラス
 10
33.925
 20
-106.7
 70
     8
  0
VERTEX
  8
ガラス
 10
33.975
 20
-106.775
 70
     8
  0
VERTEX
  8
ガラス
 10
34.05
 20
-106.825
 70
     8
  0
VERTEX
  8
ガラス
 10
34.1
 20
-106.9
 70
     8
  0
VERTEX
  8
ガラス
 10
34.175
 20
-106.95
 70
     8
  0
VERTEX
  8
ガラス
 10
34.225
 20
-107.025
 70
     8
  0
VERTEX
  8
ガラス
 10
34.3
 20
-107.1
 70
     8
  0
VERTEX
  8
ガラス
 10
34.35
 20
-107.175
 70
     8
  0
VERTEX
  8
ガラス
 10
34.425
 20
-107.225
 70
     8
  0
VERTEX
  8
ガラス
 10
34.475
 20
-107.3
 70
     8
  0
VERTEX
  8
ガラス
 10
34.55
 20
-107.375
 70
     8
  0
SEQEND
  0
POLYLINE
  8
ガラス
  6
CONTINUOUS
 66
     1
 70
     4
  0
VERTEX
  8
ガラス
 10
34.55
 20
-107.375
 70
     8
  0
VERTEX
  8
ガラス
 10
34.475
 20
-107.375
 70
     8
  0
VERTEX
  8
ガラス
 10
34.425
 20
-107.375
 70
     8
  0
VERTEX
  8
ガラス
 10
34.35
 20
-107.4
 70
     8
  0
VERTEX
  8
ガラス
 10
34.3
 20
-107.4
 70
     8
  0
VERTEX
  8
ガラス
 10
34.225
 20
-107.4
 70
     8
  0
VERTEX
  8
ガラス
 10
34.175
 20
-107.425
 70
     8
  0
VERTEX
  8
ガラス
 10
34.125
 20
-107.425
 70
     8
  0
VERTEX
  8
ガラス
 10
34.05
 20
-107.425
 70
     8
  0
VERTEX
  8
ガラス
 10
34.0
 20
-107.45
 70
     8
  0
VERTEX
  8
ガラス
 10
33.925
 20
-107.45
 70
     8
  0
VERTEX
  8
ガラス
 10
33.875
 20
-107.45
 70
     8
  0
VERTEX
  8
ガラス
 10
33.8
 20
-107.475
 70
     8
  0
VERTEX
  8
ガラス
 10
33.75
 20
-107.475
 70
     8
  0
VERTEX
  8
ガラス
 10
33.7
 20
-107.475
 70
     8
  0
VERTEX
  8
ガラス
 10
33.625
 20
-107.5
 70
     8
  0
VERTEX
  8
ガラス
 10
33.575
 20
-107.5
 70
     8
  0
VERTEX
  8
ガラス
 10
33.5
 20
-107.525
 70
     8
  0
VERTEX
  8
ガラス
 10
33.45
 20
-107.525
 70
     8
  0
VERTEX
  8
ガラス
 10
33.4
 20
-107.55
 70
     8
  0
VERTEX
  8
ガラス
 10
33.325
 20
-107.55
 70
     8
  0
VERTEX
  8
ガラス
 10
33.275
 20
-107.575
 70
     8
  0
VERTEX
  8
ガラス
 10
33.225
 20
-107.6
 70
     8
  0
VERTEX
  8
ガラス
 10
33.15
 20
-107.6
 70
     8
  0
VERTEX
  8
ガラス
 10
33.1
 20
-107.625
 70
     8
  0
VERTEX
  8
ガラス
 10
33.05
 20
-107.65
 70
     8
  0
VERTEX
  8
ガラス
 10
32.975
 20
-107.65
 70
     8
  0
VERTEX
  8
ガラス
 10
32.925
 20
-107.675
 70
     8
  0
VERTEX
  8
ガラス
 10
32.875
 20
-107.7
 70
     8
  0
VERTEX
  8
ガラス
 10
32.8
 20
-107.725
 70
     8
  0
VERTEX
  8
ガラス
 10
32.75
 20
-107.75
 70
     8
  0
VERTEX
  8
ガラス
 10
32.7
 20
-107.775
 70
     8
  0
VERTEX
  8
ガラス
 10
32.625
 20
-107.775
 70
     8
  0
VERTEX
  8
ガラス
 10
32.575
 20
-107.8
 70
     8
  0
VERTEX
  8
ガラス
 10
32.525
 20
-107.825
 70
     8
  0
VERTEX
  8
ガラス
 10
32.45
 20
-107.85
 70
     8
  0
VERTEX
  8
ガラス
 10
32.4
 20
-107.875
 70
     8
  0
VERTEX
  8
ガラス
 10
32.35
 20
-107.9
 70
     8
  0
VERTEX
  8
ガラス
 10
32.3
 20
-107.925
 70
     8
  0
VERTEX
  8
ガラス
 10
32.225
 20
-107.95
 70
     8
  0
VERTEX
  8
ガラス
 10
32.175
 20
-107.975
 70
     8
  0
SEQEND
  0
ARC
  8
ガラス
  6
CONTINUOUS
 10
31.8284
 20
-107.075659
 40
0.955135
 50
112.264588
 51
292.264588
  0
ENDBLK
  0
BLOCK
  2
*GRP_0083
 70
    65
 10
0.0
 20
0.0
  0
POLYLINE
  8
ガラス
  6
CONTINUOUS
 66
     1
 70
     4
  0
VERTEX
  8
ガラス
 10
14.75
 20
-106.2
 70
     8
  0
VERTEX
  8
ガラス
 10
14.825
 20
-106.2
 70
     8
  0
VERTEX
  8
ガラス
 10
14.925
 20
-106.175
 70
     8
  0
VERTEX
  8
ガラス
 10
15.025
 20
-106.175
 70
     8
  0
VERTEX
  8
ガラス
 10
15.1
 20
-106.175
 70
     8
  0
VERTEX
  8
ガラス
 10
15.2
 20
-106.15
 70
     8
  0
VERTEX
  8
ガラス
 10
15.3
 20
-106.15
 70
     8
  0
VERTEX
  8
ガラス
 10
15.375
 20
-106.15
 70
     8
  0
VERTEX
  8
ガラス
 10
15.475
 20
-106.125
 70
     8
  0
VERTEX
  8
ガラス
 10
15.575
 20
-106.125
 70
     8
  0
VERTEX
  8
ガラス
 10
15.65
 20
-106.125
 70
     8
  0
VERTEX
  8
ガラス
 10
15.75
 20
-106.125
 70
     8
  0
VERTEX
  8
ガラス
 10
15.825
 20
-106.125
 70
     8
  0
VERTEX
  8
ガラス
 10
15.925
 20
-106.125
 70
     8
  0
VERTEX
  8
ガラス
 10
16.0
 20
-106.15
 70
     8
  0
VERTEX
  8
ガラス
 10
16.1
 20
-106.15
 70
     8
  0
VERTEX
  8
ガラス
 10
16.175
 20
-106.175
 70
     8
  0
VERTEX
  8
ガラス
 10
16.25
 20
-106.175
 70
     8
  0
VERTEX
  8
ガラス
 10
16.325
 20
-106.2
 70
     8
  0
VERTEX
  8
ガラス
 10
16.425
 20
-106.225
 70
     8
  0
VERTEX
  8
ガラス
 10
16.5
 20
-106.25
 70
     8
  0
VERTEX
  8
ガラス
 10
16.575
 20
-106.275
 70
     8
  0
VERTEX
  8
ガラス
 10
16.65
 20
-106.325
 70
     8
  0
VERTEX
  8
ガラス
 10
16.725
 20
-106.35
 70
     8
  0
VERTEX
  8
ガラス
 10
16.8
 20
-106.4
 70
     8
  0
VERTEX
  8
ガラス
 10
16.875
 20
-106.45
 70
     8
  0
VERTEX
  8
ガラス
 10
16.925
 20
-106.475
 70
     8
  0
VERTEX
  8
ガラス
 10
17.0
 20
-106.55
 70
     8
  0
VERTEX
  8
ガラス
 10
17.075
 20
-106.6
 70
     8
  0
VERTEX
  8
ガラス
 10
17.125
 20
-106.65
 70
     8
  0
VERTEX
  8
ガラス
 10
17.2
 20
-106.7
 70
     8
  0
VERTEX
  8
ガラス
 10
17.275
 20
-106.775
 70
     8
  0
VERTEX
  8
ガラス
 10
17.325
 20
-106.825
 70
     8
  0
VERTEX
  8
ガラス
 10
17.4
 20
-106.9
 70
     8
  0
VERTEX
  8
ガラス
 10
17.45
 20
-106.95
 70
     8
  0
VERTEX
  8
ガラス
 10
17.525
 20
-107.025
 70
     8
  0
VERTEX
  8
ガラス
 10
17.575
 20
-107.1
 70
     8
  0
VERTEX
  8
ガラス
 10
17.65
 20
-107.175
 70
     8
  0
VERTEX
  8
ガラス
 10
17.7
 20
-107.225
 70
     8
  0
VERTEX
  8
ガラス
 10
17.775
 20
-107.3
 70
     8
  0
VERTEX
  8
ガラス
 10
17.825
 20
-107.375
 70
     8
  0
SEQEND
  0
POLYLINE
  8
ガラス
  6
CONTINUOUS
 66
     1
 70
     4
  0
VERTEX
  8
ガラス
 10
17.825
 20
-107.375
 70
     8
  0
VERTEX
  8
ガラス
 10
17.775
 20
-107.375
 70
     8
  0
VERTEX
  8
ガラス
 10
17.7
 20
-107.375
 70
     8
  0
VERTEX
  8
ガラス
 10
17.65
 20
-107.4
 70
     8
  0
VERTEX
  8
ガラス
 10
17.575
 20
-107.4
 70
     8
  0
VERTEX
  8
ガラス
 10
17.525
 20
-107.4
 70
     8
  0
VERTEX
  8
ガラス
 10
17.45
 20
-107.425
 70
     8
  0
VERTEX
  8
ガラス
 10
17.4
 20
-107.425
 70
     8
  0
VERTEX
  8
ガラス
 10
17.35
 20
-107.425
 70
     8
  0
VERTEX
  8
ガラス
 10
17.275
 20
-107.45
 70
     8
  0
VERTEX
  8
ガラス
 10
17.225
 20
-107.45
 70
     8
  0
VERTEX
  8
ガラス
 10
17.15
 20
-107.45
 70
     8
  0
VERTEX
  8
ガラス
 10
17.1
 20
-107.475
 70
     8
  0
VERTEX
  8
ガラス
 10
17.025
 20
-107.475
 70
     8
  0
VERTEX
  8
ガラス
 10
16.975
 20
-107.475
 70
     8
  0
VERTEX
  8
ガラス
 10
16.925
 20
-107.5
 70
     8
  0
VERTEX
  8
ガラス
 10
16.85
 20
-107.5
 70
     8
  0
VERTEX
  8
ガラス
 10
16.8
 20
-107.525
 70
     8
  0
VERTEX
  8
ガラス
 10
16.725
 20
-107.525
 70
     8
  0
VERTEX
  8
ガラス
 10
16.675
 20
-107.55
 70
     8
  0
VERTEX
  8
ガラス
 10
16.625
 20
-107.55
 70
     8
  0
VERTEX
  8
ガラス
 10
16.55
 20
-107.575
 70
     8
  0
VERTEX
  8
ガラス
 10
16.5
 20
-107.6
 70
     8
  0
VERTEX
  8
ガラス
 10
16.45
 20
-107.6
 70
     8
  0
VERTEX
  8
ガラス
 10
16.375
 20
-107.625
 70
     8
  0
VERTEX
  8
ガラス
 10
16.325
 20
-107.65
 70
     8
  0
VERTEX
  8
ガラス
 10
16.275
 20
-107.65
 70
     8
  0
VERTEX
  8
ガラス
 10
16.2
 20
-107.675
 70
     8
  0
VERTEX
  8
ガラス
 10
16.15
 20
-107.7
 70
     8
  0
VERTEX
  8
ガラス
 10
16.1
 20
-107.725
 70
     8
  0
VERTEX
  8
ガラス
 10
16.025
 20
-107.75
 70
     8
  0
VERTEX
  8
ガラス
 10
15.975
 20
-107.775
 70
     8
  0
VERTEX
  8
ガラス
 10
15.925
 20
-107.775
 70
     8
  0
VERTEX
  8
ガラス
 10
15.85
 20
-107.8
 70
     8
  0
VERTEX
  8
ガラス
 10
15.8
 20
-107.825
 70
     8
  0
VERTEX
  8
ガラス
 10
15.75
 20
-107.85
 70
     8
  0
VERTEX
  8
ガラス
 10
15.7
 20
-107.875
 70
     8
  0
VERTEX
  8
ガラス
 10
15.625
 20
-107.9
 70
     8
  0
VERTEX
  8
ガラス
 10
15.575
 20
-107.925
 70
     8
  0
VERTEX
  8
ガラス
 10
15.525
 20
-107.95
 70
     8
  0
VERTEX
  8
ガラス
 10
15.45
 20
-107.975
 70
     8
  0
SEQEND
  0
ARC
  8
ガラス
  6
CONTINUOUS
 10
15.111993
 20
-107.075659
 40
0.955135
 50
112.264588
 51
292.264588
  0
ENDBLK
  0
BLOCK
  2
*GRP_0084
 70
    65
 10
0.0
 20
0.0
  0
POLYLINE
  8
ガラス
  6
CONTINUOUS
 66
     1
 70
     4
  0
VERTEX
  8
ガラス
 10
-12.5
 20
-106.2
 70
     8
  0
VERTEX
  8
ガラス
 10
-12.425
 20
-106.2
 70
     8
  0
VERTEX
  8
ガラス
 10
-12.325
 20
-106.175
 70
     8
  0
VERTEX
  8
ガラス
 10
-12.225
 20
-106.175
 70
     8
  0
VERTEX
  8
ガラス
 10
-12.15
 20
-106.175
 70
     8
  0
VERTEX
  8
ガラス
 10
-12.05
 20
-106.15
 70
     8
  0
VERTEX
  8
ガラス
 10
-11.95
 20
-106.15
 70
     8
  0
VERTEX
  8
ガラス
 10
-11.875
 20
-106.15
 70
     8
  0
VERTEX
  8
ガラス
 10
-11.775
 20
-106.125
 70
     8
  0
VERTEX
  8
ガラス
 10
-11.675
 20
-106.125
 70
     8
  0
VERTEX
  8
ガラス
 10
-11.6
 20
-106.125
 70
     8
  0
VERTEX
  8
ガラス
 10
-11.5
 20
-106.125
 70
     8
  0
VERTEX
  8
ガラス
 10
-11.425
 20
-106.125
 70
     8
  0
VERTEX
  8
ガラス
 10
-11.325
 20
-106.125
 70
     8
  0
VERTEX
  8
ガラス
 10
-11.25
 20
-106.15
 70
     8
  0
VERTEX
  8
ガラス
 10
-11.15
 20
-106.15
 70
     8
  0
VERTEX
  8
ガラス
 10
-11.075
 20
-106.175
 70
     8
  0
VERTEX
  8
ガラス
 10
-11.0
 20
-106.175
 70
     8
  0
VERTEX
  8
ガラス
 10
-10.9
 20
-106.2
 70
     8
  0
VERTEX
  8
ガラス
 10
-10.825
 20
-106.225
 70
     8
  0
VERTEX
  8
ガラス
 10
-10.75
 20
-106.25
 70
     8
  0
VERTEX
  8
ガラス
 10
-10.675
 20
-106.275
 70
     8
  0
VERTEX
  8
ガラス
 10
-10.6
 20
-106.325
 70
     8
  0
VERTEX
  8
ガラス
 10
-10.525
 20
-106.35
 70
     8
  0
VERTEX
  8
ガラス
 10
-10.45
 20
-106.4
 70
     8
  0
VERTEX
  8
ガラス
 10
-10.375
 20
-106.45
 70
     8
  0
VERTEX
  8
ガラス
 10
-10.325
 20
-106.475
 70
     8
  0
VERTEX
  8
ガラス
 10
-10.25
 20
-106.55
 70
     8
  0
VERTEX
  8
ガラス
 10
-10.175
 20
-106.6
 70
     8
  0
VERTEX
  8
ガラス
 10
-10.1
 20
-106.65
 70
     8
  0
VERTEX
  8
ガラス
 10
-10.05
 20
-106.7
 70
     8
  0
VERTEX
  8
ガラス
 10
-9.975
 20
-106.775
 70
     8
  0
VERTEX
  8
ガラス
 10
-9.925
 20
-106.825
 70
     8
  0
VERTEX
  8
ガラス
 10
-9.85
 20
-106.9
 70
     8
  0
VERTEX
  8
ガラス
 10
-9.8
 20
-106.95
 70
     8
  0
VERTEX
  8
ガラス
 10
-9.725
 20
-107.025
 70
     8
  0
VERTEX
  8
ガラス
 10
-9.675
 20
-107.1
 70
     8
  0
VERTEX
  8
ガラス
 10
-9.6
 20
-107.175
 70
     8
  0
VERTEX
  8
ガラス
 10
-9.55
 20
-107.225
 70
     8
  0
VERTEX
  8
ガラス
 10
-9.475
 20
-107.3
 70
     8
  0
VERTEX
  8
ガラス
 10
-9.425
 20
-107.375
 70
     8
  0
SEQEND
  0
POLYLINE
  8
ガラス
  6
CONTINUOUS
 66
     1
 70
     4
  0
VERTEX
  8
ガラス
 10
-9.425
 20
-107.375
 70
     8
  0
VERTEX
  8
ガラス
 10
-9.475
 20
-107.375
 70
     8
  0
VERTEX
  8
ガラス
 10
-9.55
 20
-107.375
 70
     8
  0
VERTEX
  8
ガラス
 10
-9.6
 20
-107.4
 70
     8
  0
VERTEX
  8
ガラス
 10
-9.675
 20
-107.4
 70
     8
  0
VERTEX
  8
ガラス
 10
-9.725
 20
-107.4
 70
     8
  0
VERTEX
  8
ガラス
 10
-9.8
 20
-107.425
 70
     8
  0
VERTEX
  8
ガラス
 10
-9.85
 20
-107.425
 70
     8
  0
VERTEX
  8
ガラス
 10
-9.9
 20
-107.425
 70
     8
  0
VERTEX
  8
ガラス
 10
-9.975
 20
-107.45
 70
     8
  0
VERTEX
  8
ガラス
 10
-10.025
 20
-107.45
 70
     8
  0
VERTEX
  8
ガラス
 10
-10.1
 20
-107.45
 70
     8
  0
VERTEX
  8
ガラス
 10
-10.15
 20
-107.475
 70
     8
  0
VERTEX
  8
ガラス
 10
-10.225
 20
-107.475
 70
     8
  0
VERTEX
  8
ガラス
 10
-10.275
 20
-107.475
 70
     8
  0
VERTEX
  8
ガラス
 10
-10.325
 20
-107.5
 70
     8
  0
VERTEX
  8
ガラス
 10
-10.4
 20
-107.5
 70
     8
  0
VERTEX
  8
ガラス
 10
-10.45
 20
-107.525
 70
     8
  0
VERTEX
  8
ガラス
 10
-10.525
 20
-107.525
 70
     8
  0
VERTEX
  8
ガラス
 10
-10.575
 20
-107.55
 70
     8
  0
VERTEX
  8
ガラス
 10
-10.625
 20
-107.55
 70
     8
  0
VERTEX
  8
ガラス
 10
-10.7
 20
-107.575
 70
     8
  0
VERTEX
  8
ガラス
 10
-10.75
 20
-107.6
 70
     8
  0
VERTEX
  8
ガラス
 10
-10.8
 20
-107.6
 70
     8
  0
VERTEX
  8
ガラス
 10
-10.875
 20
-107.625
 70
     8
  0
VERTEX
  8
ガラス
 10
-10.925
 20
-107.65
 70
     8
  0
VERTEX
  8
ガラス
 10
-10.975
 20
-107.65
 70
     8
  0
VERTEX
  8
ガラス
 10
-11.05
 20
-107.675
 70
     8
  0
VERTEX
  8
ガラス
 10
-11.1
 20
-107.7
 70
     8
  0
VERTEX
  8
ガラス
 10
-11.15
 20
-107.725
 70
     8
  0
VERTEX
  8
ガラス
 10
-11.225
 20
-107.75
 70
     8
  0
VERTEX
  8
ガラス
 10
-11.275
 20
-107.775
 70
     8
  0
VERTEX
  8
ガラス
 10
-11.325
 20
-107.775
 70
     8
  0
VERTEX
  8
ガラス
 10
-11.4
 20
-107.8
 70
     8
  0
VERTEX
  8
ガラス
 10
-11.45
 20
-107.825
 70
     8
  0
VERTEX
  8
ガラス
 10
-11.5
 20
-107.85
 70
     8
  0
VERTEX
  8
ガラス
 10
-11.55
 20
-107.875
 70
     8
  0
VERTEX
  8
ガラス
 10
-11.625
 20
-107.9
 70
     8
  0
VERTEX
  8
ガラス
 10
-11.675
 20
-107.925
 70
     8
  0
VERTEX
  8
ガラス
 10
-11.725
 20
-107.95
 70
     8
  0
VERTEX
  8
ガラス
 10
-11.775
 20
-107.975
 70
     8
  0
SEQEND
  0
ARC
  8
ガラス
  6
CONTINUOUS
 10
-12.135749
 20
-107.075659
 40
0.955135
 50
112.264588
 51
292.264588
  0
ENDBLK
  0
ENDSEC
  0
SECTION
  2
ENTITIES
  0
POLYLINE
  8
通り芯
  6
CONTINUOUS
 66
     1
 70
     1
  0
VERTEX
  8
通り芯
 10
-210.0
 20
-148.5
  0
VERTEX
  8
通り芯
 10
210.0
 20
-148.5
  0
VERTEX
  8
通り芯
 10
210.0
 20
148.5
  0
VERTEX
  8
通り芯
 10
-210.0
 20
148.5
  0
SEQEND
  0
ARC
  8
通り芯
  6
CONTINUOUS
 62
    15
 10
-15.604156
 20
-105.342665
 40
3.0
 50
180.0
 51
270.0
  0
LINE
  8
通り芯
  6
CONTINUOUS
 62
    15
 10
-18.604158
 20
-108.342665
 11
-18.604158
 21
-87.342665
  0
LINE
  8
通り芯
  6
CONTINUOUS
 62
    15
 10
-18.604158
 20
-87.342665
 11
-15.604158
 21
-87.342665
  0
LINE
  8
通り芯
  6
CONTINUOUS
 62
    15
 10
-15.604158
 20
-105.342665
 11
-15.604158
 21
-87.342665
  0
LINE
  8
通り芯
  6
CONTINUOUS
 62
    15
 10
-8.104158
 20
-105.342665
 11
-8.104158
 21
-108.342665
  0
LINE
  8
通り芯
  6
CONTINUOUS
 62
    15
 10
-4.104158
 20
-105.342665
 11
-4.104158
 21
-108.342665
  0
LINE
  8
通り芯
  6
CONTINUOUS
 62
    15
 10
-4.104158
 20
-106.092665
 11
-8.104158
 21
-106.092665
  0
LINE
  8
通り芯
  6
CONTINUOUS
 62
    15
 10
-4.104158
 20
-106.842665
 11
-8.104158
 21
-106.842665
  0
LINE
  8
通り芯
  6
CONTINUOUS
 62
    15
 10
-4.104158
 20
-107.592665
 11
-8.104158
 21
-107.592665
  0
ARC
  8
通り芯
  6
CONTINUOUS
 62
    15
 10
15.895799
 20
-105.342665
 40
3.0
 50
270.0
 51
360.0
  0
LINE
  8
通り芯
  6
CONTINUOUS
 62
    15
 10
15.895797
 20
-68.842665
 11
18.895797
 21
-68.842665
  0
LINE
  8
通り芯
  6
CONTINUOUS
 62
    15
 10
15.895797
 20
-63.842665
 11
18.895797
 21
-63.842665
  0
LINE
  8
通り芯
  6
CONTINUOUS
 62
    15
 10
16.645797
 20
-63.842665
 11
16.645797
 21
-68.842665
  0
LINE
  8
通り芯
  6
CONTINUOUS
 62
    15
 10
17.395797
 20
-63.842665
 11
17.395797
 21
-68.842665
  0
LINE
  8
通り芯
  6
CONTINUOUS
 62
    15
 10
18.145797
 20
-63.842665
 11
18.145797
 21
-68.842665
  0
LINE
  8
通り芯
  6
CONTINUOUS
 62
    15
 10
15.895797
 20
-88.842665
 11
18.895797
 21
-88.842665
  0
LINE
  8
通り芯
  6
CONTINUOUS
 62
    15
 10
15.895797
 20
-83.842665
 11
18.895797
 21
-83.842665
  0
LINE
  8
通り芯
  6
CONTINUOUS
 62
    15
 10
16.645797
 20
-83.842665
 11
16.645797
 21
-88.842665
  0
LINE
  8
通り芯
  6
CONTINUOUS
 62
    15
 10
17.395797
 20
-83.842665
 11
17.395797
 21
-88.842665
  0
LINE
  8
通り芯
  6
CONTINUOUS
 62
    15
 10
18.145797
 20
-83.842665
 11
18.145797
 21
-88.842665
  0
LINE
  8
通り芯
  6
CONTINUOUS
 62
    15
 10
-15.604158
 20
-105.342665
 11
15.895797
 21
-105.342665
  0
LINE
  8
通り芯
  6
CONTINUOUS
 62
    15
 10
-18.604158
 20
-108.342665
 11
18.895797
 21
-108.342665
  0
LINE
  8
通り芯
  6
CONTINUOUS
 62
    15
 10
-8.104158
 20
-105.342665
 11
-8.104158
 21
-108.342665
  0
LINE
  8
通り芯
  6
CONTINUOUS
 62
    15
 10
-4.104158
 20
-105.342665
 11
-4.104158
 21
-108.342665
  0
LINE
  8
通り芯
  6
CONTINUOUS
 62
    15
 10
-4.104158
 20
-106.092665
 11
-8.104158
 21
-106.092665
  0
LINE
  8
通り芯
  6
CONTINUOUS
 62
    15
 10
-4.104158
 20
-106.842665
 11
-8.104158
 21
-106.842665
  0
LINE
  8
通り芯
  6
CONTINUOUS
 62
    15
 10
-4.104158
 20
-107.592665
 11
-8.104158
 21
-107.592665
  0
LINE
  8
通り芯
  6
CONTINUOUS
 62
    15
 10
15.895797
 20
-105.342665
 11
15.895797
 21
-12.842665
  0
LINE
  8
通り芯
  6
CONTINUOUS
 62
    15
 10
15.895797
 20
-12.842665
 11
18.895797
 21
-12.842665
  0
LINE
  8
通り芯
  6
CONTINUOUS
 62
    15
 10
18.895797
 20
-108.342665
 11
18.895797
 21
-12.842665
  0
LINE
  8
通り芯
  6
CONTINUOUS
 62
    15
 10
15.895797
 20
-18.092665
 11
18.895797
 21
-18.092665
  0
LINE
  8
通り芯
  6
CONTINUOUS
 62
    15
 10
15.895797
 20
-14.592665
 11
18.895797
 21
-14.592665
  0
LINE
  8
通り芯
  6
CONTINUOUS
 62
    15
 10
16.645797
 20
-14.592665
 11
16.645797
 21
-18.092665
  0
LINE
  8
通り芯
  6
CONTINUOUS
 62
    15
 10
17.395797
 20
-14.592665
 11
17.395797
 21
-18.092665
  0
LINE
  8
通り芯
  6
CONTINUOUS
 62
    15
 10
18.145797
 20
-14.592665
 11
18.145797
 21
-18.092665
  0
LINE
  8
通り芯
  6
CONTINUOUS
 62
    15
 10
15.895797
 20
-93.342665
 11
18.895797
 21
-93.342665
  0
LINE
  8
通り芯
  6
CONTINUOUS
 62
    15
 10
15.895797
 20
-97.342665
 11
18.895797
 21
-97.342665
  0
LINE
  8
通り芯
  6
CONTINUOUS
 62
    15
 10
16.645797
 20
-93.342665
 11
16.645797
 21
-97.342665
  0
LINE
  8
通り芯
  6
CONTINUOUS
 62
    15
 10
17.395797
 20
-93.342665
 11
17.395797
 21
-97.342665
  0
LINE
  8
通り芯
  6
CONTINUOUS
 62
    15
 10
18.145797
 20
-93.342665
 11
18.145797
 21
-97.342665
  0
LINE
  8
通り芯
  6
CONTINUOUS
 62
    15
 10
9.945808
 20
61.15734
 11
9.945808
 21
58.15734
  0
LINE
  8
通り芯
  6
CONTINUOUS
 62
    15
 10
5.945808
 20
61.15734
 11
5.945808
 21
58.15734
  0
ARC
  8
通り芯
  6
CONTINUOUS
 62
    15
 10
-1.504183
 20
58.157338
 40
3.0
 50
90.0
 51
180.0
  0
LINE
  8
通り芯
  6
CONTINUOUS
 62
    15
 10
-4.504187
 20
40.15734
 11
-1.504187
 21
40.15734
  0
LINE
  8
通り芯
  6
CONTINUOUS
 62
    15
 10
-4.504187
 20
61.15734
 11
-4.504187
 21
40.15734
  0
LINE
  8
通り芯
  6
CONTINUOUS
 62
    15
 10
9.945808
 20
60.40734
 11
5.945808
 21
60.40734
  0
LINE
  8
通り芯
  6
CONTINUOUS
 62
    15
 10
9.945808
 20
59.65734
 11
5.945808
 21
59.65734
  0
LINE
  8
通り芯
  6
CONTINUOUS
 62
    15
 10
9.945808
 20
58.90734
 11
5.945808
 21
58.90734
  0
LINE
  8
通り芯
  6
CONTINUOUS
 62
    15
 10
15.895797
 20
58.15734
 11
15.895797
 21
11.15734
  0
ARC
  8
通り芯
  6
CONTINUOUS
 62
    15
 10
15.895802
 20
58.157338
 40
3.0
 50
0.0
 51
90.0
  0
LINE
  8
通り芯
  6
CONTINUOUS
 62
    15
 10
15.895797
 20
36.65734
 11
18.895797
 21
36.65734
  0
LINE
  8
通り芯
  6
CONTINUOUS
 62
    15
 10
15.895797
 20
41.65734
 11
18.895797
 21
41.65734
  0
LINE
  8
通り芯
  6
CONTINUOUS
 62
    15
 10
16.645797
 20
41.65734
 11
16.645797
 21
36.65734
  0
LINE
  8
通り芯
  6
CONTINUOUS
 62
    15
 10
17.395797
 20
41.65734
 11
17.395797
 21
36.65734
  0
LINE
  8
通り芯
  6
CONTINUOUS
 62
    15
 10
18.145797
 20
41.65734
 11
18.145797
 21
36.65734
  0
LINE
  8
通り芯
  6
CONTINUOUS
 62
    15
 10
15.895797
 20
16.65734
 11
18.895797
 21
16.65734
  0
LINE
  8
通り芯
  6
CONTINUOUS
 62
    15
 10
15.895797
 20
21.65734
 11
18.895797
 21
21.65734
  0
LINE
  8
通り芯
  6
CONTINUOUS
 62
    15
 10
16.645797
 20
21.65734
 11
16.645797
 21
16.65734
  0
LINE
  8
通り芯
  6
CONTINUOUS
 62
    15
 10
17.395797
 20
21.65734
 11
17.395797
 21
16.65734
  0
LINE
  8
通り芯
  6
CONTINUOUS
 62
    15
 10
18.145797
 20
21.65734
 11
18.145797
 21
16.65734
  0
LINE
  8
通り芯
  6
CONTINUOUS
 62
    15
 10
-1.504187
 20
58.15734
 11
15.895797
 21
58.15734
  0
LINE
  8
通り芯
  6
CONTINUOUS
 62
    15
 10
-4.504187
 20
61.15734
 11
18.895802
 21
61.15734
  0
LINE
  8
通り芯
  6
CONTINUOUS
 62
    15
 10
-1.504187
 20
58.15734
 11
-1.504187
 21
11.15734
  0
LINE
  8
通り芯
  6
CONTINUOUS
 62
    15
 10
18.895797
 20
11.15734
 11
-1.504187
 21
11.15734
  0
LINE
  8
通り芯
  6
CONTINUOUS
 10
18.895802
 20
61.15734
 11
18.895797
 21
11.15734
  0
INSERT
  2
*GRP_0022
  8
通り芯
  6
CONTINUOUS
 10
0.0
 20
0.0
  0
INSERT
  2
*GRP_0001
  8
型材断面
  6
CONTINUOUS
 10
0.0
 20
0.0
  0
INSERT
  2
*GRP_0002
  8
型材断面
  6
CONTINUOUS
 62
    47
 10
0.0
 20
0.0
  0
LINE
  8
型材断面
  6
CONTINUOUS
 62
    47
 10
-9.104158
 20
-109.842665
 11
-8.270827
 21
-108.342665
  0
LINE
  8
型材断面
  6
CONTINUOUS
 62
    47
 10
-3.937493
 20
-108.342665
 11
-3.104158
 21
-109.842665
  0
LINE
  8
型材断面
  6
CONTINUOUS
 62
    47
 10
-3.729158
 20
-108.717665
 11
-8.479158
 21
-108.717665
  0
LINE
  8
型材断面
  6
CONTINUOUS
 62
    47
 10
-3.520823
 20
-109.092665
 11
-8.687493
 21
-109.092665
  0
LINE
  8
型材断面
  6
CONTINUOUS
 62
    47
 10
-3.312493
 20
-109.467665
 11
-8.895823
 21
-109.467665
  0
LINE
  8
型材断面
  6
DASHDOT
 62
    47
 10
21.895797
 20
-16.342665
 11
15.253667
 21
-16.342665
  0
LINE
  8
型材断面
  6
CONTINUOUS
 62
    47
 10
20.395797
 20
-20.342665
 11
18.895797
 21
-20.342665
  0
LINE
  8
型材断面
  6
CONTINUOUS
 62
    47
 10
20.395797
 20
-20.342665
 11
18.895797
 21
-20.342665
  0
LINE
  8
型材断面
  6
CONTINUOUS
 62
    47
 10
20.395797
 20
-69.342665
 11
18.895797
 21
-69.342665
  0
LINE
  8
型材断面
  6
CONTINUOUS
 62
    47
 10
20.395797
 20
-63.342665
 11
18.895797
 21
-63.342665
  0
LINE
  8
型材断面
  6
CONTINUOUS
 62
    47
 10
19.270797
 20
-63.342665
 11
19.270797
 21
-69.342665
  0
LINE
  8
型材断面
  6
CONTINUOUS
 62
    47
 10
19.645797
 20
-63.342665
 11
19.645797
 21
-69.342665
  0
LINE
  8
型材断面
  6
CONTINUOUS
 62
    47
 10
20.020797
 20
-63.342665
 11
20.020797
 21
-69.342665
  0
LINE
  8
型材断面
  6
CONTINUOUS
 62
    47
 10
20.395797
 20
-89.342665
 11
18.895797
 21
-89.342665
  0
LINE
  8
型材断面
  6
CONTINUOUS
 62
    47
 10
20.395797
 20
-83.342665
 11
18.895797
 21
-83.342665
  0
LINE
  8
型材断面
  6
CONTINUOUS
 62
    47
 10
19.270797
 20
-83.342665
 11
19.270797
 21
-89.342665
  0
LINE
  8
型材断面
  6
CONTINUOUS
 62
    47
 10
19.645797
 20
-83.342665
 11
19.645797
 21
-89.342665
  0
LINE
  8
型材断面
  6
CONTINUOUS
 62
    47
 10
20.020797
 20
-83.342665
 11
20.020797
 21
-89.342665
  0
LINE
  8
型材断面
  6
CONTINUOUS
 62
    47
 10
18.895797
 20
-20.342665
 11
20.395797
 21
-20.342665
  0
LINE
  8
型材断面
  6
CONTINUOUS
 62
    47
 10
20.395797
 20
-108.342665
 11
20.395797
 21
-20.342665
  0
LINE
  8
型材断面
  6
CONTINUOUS
 62
    47
 10
20.395797
 20
-92.842665
 11
18.895797
 21
-92.842665
  0
LINE
  8
型材断面
  6
CONTINUOUS
 62
    47
 10
20.395797
 20
-97.842665
 11
18.895797
 21
-97.842665
  0
LINE
  8
型材断面
  6
CONTINUOUS
 62
    47
 10
19.270797
 20
-92.842665
 11
19.270797
 21
-97.842665
  0
LINE
  8
型材断面
  6
CONTINUOUS
 62
    47
 10
19.645797
 20
-92.842665
 11
19.645797
 21
-97.842665
  0
LINE
  8
型材断面
  6
CONTINUOUS
 62
    47
 10
20.020797
 20
-92.842665
 11
20.020797
 21
-97.842665
  0
LINE
  8
型材断面
  6
CONTINUOUS
 62
    47
 10
-4.504187
 20
-2.842665
 11
-4.504187
 21
-17.342665
  0
INSERT
  2
*GRP_0003
  8
型材断面
  6
CONTINUOUS
 10
0.0
 20
0.0
  0
LINE
  8
型材断面
  6
DASHDOT
 10
38.895812
 20
62.657335
 11
38.895812
 21
-117.944645
  0
INSERT
  2
*GRP_0023
  8
型材断面
  6
CONTINUOUS
 10
0.0
 20
0.0
  0
INSERT
  2
*GRP_0024
  8
型材断面
  6
CONTINUOUS
 62
    47
 10
0.0
 20
0.0
  0
INSERT
  2
*GRP_0025
  8
型材断面
  6
CONTINUOUS
 10
0.0
 20
0.0
  0
LINE
  8
型材断面
  6
CONTINUOUS
 62
    47
 10
33.795923
 20
62.65734
 11
33.795923
 21
61.15734
  0
LINE
  8
型材断面
  6
CONTINUOUS
 62
    47
 10
25.795923
 20
62.65734
 11
25.795923
 21
61.15734
  0
LINE
  8
型材断面
  6
CONTINUOUS
 62
    47
 10
34.795923
 20
62.65734
 11
34.795923
 21
61.15734
  0
LINE
  8
型材断面
  6
CONTINUOUS
 62
    47
 10
24.795923
 20
62.65734
 11
24.795923
 21
61.15734
  0
LINE
  8
型材断面
  6
CONTINUOUS
 62
    47
 10
34.795923
 20
62.28234
 11
24.795923
 21
62.28234
  0
LINE
  8
型材断面
  6
CONTINUOUS
 62
    47
 10
34.795923
 20
61.90734
 11
24.795923
 21
61.90734
  0
LINE
  8
型材断面
  6
CONTINUOUS
 62
    47
 10
34.795923
 20
61.53234
 11
24.795923
 21
61.53234
  0
ARC
  8
型材断面
  6
CONTINUOUS
 10
-29.277382
 20
38.657341
 40
0.695595
 50
270.0
 51
270.0
  0
LINE
  8
型材断面
  6
CONTINUOUS
 62
    47
 10
-28.604158
 20
38.65734
 11
-27.770823
 21
37.15734
  0
LINE
  8
型材断面
  6
CONTINUOUS
 62
    47
 10
-23.437488
 20
37.15734
 11
-22.604158
 21
38.65734
  0
LINE
  8
型材断面
  6
CONTINUOUS
 62
    47
 10
-22.812488
 20
38.28234
 11
-28.395823
 21
38.28234
  0
LINE
  8
型材断面
  6
CONTINUOUS
 62
    47
 10
-23.020823
 20
37.90734
 11
-28.187493
 21
37.90734
  0
LINE
  8
型材断面
  6
CONTINUOUS
 62
    47
 10
-23.229158
 20
37.53234
 11
-27.979158
 21
37.53234
  0
LINE
  8
型材断面
  6
CONTINUOUS
 62
    47
 10
-6.004187
 20
-8.842665
 11
-4.504187
 21
-9.675995
  0
LINE
  8
型材断面
  6
CONTINUOUS
 62
    47
 10
-6.004187
 20
-14.842665
 11
-4.504187
 21
-14.00933
  0
LINE
  8
型材断面
  6
CONTINUOUS
 62
    47
 10
-5.629187
 20
-9.050995
 11
-5.629187
 21
-14.63433
  0
LINE
  8
型材断面
  6
CONTINUOUS
 62
    47
 10
-5.254187
 20
-9.25933
 11
-5.254187
 21
-14.425995
  0
LINE
  8
型材断面
  6
CONTINUOUS
 62
    47
 10
-4.879187
 20
-9.467665
 11
-4.879187
 21
-14.217665
  0
INSERT
  2
*GRP_0026
  8
型材断面
  6
CONTINUOUS
 62
    47
 10
0.0
 20
0.0
  0
LINE
  8
型材断面
  6
CONTINUOUS
 62
    47
 10
-23.854158
 20
35.65734
 11
-23.854158
 21
37.15734
  0
LINE
  8
型材断面
  6
CONTINUOUS
 62
    47
 10
-27.354158
 20
35.65734
 11
-27.354158
 21
37.15734
  0
LINE
  8
型材断面
  6
CONTINUOUS
 62
    47
 10
-23.854158
 20
36.78234
 11
-27.354158
 21
36.78234
  0
LINE
  8
型材断面
  6
CONTINUOUS
 62
    47
 10
-23.854158
 20
36.40734
 11
-27.354158
 21
36.40734
  0
LINE
  8
型材断面
  6
CONTINUOUS
 62
    47
 10
-23.854158
 20
36.03234
 11
-27.354158
 21
36.03234
  0
LINE
  8
型材断面
  6
DASHDOT
 62
    47
 10
-25.604158
 20
39.802115
 11
-25.604158
 21
33.89651
  0
LINE
  8
型材断面
  6
CONTINUOUS
 10
7.945808
 20
61.15734
 11
7.945808
 21
65.125935
  0
LINE
  8
型材断面
  6
CONTINUOUS
 10
5.154142
 20
62.28234
 11
10.737472
 21
62.28234
  0
LINE
  8
型材断面
  6
CONTINUOUS
 10
5.362472
 20
61.90734
 11
10.529142
 21
61.90734
  0
LINE
  8
型材断面
  6
CONTINUOUS
 10
5.570808
 20
61.53234
 11
10.320808
 21
61.53234
  0
ARC
  8
型材断面
  6
CONTINUOUS
 62
    47
 10
-3.004178
 20
-5.842672
 40
1.5
 50
90.0
 51
180.0
  0
LINE
  8
型材断面
  6
CONTINUOUS
 62
    47
 10
-3.004187
 20
-5.842665
 11
-3.004187
 21
-18.842665
  0
LINE
  8
型材断面
  6
CONTINUOUS
 62
    47
 10
-4.504187
 20
-18.842665
 11
-3.004187
 21
-18.842665
  0
LINE
  8
型材断面
  6
CONTINUOUS
 62
    47
 10
-4.504187
 20
-13.592665
 11
-3.004187
 21
-13.592665
  0
LINE
  8
型材断面
  6
CONTINUOUS
 62
    47
 10
-4.504187
 20
-10.092665
 11
-3.004187
 21
-10.092665
  0
LINE
  8
型材断面
  6
CONTINUOUS
 62
    47
 10
-4.129187
 20
-10.092665
 11
-4.129187
 21
-13.592665
  0
LINE
  8
型材断面
  6
CONTINUOUS
 62
    47
 10
-3.754187
 20
-10.092665
 11
-3.754187
 21
-13.592665
  0
LINE
  8
型材断面
  6
CONTINUOUS
 62
    47
 10
-3.379187
 20
-10.092665
 11
-3.379187
 21
-13.592665
  0
LINE
  8
型材断面
  6
CONTINUOUS
 62
    47
 10
-0.385772
 20
-11.842665
 11
-8.154572
 21
-11.842665
  0
LINE
  8
型材断面
  6
CONTINUOUS
 62
    47
 10
18.895802
 20
-4.342665
 11
18.895802
 21
61.15734
  0
ARC
  8
型材断面
  6
CONTINUOUS
 62
    47
 10
18.89581
 20
-4.342672
 40
1.5
 50
270.0
 51
360.0
  0
LINE
  8
型材断面
  6
CONTINUOUS
 62
    47
 10
20.395802
 20
-5.842665
 11
20.395802
 21
61.15734
  0
LINE
  8
型材断面
  6
CONTINUOUS
 62
    47
 10
18.895802
 20
42.15734
 11
20.395802
 21
42.15734
  0
LINE
  8
型材断面
  6
CONTINUOUS
 62
    47
 10
18.895802
 20
36.15734
 11
20.395802
 21
36.15734
  0
LINE
  8
型材断面
  6
CONTINUOUS
 62
    47
 10
19.270802
 20
42.15734
 11
19.270802
 21
36.15734
  0
LINE
  8
型材断面
  6
CONTINUOUS
 62
    47
 10
19.645802
 20
42.15734
 11
19.645802
 21
36.15734
  0
LINE
  8
型材断面
  6
CONTINUOUS
 62
    47
 10
20.020802
 20
42.15734
 11
20.020802
 21
36.15734
  0
LINE
  8
型材断面
  6
CONTINUOUS
 62
    47
 10
18.895802
 20
22.15734
 11
20.395802
 21
22.15734
  0
LINE
  8
型材断面
  6
CONTINUOUS
 62
    47
 10
18.895802
 20
16.15734
 11
20.395802
 21
16.15734
  0
LINE
  8
型材断面
  6
CONTINUOUS
 62
    47
 10
19.270802
 20
22.15734
 11
19.270802
 21
16.15734
  0
LINE
  8
型材断面
  6
CONTINUOUS
 62
    47
 10
19.645802
 20
22.15734
 11
19.645802
 21
16.15734
  0
LINE
  8
型材断面
  6
CONTINUOUS
 62
    47
 10
20.020802
 20
22.15734
 11
20.020802
 21
16.15734
  0
LINE
  8
型材断面
  6
CONTINUOUS
 62
    47
 10
-4.504187
 20
-4.342665
 11
18.895802
 21
-4.342665
  0
LINE
  8
型材断面
  6
CONTINUOUS
 62
    47
 10
-3.004187
 20
-5.842665
 11
20.395802
 21
-5.842665
  0
LINE
  8
型材断面
  6
CONTINUOUS
 62
    47
 10
18.895802
 20
61.15734
 11
20.395802
 21
61.15734
  0
LINE
  8
型材断面
  6
CONTINUOUS
 10
62.376418
 20
66.657345
 11
116.425182
 21
120.70611
  0
LINE
  8
型材断面
  6
CONTINUOUS
 10
55.30535
 20
66.657345
 11
109.354115
 21
120.70611
  0
LINE
  8
型材断面
  6
CONTINUOUS
 10
46.119765
 20
66.657345
 11
100.16853
 21
120.70611
  0
LINE
  8
型材断面
  6
CONTINUOUS
 10
34.092152
 20
66.657345
 11
88.140918
 21
120.70611
  0
LINE
  8
型材断面
  6
CONTINUOUS
 10
41.163218
 20
66.657345
 11
95.211982
 21
120.70611
  0
LINE
  8
型材断面
  6
CONTINUOUS
 10
15.000262
 20
66.657345
 11
69.049028
 21
120.70611
  0
LINE
  8
型材断面
  6
CONTINUOUS
 10
22.77844
 20
66.657345
 11
76.827205
 21
120.70611
  0
LINE
  8
型材断面
  6
CONTINUOUS
 10
57.734577
 20
120.70611
 11
12.302468
 21
75.274
  0
LINE
  8
型材断面
  6
CONTINUOUS
 10
24.077015
 20
120.70611
 11
2.54475
 21
99.173842
  0
LINE
  8
型材断面
  6
CONTINUOUS
 10
35.390345
 20
120.70611
 11
8.201415
 21
93.51718
  0
LINE
  8
型材断面
  6
CONTINUOUS
 10
2.544748
 20
99.173845
 11
12.444253
 21
89.274345
  0
INSERT
  2
*GRP_0027
  8
型材断面
  6
CONTINUOUS
 10
0.0
 20
0.0
  0
POLYLINE
  8
型材断面
  6
CONTINUOUS
 66
     1
  0
VERTEX
  8
型材断面
 10
38.895812
 20
62.657335
  0
VERTEX
  8
型材断面
 10
38.895812
 20
120.048478
  0
VERTEX
  8
型材断面
 10
169.090707
 20
120.048478
  0
SEQEND
  0
POLYLINE
  8
型材断面
  6
CONTINUOUS
 66
     1
  0
VERTEX
  8
型材断面
 10
169.090707
 20
120.048478
  0
VERTEX
  8
型材断面
 10
162.85857
 20
122.151725
  0
VERTEX
  8
型材断面
 10
162.77043
 20
120.048478
  0
SEQEND
  0
POLYLINE
  8
型材断面
  6
CONTINUOUS
 66
     1
  0
VERTEX
  8
型材断面
 10
166.502345
 20
120.048478
  0
VERTEX
  8
型材断面
 10
160.270207
 20
122.151725
  0
VERTEX
  8
型材断面
 10
160.182068
 20
120.048478
  0
SEQEND
  0
LINE
  8
型材断面
  6
CONTINUOUS
 10
169.574323
 20
114.172122
 11
96.395812
 21
114.172122
  0
POLYLINE
  8
型材断面
  6
CONTINUOUS
 66
     1
  0
VERTEX
  8
型材断面
 10
169.574323
 20
114.172122
  0
VERTEX
  8
型材断面
 10
163.342185
 20
116.27537
  0
VERTEX
  8
型材断面
 10
163.254045
 20
114.172122
  0
SEQEND
  0
POLYLINE
  8
型材断面
  6
CONTINUOUS
 66
     1
  0
VERTEX
  8
型材断面
 10
166.98596
 20
114.172122
  0
VERTEX
  8
型材断面
 10
160.753823
 20
116.27537
  0
VERTEX
  8
型材断面
 10
160.665683
 20
114.172122
  0
SEQEND
  0
LINE
  8
型材断面
  6
CONTINUOUS
 10
-11.597385
 20
82.910392
 11
-7.00119
 21
78.314198
  0
LINE
  8
型材断面
  6
CONTINUOUS
 10
0.069875
 20
85.385262
 11
-7.00119
 21
78.314198
  0
LINE
  8
型材断面
  6
CONTINUOUS
 10
-7.00119
 20
78.314198
 11
-4.526318
 21
89.98146
  0
LINE
  8
ガラス
  6
CONTINUOUS
 10
0.06988
 20
76.192867
 11
44.583122
 21
120.70611
  0
LINE
  8
ガラス
  6
CONTINUOUS
 10
-0.283673
 20
76.54642
 11
43.876017
 21
120.70611
  0
LINE
  8
ガラス
  6
CONTINUOUS
 10
4.1711
 20
72.091647
 11
52.785563
 21
120.70611
  0
LINE
  8
ガラス
  6
CONTINUOUS
 10
4.524653
 20
71.738095
 11
53.492668
 21
120.70611
  0
INSERT
  2
*GRP_0071
  8
ガラス
  6
CONTINUOUS
 10
0.0
 20
0.0
  0
INSERT
  2
*GRP_0072
  8
ガラス
  6
CONTINUOUS
 10
0.0
 20
0.0
  0
INSERT
  2
*GRP_0073
  8
ガラス
  6
CONTINUOUS
 10
0.0
 20
0.0
  0
INSERT
  2
*GRP_0074
  8
ガラス
  6
CONTINUOUS
 10
0.0
 20
0.0
  0
INSERT
  2
*GRP_0075
  8
ガラス
  6
CONTINUOUS
 10
0.0
 20
0.0
  0
INSERT
  2
*GRP_0076
  8
ガラス
  6
CONTINUOUS
 10
0.0
 20
0.0
  0
INSERT
  2
*GRP_0077
  8
ガラス
  6
CONTINUOUS
 10
0.0
 20
0.0
  0
INSERT
  2
*GRP_0078
  8
ガラス
  6
CONTINUOUS
 10
0.0
 20
0.0
  0
INSERT
  2
*GRP_0079
  8
ガラス
  6
CONTINUOUS
 10
0.0
 20
0.0
  0
INSERT
  2
*GRP_0080
  8
ガラス
  6
CONTINUOUS
 10
0.0
 20
0.0
  0
INSERT
  2
*GRP_0081
  8
ガラス
  6
CONTINUOUS
 10
0.0
 20
0.0
  0
INSERT
  2
*GRP_0082
  8
ガラス
  6
CONTINUOUS
 10
0.0
 20
0.0
  0
INSERT
  2
*GRP_0083
  8
ガラス
  6
CONTINUOUS
 10
0.0
 20
0.0
  0
INSERT
  2
*GRP_0084
  8
ガラス
  6
CONTINUOUS
 10
0.0
 20
0.0
  0
INSERT
  2
*GRP_0004
  8
ゴム等
  6
CONTINUOUS
 10
0.0
 20
0.0
  0
LINE
  8
ゴム等
  6
CONTINUOUS
 10
14.901078
 20
-66.342665
 11
24.262268
 21
-66.342665
  0
LINE
  8
ゴム等
  6
CONTINUOUS
 10
14.901078
 20
-86.342665
 11
24.262268
 21
-86.342665
  0
LINE
  8
ゴム等
  6
CONTINUOUS
 10
-6.104158
 20
-109.092665
 11
-6.104158
 21
-103.870085
  0
LINE
  8
ゴム等
  6
CONTINUOUS
 10
20.395797
 20
-95.342665
 11
14.713697
 21
-95.342665
  0
INSERT
  2
*GRP_0028
  8
ゴム等
  6
CONTINUOUS
 10
0.0
 20
0.0
  0
INSERT
  2
*GRP_0029
  8
ゴム等
  6
CONTINUOUS
 10
0.0
 20
0.0
  0
INSERT
  2
*GRP_0005
  8
ボルト／ビス
  6
CONTINUOUS
 10
0.0
 20
0.0
  0
INSERT
  2
*GRP_0006
  8
ボルト／ビス
  6
CONTINUOUS
 10
0.0
 20
0.0
  0
INSERT
  2
*GRP_0030
  8
ボルト／ビス
  6
CONTINUOUS
 10
0.0
 20
0.0
  0
INSERT
  2
*GRP_0031
  8
ボルト／ビス
  6
CONTINUOUS
 10
0.0
 20
0.0
  0
INSERT
  2
*GRP_0032
  8
ボルト／ビス
  6
CONTINUOUS
 10
0.0
 20
0.0
  0
INSERT
  2
*GRP_0033
  8
ボルト／ビス
  6
CONTINUOUS
 10
0.0
 20
0.0
  0
INSERT
  2
*GRP_0034
  8
ボルト／ビス
  6
CONTINUOUS
 10
0.0
 20
0.0
  0
INSERT
  2
*GRP_0035
  8
ボルト／ビス
  6
CONTINUOUS
 10
0.0
 20
0.0
  0
INSERT
  2
*GRP_0036
  8
ボルト／ビス
  6
CONTINUOUS
 10
0.0
 20
0.0
  0
INSERT
  2
*GRP_0060
  8
ボルト／ビス
  6
CONTINUOUS
 10
0.0
 20
0.0
  0
INSERT
  2
*GRP_0061
  8
ボルト／ビス
  6
CONTINUOUS
 10
0.0
 20
0.0
  0
INSERT
  2
*GRP_0064
  8
ボルト／ビス
  6
CONTINUOUS
 10
0.0
 20
0.0
  0
INSERT
  2
*GRP_0065
  8
ボルト／ビス
  6
CONTINUOUS
 10
0.0
 20
0.0
  0
INSERT
  2
*GRP_0066
  8
ボルト／ビス
  6
CONTINUOUS
 10
0.0
 20
0.0
  0
TEXT
  7
TextStyle03
  8
文字
  6
CONTINUOUS
 10
91.15
 20
120.975
  1
呼称寸法
 40
4.0
 72
     5
 11
108.65
 21
120.975
  0
TEXT
  7
TextStyle03
  8
文字
  6
CONTINUOUS
 10
120.9
 20
114.725
  1
有効開口寸法
 40
4.0
 72
     5
 11
147.4
 21
114.725
  0
TEXT
  7
TextStyle03
  8
文字
  6
CONTINUOUS
 10
-42.125
 20
-14.8
  1
TKR-1108
 40
4.0
 72
     5
 11
-24.375
 21
-14.8
  0
TEXT
  7
TextStyle03
  8
文字
  6
CONTINUOUS
 10
42.125
 20
88.1
  1
TKR-1206
 40
4.0
 72
     5
 11
59.875
 21
88.1
  0
TEXT
  7
TextStyle03
  8
文字
  6
CONTINUOUS
 10
-38.075
 20
57.125
  1
TKR-1105
 40
4.0
 72
     5
 11
-20.325
 21
57.125
  0
TEXT
  7
TextStyle03
  8
文字
  6
CONTINUOUS
 10
-19.025
 20
6.775
  1
SUS-3.0t
 40
4.0
 72
     5
 11
-1.275
 21
6.775
  0
TEXT
  7
TextStyle03
  8
文字
  6
CONTINUOUS
 10
-19.025
 20
2.275
  1
2B（ﾘﾌﾞ付き)
 40
4.0
 72
     5
 11
7.725
 21
2.275
  0
TEXT
  7
TextStyle03
  8
文字
  6
CONTINUOUS
 10
-52.025
 20
-77.275
  1
SUS-3.0t
 40
4.0
 72
     5
 11
-34.275
 21
-77.275
  0
TEXT
  7
TextStyle03
  8
文字
  6
CONTINUOUS
 10
-52.025
 20
-81.775
  1
2B
 40
4.0
 72
     5
 11
-47.775
 21
-81.775
  0
TEXT
  7
TextStyle03
  8
文字
  6
CONTINUOUS
 10
49.4
 20
28.275
  1
滑車
 40
4.0
 72
     5
 11
57.9
 21
28.275
  0
TEXT
  7
TextStyle03
  8
文字
  6
CONTINUOUS
 10
49.4
 20
-55.25
  1
滑車
 40
4.0
 72
     5
 11
57.9
 21
-55.25
  0
TEXT
  7
TextStyle03
  8
文字
  6
CONTINUOUS
 10
56.675
 20
-84.025
  1
転向滑車
 40
4.0
 72
     5
 11
74.175
 21
-84.025
  0
TEXT
  7
TextStyle03
  8
文字
  6
CONTINUOUS
 10
-179.875
 20
102.125
  1
ＮＳコード：ＮＳ４ＣＳ
 40
5.0
 72
     5
 11
-118.625
 21
102.125
  0
TEXT
  7
TextStyle03
  8
文字
  6
CONTINUOUS
 10
-179.875
 20
121.7
  1
シリーズ：ＳＴＦ４
 40
5.0
 72
     5
 11
-129.875
 21
121.7
  0
TEXT
  7
TextStyle03
  8
文字
  6
CONTINUOUS
 10
-179.875
 20
116.075
  1
　　　　　四角錘（上下可動）シングルガラス
 40
5.0
 72
     5
 11
-62.375
 21
116.075
  0
TEXT
  7
TextStyle03
  8
文字
  6
CONTINUOUS
 10
-179.875
 20
110.45
  1
図面名　：下枠断面詳細図(滑車側)
 40
5.0
 72
     5
 11
-90.1875
 21
110.45
  0
INSERT
  2
*DIM_0007
  8
寸法
  6
CONTINUOUS
 10
0.0
 20
0.0
  0
INSERT
  2
*DIM_0008
  8
寸法
  6
CONTINUOUS
 10
0.0
 20
0.0
  0
INSERT
  2
*DIM_0009
  8
寸法
  6
CONTINUOUS
 10
0.0
 20
0.0
  0
INSERT
  2
*DIM_0010
  8
寸法
  6
CONTINUOUS
 10
0.0
 20
0.0
  0
INSERT
  2
*DIM_0011
  8
寸法
  6
CONTINUOUS
 10
0.0
 20
0.0
  0
INSERT
  2
*DIM_0012
  8
寸法
  6
CONTINUOUS
 10
0.0
 20
0.0
  0
INSERT
  2
*DIM_0013
  8
寸法
  6
CONTINUOUS
 10
0.0
 20
0.0
  0
INSERT
  2
*GRP_0014
  8
寸法
  6
CONTINUOUS
 10
0.0
 20
0.0
  0
INSERT
  2
*GRP_0015
  8
寸法
  6
CONTINUOUS
 10
0.0
 20
0.0
  0
INSERT
  2
*GRP_0016
  8
寸法
  6
CONTINUOUS
 10
0.0
 20
0.0
  0
INSERT
  2
*GRP_0017
  8
寸法
  6
CONTINUOUS
 10
0.0
 20
0.0
  0
INSERT
  2
*GRP_0018
  8
寸法
  6
CONTINUOUS
 10
0.0
 20
0.0
  0
INSERT
  2
*GRP_0019
  8
寸法
  6
CONTINUOUS
 10
0.0
 20
0.0
  0
INSERT
  2
*GRP_0020
  8
寸法
  6
CONTINUOUS
 10
0.0
 20
0.0
  0
INSERT
  2
*GRP_0021
  8
寸法
  6
CONTINUOUS
 10
0.0
 20
0.0
  0
INSERT
  2
*DIM_0037
  8
寸法
  6
CONTINUOUS
 10
0.0
 20
0.0
  0
INSERT
  2
*DIM_0038
  8
寸法
  6
CONTINUOUS
 10
0.0
 20
0.0
  0
INSERT
  2
*DIM_0039
  8
寸法
  6
CONTINUOUS
 10
0.0
 20
0.0
  0
INSERT
  2
*DIM_0040
  8
寸法
  6
CONTINUOUS
 10
0.0
 20
0.0
  0
INSERT
  2
*DIM_0041
  8
寸法
  6
CONTINUOUS
 10
0.0
 20
0.0
  0
INSERT
  2
*DIM_0042
  8
寸法
  6
CONTINUOUS
 10
0.0
 20
0.0
  0
INSERT
  2
*DIM_0043
  8
寸法
  6
CONTINUOUS
 10
0.0
 20
0.0
  0
INSERT
  2
*DIM_0044
  8
寸法
  6
CONTINUOUS
 10
0.0
 20
0.0
  0
INSERT
  2
*DIM_0045
  8
寸法
  6
CONTINUOUS
 10
0.0
 20
0.0
  0
INSERT
  2
*DIM_0046
  8
寸法
  6
CONTINUOUS
 10
0.0
 20
0.0
  0
INSERT
  2
*DIM_0047
  8
寸法
  6
CONTINUOUS
 10
0.0
 20
0.0
  0
INSERT
  2
*DIM_0048
  8
寸法
  6
CONTINUOUS
 10
0.0
 20
0.0
  0
INSERT
  2
*DIM_0049
  8
寸法
  6
CONTINUOUS
 10
0.0
 20
0.0
  0
INSERT
  2
*DIM_0050
  8
寸法
  6
CONTINUOUS
 10
0.0
 20
0.0
  0
INSERT
  2
*DIM_0051
  8
寸法
  6
CONTINUOUS
 10
0.0
 20
0.0
  0
INSERT
  2
*DIM_0052
  8
寸法
  6
CONTINUOUS
 10
0.0
 20
0.0
  0
INSERT
  2
*DIM_0053
  8
寸法
  6
CONTINUOUS
 10
0.0
 20
0.0
  0
INSERT
  2
*DIM_0054
  8
寸法
  6
CONTINUOUS
 10
0.0
 20
0.0
  0
INSERT
  2
*DIM_0055
  8
寸法
  6
CONTINUOUS
 10
0.0
 20
0.0
  0
INSERT
  2
*DIM_0056
  8
寸法
  6
CONTINUOUS
 10
0.0
 20
0.0
  0
INSERT
  2
*DIM_0057
  8
寸法
  6
CONTINUOUS
 10
0.0
 20
0.0
  0
INSERT
  2
*DIM_0058
  8
寸法
  6
CONTINUOUS
 10
0.0
 20
0.0
  0
INSERT
  2
*DIM_0059
  8
寸法
  6
CONTINUOUS
 10
0.0
 20
0.0
  0
INSERT
  2
*GRP_0062
  8
別途部材
  6
CONTINUOUS
 10
0.0
 20
0.0
  0
INSERT
  2
*GRP_0063
  8
別途部材
  6
CONTINUOUS
 10
0.0
 20
0.0
  0
INSERT
  2
*GRP_0067
  8
別途部材
  6
CONTINUOUS
 10
0.0
 20
0.0
  0
INSERT
  2
*GRP_0068
  8
別途部材
  6
CONTINUOUS
 10
0.0
 20
0.0
  0
INSERT
  2
*GRP_0069
  8
別途部材
  6
CONTINUOUS
 10
0.0
 20
0.0
  0
INSERT
  2
*GRP_0070
  8
別途部材
  6
CONTINUOUS
 10
0.0
 20
0.0
  0
ARC
  8
St
  6
CONTINUOUS
 10
2.578546
 20
-108.342664
 40
1.094103
 50
0.0
 51
180.0
  0
ARC
  8
St
  6
CONTINUOUS
 10
1.484444
 20
-108.342664
 40
1.094103
 50
60.0
 51
180.0
  0
ARC
  8
St
  6
CONTINUOUS
 10
-10.329192
 20
-108.342664
 40
1.094103
 50
0.0
 51
180.0
  0
ARC
  8
St
  6
CONTINUOUS
 10
-11.423294
 20
-108.342664
 40
1.094103
 50
60.0
 51
180.0
  0
ARC
  8
St
  6
CONTINUOUS
 10
14.63342
 20
-108.342664
 40
1.094103
 50
0.0
 51
180.0
  0
ARC
  8
St
  6
CONTINUOUS
 10
13.539318
 20
-108.342664
 40
1.094103
 50
60.0
 51
180.0
  0
ARC
  8
St
  6
CONTINUOUS
 10
-29.972977
 20
38.657341
 40
0.695595
 50
270.0
 51
270.0
  0
ARC
  8
St
  6
CONTINUOUS
 10
-4.504183
 20
58.157338
 40
1.094103
 50
270.0
 51
450.0
  0
ARC
  8
St
  6
CONTINUOUS
 10
-4.504183
 20
57.063236
 40
1.094103
 50
270.0
 51
390.0
  0
ARC
  8
St
  6
CONTINUOUS
 10
-4.504183
 20
52.370909
 40
1.094103
 50
270.0
 51
450.0
  0
ARC
  8
St
  6
CONTINUOUS
 10
-4.504183
 20
51.276807
 40
1.094103
 50
270.0
 51
390.0
  0
ARC
  8
St
  6
CONTINUOUS
 10
2.578548
 20
61.157339
 40
1.094103
 50
180.0
 51
360.0
  0
ARC
  8
St
  6
CONTINUOUS
 10
1.484446
 20
61.157339
 40
1.094103
 50
180.0
 51
300.0
  0
ARC
  8
St
  6
CONTINUOUS
 10
15.102641
 20
61.157339
 40
1.094103
 50
180.0
 51
360.0
  0
ARC
  8
St
  6
CONTINUOUS
 10
14.008539
 20
61.157339
 40
1.094103
 50
180.0
 51
300.0
  0
LINE
  8
St
  6
CONTINUOUS
 10
-12.004187
 20
66.657345
 11
-12.004187
 21
62.65734
  0
LINE
  8
St
  6
CONTINUOUS
 10
4.495815
 20
66.657345
 11
4.495815
 21
62.65734
  0
LINE
  8
St
  6
CONTINUOUS
 10
-12.004187
 20
66.657345
 11
64.895812
 21
66.657345
  0
LINE
  8
その他部品等
  6
CONTINUOUS
 10
-25.739527
 20
70.889565
 11
-18.668452
 21
77.96064
  0
LINE
  8
その他部品等
  6
CONTINUOUS
 10
-22.45965
 20
67.609687
 11
-15.388575
 21
74.680762
  0
LINE
  8
その他部品等
  6
CONTINUOUS
 10
-20.436218
 20
65.586265
 11
-15.388575
 21
74.680762
  0
INSERT
  2
*HAT_0005
  8
その他部品等
 10
0.0
 20
0.0
  0
LINE
  8
その他部品等
  6
CONTINUOUS
 10
-4.526318
 20
92.102775
 11
15.272682
 21
92.102775
  0
INSERT
  2
*HAT_0006
  8
その他部品等
 10
0.0
 20
0.0
  0
INSERT
  2
*HAT_0007
  8
その他部品等
 10
0.0
 20
0.0
  0
ENDSEC
  0
EOF
