  0
SECTION
  2
HEADER
  9
$EXTMIN
 10
-210.0
 20
-148.5
  9
$EXTMAX
 10
210.0
 20
148.5
  9
$PDMODE
 70
    32
  9
$PDSIZE
 40
1.5
  9
$LTSCALE
 40
10.0
  0
ENDSEC
  0
SECTION
  2
TABLES
  0
TABLE
  2
LTYPE
 70
    15
  0
LTYPE
  2
CONTINUOUS
 70
    64
  3
実線
 72
    65
 73
     0
 40
0.0
  0
LTYPE
  2
DASHED
 70
    64
  3
破線A
 72
    65
 73
     2
 40
0.6
 49
0.4
 49
-0.2
  0
LTYPE
  2
DASHEDX2
 70
    64
  3
破線B
 72
    65
 73
     2
 40
1.3
 49
0.9
 49
-0.4
  0
LTYPE
  2
DASHDOT
 70
    64
  3
１点鎖線A
 72
    65
 73
     4
 40
0.5375
 49
0.375
 49
-0.05
 49
0.0625
 49
-0.05
  0
LTYPE
  2
DASHDOTX2
 70
    64
  3
１点鎖線B
 72
    65
 73
     4
 40
1.075
 49
0.75
 49
-0.1
 49
0.125
 49
-0.1
  0
LTYPE
  2
DIVIDE2
 70
    64
  3
２点鎖線A
 72
    65
 73
     6
 40
0.5125
 49
0.3
 49
-0.0375
 49
0.05
 49
-0.0375
 49
0.05
 49
-0.0375
  0
LTYPE
  2
DIVIDE
 70
    64
  3
２点鎖線B
 72
    65
 73
     6
 40
1.05
 49
0.55
 49
-0.1
 49
0.1
 49
-0.1
 49
0.1
 49
-0.1
  0
LTYPE
  2
DOT
 70
    64
  3
点線A
 72
    65
 73
     2
 40
0.1125
 49
0.0625
 49
-0.05
  0
LTYPE
  2
DOTX2
 70
    64
  3
点線B
 72
    65
 73
     2
 40
0.275
 49
0.15
 49
-0.125
  0
LTYPE
  2
CONTINUOUS
 70
    64
  3
実線
 72
    65
 73
     0
 40
0.0
  0
LTYPE
  2
CONTINUOUS
 70
    64
  3
実線
 72
    65
 73
     0
 40
0.0
  0
LTYPE
  2
CONTINUOUS
 70
    64
  3
実線
 72
    65
 73
     0
 40
0.0
  0
LTYPE
  2
CONTINUOUS
 70
    64
  3
実線
 72
    65
 73
     0
 40
0.0
  0
LTYPE
  2
CONTINUOUS
 70
    64
  3
実線
 72
    65
 73
     0
 40
0.0
  0
LTYPE
  2
CONTINUOUS
 70
    64
  3
実線
 72
    65
 73
     0
 40
0.0
  0
ENDTAB
  0
TABLE
  2
LAYER
 70
    34
  0
LAYER
  2
通り芯
 70
     0
 62
    15
  6
CONTINUOUS
  0
LAYER
  2
補助線
 70
     0
 62
    16
  6
DOT
  0
LAYER
  2
躯体
 70
     0
 62
    31
  6
CONTINUOUS
  0
LAYER
  2
型材
 70
     0
 62
    32
  6
CONTINUOUS
  0
LAYER
  2
型材断面
 70
     0
 62
    47
  6
CONTINUOUS
  0
LAYER
  2
ガラス
 70
     0
 62
    48
  6
CONTINUOUS
  0
LAYER
  2
ゴム等
 70
     0
 62
    63
  6
CONTINUOUS
  0
LAYER
  2
ボルト／ビス
 70
     0
 62
    64
  6
CONTINUOUS
  0
LAYER
  2
文字
 70
     0
 62
    79
  6
CONTINUOUS
  0
LAYER
  2
寸法
 70
     0
 62
    80
  6
CONTINUOUS
  0
LAYER
  2
ﾊｯﾁﾝｸﾞ
 70
     0
 62
    95
  6
CONTINUOUS
  0
LAYER
  2
別途部材
 70
     0
 62
    96
  6
CONTINUOUS
  0
LAYER
  2
曲げ物
 70
     0
 62
   111
  6
CONTINUOUS
  0
LAYER
  2
鉄骨等
 70
     0
 62
   112
  6
CONTINUOUS
  0
LAYER
  2
St
 70
     0
 62
   127
  6
CONTINUOUS
  0
LAYER
  2
その他部品等
 70
     0
 62
   128
  6
CONTINUOUS
  0
LAYER
  2
ｶﾞｽｹｯﾄ
 70
     0
 62
   143
  6
CONTINUOUS
  0
LAYER
  2
ｽｹｯﾁ
 70
     0
 62
    14
  6
CONTINUOUS
  0
LAYER
  2
0
 70
     0
 62
    17
  6
CONTINUOUS
  0
LAYER
  2
1
 70
     0
 62
    30
  6
CONTINUOUS
  0
LAYER
  2
4
 70
     0
 62
    33
  6
CONTINUOUS
  0
LAYER
  2
ﾚｲﾔ3
 70
     0
 62
    46
  6
CONTINUOUS
  0
LAYER
  2
外形線
 70
     0
 62
    49
  6
CONTINUOUS
  0
LAYER
  2
部品
 70
     0
 62
    14
  6
CONTINUOUS
  0
LAYER
  2
サッシ芯
 70
     0
 62
    17
  6
DASHDOTX2
  0
LAYER
  2
寸法線
 70
     0
 62
    62
  6
CONTINUOUS
  0
LAYER
  2
姿図外形線
 70
     0
 62
    65
  6
CONTINUOUS
  0
LAYER
  2
姿補助線
 70
     0
 62
    30
  6
CONTINUOUS
  0
LAYER
  2
透視線
 70
     0
 62
    78
  6
DOT
  0
LAYER
  2
用紙
 70
     0
 62
    81
  6
CONTINUOUS
  0
LAYER
  2
実線図枠
 70
     0
 62
    94
  6
CONTINUOUS
  0
LAYER
  2
補助図枠
 70
     0
 62
    97
  6
CONTINUOUS
  0
LAYER
  2
建具記号
 70
     0
 62
   110
  6
CONTINUOUS
  0
LAYER
  2
補助文字
 70
     0
 62
   113
  6
CONTINUOUS
  0
ENDTAB
  0
TABLE
  2
STYLE
 70
    10
  0
STYLE
  2
STANDARD
 70
     0
 40
1.0
 41
1.0
 42
1.0
 50
0.0
 71
     0
  3
TXT
  4
BIGFONT
  0
STYLE
  2
TATE
 70
     4
 40
1.0
 41
1.0
 42
1.0
 50
0.0
 71
     0
  3
TXT
  4
BIGFONT
  0
STYLE
  2
TextStyle03
 70
     0
 40
1.0
 41
1.0
 42
1.0
 50
0.0
 71
     0
  3
MONOTXT
  4
BIGFONT
  0
STYLE
  2
TextStyle04
 70
     0
 40
1.0
 41
1.0
 42
1.0
 50
0.0
 71
     0
  3
MONOTXT
  4
BIGFONT
  0
STYLE
  2
TextStyle05
 70
     0
 40
1.0
 41
1.0
 42
1.0
 50
0.0
 71
     0
  3
MONOTXT
  4
BIGFONT
  0
STYLE
  2
TextStyle06
 70
     0
 40
1.0
 41
1.0
 42
1.0
 50
0.0
 71
     0
  3
MONOTXT
  4
BIGFONT
  0
STYLE
  2
TextStyle07
 70
     0
 40
1.0
 41
1.0
 42
1.0
 50
0.0
 71
     0
  3
MONOTXT
  4
BIGFONT
  0
STYLE
  2
TextStyle08
 70
     0
 40
1.0
 41
1.0
 42
1.0
 50
0.0
 71
     0
  3
MONOTXT
  4
BIGFONT
  0
STYLE
  2
TextStyle09
 70
     0
 40
1.0
 41
1.0
 42
1.0
 50
0.0
 71
     0
  3
MONOTXT
  4
BIGFONT
  0
STYLE
  2
TextStyle10
 70
     0
 40
1.0
 41
1.0
 42
1.0
 50
0.0
 71
     0
  3
MONOTXT
  4
BIGFONT
  0
ENDTAB
  0
ENDSEC
  0
SECTION
  2
BLOCKS
  0
BLOCK
  2
*HAT_0001
 70
    65
 10
0.0
 20
0.0
  0
LINE
  8
曲げ物
 10
74.025
 20
-25.325
 11
72.25
 21
-25.275
  0
LINE
  8
曲げ物
 10
49.575
 20
-25.275
 11
47.775
 21
-25.25
  0
LINE
  8
曲げ物
 10
73.425
 20
-26.25
 11
71.275
 21
-26.25
  0
LINE
  8
曲げ物
 10
72.4
 20
-27.275
 11
70.275
 21
-27.275
  0
LINE
  8
曲げ物
 10
71.4
 20
-28.275
 11
69.25
 21
-28.275
  0
LINE
  8
曲げ物
 10
70.375
 20
-29.3
 11
68.25
 21
-29.3
  0
LINE
  8
曲げ物
 10
69.4
 20
-30.275
 11
67.275
 21
-30.275
  0
LINE
  8
曲げ物
 10
68.4
 20
-31.275
 11
66.25
 21
-31.275
  0
LINE
  8
曲げ物
 10
67.425
 20
-32.25
 11
65.275
 21
-32.25
  0
LINE
  8
曲げ物
 10
66.4
 20
-33.275
 11
64.275
 21
-33.275
  0
LINE
  8
曲げ物
 10
65.4
 20
-34.275
 11
63.25
 21
-34.275
  0
LINE
  8
曲げ物
 10
64.425
 20
-35.25
 11
62.275
 21
-35.25
  0
LINE
  8
曲げ物
 10
63.4
 20
-36.275
 11
61.275
 21
-36.275
  0
LINE
  8
曲げ物
 10
50.575
 20
-26.3
 11
48.45
 21
-26.3
  0
LINE
  8
曲げ物
 10
51.55
 20
-27.275
 11
49.425
 21
-27.275
  0
LINE
  8
曲げ物
 10
52.575
 20
-28.275
 11
50.425
 21
-28.275
  0
LINE
  8
曲げ物
 10
53.55
 20
-29.25
 11
51.4
 21
-29.25
  0
LINE
  8
曲げ物
 10
54.55
 20
-30.275
 11
52.425
 21
-30.275
  0
LINE
  8
曲げ物
 10
55.575
 20
-31.275
 11
53.425
 21
-31.275
  0
LINE
  8
曲げ物
 10
56.55
 20
-32.3
 11
54.45
 21
-32.3
  0
LINE
  8
曲げ物
 10
57.55
 20
-33.275
 11
55.425
 21
-33.275
  0
LINE
  8
曲げ物
 10
58.575
 20
-34.275
 11
56.425
 21
-34.275
  0
LINE
  8
曲げ物
 10
59.55
 20
-35.25
 11
57.4
 21
-35.25
  0
LINE
  8
曲げ物
 10
60.55
 20
-36.275
 11
58.425
 21
-36.275
  0
LINE
  8
曲げ物
 10
62.425
 20
-37.25
 11
59.425
 21
-37.275
  0
LINE
  8
曲げ物
 10
61.425
 20
-38.25
 11
60.45
 21
-38.3
  0
ENDBLK
  0
BLOCK
  2
*HAT_0002
 70
    65
 10
0.0
 20
0.0
  0
LINE
  8
曲げ物
 10
82.8
 20
-16.575
 11
82.75
 21
-14.775
  0
LINE
  8
曲げ物
 10
82.75
 20
7.9
 11
82.725
 21
9.675
  0
LINE
  8
曲げ物
 10
83.725
 20
-15.95
 11
83.725
 21
-13.8
  0
LINE
  8
曲げ物
 10
84.75
 20
-14.925
 11
84.75
 21
-12.8
  0
LINE
  8
曲げ物
 10
85.75
 20
-13.925
 11
85.75
 21
-11.775
  0
LINE
  8
曲げ物
 10
86.775
 20
-12.9
 11
86.775
 21
-10.775
  0
LINE
  8
曲げ物
 10
87.75
 20
-11.925
 11
87.75
 21
-9.8
  0
LINE
  8
曲げ物
 10
88.75
 20
-10.925
 11
88.75
 21
-8.775
  0
LINE
  8
曲げ物
 10
89.725
 20
-9.95
 11
89.725
 21
-7.8
  0
LINE
  8
曲げ物
 10
90.75
 20
-8.925
 11
90.75
 21
-6.8
  0
LINE
  8
曲げ物
 10
91.75
 20
-7.925
 11
91.75
 21
-5.775
  0
LINE
  8
曲げ物
 10
92.725
 20
-6.95
 11
92.725
 21
-4.8
  0
LINE
  8
曲げ物
 10
93.75
 20
-5.925
 11
93.75
 21
-3.8
  0
LINE
  8
曲げ物
 10
83.775
 20
6.9
 11
83.775
 21
9.025
  0
LINE
  8
曲げ物
 10
84.75
 20
5.925
 11
84.75
 21
8.05
  0
LINE
  8
曲げ物
 10
85.75
 20
4.9
 11
85.75
 21
7.05
  0
LINE
  8
曲げ物
 10
86.725
 20
3.925
 11
86.725
 21
6.075
  0
LINE
  8
曲げ物
 10
87.75
 20
2.925
 11
87.75
 21
5.05
  0
LINE
  8
曲げ物
 10
88.75
 20
1.9
 11
88.75
 21
4.05
  0
LINE
  8
曲げ物
 10
89.775
 20
0.9
 11
89.775
 21
3.025
  0
LINE
  8
曲げ物
 10
90.75
 20
-0.075
 11
90.75
 21
2.05
  0
LINE
  8
曲げ物
 10
91.75
 20
-1.1
 11
91.75
 21
1.05
  0
LINE
  8
曲げ物
 10
92.725
 20
-2.075
 11
92.725
 21
0.075
  0
LINE
  8
曲げ物
 10
93.75
 20
-3.075
 11
93.75
 21
-0.95
  0
LINE
  8
曲げ物
 10
94.725
 20
-4.95
 11
94.75
 21
-1.95
  0
LINE
  8
曲げ物
 10
95.725
 20
-3.95
 11
95.775
 21
-2.975
  0
ENDBLK
  0
BLOCK
  2
*HAT_0003
 70
    65
 10
0.0
 20
0.0
  0
LINE
  8
曲げ物
 10
47.775
 20
18.475
 11
49.5
 21
18.475
  0
LINE
  8
曲げ物
 10
72.225
 20
18.45
 11
73.975
 21
18.45
  0
LINE
  8
曲げ物
 10
48.375
 20
19.45
 11
50.5
 21
19.45
  0
LINE
  8
曲げ物
 10
49.375
 20
20.475
 11
51.475
 21
20.475
  0
LINE
  8
曲げ物
 10
50.4
 20
21.45
 11
52.5
 21
21.45
  0
LINE
  8
曲げ物
 10
51.4
 20
22.45
 11
53.5
 21
22.45
  0
LINE
  8
曲げ物
 10
52.375
 20
23.425
 11
54.475
 21
23.425
  0
LINE
  8
曲げ物
 10
53.4
 20
24.45
 11
55.5
 21
24.45
  0
LINE
  8
曲げ物
 10
54.375
 20
25.45
 11
56.475
 21
25.45
  0
LINE
  8
曲げ物
 10
55.375
 20
26.425
 11
57.475
 21
26.425
  0
LINE
  8
曲げ物
 10
56.4
 20
27.45
 11
58.5
 21
27.45
  0
LINE
  8
曲げ物
 10
57.375
 20
28.425
 11
59.475
 21
28.425
  0
LINE
  8
曲げ物
 10
58.375
 20
29.425
 11
60.475
 21
29.425
  0
LINE
  8
曲げ物
 10
71.25
 20
19.45
 11
73.35
 21
19.45
  0
LINE
  8
曲げ物
 10
70.225
 20
20.425
 11
72.375
 21
20.425
  0
LINE
  8
曲げ物
 10
69.225
 20
21.45
 11
71.35
 21
21.45
  0
LINE
  8
曲げ物
 10
68.25
 20
22.45
 11
70.35
 21
22.45
  0
LINE
  8
曲げ物
 10
67.225
 20
23.425
 11
69.325
 21
23.425
  0
LINE
  8
曲げ物
 10
66.25
 20
24.45
 11
68.35
 21
24.45
  0
LINE
  8
曲げ物
 10
65.25
 20
25.45
 11
67.35
 21
25.45
  0
LINE
  8
曲げ物
 10
64.275
 20
26.425
 11
66.375
 21
26.425
  0
LINE
  8
曲げ物
 10
63.25
 20
27.45
 11
65.35
 21
27.45
  0
LINE
  8
曲げ物
 10
62.25
 20
28.425
 11
64.35
 21
28.425
  0
LINE
  8
曲げ物
 10
61.275
 20
29.425
 11
63.375
 21
29.425
  0
LINE
  8
曲げ物
 10
59.35
 20
30.4
 11
62.35
 21
30.4
  0
LINE
  8
曲げ物
 10
60.375
 20
31.425
 11
61.35
 21
31.425
  0
ENDBLK
  0
BLOCK
  2
*HAT_0004
 70
    65
 10
0.0
 20
0.0
  0
LINE
  8
曲げ物
 10
39.0
 20
9.7
 11
39.0
 21
7.975
  0
LINE
  8
曲げ物
 10
39.025
 20
-14.75
 11
39.025
 21
-16.5
  0
LINE
  8
曲げ物
 10
38.025
 20
9.1
 11
38.025
 21
6.975
  0
LINE
  8
曲げ物
 10
37.0
 20
8.1
 11
37.0
 21
5.95
  0
LINE
  8
曲げ物
 10
36.0
 20
7.075
 11
36.0
 21
4.975
  0
LINE
  8
曲げ物
 10
35.025
 20
6.075
 11
35.025
 21
3.975
  0
LINE
  8
曲げ物
 10
34.0
 20
5.1
 11
34.0
 21
3.0
  0
LINE
  8
曲げ物
 10
33.025
 20
4.075
 11
33.025
 21
1.975
  0
LINE
  8
曲げ物
 10
32.025
 20
3.1
 11
32.025
 21
1.0
  0
LINE
  8
曲げ物
 10
31.05
 20
2.1
 11
31.05
 21
0.0
  0
LINE
  8
曲げ物
 10
30.025
 20
1.075
 11
30.025
 21
-1.025
  0
LINE
  8
曲げ物
 10
29.05
 20
0.1
 11
29.05
 21
-2.0
  0
LINE
  8
曲げ物
 10
28.05
 20
-0.9
 11
28.05
 21
-3.0
  0
LINE
  8
曲げ物
 10
38.025
 20
-13.775
 11
38.025
 21
-15.875
  0
LINE
  8
曲げ物
 10
37.05
 20
-12.75
 11
37.05
 21
-14.9
  0
LINE
  8
曲げ物
 10
36.025
 20
-11.775
 11
36.025
 21
-13.875
  0
LINE
  8
曲げ物
 10
35.025
 20
-10.775
 11
35.025
 21
-12.875
  0
LINE
  8
曲げ物
 10
34.0
 20
-9.75
 11
34.0
 21
-11.85
  0
LINE
  8
曲げ物
 10
33.025
 20
-8.775
 11
33.025
 21
-10.875
  0
LINE
  8
曲げ物
 10
32.025
 20
-7.775
 11
32.025
 21
-9.875
  0
LINE
  8
曲げ物
 10
31.05
 20
-6.8
 11
31.05
 21
-8.9
  0
LINE
  8
曲げ物
 10
30.025
 20
-5.775
 11
30.025
 21
-7.875
  0
LINE
  8
曲げ物
 10
29.05
 20
-4.775
 11
29.05
 21
-6.875
  0
LINE
  8
曲げ物
 10
28.05
 20
-3.8
 11
28.05
 21
-5.9
  0
LINE
  8
曲げ物
 10
27.025
 20
-1.875
 11
27.025
 21
-4.875
  0
LINE
  8
曲げ物
 10
26.05
 20
-2.9
 11
26.05
 21
-3.9
  0
ENDBLK
  0
BLOCK
  2
*HAT_0005
 70
    65
 10
0.0
 20
0.0
  0
LINE
  8
その他部品等
 10
-41.5
 20
102.0
 11
-40.65
 21
103.5
  0
LINE
  8
その他部品等
 10
-42.875
 20
101.625
 11
-41.0
 21
104.875
  0
LINE
  8
その他部品等
 10
-44.225
 20
101.275
 11
-41.375
 21
106.225
  0
LINE
  8
その他部品等
 10
-45.275
 20
101.475
 11
-42.7
 21
105.925
  0
LINE
  8
その他部品等
 10
-45.65
 20
102.85
 11
-44.1
 21
105.55
  0
LINE
  8
その他部品等
 10
-46.0
 20
104.225
 11
-45.45
 21
105.2
  0
LINE
  8
その他部品等
 10
-45.3
 20
101.525
 11
-44.675
 21
101.15
  0
LINE
  8
その他部品等
 10
-45.65
 20
102.9
 11
-43.3
 21
101.525
  0
LINE
  8
その他部品等
 10
-46.025
 20
104.275
 11
-41.95
 21
101.9
  0
LINE
  8
その他部品等
 10
-45.575
 20
105.15
 11
-40.575
 21
102.25
  0
LINE
  8
その他部品等
 10
-44.2
 20
105.525
 11
-40.625
 21
103.45
  0
LINE
  8
その他部品等
 10
-42.85
 20
105.9
 11
-41.0
 21
104.825
  0
LINE
  8
その他部品等
 10
-41.475
 20
106.25
 11
-41.35
 21
106.175
  0
ENDBLK
  0
BLOCK
  2
*HAT_0006
 70
    65
 10
0.0
 20
0.0
  0
LINE
  8
その他部品等
 10
-21.475
 20
92.9
 11
-19.975
 21
94.4
  0
LINE
  8
その他部品等
 10
-22.6
 20
93.2
 11
-19.525
 21
96.25
  0
LINE
  8
その他部品等
 10
-22.475
 20
94.725
 11
-20.65
 21
96.55
  0
LINE
  8
その他部品等
 10
-21.95
 20
96.65
 11
-21.75
 21
96.85
  0
LINE
  8
その他部品等
 10
-22.825
 20
93.4
 11
-22.625
 21
93.2
  0
LINE
  8
その他部品等
 10
-22.525
 20
94.5
 11
-20.7
 21
92.7
  0
LINE
  8
その他部品等
 10
-22.225
 20
95.625
 11
-20.2
 21
93.575
  0
LINE
  8
その他部品等
 10
-21.925
 20
96.75
 11
-19.9
 21
94.7
  0
LINE
  8
その他部品等
 10
-20.225
 20
96.45
 11
-19.6
 21
95.8
  0
ENDBLK
  0
BLOCK
  2
*HAT_0007
 70
    65
 10
0.0
 20
0.0
  0
LINE
  8
その他部品等
 10
-58.05
 20
83.125
 11
-56.3
 21
84.9
  0
LINE
  8
その他部品等
 10
-58.775
 20
83.85
 11
-57.0
 21
85.6
  0
LINE
  8
その他部品等
 10
-59.475
 20
84.55
 11
-57.7
 21
86.325
  0
LINE
  8
その他部品等
 10
-60.175
 20
85.25
 11
-58.4
 21
87.025
  0
LINE
  8
その他部品等
 10
-60.1
 20
85.475
 11
-57.425
 21
82.825
  0
LINE
  8
その他部品等
 10
-59.375
 20
86.175
 11
-56.725
 21
83.525
  0
LINE
  8
その他部品等
 10
-58.675
 20
86.875
 11
-56.025
 21
84.225
  0
ENDBLK
  0
BLOCK
  2
*GRP_0001
 70
    65
 10
0.0
 20
0.0
  0
LINE
  8
型材断面
  6
CONTINUOUS
 10
195.0
 20
133.5
 11
195.0
 21
-133.5
  0
LINE
  8
型材断面
  6
CONTINUOUS
 10
195.0
 20
-133.5
 11
-185.0
 21
-133.5
  0
LINE
  8
型材断面
  6
CONTINUOUS
 10
-185.0
 20
-133.5
 11
-185.0
 21
133.5
  0
LINE
  8
型材断面
  6
CONTINUOUS
 10
195.0
 20
133.5
 11
-185.0
 21
133.5
  0
LINE
  8
型材断面
  6
CONTINUOUS
 10
145.0
 20
-133.5
 11
145.0
 21
-118.5
  0
LINE
  8
型材断面
  6
CONTINUOUS
 10
195.0
 20
-118.5
 11
145.0
 21
-118.5
  0
ENDBLK
  0
BLOCK
  2
*GRP_0002
 70
    65
 10
0.0
 20
0.0
  0
LINE
  8
補助線
  6
BYBLOCK
 62
     0
 10
-100.038998
 20
19.171593
 11
-100.038998
 21
11.841467
  0
LINE
  8
補助線
  6
BYBLOCK
 62
     0
 10
-103.70406
 20
15.50653
 11
-96.373938
 21
15.50653
  0
ENDBLK
  0
BLOCK
  2
*GRP_0003
 70
    65
 10
0.0
 20
0.0
  0
INSERT
  2
*GRP_0007
  8
補助線
  6
CONTINUOUS
 10
0.0
 20
0.0
  0
LINE
  8
ボルト／ビス
  6
CONTINUOUS
 10
33.263378
 20
-3.40856
 11
34.706753
 21
-5.90856
  0
LINE
  8
ボルト／ビス
  6
CONTINUOUS
 10
33.263378
 20
-3.40856
 11
34.706753
 21
-0.908558
  0
LINE
  8
ボルト／ビス
  6
CONTINUOUS
 10
37.593503
 20
-5.90856
 11
39.036882
 21
-3.40856
  0
LINE
  8
ボルト／ビス
  6
CONTINUOUS
 10
37.593503
 20
-0.908558
 11
39.036882
 21
-3.40856
  0
CIRCLE
  8
ボルト／ビス
  6
CONTINUOUS
 10
36.150128
 20
-3.40856
 40
2.500002
  0
LINE
  8
ボルト／ビス
  6
CONTINUOUS
 10
34.706753
 20
-0.908558
 11
37.593503
 21
-0.908558
  0
LINE
  8
ボルト／ビス
  6
CONTINUOUS
 10
37.593503
 20
-5.90856
 11
34.706753
 21
-5.90856
  0
ENDBLK
  0
BLOCK
  2
*GRP_0004
 70
    65
 10
0.0
 20
0.0
  0
INSERT
  2
*GRP_0008
  8
補助線
  6
CONTINUOUS
 10
0.0
 20
0.0
  0
LINE
  8
ボルト／ビス
  6
CONTINUOUS
 10
58.012118
 20
21.34018
 11
59.455493
 21
18.84018
  0
LINE
  8
ボルト／ビス
  6
CONTINUOUS
 10
58.012118
 20
21.34018
 11
59.455493
 21
23.840183
  0
LINE
  8
ボルト／ビス
  6
CONTINUOUS
 10
62.342243
 20
18.84018
 11
63.785622
 21
21.34018
  0
LINE
  8
ボルト／ビス
  6
CONTINUOUS
 10
62.342243
 20
23.840183
 11
63.785622
 21
21.34018
  0
CIRCLE
  8
ボルト／ビス
  6
CONTINUOUS
 10
60.898868
 20
21.34018
 40
2.500002
  0
LINE
  8
ボルト／ビス
  6
CONTINUOUS
 10
59.455493
 20
23.840183
 11
62.342243
 21
23.840183
  0
LINE
  8
ボルト／ビス
  6
CONTINUOUS
 10
62.342243
 20
18.84018
 11
59.455493
 21
18.84018
  0
ENDBLK
  0
BLOCK
  2
*GRP_0005
 70
    65
 10
0.0
 20
0.0
  0
INSERT
  2
*GRP_0009
  8
補助線
  6
CONTINUOUS
 10
0.0
 20
0.0
  0
LINE
  8
ボルト／ビス
  6
CONTINUOUS
 10
82.760858
 20
-3.40856
 11
84.204233
 21
-5.90856
  0
LINE
  8
ボルト／ビス
  6
CONTINUOUS
 10
82.760858
 20
-3.40856
 11
84.204233
 21
-0.908558
  0
LINE
  8
ボルト／ビス
  6
CONTINUOUS
 10
87.090983
 20
-5.90856
 11
88.534362
 21
-3.40856
  0
LINE
  8
ボルト／ビス
  6
CONTINUOUS
 10
87.090983
 20
-0.908558
 11
88.534362
 21
-3.40856
  0
CIRCLE
  8
ボルト／ビス
  6
CONTINUOUS
 10
85.647608
 20
-3.40856
 40
2.500002
  0
LINE
  8
ボルト／ビス
  6
CONTINUOUS
 10
84.204233
 20
-0.908558
 11
87.090983
 21
-0.908558
  0
LINE
  8
ボルト／ビス
  6
CONTINUOUS
 10
87.090983
 20
-5.90856
 11
84.204233
 21
-5.90856
  0
ENDBLK
  0
BLOCK
  2
*GRP_0006
 70
    65
 10
0.0
 20
0.0
  0
INSERT
  2
*GRP_0010
  8
補助線
  6
CONTINUOUS
 10
0.0
 20
0.0
  0
LINE
  8
ボルト／ビス
  6
CONTINUOUS
 10
58.012118
 20
-28.1573
 11
59.455493
 21
-30.6573
  0
LINE
  8
ボルト／ビス
  6
CONTINUOUS
 10
58.012118
 20
-28.1573
 11
59.455493
 21
-25.657298
  0
LINE
  8
ボルト／ビス
  6
CONTINUOUS
 10
62.342243
 20
-30.6573
 11
63.785622
 21
-28.1573
  0
LINE
  8
ボルト／ビス
  6
CONTINUOUS
 10
62.342243
 20
-25.657298
 11
63.785622
 21
-28.1573
  0
CIRCLE
  8
ボルト／ビス
  6
CONTINUOUS
 10
60.898868
 20
-28.1573
 40
2.500002
  0
LINE
  8
ボルト／ビス
  6
CONTINUOUS
 10
59.455493
 20
-25.657298
 11
62.342243
 21
-25.657298
  0
LINE
  8
ボルト／ビス
  6
CONTINUOUS
 10
62.342243
 20
-30.6573
 11
59.455493
 21
-30.6573
  0
ENDBLK
  0
BLOCK
  2
*GRP_0007
 70
    65
 10
0.0
 20
0.0
  0
LINE
  8
補助線
  6
BYBLOCK
 62
     0
 10
36.150128
 20
-2.15856
 11
36.150128
 21
-4.658558
  0
LINE
  8
補助線
  6
BYBLOCK
 62
     0
 10
34.90013
 20
-3.40856
 11
37.400128
 21
-3.40856
  0
ENDBLK
  0
BLOCK
  2
*GRP_0008
 70
    65
 10
0.0
 20
0.0
  0
LINE
  8
補助線
  6
BYBLOCK
 62
     0
 10
60.898868
 20
22.59018
 11
60.898868
 21
20.090183
  0
LINE
  8
補助線
  6
BYBLOCK
 62
     0
 10
59.64887
 20
21.34018
 11
62.148868
 21
21.34018
  0
ENDBLK
  0
BLOCK
  2
*GRP_0009
 70
    65
 10
0.0
 20
0.0
  0
LINE
  8
補助線
  6
BYBLOCK
 62
     0
 10
85.647608
 20
-2.15856
 11
85.647608
 21
-4.658558
  0
LINE
  8
補助線
  6
BYBLOCK
 62
     0
 10
84.39761
 20
-3.40856
 11
86.897608
 21
-3.40856
  0
ENDBLK
  0
BLOCK
  2
*GRP_0010
 70
    65
 10
0.0
 20
0.0
  0
LINE
  8
補助線
  6
BYBLOCK
 62
     0
 10
60.898868
 20
-26.9073
 11
60.898868
 21
-29.407298
  0
LINE
  8
補助線
  6
BYBLOCK
 62
     0
 10
59.64887
 20
-28.1573
 11
62.148868
 21
-28.1573
  0
ENDBLK
  0
BLOCK
  2
*DIM_0011
 70
    65
 10
0.0
 20
0.0
  0
LINE
  8
寸法
  6
BYBLOCK
 62
     0
 10
62.31308
 20
-47.24918
 11
105.338835
 21
-90.274938
  0
LINE
  8
寸法
  6
BYBLOCK
 62
     0
 10
104.73949
 20
-4.822772
 11
147.765245
 21
-47.84853
  0
LINE
  8
寸法
  6
BYBLOCK
 62
     0
 10
105.338835
 20
-90.274938
 11
147.765245
 21
-47.84853
  0
POINT
  8
寸法
 62
     0
 10
105.338835
 20
-90.274938
  0
POINT
  8
寸法
 62
     0
 10
147.765245
 20
-47.84853
  0
TEXT
  7
TextStyle03
  8
寸法
  6
CONTINUOUS
 62
     0
 10
124.247183
 20
-70.827691
  1
120
 40
3.5
 50
45.0
 72
     5
 11
128.277691
 21
-66.797183
  0
ENDBLK
  0
BLOCK
  2
*DIM_0012
 70
    65
 10
0.0
 20
0.0
  0
LINE
  8
寸法
  6
BYBLOCK
 62
     0
 10
100.823148
 20
-85.75925
 11
101.48512
 21
-86.421223
  0
LINE
  8
寸法
  6
BYBLOCK
 62
     0
 10
62.31308
 20
-40.178113
 11
105.020652
 21
-82.88569
  0
LINE
  8
寸法
  6
BYBLOCK
 62
     0
 10
101.48512
 20
-86.421223
 11
105.020652
 21
-82.88569
  0
POINT
  8
寸法
 62
     0
 10
101.48512
 20
-86.421223
  0
POINT
  8
寸法
 62
     0
 10
105.020652
 20
-82.88569
  0
TEXT
  7
TextStyle03
  8
寸法
  6
CONTINUOUS
 62
     0
 10
101.67045
 20
-85.729423
  1
10
 40
3.5
 50
45.0
 72
     5
 11
104.304423
 21
-83.09545
  0
ENDBLK
  0
BLOCK
  2
*DIM_0013
 70
    65
 10
0.0
 20
0.0
  0
LINE
  8
寸法
  6
BYBLOCK
 62
     0
 10
96.60776
 20
-3.76211
 11
140.375995
 21
-47.53035
  0
LINE
  8
寸法
  6
BYBLOCK
 62
     0
 10
105.020652
 20
-82.88569
 11
140.375995
 21
-47.53035
  0
POINT
  8
寸法
 62
     0
 10
140.375995
 20
-47.53035
  0
TEXT
  7
TextStyle03
  8
寸法
  6
CONTINUOUS
 62
     0
 10
120.397183
 20
-66.977691
  1
100
 40
3.5
 50
45.0
 72
     5
 11
124.427691
 21
-62.947183
  0
ENDBLK
  0
BLOCK
  2
*DIM_0014
 70
    65
 10
0.0
 20
0.0
  0
LINE
  8
寸法
  6
BYBLOCK
 62
     0
 10
104.73949
 20
-4.822772
 11
143.91153
 21
-43.994815
  0
LINE
  8
寸法
  6
BYBLOCK
 62
     0
 10
140.375995
 20
-47.53035
 11
143.91153
 21
-43.994815
  0
POINT
  8
寸法
 62
     0
 10
143.91153
 20
-43.994815
  0
TEXT
  7
TextStyle03
  8
寸法
  6
CONTINUOUS
 62
     0
 10
140.54545
 20
-46.829423
  1
10
 40
3.5
 50
45.0
 72
     5
 11
143.179423
 21
-44.19545
  0
ENDBLK
  0
BLOCK
  2
*DIM_0015
 70
    65
 10
0.0
 20
0.0
  0
LINE
  8
寸法
  6
BYBLOCK
 62
     0
 10
101.002025
 20
-78.867062
 11
100.590798
 21
-78.455835
  0
LINE
  8
寸法
  6
BYBLOCK
 62
     0
 10
84.233395
 20
-26.743083
 11
118.268472
 21
-60.778162
  0
LINE
  8
寸法
  6
BYBLOCK
 62
     0
 10
100.590798
 20
-78.455835
 11
118.268472
 21
-60.778162
  0
POINT
  8
寸法
 62
     0
 10
100.590798
 20
-78.455835
  0
POINT
  8
寸法
 62
     0
 10
118.268472
 20
-60.778162
  0
TEXT
  7
TextStyle03
  8
寸法
  6
CONTINUOUS
 62
     0
 10
107.84545
 20
-70.679423
  1
50
 40
3.5
 50
45.0
 72
     5
 11
110.479423
 21
-68.04545
  0
ENDBLK
  0
BLOCK
  2
*DIM_0016
 70
    65
 10
0.0
 20
0.0
  0
LINE
  8
寸法
  6
BYBLOCK
 62
     0
 10
101.911065
 20
-9.065415
 11
135.94614
 21
-43.100493
  0
LINE
  8
寸法
  6
BYBLOCK
 62
     0
 10
118.268472
 20
-60.778162
 11
135.94614
 21
-43.100493
  0
POINT
  8
寸法
 62
     0
 10
135.94614
 20
-43.100493
  0
TEXT
  7
TextStyle03
  8
寸法
  6
CONTINUOUS
 62
     0
 10
125.52045
 20
-53.004423
  1
50
 40
3.5
 50
45.0
 72
     5
 11
128.154423
 21
-50.37045
  0
ENDBLK
  0
BLOCK
  2
*DIM_0017
 70
    65
 10
0.0
 20
0.0
  0
LINE
  8
寸法
  6
BYBLOCK
 62
     0
 10
60.764213
 20
31.814213
 11
75.22816
 21
46.278158
  0
LINE
  8
寸法
  6
BYBLOCK
 62
     0
 10
62.31308
 20
22.754392
 11
80.532503
 21
40.973815
  0
LINE
  8
寸法
  6
BYBLOCK
 62
     0
 10
75.22816
 20
46.278158
 11
80.532503
 21
40.973815
  0
POINT
  8
寸法
 62
     0
 10
75.22816
 20
46.278158
  0
POINT
  8
寸法
 62
     0
 10
80.532503
 20
40.973815
  0
TEXT
  7
TextStyle03
  8
寸法
  6
CONTINUOUS
 62
     0
 10
76.820577
 20
45.20455
  1
15
 40
3.5
 50
315.0
 72
     5
 11
79.45455
 21
42.570577
  0
ENDBLK
  0
BLOCK
  2
*DIM_0018
 70
    65
 10
0.0
 20
0.0
  0
LINE
  8
寸法
  6
BYBLOCK
 62
     0
 10
84.233395
 20
19.925963
 11
92.906875
 21
28.599443
  0
LINE
  8
寸法
  6
BYBLOCK
 62
     0
 10
80.532503
 20
40.973815
 11
92.906875
 21
28.599443
  0
POINT
  8
寸法
 62
     0
 10
92.906875
 20
28.599443
  0
TEXT
  7
TextStyle03
  8
寸法
  6
CONTINUOUS
 62
     0
 10
85.645577
 20
36.35455
  1
35
 40
3.5
 50
315.0
 72
     5
 11
88.27955
 21
33.720577
  0
ENDBLK
  0
BLOCK
  2
*DIM_0019
 70
    65
 10
0.0
 20
0.0
  0
LINE
  8
寸法
  6
BYBLOCK
 62
     0
 10
87.06182
 20
-1.994348
 11
105.281243
 21
16.225072
  0
LINE
  8
寸法
  6
BYBLOCK
 62
     0
 10
92.906875
 20
28.599443
 11
105.281243
 21
16.225072
  0
POINT
  8
寸法
 62
     0
 10
105.281243
 20
16.225072
  0
TEXT
  7
TextStyle03
  8
寸法
  6
CONTINUOUS
 62
     0
 10
98.020577
 20
23.97955
  1
35
 40
3.5
 50
315.0
 72
     5
 11
100.65455
 21
21.345577
  0
ENDBLK
  0
BLOCK
  2
*DIM_0020
 70
    65
 10
0.0
 20
0.0
  0
LINE
  8
寸法
  6
BYBLOCK
 62
     0
 10
96.60776
 20
-3.055005
 11
110.58454
 21
10.921775
  0
LINE
  8
寸法
  6
BYBLOCK
 62
     0
 10
105.281243
 20
16.225072
 11
110.58454
 21
10.921775
  0
POINT
  8
寸法
 62
     0
 10
110.58454
 20
10.921775
  0
TEXT
  7
TextStyle03
  8
寸法
  6
CONTINUOUS
 62
     0
 10
106.870577
 20
15.15455
  1
15
 40
3.5
 50
315.0
 72
     5
 11
109.50455
 21
12.520577
  0
ENDBLK
  0
BLOCK
  2
*GRP_0021
 70
    65
 10
0.0
 20
0.0
  0
POLYLINE
  8
寸法
  6
BYBLOCK
 62
     0
 66
     1
  0
VERTEX
  8
寸法
 10
36.38048
 20
20.01175
  0
VERTEX
  8
寸法
 10
38.978555
 20
18.51175
  0
VERTEX
  8
寸法
 10
37.478555
 20
21.109825
  0
SEQEND
  0
POLYLINE
  8
寸法
  6
BYBLOCK
 62
     0
 66
     1
  0
VERTEX
  8
寸法
 10
38.978555
 20
18.51175
  0
VERTEX
  8
寸法
 10
35.221832
 20
22.268472
  0
VERTEX
  8
寸法
 10
13.145165
 20
22.268472
  0
SEQEND
  0
ENDBLK
  0
BLOCK
  2
*GRP_0022
 70
    65
 10
0.0
 20
0.0
  0
POLYLINE
  8
寸法
  6
BYBLOCK
 62
     0
 66
     1
  0
VERTEX
  8
寸法
 10
33.552052
 20
-1.90856
  0
VERTEX
  8
寸法
 10
36.150128
 20
-3.40856
  0
VERTEX
  8
寸法
 10
34.650128
 20
-0.810485
  0
SEQEND
  0
POLYLINE
  8
寸法
  6
BYBLOCK
 62
     0
 66
     1
  0
VERTEX
  8
寸法
 10
36.150128
 20
-3.40856
  0
VERTEX
  8
寸法
 10
23.189072
 20
9.552495
  0
VERTEX
  8
寸法
 10
18.331352
 20
9.552495
  0
SEQEND
  0
ENDBLK
  0
BLOCK
  2
*DIM_0023
 70
    65
 10
0.0
 20
0.0
  0
LINE
  8
寸法
  6
BYBLOCK
 62
     0
 10
-81.788998
 20
-90.97947
 11
-81.788998
 21
-89.146633
  0
LINE
  8
寸法
  6
BYBLOCK
 62
     0
 10
-107.538998
 20
-27.4639
 11
-107.538998
 21
-89.146633
  0
LINE
  8
寸法
  6
BYBLOCK
 62
     0
 10
-81.788998
 20
-89.146633
 11
-107.538998
 21
-89.146633
  0
POINT
  8
寸法
 62
     0
 10
-81.788998
 20
-89.146633
  0
POINT
  8
寸法
 62
     0
 10
-107.538998
 20
-89.146633
  0
TEXT
  7
TextStyle03
  8
寸法
  6
CONTINUOUS
 62
     0
 10
-98.5125
 20
-88.775
  1
51.5
 40
3.5
 72
     5
 11
-90.8375
 21
-88.775
  0
ENDBLK
  0
BLOCK
  2
*DIM_0024
 70
    65
 10
0.0
 20
0.0
  0
LINE
  8
寸法
  6
BYBLOCK
 62
     0
 10
-100.038998
 20
-27.328877
 11
-100.038998
 21
-82.624595
  0
LINE
  8
寸法
  6
BYBLOCK
 62
     0
 10
-107.538998
 20
-82.624595
 11
-100.038998
 21
-82.624595
  0
POINT
  8
寸法
 62
     0
 10
-107.538998
 20
-82.624595
  0
POINT
  8
寸法
 62
     0
 10
-100.038998
 20
-82.624595
  0
TEXT
  7
TextStyle03
  8
寸法
  6
CONTINUOUS
 62
     0
 10
-105.6625
 20
-82.25
  1
15
 40
3.5
 72
     5
 11
-101.9375
 21
-82.25
  0
ENDBLK
  0
BLOCK
  2
*DIM_0025
 70
    65
 10
0.0
 20
0.0
  0
LINE
  8
寸法
  6
BYBLOCK
 62
     0
 10
-81.788998
 20
-49.834965
 11
-81.788998
 21
-82.624595
  0
LINE
  8
寸法
  6
BYBLOCK
 62
     0
 10
-100.038998
 20
-82.624595
 11
-81.788998
 21
-82.624595
  0
POINT
  8
寸法
 62
     0
 10
-81.788998
 20
-82.624595
  0
TEXT
  7
TextStyle03
  8
寸法
  6
CONTINUOUS
 62
     0
 10
-94.7625
 20
-82.25
  1
36.5
 40
3.5
 72
     5
 11
-87.0875
 21
-82.25
  0
ENDBLK
  0
BLOCK
  2
*GRP_0026
 70
    65
 10
0.0
 20
0.0
  0
POLYLINE
  8
寸法
  6
BYBLOCK
 62
     0
 66
     1
  0
VERTEX
  8
寸法
 10
-133.60373
 20
15.42854
  0
VERTEX
  8
寸法
 10
-131.005655
 20
13.92854
  0
VERTEX
  8
寸法
 10
-132.505655
 20
16.526615
  0
SEQEND
  0
POLYLINE
  8
寸法
  6
BYBLOCK
 62
     0
 66
     1
  0
VERTEX
  8
寸法
 10
-131.005655
 20
13.92854
  0
VERTEX
  8
寸法
 10
-136.667663
 20
19.590547
  0
VERTEX
  8
寸法
 10
-136.667663
 20
22.676492
  0
SEQEND
  0
ENDBLK
  0
BLOCK
  2
*GRP_0027
 70
    65
 10
0.0
 20
0.0
  0
LINE
  8
ボルト／ビス
  6
CONTINUOUS
 10
-126.311195
 20
14.26976
 11
-126.95304
 21
14.302175
  0
POLYLINE
  8
ボルト／ビス
  6
CONTINUOUS
 66
     1
  0
VERTEX
  8
ボルト／ビス
 10
-127.925
 20
14.9
  0
VERTEX
  8
ボルト／ビス
 10
-127.925
 20
14.875
  0
VERTEX
  8
ボルト／ビス
 10
-127.925
 20
14.85
  0
VERTEX
  8
ボルト／ビス
 10
-127.9
 20
14.825
  0
VERTEX
  8
ボルト／ビス
 10
-127.9
 20
14.8
  0
VERTEX
  8
ボルト／ビス
 10
-127.9
 20
14.8
  0
VERTEX
  8
ボルト／ビス
 10
-127.9
 20
14.775
  0
VERTEX
  8
ボルト／ビス
 10
-127.9
 20
14.75
  0
VERTEX
  8
ボルト／ビス
 10
-127.875
 20
14.725
  0
VERTEX
  8
ボルト／ビス
 10
-127.875
 20
14.725
  0
VERTEX
  8
ボルト／ビス
 10
-127.85
 20
14.7
  0
VERTEX
  8
ボルト／ビス
 10
-127.85
 20
14.675
  0
VERTEX
  8
ボルト／ビス
 10
-127.85
 20
14.65
  0
VERTEX
  8
ボルト／ビス
 10
-127.825
 20
14.65
  0
VERTEX
  8
ボルト／ビス
 10
-127.8
 20
14.625
  0
VERTEX
  8
ボルト／ビス
 10
-127.8
 20
14.6
  0
VERTEX
  8
ボルト／ビス
 10
-127.775
 20
14.6
  0
VERTEX
  8
ボルト／ビス
 10
-127.775
 20
14.575
  0
VERTEX
  8
ボルト／ビス
 10
-127.75
 20
14.55
  0
VERTEX
  8
ボルト／ビス
 10
-127.725
 20
14.55
  0
VERTEX
  8
ボルト／ビス
 10
-127.7
 20
14.525
  0
VERTEX
  8
ボルト／ビス
 10
-127.675
 20
14.5
  0
VERTEX
  8
ボルト／ビス
 10
-127.675
 20
14.5
  0
VERTEX
  8
ボルト／ビス
 10
-127.65
 20
14.475
  0
VERTEX
  8
ボルト／ビス
 10
-127.625
 20
14.475
  0
VERTEX
  8
ボルト／ビス
 10
-127.6
 20
14.45
  0
VERTEX
  8
ボルト／ビス
 10
-127.575
 20
14.45
  0
VERTEX
  8
ボルト／ビス
 10
-127.55
 20
14.425
  0
VERTEX
  8
ボルト／ビス
 10
-127.525
 20
14.425
  0
VERTEX
  8
ボルト／ビス
 10
-127.5
 20
14.4
  0
VERTEX
  8
ボルト／ビス
 10
-127.475
 20
14.4
  0
VERTEX
  8
ボルト／ビス
 10
-127.425
 20
14.375
  0
VERTEX
  8
ボルト／ビス
 10
-127.4
 20
14.375
  0
VERTEX
  8
ボルト／ビス
 10
-127.375
 20
14.375
  0
VERTEX
  8
ボルト／ビス
 10
-127.35
 20
14.35
  0
VERTEX
  8
ボルト／ビス
 10
-127.325
 20
14.35
  0
VERTEX
  8
ボルト／ビス
 10
-127.3
 20
14.325
  0
VERTEX
  8
ボルト／ビス
 10
-127.25
 20
14.325
  0
VERTEX
  8
ボルト／ビス
 10
-127.225
 20
14.325
  0
VERTEX
  8
ボルト／ビス
 10
-127.2
 20
14.325
  0
VERTEX
  8
ボルト／ビス
 10
-127.175
 20
14.3
  0
VERTEX
  8
ボルト／ビス
 10
-127.125
 20
14.3
  0
VERTEX
  8
ボルト／ビス
 10
-127.1
 20
14.3
  0
VERTEX
  8
ボルト／ビス
 10
-127.075
 20
14.3
  0
VERTEX
  8
ボルト／ビス
 10
-127.025
 20
14.3
  0
VERTEX
  8
ボルト／ビス
 10
-127.0
 20
14.3
  0
VERTEX
  8
ボルト／ビス
 10
-126.975
 20
14.3
  0
SEQEND
  0
LINE
  8
ボルト／ビス
  6
CONTINUOUS
 10
-127.903305
 20
14.90084
 11
-127.903305
 21
15.50701
  0
LINE
  8
ボルト／ビス
  6
CONTINUOUS
 10
-126.311195
 20
16.74426
 11
-126.95304
 21
16.711843
  0
POLYLINE
  8
ボルト／ビス
  6
CONTINUOUS
 66
     1
  0
VERTEX
  8
ボルト／ビス
 10
-126.975
 20
16.7
  0
VERTEX
  8
ボルト／ビス
 10
-127.0
 20
16.7
  0
VERTEX
  8
ボルト／ビス
 10
-127.025
 20
16.7
  0
VERTEX
  8
ボルト／ビス
 10
-127.075
 20
16.7
  0
VERTEX
  8
ボルト／ビス
 10
-127.1
 20
16.7
  0
VERTEX
  8
ボルト／ビス
 10
-127.125
 20
16.675
  0
VERTEX
  8
ボルト／ビス
 10
-127.175
 20
16.675
  0
VERTEX
  8
ボルト／ビス
 10
-127.2
 20
16.675
  0
VERTEX
  8
ボルト／ビス
 10
-127.225
 20
16.675
  0
VERTEX
  8
ボルト／ビス
 10
-127.25
 20
16.65
  0
VERTEX
  8
ボルト／ビス
 10
-127.3
 20
16.65
  0
VERTEX
  8
ボルト／ビス
 10
-127.325
 20
16.65
  0
VERTEX
  8
ボルト／ビス
 10
-127.35
 20
16.625
  0
VERTEX
  8
ボルト／ビス
 10
-127.375
 20
16.625
  0
VERTEX
  8
ボルト／ビス
 10
-127.4
 20
16.625
  0
VERTEX
  8
ボルト／ビス
 10
-127.425
 20
16.6
  0
VERTEX
  8
ボルト／ビス
 10
-127.475
 20
16.6
  0
VERTEX
  8
ボルト／ビス
 10
-127.5
 20
16.575
  0
VERTEX
  8
ボルト／ビス
 10
-127.525
 20
16.575
  0
VERTEX
  8
ボルト／ビス
 10
-127.55
 20
16.55
  0
VERTEX
  8
ボルト／ビス
 10
-127.575
 20
16.55
  0
VERTEX
  8
ボルト／ビス
 10
-127.6
 20
16.525
  0
VERTEX
  8
ボルト／ビス
 10
-127.625
 20
16.525
  0
VERTEX
  8
ボルト／ビス
 10
-127.65
 20
16.5
  0
VERTEX
  8
ボルト／ビス
 10
-127.675
 20
16.5
  0
VERTEX
  8
ボルト／ビス
 10
-127.675
 20
16.475
  0
VERTEX
  8
ボルト／ビス
 10
-127.7
 20
16.45
  0
VERTEX
  8
ボルト／ビス
 10
-127.725
 20
16.45
  0
VERTEX
  8
ボルト／ビス
 10
-127.75
 20
16.425
  0
VERTEX
  8
ボルト／ビス
 10
-127.775
 20
16.425
  0
VERTEX
  8
ボルト／ビス
 10
-127.775
 20
16.4
  0
VERTEX
  8
ボルト／ビス
 10
-127.8
 20
16.375
  0
VERTEX
  8
ボルト／ビス
 10
-127.8
 20
16.375
  0
VERTEX
  8
ボルト／ビス
 10
-127.825
 20
16.35
  0
VERTEX
  8
ボルト／ビス
 10
-127.85
 20
16.325
  0
VERTEX
  8
ボルト／ビス
 10
-127.85
 20
16.3
  0
VERTEX
  8
ボルト／ビス
 10
-127.85
 20
16.3
  0
VERTEX
  8
ボルト／ビス
 10
-127.875
 20
16.275
  0
VERTEX
  8
ボルト／ビス
 10
-127.875
 20
16.25
  0
VERTEX
  8
ボルト／ビス
 10
-127.9
 20
16.225
  0
VERTEX
  8
ボルト／ビス
 10
-127.9
 20
16.225
  0
VERTEX
  8
ボルト／ビス
 10
-127.9
 20
16.2
  0
VERTEX
  8
ボルト／ビス
 10
-127.9
 20
16.175
  0
VERTEX
  8
ボルト／ビス
 10
-127.9
 20
16.15
  0
VERTEX
  8
ボルト／ビス
 10
-127.925
 20
16.15
  0
VERTEX
  8
ボルト／ビス
 10
-127.925
 20
16.125
  0
VERTEX
  8
ボルト／ビス
 10
-127.925
 20
16.1
  0
SEQEND
  0
LINE
  8
ボルト／ビス
  6
CONTINUOUS
 10
-127.903305
 20
16.11318
 11
-127.903305
 21
15.50701
  0
LINE
  8
ボルト／ビス
  6
CONTINUOUS
 10
-127.66761
 20
14.659798
 11
-127.815895
 21
14.659798
  0
LINE
  8
ボルト／ビス
  6
CONTINUOUS
 10
-127.26953
 20
15.25956
 11
-127.26953
 21
15.50701
  0
LINE
  8
ボルト／ビス
  6
CONTINUOUS
 10
-127.66761
 20
15.11816
 11
-127.66761
 21
14.659798
  0
LINE
  8
ボルト／ビス
  6
CONTINUOUS
 10
-127.26953
 20
15.25956
 11
-127.42267
 21
15.25956
  0
POLYLINE
  8
ボルト／ビス
  6
CONTINUOUS
 66
     1
  0
VERTEX
  8
ボルト／ビス
 10
-127.425
 20
15.25
  0
VERTEX
  8
ボルト／ビス
 10
-127.45
 20
15.25
  0
VERTEX
  8
ボルト／ビス
 10
-127.45
 20
15.25
  0
VERTEX
  8
ボルト／ビス
 10
-127.45
 20
15.25
  0
VERTEX
  8
ボルト／ビス
 10
-127.475
 20
15.25
  0
VERTEX
  8
ボルト／ビス
 10
-127.475
 20
15.25
  0
VERTEX
  8
ボルト／ビス
 10
-127.475
 20
15.25
  0
VERTEX
  8
ボルト／ビス
 10
-127.5
 20
15.25
  0
VERTEX
  8
ボルト／ビス
 10
-127.5
 20
15.25
  0
VERTEX
  8
ボルト／ビス
 10
-127.5
 20
15.25
  0
VERTEX
  8
ボルト／ビス
 10
-127.5
 20
15.25
  0
VERTEX
  8
ボルト／ビス
 10
-127.525
 20
15.25
  0
VERTEX
  8
ボルト／ビス
 10
-127.525
 20
15.225
  0
VERTEX
  8
ボルト／ビス
 10
-127.525
 20
15.225
  0
VERTEX
  8
ボルト／ビス
 10
-127.55
 20
15.225
  0
VERTEX
  8
ボルト／ビス
 10
-127.55
 20
15.225
  0
VERTEX
  8
ボルト／ビス
 10
-127.55
 20
15.225
  0
VERTEX
  8
ボルト／ビス
 10
-127.55
 20
15.225
  0
VERTEX
  8
ボルト／ビス
 10
-127.575
 20
15.225
  0
VERTEX
  8
ボルト／ビス
 10
-127.575
 20
15.225
  0
VERTEX
  8
ボルト／ビス
 10
-127.575
 20
15.225
  0
VERTEX
  8
ボルト／ビス
 10
-127.6
 20
15.225
  0
VERTEX
  8
ボルト／ビス
 10
-127.6
 20
15.225
  0
VERTEX
  8
ボルト／ビス
 10
-127.6
 20
15.2
  0
VERTEX
  8
ボルト／ビス
 10
-127.6
 20
15.2
  0
VERTEX
  8
ボルト／ビス
 10
-127.6
 20
15.2
  0
VERTEX
  8
ボルト／ビス
 10
-127.625
 20
15.2
  0
VERTEX
  8
ボルト／ビス
 10
-127.625
 20
15.2
  0
VERTEX
  8
ボルト／ビス
 10
-127.625
 20
15.2
  0
VERTEX
  8
ボルト／ビス
 10
-127.625
 20
15.2
  0
VERTEX
  8
ボルト／ビス
 10
-127.625
 20
15.175
  0
VERTEX
  8
ボルト／ビス
 10
-127.65
 20
15.175
  0
VERTEX
  8
ボルト／ビス
 10
-127.65
 20
15.175
  0
VERTEX
  8
ボルト／ビス
 10
-127.65
 20
15.175
  0
VERTEX
  8
ボルト／ビス
 10
-127.65
 20
15.175
  0
VERTEX
  8
ボルト／ビス
 10
-127.65
 20
15.175
  0
VERTEX
  8
ボルト／ビス
 10
-127.65
 20
15.175
  0
VERTEX
  8
ボルト／ビス
 10
-127.65
 20
15.15
  0
VERTEX
  8
ボルト／ビス
 10
-127.675
 20
15.15
  0
VERTEX
  8
ボルト／ビス
 10
-127.675
 20
15.15
  0
VERTEX
  8
ボルト／ビス
 10
-127.675
 20
15.15
  0
VERTEX
  8
ボルト／ビス
 10
-127.675
 20
15.15
  0
VERTEX
  8
ボルト／ビス
 10
-127.675
 20
15.125
  0
VERTEX
  8
ボルト／ビス
 10
-127.675
 20
15.125
  0
VERTEX
  8
ボルト／ビス
 10
-127.675
 20
15.125
  0
VERTEX
  8
ボルト／ビス
 10
-127.675
 20
15.125
  0
VERTEX
  8
ボルト／ビス
 10
-127.675
 20
15.125
  0
VERTEX
  8
ボルト／ビス
 10
-127.675
 20
15.125
  0
VERTEX
  8
ボルト／ビス
 10
-127.675
 20
15.1
  0
VERTEX
  8
ボルト／ビス
 10
-127.675
 20
15.1
  0
SEQEND
  0
LINE
  8
ボルト／ビス
  6
CONTINUOUS
 10
-127.66761
 20
16.354222
 11
-127.815895
 21
16.354222
  0
LINE
  8
ボルト／ビス
  6
CONTINUOUS
 10
-127.26953
 20
15.75446
 11
-127.26953
 21
15.50701
  0
LINE
  8
ボルト／ビス
  6
CONTINUOUS
 10
-127.66761
 20
15.89586
 11
-127.66761
 21
16.354222
  0
LINE
  8
ボルト／ビス
  6
CONTINUOUS
 10
-127.26953
 20
15.75446
 11
-127.42267
 21
15.75446
  0
POLYLINE
  8
ボルト／ビス
  6
CONTINUOUS
 66
     1
  0
VERTEX
  8
ボルト／ビス
 10
-127.675
 20
15.875
  0
VERTEX
  8
ボルト／ビス
 10
-127.675
 20
15.875
  0
VERTEX
  8
ボルト／ビス
 10
-127.675
 20
15.875
  0
VERTEX
  8
ボルト／ビス
 10
-127.675
 20
15.875
  0
VERTEX
  8
ボルト／ビス
 10
-127.675
 20
15.875
  0
VERTEX
  8
ボルト／ビス
 10
-127.675
 20
15.85
  0
VERTEX
  8
ボルト／ビス
 10
-127.675
 20
15.85
  0
VERTEX
  8
ボルト／ビス
 10
-127.675
 20
15.85
  0
VERTEX
  8
ボルト／ビス
 10
-127.675
 20
15.85
  0
VERTEX
  8
ボルト／ビス
 10
-127.675
 20
15.85
  0
VERTEX
  8
ボルト／ビス
 10
-127.675
 20
15.85
  0
VERTEX
  8
ボルト／ビス
 10
-127.675
 20
15.825
  0
VERTEX
  8
ボルト／ビス
 10
-127.65
 20
15.825
  0
VERTEX
  8
ボルト／ビス
 10
-127.65
 20
15.825
  0
VERTEX
  8
ボルト／ビス
 10
-127.65
 20
15.825
  0
VERTEX
  8
ボルト／ビス
 10
-127.65
 20
15.825
  0
VERTEX
  8
ボルト／ビス
 10
-127.65
 20
15.825
  0
VERTEX
  8
ボルト／ビス
 10
-127.65
 20
15.8
  0
VERTEX
  8
ボルト／ビス
 10
-127.65
 20
15.8
  0
VERTEX
  8
ボルト／ビス
 10
-127.625
 20
15.8
  0
VERTEX
  8
ボルト／ビス
 10
-127.625
 20
15.8
  0
VERTEX
  8
ボルト／ビス
 10
-127.625
 20
15.8
  0
VERTEX
  8
ボルト／ビス
 10
-127.625
 20
15.8
  0
VERTEX
  8
ボルト／ビス
 10
-127.625
 20
15.8
  0
VERTEX
  8
ボルト／ビス
 10
-127.6
 20
15.775
  0
VERTEX
  8
ボルト／ビス
 10
-127.6
 20
15.775
  0
VERTEX
  8
ボルト／ビス
 10
-127.6
 20
15.775
  0
VERTEX
  8
ボルト／ビス
 10
-127.6
 20
15.775
  0
VERTEX
  8
ボルト／ビス
 10
-127.6
 20
15.775
  0
VERTEX
  8
ボルト／ビス
 10
-127.575
 20
15.775
  0
VERTEX
  8
ボルト／ビス
 10
-127.575
 20
15.775
  0
VERTEX
  8
ボルト／ビス
 10
-127.575
 20
15.775
  0
VERTEX
  8
ボルト／ビス
 10
-127.55
 20
15.75
  0
VERTEX
  8
ボルト／ビス
 10
-127.55
 20
15.75
  0
VERTEX
  8
ボルト／ビス
 10
-127.55
 20
15.75
  0
VERTEX
  8
ボルト／ビス
 10
-127.55
 20
15.75
  0
VERTEX
  8
ボルト／ビス
 10
-127.525
 20
15.75
  0
VERTEX
  8
ボルト／ビス
 10
-127.525
 20
15.75
  0
VERTEX
  8
ボルト／ビス
 10
-127.525
 20
15.75
  0
VERTEX
  8
ボルト／ビス
 10
-127.5
 20
15.75
  0
VERTEX
  8
ボルト／ビス
 10
-127.5
 20
15.75
  0
VERTEX
  8
ボルト／ビス
 10
-127.5
 20
15.75
  0
VERTEX
  8
ボルト／ビス
 10
-127.5
 20
15.75
  0
VERTEX
  8
ボルト／ビス
 10
-127.475
 20
15.75
  0
VERTEX
  8
ボルト／ビス
 10
-127.475
 20
15.75
  0
VERTEX
  8
ボルト／ビス
 10
-127.475
 20
15.75
  0
VERTEX
  8
ボルト／ビス
 10
-127.45
 20
15.75
  0
VERTEX
  8
ボルト／ビス
 10
-127.45
 20
15.75
  0
VERTEX
  8
ボルト／ビス
 10
-127.45
 20
15.75
  0
VERTEX
  8
ボルト／ビス
 10
-127.425
 20
15.75
  0
SEQEND
  0
LINE
  8
ボルト／ビス
  6
CONTINUOUS
 10
-126.311195
 20
14.26976
 11
-126.311195
 21
16.74426
  0
LINE
  8
ボルト／ビス
  6
CONTINUOUS
 10
-129.110485
 20
15.50701
 11
-115.37366
 21
15.50701
  0
LINE
  8
ボルト／ビス
  6
CONTINUOUS
 10
-116.819765
 20
14.80001
 11
-116.51359
 21
14.97676
  0
LINE
  8
ボルト／ビス
  6
CONTINUOUS
 10
-116.819765
 20
16.21401
 11
-116.51359
 21
16.03726
  0
LINE
  8
ボルト／ビス
  6
CONTINUOUS
 10
-116.819765
 20
14.80001
 11
-116.819765
 21
16.21401
  0
LINE
  8
ボルト／ビス
  6
CONTINUOUS
 10
-116.51359
 20
14.97676
 11
-116.51359
 21
16.03726
  0
LINE
  8
ボルト／ビス
  6
CONTINUOUS
 10
-126.311195
 20
16.21401
 11
-116.819765
 21
16.21401
  0
LINE
  8
ボルト／ビス
  6
CONTINUOUS
 10
-126.311195
 20
14.80001
 11
-116.819765
 21
14.80001
  0
LINE
  8
ボルト／ビス
  6
CONTINUOUS
 10
-126.311195
 20
14.97676
 11
-116.51359
 21
14.97676
  0
LINE
  8
ボルト／ビス
  6
CONTINUOUS
 10
-126.311195
 20
16.03726
 11
-116.51359
 21
16.03726
  0
ENDBLK
  0
BLOCK
  2
*GRP_0028
 70
    65
 10
0.0
 20
0.0
  0
LINE
  8
ボルト／ビス
  6
CONTINUOUS
 10
-106.19781
 20
17.628008
 11
-105.891635
 21
17.451258
  0
LINE
  8
ボルト／ビス
  6
CONTINUOUS
 10
-103.74841
 20
17.628008
 11
-104.054585
 21
17.451258
  0
LINE
  8
ボルト／ビス
  6
CONTINUOUS
 10
-105.891635
 20
17.451258
 11
-104.054585
 21
17.451258
  0
LINE
  8
ボルト／ビス
  6
CONTINUOUS
 10
-106.19781
 20
17.628008
 11
-103.74841
 21
17.628008
  0
LINE
  8
ボルト／ビス
  6
CONTINUOUS
 10
-106.19781
 20
17.628008
 11
-106.19781
 21
18.935958
  0
LINE
  8
ボルト／ビス
  6
CONTINUOUS
 10
-105.891635
 20
17.451258
 11
-105.891635
 21
18.935958
  0
LINE
  8
ボルト／ビス
  6
CONTINUOUS
 10
-104.054585
 20
17.451258
 11
-104.054585
 21
18.935958
  0
LINE
  8
ボルト／ビス
  6
CONTINUOUS
 10
-103.74841
 20
17.628008
 11
-103.74841
 21
18.935958
  0
LINE
  8
ボルト／ビス
  6
CONTINUOUS
 10
-106.19781
 20
18.935958
 11
-103.74841
 21
18.935958
  0
LINE
  8
ボルト／ビス
  6
CONTINUOUS
 10
-106.81016
 20
19.572257
 11
-106.19781
 21
18.935958
  0
LINE
  8
ボルト／ビス
  6
CONTINUOUS
 10
-106.81016
 20
19.572257
 11
-103.136057
 21
19.572257
  0
LINE
  8
ボルト／ビス
  6
CONTINUOUS
 10
-103.136057
 20
19.572257
 11
-103.74841
 21
18.935958
  0
LINE
  8
ボルト／ビス
  6
CONTINUOUS
 10
-104.97311
 20
16.89256
 11
-104.97311
 21
20.096685
  0
ENDBLK
  0
BLOCK
  2
*GRP_0029
 70
    65
 10
0.0
 20
0.0
  0
LINE
  8
ボルト／ビス
  6
CONTINUOUS
 10
-106.19781
 20
13.38601
 11
-105.891635
 21
13.56276
  0
LINE
  8
ボルト／ビス
  6
CONTINUOUS
 10
-103.74841
 20
13.38601
 11
-104.054585
 21
13.56276
  0
LINE
  8
ボルト／ビス
  6
CONTINUOUS
 10
-105.891635
 20
13.56276
 11
-104.054585
 21
13.56276
  0
LINE
  8
ボルト／ビス
  6
CONTINUOUS
 10
-106.19781
 20
13.38601
 11
-103.74841
 21
13.38601
  0
LINE
  8
ボルト／ビス
  6
CONTINUOUS
 10
-106.19781
 20
13.38601
 11
-106.19781
 21
12.07806
  0
LINE
  8
ボルト／ビス
  6
CONTINUOUS
 10
-105.891635
 20
13.56276
 11
-105.891635
 21
12.07806
  0
LINE
  8
ボルト／ビス
  6
CONTINUOUS
 10
-104.054585
 20
13.56276
 11
-104.054585
 21
12.07806
  0
LINE
  8
ボルト／ビス
  6
CONTINUOUS
 10
-103.74841
 20
13.38601
 11
-103.74841
 21
12.07806
  0
LINE
  8
ボルト／ビス
  6
CONTINUOUS
 10
-106.19781
 20
12.07806
 11
-103.74841
 21
12.07806
  0
LINE
  8
ボルト／ビス
  6
CONTINUOUS
 10
-106.81016
 20
11.44176
 11
-106.19781
 21
12.07806
  0
LINE
  8
ボルト／ビス
  6
CONTINUOUS
 10
-106.81016
 20
11.44176
 11
-103.136057
 21
11.44176
  0
LINE
  8
ボルト／ビス
  6
CONTINUOUS
 10
-103.136057
 20
11.44176
 11
-103.74841
 21
12.07806
  0
LINE
  8
ボルト／ビス
  6
CONTINUOUS
 10
-104.97311
 20
14.121457
 11
-104.97311
 21
10.917332
  0
ENDBLK
  0
BLOCK
  2
*GRP_0030
 70
    65
 10
0.0
 20
0.0
  0
LINE
  8
補助線
  6
BYBLOCK
 62
     0
 10
-100.038998
 20
-25.988713
 11
-100.038998
 21
-18.658587
  0
LINE
  8
補助線
  6
BYBLOCK
 62
     0
 10
-103.70406
 20
-22.32365
 11
-96.373938
 21
-22.32365
  0
ENDBLK
  0
BLOCK
  2
*GRP_0031
 70
    65
 10
0.0
 20
0.0
  0
LINE
  8
ボルト／ビス
  6
CONTINUOUS
 10
-126.311195
 20
-21.08688
 11
-126.95304
 21
-21.119295
  0
POLYLINE
  8
ボルト／ビス
  6
CONTINUOUS
 66
     1
  0
VERTEX
  8
ボルト／ビス
 10
-126.975
 20
-21.125
  0
VERTEX
  8
ボルト／ビス
 10
-127.0
 20
-21.125
  0
VERTEX
  8
ボルト／ビス
 10
-127.025
 20
-21.125
  0
VERTEX
  8
ボルト／ビス
 10
-127.075
 20
-21.15
  0
VERTEX
  8
ボルト／ビス
 10
-127.1
 20
-21.15
  0
VERTEX
  8
ボルト／ビス
 10
-127.125
 20
-21.15
  0
VERTEX
  8
ボルト／ビス
 10
-127.175
 20
-21.15
  0
VERTEX
  8
ボルト／ビス
 10
-127.2
 20
-21.15
  0
VERTEX
  8
ボルト／ビス
 10
-127.225
 20
-21.175
  0
VERTEX
  8
ボルト／ビス
 10
-127.25
 20
-21.175
  0
VERTEX
  8
ボルト／ビス
 10
-127.3
 20
-21.175
  0
VERTEX
  8
ボルト／ビス
 10
-127.325
 20
-21.175
  0
VERTEX
  8
ボルト／ビス
 10
-127.35
 20
-21.2
  0
VERTEX
  8
ボルト／ビス
 10
-127.375
 20
-21.2
  0
VERTEX
  8
ボルト／ビス
 10
-127.4
 20
-21.225
  0
VERTEX
  8
ボルト／ビス
 10
-127.425
 20
-21.225
  0
VERTEX
  8
ボルト／ビス
 10
-127.475
 20
-21.225
  0
VERTEX
  8
ボルト／ビス
 10
-127.5
 20
-21.25
  0
VERTEX
  8
ボルト／ビス
 10
-127.525
 20
-21.25
  0
VERTEX
  8
ボルト／ビス
 10
-127.55
 20
-21.275
  0
VERTEX
  8
ボルト／ビス
 10
-127.575
 20
-21.275
  0
VERTEX
  8
ボルト／ビス
 10
-127.6
 20
-21.3
  0
VERTEX
  8
ボルト／ビス
 10
-127.625
 20
-21.3
  0
VERTEX
  8
ボルト／ビス
 10
-127.65
 20
-21.325
  0
VERTEX
  8
ボルト／ビス
 10
-127.675
 20
-21.35
  0
VERTEX
  8
ボルト／ビス
 10
-127.675
 20
-21.35
  0
VERTEX
  8
ボルト／ビス
 10
-127.7
 20
-21.375
  0
VERTEX
  8
ボルト／ビス
 10
-127.725
 20
-21.375
  0
VERTEX
  8
ボルト／ビス
 10
-127.75
 20
-21.4
  0
VERTEX
  8
ボルト／ビス
 10
-127.775
 20
-21.425
  0
VERTEX
  8
ボルト／ビス
 10
-127.775
 20
-21.425
  0
VERTEX
  8
ボルト／ビス
 10
-127.8
 20
-21.45
  0
VERTEX
  8
ボルト／ビス
 10
-127.8
 20
-21.475
  0
VERTEX
  8
ボルト／ビス
 10
-127.825
 20
-21.475
  0
VERTEX
  8
ボルト／ビス
 10
-127.85
 20
-21.5
  0
VERTEX
  8
ボルト／ビス
 10
-127.85
 20
-21.525
  0
VERTEX
  8
ボルト／ビス
 10
-127.85
 20
-21.55
  0
VERTEX
  8
ボルト／ビス
 10
-127.875
 20
-21.55
  0
VERTEX
  8
ボルト／ビス
 10
-127.875
 20
-21.575
  0
VERTEX
  8
ボルト／ビス
 10
-127.9
 20
-21.6
  0
VERTEX
  8
ボルト／ビス
 10
-127.9
 20
-21.625
  0
VERTEX
  8
ボルト／ビス
 10
-127.9
 20
-21.625
  0
VERTEX
  8
ボルト／ビス
 10
-127.9
 20
-21.65
  0
VERTEX
  8
ボルト／ビス
 10
-127.9
 20
-21.675
  0
VERTEX
  8
ボルト／ビス
 10
-127.925
 20
-21.7
  0
VERTEX
  8
ボルト／ビス
 10
-127.925
 20
-21.7
  0
VERTEX
  8
ボルト／ビス
 10
-127.925
 20
-21.725
  0
SEQEND
  0
LINE
  8
ボルト／ビス
  6
CONTINUOUS
 10
-127.903305
 20
-21.71796
 11
-127.903305
 21
-22.32413
  0
LINE
  8
ボルト／ビス
  6
CONTINUOUS
 10
-126.311195
 20
-23.56138
 11
-126.95304
 21
-23.528963
  0
POLYLINE
  8
ボルト／ビス
  6
CONTINUOUS
 66
     1
  0
VERTEX
  8
ボルト／ビス
 10
-127.925
 20
-22.95
  0
VERTEX
  8
ボルト／ビス
 10
-127.925
 20
-22.95
  0
VERTEX
  8
ボルト／ビス
 10
-127.925
 20
-22.975
  0
VERTEX
  8
ボルト／ビス
 10
-127.9
 20
-23.0
  0
VERTEX
  8
ボルト／ビス
 10
-127.9
 20
-23.025
  0
VERTEX
  8
ボルト／ビス
 10
-127.9
 20
-23.05
  0
VERTEX
  8
ボルト／ビス
 10
-127.9
 20
-23.05
  0
VERTEX
  8
ボルト／ビス
 10
-127.9
 20
-23.075
  0
VERTEX
  8
ボルト／ビス
 10
-127.875
 20
-23.1
  0
VERTEX
  8
ボルト／ビス
 10
-127.875
 20
-23.125
  0
VERTEX
  8
ボルト／ビス
 10
-127.85
 20
-23.125
  0
VERTEX
  8
ボルト／ビス
 10
-127.85
 20
-23.15
  0
VERTEX
  8
ボルト／ビス
 10
-127.85
 20
-23.175
  0
VERTEX
  8
ボルト／ビス
 10
-127.825
 20
-23.175
  0
VERTEX
  8
ボルト／ビス
 10
-127.8
 20
-23.2
  0
VERTEX
  8
ボルト／ビス
 10
-127.8
 20
-23.225
  0
VERTEX
  8
ボルト／ビス
 10
-127.775
 20
-23.25
  0
VERTEX
  8
ボルト／ビス
 10
-127.775
 20
-23.25
  0
VERTEX
  8
ボルト／ビス
 10
-127.75
 20
-23.275
  0
VERTEX
  8
ボルト／ビス
 10
-127.725
 20
-23.3
  0
VERTEX
  8
ボルト／ビス
 10
-127.7
 20
-23.3
  0
VERTEX
  8
ボルト／ビス
 10
-127.675
 20
-23.325
  0
VERTEX
  8
ボルト／ビス
 10
-127.675
 20
-23.325
  0
VERTEX
  8
ボルト／ビス
 10
-127.65
 20
-23.35
  0
VERTEX
  8
ボルト／ビス
 10
-127.625
 20
-23.375
  0
VERTEX
  8
ボルト／ビス
 10
-127.6
 20
-23.375
  0
VERTEX
  8
ボルト／ビス
 10
-127.575
 20
-23.4
  0
VERTEX
  8
ボルト／ビス
 10
-127.55
 20
-23.4
  0
VERTEX
  8
ボルト／ビス
 10
-127.525
 20
-23.425
  0
VERTEX
  8
ボルト／ビス
 10
-127.5
 20
-23.425
  0
VERTEX
  8
ボルト／ビス
 10
-127.475
 20
-23.45
  0
VERTEX
  8
ボルト／ビス
 10
-127.425
 20
-23.45
  0
VERTEX
  8
ボルト／ビス
 10
-127.4
 20
-23.45
  0
VERTEX
  8
ボルト／ビス
 10
-127.375
 20
-23.475
  0
VERTEX
  8
ボルト／ビス
 10
-127.35
 20
-23.475
  0
VERTEX
  8
ボルト／ビス
 10
-127.325
 20
-23.475
  0
VERTEX
  8
ボルト／ビス
 10
-127.3
 20
-23.5
  0
VERTEX
  8
ボルト／ビス
 10
-127.25
 20
-23.5
  0
VERTEX
  8
ボルト／ビス
 10
-127.225
 20
-23.5
  0
VERTEX
  8
ボルト／ビス
 10
-127.2
 20
-23.525
  0
VERTEX
  8
ボルト／ビス
 10
-127.175
 20
-23.525
  0
VERTEX
  8
ボルト／ビス
 10
-127.125
 20
-23.525
  0
VERTEX
  8
ボルト／ビス
 10
-127.1
 20
-23.525
  0
VERTEX
  8
ボルト／ビス
 10
-127.075
 20
-23.525
  0
VERTEX
  8
ボルト／ビス
 10
-127.025
 20
-23.525
  0
VERTEX
  8
ボルト／ビス
 10
-127.0
 20
-23.55
  0
VERTEX
  8
ボルト／ビス
 10
-126.975
 20
-23.55
  0
SEQEND
  0
LINE
  8
ボルト／ビス
  6
CONTINUOUS
 10
-127.903305
 20
-22.9303
 11
-127.903305
 21
-22.32413
  0
LINE
  8
ボルト／ビス
  6
CONTINUOUS
 10
-127.66761
 20
-21.476918
 11
-127.815895
 21
-21.476918
  0
LINE
  8
ボルト／ビス
  6
CONTINUOUS
 10
-127.26953
 20
-22.07668
 11
-127.26953
 21
-22.32413
  0
LINE
  8
ボルト／ビス
  6
CONTINUOUS
 10
-127.66761
 20
-21.93528
 11
-127.66761
 21
-21.476918
  0
LINE
  8
ボルト／ビス
  6
CONTINUOUS
 10
-127.26953
 20
-22.07668
 11
-127.42267
 21
-22.07668
  0
POLYLINE
  8
ボルト／ビス
  6
CONTINUOUS
 66
     1
  0
VERTEX
  8
ボルト／ビス
 10
-127.675
 20
-21.95
  0
VERTEX
  8
ボルト／ビス
 10
-127.675
 20
-21.95
  0
VERTEX
  8
ボルト／ビス
 10
-127.675
 20
-21.95
  0
VERTEX
  8
ボルト／ビス
 10
-127.675
 20
-21.95
  0
VERTEX
  8
ボルト／ビス
 10
-127.675
 20
-21.975
  0
VERTEX
  8
ボルト／ビス
 10
-127.675
 20
-21.975
  0
VERTEX
  8
ボルト／ビス
 10
-127.675
 20
-21.975
  0
VERTEX
  8
ボルト／ビス
 10
-127.675
 20
-21.975
  0
VERTEX
  8
ボルト／ビス
 10
-127.675
 20
-21.975
  0
VERTEX
  8
ボルト／ビス
 10
-127.675
 20
-22.0
  0
VERTEX
  8
ボルト／ビス
 10
-127.675
 20
-22.0
  0
VERTEX
  8
ボルト／ビス
 10
-127.675
 20
-22.0
  0
VERTEX
  8
ボルト／ビス
 10
-127.65
 20
-22.0
  0
VERTEX
  8
ボルト／ビス
 10
-127.65
 20
-22.0
  0
VERTEX
  8
ボルト／ビス
 10
-127.65
 20
-22.0
  0
VERTEX
  8
ボルト／ビス
 10
-127.65
 20
-22.025
  0
VERTEX
  8
ボルト／ビス
 10
-127.65
 20
-22.025
  0
VERTEX
  8
ボルト／ビス
 10
-127.65
 20
-22.025
  0
VERTEX
  8
ボルト／ビス
 10
-127.65
 20
-22.025
  0
VERTEX
  8
ボルト／ビス
 10
-127.625
 20
-22.025
  0
VERTEX
  8
ボルト／ビス
 10
-127.625
 20
-22.025
  0
VERTEX
  8
ボルト／ビス
 10
-127.625
 20
-22.025
  0
VERTEX
  8
ボルト／ビス
 10
-127.625
 20
-22.05
  0
VERTEX
  8
ボルト／ビス
 10
-127.625
 20
-22.05
  0
VERTEX
  8
ボルト／ビス
 10
-127.6
 20
-22.05
  0
VERTEX
  8
ボルト／ビス
 10
-127.6
 20
-22.05
  0
VERTEX
  8
ボルト／ビス
 10
-127.6
 20
-22.05
  0
VERTEX
  8
ボルト／ビス
 10
-127.6
 20
-22.05
  0
VERTEX
  8
ボルト／ビス
 10
-127.6
 20
-22.05
  0
VERTEX
  8
ボルト／ビス
 10
-127.575
 20
-22.05
  0
VERTEX
  8
ボルト／ビス
 10
-127.575
 20
-22.075
  0
VERTEX
  8
ボルト／ビス
 10
-127.575
 20
-22.075
  0
VERTEX
  8
ボルト／ビス
 10
-127.55
 20
-22.075
  0
VERTEX
  8
ボルト／ビス
 10
-127.55
 20
-22.075
  0
VERTEX
  8
ボルト／ビス
 10
-127.55
 20
-22.075
  0
VERTEX
  8
ボルト／ビス
 10
-127.55
 20
-22.075
  0
VERTEX
  8
ボルト／ビス
 10
-127.525
 20
-22.075
  0
VERTEX
  8
ボルト／ビス
 10
-127.525
 20
-22.075
  0
VERTEX
  8
ボルト／ビス
 10
-127.525
 20
-22.075
  0
VERTEX
  8
ボルト／ビス
 10
-127.5
 20
-22.075
  0
VERTEX
  8
ボルト／ビス
 10
-127.5
 20
-22.075
  0
VERTEX
  8
ボルト／ビス
 10
-127.5
 20
-22.075
  0
VERTEX
  8
ボルト／ビス
 10
-127.5
 20
-22.075
  0
VERTEX
  8
ボルト／ビス
 10
-127.475
 20
-22.075
  0
VERTEX
  8
ボルト／ビス
 10
-127.475
 20
-22.075
  0
VERTEX
  8
ボルト／ビス
 10
-127.475
 20
-22.1
  0
VERTEX
  8
ボルト／ビス
 10
-127.45
 20
-22.1
  0
VERTEX
  8
ボルト／ビス
 10
-127.45
 20
-22.1
  0
VERTEX
  8
ボルト／ビス
 10
-127.45
 20
-22.1
  0
VERTEX
  8
ボルト／ビス
 10
-127.425
 20
-22.1
  0
SEQEND
  0
LINE
  8
ボルト／ビス
  6
CONTINUOUS
 10
-127.66761
 20
-23.171342
 11
-127.815895
 21
-23.171342
  0
LINE
  8
ボルト／ビス
  6
CONTINUOUS
 10
-127.26953
 20
-22.57158
 11
-127.26953
 21
-22.32413
  0
LINE
  8
ボルト／ビス
  6
CONTINUOUS
 10
-127.66761
 20
-22.71298
 11
-127.66761
 21
-23.171342
  0
LINE
  8
ボルト／ビス
  6
CONTINUOUS
 10
-127.26953
 20
-22.57158
 11
-127.42267
 21
-22.57158
  0
POLYLINE
  8
ボルト／ビス
  6
CONTINUOUS
 66
     1
  0
VERTEX
  8
ボルト／ビス
 10
-127.425
 20
-22.575
  0
VERTEX
  8
ボルト／ビス
 10
-127.45
 20
-22.575
  0
VERTEX
  8
ボルト／ビス
 10
-127.45
 20
-22.575
  0
VERTEX
  8
ボルト／ビス
 10
-127.45
 20
-22.575
  0
VERTEX
  8
ボルト／ビス
 10
-127.475
 20
-22.575
  0
VERTEX
  8
ボルト／ビス
 10
-127.475
 20
-22.575
  0
VERTEX
  8
ボルト／ビス
 10
-127.475
 20
-22.575
  0
VERTEX
  8
ボルト／ビス
 10
-127.5
 20
-22.6
  0
VERTEX
  8
ボルト／ビス
 10
-127.5
 20
-22.6
  0
VERTEX
  8
ボルト／ビス
 10
-127.5
 20
-22.6
  0
VERTEX
  8
ボルト／ビス
 10
-127.5
 20
-22.6
  0
VERTEX
  8
ボルト／ビス
 10
-127.525
 20
-22.6
  0
VERTEX
  8
ボルト／ビス
 10
-127.525
 20
-22.6
  0
VERTEX
  8
ボルト／ビス
 10
-127.525
 20
-22.6
  0
VERTEX
  8
ボルト／ビス
 10
-127.55
 20
-22.6
  0
VERTEX
  8
ボルト／ビス
 10
-127.55
 20
-22.6
  0
VERTEX
  8
ボルト／ビス
 10
-127.55
 20
-22.6
  0
VERTEX
  8
ボルト／ビス
 10
-127.55
 20
-22.6
  0
VERTEX
  8
ボルト／ビス
 10
-127.575
 20
-22.6
  0
VERTEX
  8
ボルト／ビス
 10
-127.575
 20
-22.6
  0
VERTEX
  8
ボルト／ビス
 10
-127.575
 20
-22.6
  0
VERTEX
  8
ボルト／ビス
 10
-127.6
 20
-22.625
  0
VERTEX
  8
ボルト／ビス
 10
-127.6
 20
-22.625
  0
VERTEX
  8
ボルト／ビス
 10
-127.6
 20
-22.625
  0
VERTEX
  8
ボルト／ビス
 10
-127.6
 20
-22.625
  0
VERTEX
  8
ボルト／ビス
 10
-127.6
 20
-22.625
  0
VERTEX
  8
ボルト／ビス
 10
-127.625
 20
-22.625
  0
VERTEX
  8
ボルト／ビス
 10
-127.625
 20
-22.625
  0
VERTEX
  8
ボルト／ビス
 10
-127.625
 20
-22.625
  0
VERTEX
  8
ボルト／ビス
 10
-127.625
 20
-22.65
  0
VERTEX
  8
ボルト／ビス
 10
-127.625
 20
-22.65
  0
VERTEX
  8
ボルト／ビス
 10
-127.65
 20
-22.65
  0
VERTEX
  8
ボルト／ビス
 10
-127.65
 20
-22.65
  0
VERTEX
  8
ボルト／ビス
 10
-127.65
 20
-22.65
  0
VERTEX
  8
ボルト／ビス
 10
-127.65
 20
-22.65
  0
VERTEX
  8
ボルト／ビス
 10
-127.65
 20
-22.675
  0
VERTEX
  8
ボルト／ビス
 10
-127.65
 20
-22.675
  0
VERTEX
  8
ボルト／ビス
 10
-127.65
 20
-22.675
  0
VERTEX
  8
ボルト／ビス
 10
-127.675
 20
-22.675
  0
VERTEX
  8
ボルト／ビス
 10
-127.675
 20
-22.675
  0
VERTEX
  8
ボルト／ビス
 10
-127.675
 20
-22.675
  0
VERTEX
  8
ボルト／ビス
 10
-127.675
 20
-22.7
  0
VERTEX
  8
ボルト／ビス
 10
-127.675
 20
-22.7
  0
VERTEX
  8
ボルト／ビス
 10
-127.675
 20
-22.7
  0
VERTEX
  8
ボルト／ビス
 10
-127.675
 20
-22.7
  0
VERTEX
  8
ボルト／ビス
 10
-127.675
 20
-22.7
  0
VERTEX
  8
ボルト／ビス
 10
-127.675
 20
-22.7
  0
VERTEX
  8
ボルト／ビス
 10
-127.675
 20
-22.725
  0
VERTEX
  8
ボルト／ビス
 10
-127.675
 20
-22.725
  0
VERTEX
  8
ボルト／ビス
 10
-127.675
 20
-22.725
  0
SEQEND
  0
LINE
  8
ボルト／ビス
  6
CONTINUOUS
 10
-126.311195
 20
-21.08688
 11
-126.311195
 21
-23.56138
  0
LINE
  8
ボルト／ビス
  6
CONTINUOUS
 10
-129.110485
 20
-22.32413
 11
-115.37366
 21
-22.32413
  0
LINE
  8
ボルト／ビス
  6
CONTINUOUS
 10
-116.819765
 20
-21.61713
 11
-116.51359
 21
-21.79388
  0
LINE
  8
ボルト／ビス
  6
CONTINUOUS
 10
-116.819765
 20
-23.03113
 11
-116.51359
 21
-22.85438
  0
LINE
  8
ボルト／ビス
  6
CONTINUOUS
 10
-116.819765
 20
-21.61713
 11
-116.819765
 21
-23.03113
  0
LINE
  8
ボルト／ビス
  6
CONTINUOUS
 10
-116.51359
 20
-21.79388
 11
-116.51359
 21
-22.85438
  0
LINE
  8
ボルト／ビス
  6
CONTINUOUS
 10
-126.311195
 20
-23.03113
 11
-116.819765
 21
-23.03113
  0
LINE
  8
ボルト／ビス
  6
CONTINUOUS
 10
-126.311195
 20
-21.61713
 11
-116.819765
 21
-21.61713
  0
LINE
  8
ボルト／ビス
  6
CONTINUOUS
 10
-126.311195
 20
-21.79388
 11
-116.51359
 21
-21.79388
  0
LINE
  8
ボルト／ビス
  6
CONTINUOUS
 10
-126.311195
 20
-22.85438
 11
-116.51359
 21
-22.85438
  0
ENDBLK
  0
BLOCK
  2
*GRP_0032
 70
    65
 10
0.0
 20
0.0
  0
LINE
  8
ボルト／ビス
  6
CONTINUOUS
 10
-106.19781
 20
-24.445128
 11
-105.891635
 21
-24.268378
  0
LINE
  8
ボルト／ビス
  6
CONTINUOUS
 10
-103.74841
 20
-24.445128
 11
-104.054585
 21
-24.268378
  0
LINE
  8
ボルト／ビス
  6
CONTINUOUS
 10
-105.891635
 20
-24.268378
 11
-104.054585
 21
-24.268378
  0
LINE
  8
ボルト／ビス
  6
CONTINUOUS
 10
-106.19781
 20
-24.445128
 11
-103.74841
 21
-24.445128
  0
LINE
  8
ボルト／ビス
  6
CONTINUOUS
 10
-106.19781
 20
-24.445128
 11
-106.19781
 21
-25.753078
  0
LINE
  8
ボルト／ビス
  6
CONTINUOUS
 10
-105.891635
 20
-24.268378
 11
-105.891635
 21
-25.753078
  0
LINE
  8
ボルト／ビス
  6
CONTINUOUS
 10
-104.054585
 20
-24.268378
 11
-104.054585
 21
-25.753078
  0
LINE
  8
ボルト／ビス
  6
CONTINUOUS
 10
-103.74841
 20
-24.445128
 11
-103.74841
 21
-25.753078
  0
LINE
  8
ボルト／ビス
  6
CONTINUOUS
 10
-106.19781
 20
-25.753078
 11
-103.74841
 21
-25.753078
  0
LINE
  8
ボルト／ビス
  6
CONTINUOUS
 10
-106.81016
 20
-26.389377
 11
-106.19781
 21
-25.753078
  0
LINE
  8
ボルト／ビス
  6
CONTINUOUS
 10
-106.81016
 20
-26.389377
 11
-103.136057
 21
-26.389377
  0
LINE
  8
ボルト／ビス
  6
CONTINUOUS
 10
-103.136057
 20
-26.389377
 11
-103.74841
 21
-25.753078
  0
LINE
  8
ボルト／ビス
  6
CONTINUOUS
 10
-104.97311
 20
-23.70968
 11
-104.97311
 21
-26.913805
  0
ENDBLK
  0
BLOCK
  2
*GRP_0033
 70
    65
 10
0.0
 20
0.0
  0
LINE
  8
ボルト／ビス
  6
CONTINUOUS
 10
-106.19781
 20
-20.20313
 11
-105.891635
 21
-20.37988
  0
LINE
  8
ボルト／ビス
  6
CONTINUOUS
 10
-103.74841
 20
-20.20313
 11
-104.054585
 21
-20.37988
  0
LINE
  8
ボルト／ビス
  6
CONTINUOUS
 10
-105.891635
 20
-20.37988
 11
-104.054585
 21
-20.37988
  0
LINE
  8
ボルト／ビス
  6
CONTINUOUS
 10
-106.19781
 20
-20.20313
 11
-103.74841
 21
-20.20313
  0
LINE
  8
ボルト／ビス
  6
CONTINUOUS
 10
-106.19781
 20
-20.20313
 11
-106.19781
 21
-18.89518
  0
LINE
  8
ボルト／ビス
  6
CONTINUOUS
 10
-105.891635
 20
-20.37988
 11
-105.891635
 21
-18.89518
  0
LINE
  8
ボルト／ビス
  6
CONTINUOUS
 10
-104.054585
 20
-20.37988
 11
-104.054585
 21
-18.89518
  0
LINE
  8
ボルト／ビス
  6
CONTINUOUS
 10
-103.74841
 20
-20.20313
 11
-103.74841
 21
-18.89518
  0
LINE
  8
ボルト／ビス
  6
CONTINUOUS
 10
-106.19781
 20
-18.89518
 11
-103.74841
 21
-18.89518
  0
LINE
  8
ボルト／ビス
  6
CONTINUOUS
 10
-106.81016
 20
-18.25888
 11
-106.19781
 21
-18.89518
  0
LINE
  8
ボルト／ビス
  6
CONTINUOUS
 10
-106.81016
 20
-18.25888
 11
-103.136057
 21
-18.25888
  0
LINE
  8
ボルト／ビス
  6
CONTINUOUS
 10
-103.136057
 20
-18.25888
 11
-103.74841
 21
-18.89518
  0
LINE
  8
ボルト／ビス
  6
CONTINUOUS
 10
-104.97311
 20
-20.938577
 11
-104.97311
 21
-17.734453
  0
ENDBLK
  0
BLOCK
  2
*GRP_0034
 70
    65
 10
0.0
 20
0.0
  0
LINE
  8
ボルト／ビス
  6
CONTINUOUS
 10
-43.894423
 20
99.159008
 11
-43.985778
 21
99.677097
  0
ARC
  8
ボルト／ビス
  6
CONTINUOUS
 10
-43.148689
 20
99.824698
 40
0.85
 50
105.000007
 51
190.000018
  0
LINE
  8
ボルト／ビス
  6
CONTINUOUS
 10
-43.368688
 20
100.645735
 11
-42.540517
 21
100.867642
  0
LINE
  8
ボルト／ビス
  6
CONTINUOUS
 10
-40.513682
 20
100.064872
 11
-40.693615
 21
100.55923
  0
ARC
  8
ボルト／ビス
  6
CONTINUOUS
 10
-41.492352
 20
100.268513
 40
0.85
 50
19.999997
 51
105.000007
  0
LINE
  8
ボルト／ビス
  6
CONTINUOUS
 10
-41.712348
 20
101.08955
 11
-42.540517
 21
100.867642
  0
LINE
  8
ボルト／ビス
  6
CONTINUOUS
 10
-43.648195
 20
100.3716
 11
-43.679533
 21
100.488555
  0
LINE
  8
ボルト／ビス
  6
CONTINUOUS
 10
-42.744653
 20
100.277195
 11
-42.40658
 21
100.367783
  0
LINE
  8
ボルト／ビス
  6
CONTINUOUS
 10
-43.021965
 20
100.539398
 11
-43.648195
 21
100.3716
  0
LINE
  8
ボルト／ビス
  6
CONTINUOUS
 10
-42.744653
 20
100.277195
 11
-42.777017
 21
100.397977
  0
ARC
  8
ボルト／ビス
  6
CONTINUOUS
 10
-42.970202
 20
100.346212
 40
0.2
 50
15.000007
 51
105.000007
  0
LINE
  8
ボルト／ビス
  6
CONTINUOUS
 10
-41.333217
 20
100.991898
 11
-41.364555
 21
101.10885
  0
LINE
  8
ボルト／ビス
  6
CONTINUOUS
 10
-42.068505
 20
100.458367
 11
-42.40658
 21
100.367783
  0
LINE
  8
ボルト／ビス
  6
CONTINUOUS
 10
-41.959447
 20
100.8241
 11
-41.333217
 21
100.991898
  0
LINE
  8
ボルト／ビス
  6
CONTINUOUS
 10
-42.068505
 20
100.458367
 11
-42.100868
 21
100.57915
  0
ARC
  8
ボルト／ビス
  6
CONTINUOUS
 10
-41.907683
 20
100.630913
 40
0.2
 50
105.000007
 51
195.000007
  0
LINE
  8
ボルト／ビス
  6
CONTINUOUS
 10
-43.894423
 20
99.159008
 11
-40.513682
 21
100.064872
  0
LINE
  8
ボルト／ビス
  6
CONTINUOUS
 10
-42.795633
 20
101.81975
 11
-39.892595
 21
90.985468
  0
LINE
  8
ボルト／ビス
  6
CONTINUOUS
 10
-41.16413
 20
91.867195
 11
-40.857942
 21
91.69042
  0
LINE
  8
ボルト／ビス
  6
CONTINUOUS
 10
-39.232277
 20
92.384835
 11
-39.409055
 21
92.078648
  0
LINE
  8
ボルト／ビス
  6
CONTINUOUS
 10
-41.16413
 20
91.867195
 11
-39.232277
 21
92.384835
  0
LINE
  8
ボルト／ビス
  6
CONTINUOUS
 10
-40.857942
 20
91.69042
 11
-39.409055
 21
92.078648
  0
LINE
  8
ボルト／ビス
  6
CONTINUOUS
 10
-41.238125
 20
99.87076
 11
-39.232277
 21
92.384835
  0
LINE
  8
ボルト／ビス
  6
CONTINUOUS
 10
-43.169978
 20
99.35312
 11
-41.16413
 21
91.867195
  0
LINE
  8
ボルト／ビス
  6
CONTINUOUS
 10
-42.928495
 20
99.417825
 11
-40.857942
 21
91.69042
  0
LINE
  8
ボルト／ビス
  6
CONTINUOUS
 10
-41.479608
 20
99.806055
 11
-39.409055
 21
92.078648
  0
ENDBLK
  0
BLOCK
  2
*GRP_0035
 70
    65
 10
0.0
 20
0.0
  0
LINE
  8
ボルト／ビス
  6
CONTINUOUS
 10
-35.055663
 20
84.524898
 11
-35.23244
 21
84.218713
  0
LINE
  8
ボルト／ビス
  6
CONTINUOUS
 10
-34.538025
 20
82.593047
 11
-34.84421
 21
82.769823
  0
LINE
  8
ボルト／ビス
  6
CONTINUOUS
 10
-35.23244
 20
84.218713
 11
-34.84421
 21
82.769823
  0
LINE
  8
ボルト／ビス
  6
CONTINUOUS
 10
-35.055663
 20
84.524898
 11
-34.538025
 21
82.593047
  0
LINE
  8
ボルト／ビス
  6
CONTINUOUS
 10
-35.055663
 20
84.524898
 11
-33.2687
 21
85.003715
  0
LINE
  8
ボルト／ビス
  6
CONTINUOUS
 10
-35.23244
 20
84.218713
 11
-33.203995
 21
84.762233
  0
LINE
  8
ボルト／ビス
  6
CONTINUOUS
 10
-34.84421
 20
82.769823
 11
-32.815768
 21
83.313345
  0
LINE
  8
ボルト／ビス
  6
CONTINUOUS
 10
-34.538025
 20
82.593047
 11
-32.751062
 21
83.071862
  0
LINE
  8
ボルト／ビス
  6
CONTINUOUS
 10
-33.2687
 20
85.003715
 11
-32.751062
 21
83.071862
  0
LINE
  8
ボルト／ビス
  6
CONTINUOUS
 10
-32.528777
 20
85.719615
 11
-33.2687
 21
85.003715
  0
LINE
  8
ボルト／ビス
  6
CONTINUOUS
 10
-32.528777
 20
85.719615
 11
-31.75232
 21
82.821838
  0
LINE
  8
ボルト／ビス
  6
CONTINUOUS
 10
-31.75232
 20
82.821838
 11
-32.751062
 21
83.071862
  0
LINE
  8
ボルト／ビス
  6
CONTINUOUS
 10
-35.801635
 20
83.28974
 11
-31.424057
 21
84.462708
  0
ENDBLK
  0
BLOCK
  2
*GRP_0036
 70
    65
 10
0.0
 20
0.0
  0
LINE
  8
ボルト／ビス
  6
CONTINUOUS
 10
-40.851215
 20
82.971985
 11
-40.54503
 21
82.795207
  0
LINE
  8
ボルト／ビス
  6
CONTINUOUS
 10
-40.333577
 20
81.040133
 11
-40.1568
 21
81.34632
  0
LINE
  8
ボルト／ビス
  6
CONTINUOUS
 10
-40.54503
 20
82.795207
 11
-40.1568
 21
81.34632
  0
LINE
  8
ボルト／ビス
  6
CONTINUOUS
 10
-40.851215
 20
82.971985
 11
-40.333577
 21
81.040133
  0
LINE
  8
ボルト／ビス
  6
CONTINUOUS
 10
-40.851215
 20
82.971985
 11
-42.638177
 21
82.493167
  0
LINE
  8
ボルト／ビス
  6
CONTINUOUS
 10
-40.54503
 20
82.795207
 11
-42.573473
 21
82.251687
  0
LINE
  8
ボルト／ビス
  6
CONTINUOUS
 10
-40.1568
 20
81.34632
 11
-42.185245
 21
80.802798
  0
LINE
  8
ボルト／ビス
  6
CONTINUOUS
 10
-40.333577
 20
81.040133
 11
-42.12054
 21
80.561318
  0
LINE
  8
ボルト／ビス
  6
CONTINUOUS
 10
-42.638177
 20
82.493167
 11
-42.12054
 21
80.561318
  0
LINE
  8
ボルト／ビス
  6
CONTINUOUS
 10
-43.63692
 20
82.743195
 11
-42.638177
 21
82.493167
  0
LINE
  8
ボルト／ビス
  6
CONTINUOUS
 10
-43.63692
 20
82.743195
 11
-42.860462
 21
79.845418
  0
LINE
  8
ボルト／ビス
  6
CONTINUOUS
 10
-42.860462
 20
79.845418
 11
-42.12054
 21
80.561318
  0
LINE
  8
ボルト／ビス
  6
CONTINUOUS
 10
-39.587605
 20
82.275293
 11
-43.965182
 21
81.102323
  0
ENDBLK
  0
BLOCK
  2
*DIM_0037
 70
    65
 10
0.0
 20
0.0
  0
LINE
  8
寸法
  6
BYBLOCK
 62
     0
 10
-107.538998
 20
-89.146633
 11
-155.684175
 21
-89.146633
  0
POINT
  8
寸法
 62
     0
 10
-107.538998
 20
-89.146633
  0
POINT
  8
寸法
 62
     0
 10
-155.684175
 20
-89.146633
  0
TEXT
  7
TextStyle03
  8
寸法
  6
CONTINUOUS
 62
     0
 10
-135.4625
 20
-88.775
  1
96.3
 40
3.5
 72
     5
 11
-127.7875
 21
-88.775
  0
ENDBLK
  0
BLOCK
  2
*GRP_0038
 70
    65
 10
0.0
 20
0.0
  0
POLYLINE
  8
寸法
  6
BYBLOCK
 62
     0
 66
     1
  0
VERTEX
  8
寸法
 10
20.05944
 20
-9.093615
  0
VERTEX
  8
寸法
 10
21.55944
 20
-6.495537
  0
VERTEX
  8
寸法
 10
18.961362
 20
-7.995537
  0
SEQEND
  0
POLYLINE
  8
寸法
  6
BYBLOCK
 62
     0
 66
     1
  0
VERTEX
  8
寸法
 10
21.55944
 20
-6.495537
  0
VERTEX
  8
寸法
 10
17.18346
 20
-10.871515
  0
VERTEX
  8
寸法
 10
11.75063
 20
-10.871515
  0
SEQEND
  0
ENDBLK
  0
BLOCK
  2
*GRP_0039
 70
    65
 10
0.0
 20
0.0
  0
POLYLINE
  8
寸法
  6
BYBLOCK
 62
     0
 66
     1
  0
VERTEX
  8
寸法
 10
28.82675
 20
-10.78986
  0
VERTEX
  8
寸法
 10
30.32675
 20
-8.191783
  0
VERTEX
  8
寸法
 10
27.728675
 20
-9.691783
  0
SEQEND
  0
POLYLINE
  8
寸法
  6
BYBLOCK
 62
     0
 66
     1
  0
VERTEX
  8
寸法
 10
30.32675
 20
-8.191783
  0
VERTEX
  8
寸法
 10
17.564868
 20
-20.953665
  0
VERTEX
  8
寸法
 10
12.02476
 20
-20.953665
  0
SEQEND
  0
ENDBLK
  0
BLOCK
  2
*DIM_0040
 70
    65
 10
0.0
 20
0.0
  0
LINE
  8
寸法
  6
BYBLOCK
 62
     0
 10
91.81395
 20
-56.083782
 11
102.442303
 21
-66.712135
  0
LINE
  8
寸法
  6
BYBLOCK
 62
     0
 10
113.574093
 20
-34.32364
 11
124.202445
 21
-44.951992
  0
LINE
  8
寸法
  6
BYBLOCK
 62
     0
 10
102.442303
 20
-66.712135
 11
124.202445
 21
-44.951992
  0
POINT
  8
寸法
 62
     0
 10
102.442303
 20
-66.712135
  0
POINT
  8
寸法
 62
     0
 10
124.202445
 20
-44.951992
  0
TEXT
  7
TextStyle03
  8
寸法
  6
CONTINUOUS
 62
     0
 10
110.323915
 20
-58.300959
  1
61.5
 40
3.5
 50
45.0
 72
     5
 11
115.750959
 21
-52.873915
  0
ENDBLK
  0
BLOCK
  2
*DIM_0041
 70
    65
 10
0.0
 20
0.0
  0
LINE
  8
寸法
  6
BYBLOCK
 62
     0
 10
-81.788998
 20
-51.834965
 11
-81.788998
 21
-97.438797
  0
LINE
  8
寸法
  6
BYBLOCK
 62
     0
 10
-113.184177
 20
-47.90856
 11
-113.184177
 21
-97.438797
  0
LINE
  8
寸法
  6
BYBLOCK
 62
     0
 10
-81.788998
 20
-97.438797
 11
-113.184177
 21
-97.438797
  0
POINT
  8
寸法
 62
     0
 10
-81.788998
 20
-97.438797
  0
POINT
  8
寸法
 62
     0
 10
-113.184177
 20
-97.438797
  0
TEXT
  7
TextStyle03
  8
寸法
  6
CONTINUOUS
 62
     0
 10
-101.3375
 20
-97.075
  1
62.8
 40
3.5
 72
     5
 11
-93.6625
 21
-97.075
  0
ENDBLK
  0
BLOCK
  2
*DIM_0042
 70
    65
 10
0.0
 20
0.0
  0
LINE
  8
寸法
  6
BYBLOCK
 62
     0
 10
-155.684175
 20
-5.40856
 11
-155.684175
 21
-97.438797
  0
LINE
  8
寸法
  6
BYBLOCK
 62
     0
 10
-113.184177
 20
-97.438797
 11
-155.684175
 21
-97.438797
  0
POINT
  8
寸法
 62
     0
 10
-155.684175
 20
-97.438797
  0
TEXT
  7
TextStyle03
  8
寸法
  6
CONTINUOUS
 62
     0
 10
-136.3125
 20
-97.075
  1
85
 40
3.5
 72
     5
 11
-132.5875
 21
-97.075
  0
ENDBLK
  0
BLOCK
  2
*DIM_0043
 70
    65
 10
0.0
 20
0.0
  0
LINE
  8
寸法
  6
BYBLOCK
 62
     0
 10
-115.184177
 20
39.09144
 11
-175.518272
 21
39.09144
  0
LINE
  8
寸法
  6
BYBLOCK
 62
     0
 10
-115.184177
 20
-45.90856
 11
-175.518272
 21
-45.90856
  0
LINE
  8
寸法
  6
BYBLOCK
 62
     0
 10
-175.518272
 20
39.09144
 11
-175.518272
 21
-45.90856
  0
POINT
  8
寸法
 62
     0
 10
-175.518272
 20
39.09144
  0
POINT
  8
寸法
 62
     0
 10
-175.518272
 20
-45.90856
  0
TEXT
  7
TextStyle03
  8
寸法
  6
CONTINUOUS
 62
     0
 10
-175.9
 20
-6.275
  1
170
 40
3.5
 50
90.0
 72
     5
 11
-175.9
 21
-0.575
  0
ENDBLK
  0
BLOCK
  2
*DIM_0044
 70
    65
 10
0.0
 20
0.0
  0
LINE
  8
寸法
  6
BYBLOCK
 62
     0
 10
-157.684175
 20
-3.40856
 11
-169.423875
 21
-3.40856
  0
LINE
  8
寸法
  6
BYBLOCK
 62
     0
 10
-169.423875
 20
39.09144
 11
-169.423875
 21
-3.40856
  0
POINT
  8
寸法
 62
     0
 10
-169.423875
 20
39.09144
  0
POINT
  8
寸法
 62
     0
 10
-169.423875
 20
-3.40856
  0
TEXT
  7
TextStyle03
  8
寸法
  6
CONTINUOUS
 62
     0
 10
-169.8
 20
15.9625
  1
85
 40
3.5
 50
90.0
 72
     5
 11
-169.8
 21
19.6875
  0
ENDBLK
  0
BLOCK
  2
*DIM_0045
 70
    65
 10
0.0
 20
0.0
  0
LINE
  8
寸法
  6
BYBLOCK
 62
     0
 10
-117.184177
 20
-45.90856
 11
-169.423875
 21
-45.90856
  0
LINE
  8
寸法
  6
BYBLOCK
 62
     0
 10
-169.423875
 20
-3.40856
 11
-169.423875
 21
-45.90856
  0
POINT
  8
寸法
 62
     0
 10
-169.423875
 20
-45.90856
  0
TEXT
  7
TextStyle03
  8
寸法
  6
CONTINUOUS
 62
     0
 10
-169.8
 20
-26.5375
  1
85
 40
3.5
 50
90.0
 72
     5
 11
-169.8
 21
-22.8125
  0
ENDBLK
  0
BLOCK
  2
*GRP_0046
 70
    65
 10
0.0
 20
0.0
  0
LINE
  8
ボルト／ビス
  6
CONTINUOUS
 10
76.954172
 20
9.24467
 11
77.418205
 21
9.02829
  0
ARC
  8
ボルト／ビス
  6
CONTINUOUS
 10
77.897535
 20
10.528238
 40
1.574676
 50
197.721967
 51
225.0
  0
ARC
  8
ボルト／ビス
  6
CONTINUOUS
 10
79.52126
 20
15.213825
 40
6.036034
 50
211.165002
 51
238.834985
  0
LINE
  8
ボルト／ビス
  6
CONTINUOUS
 10
73.552105
 20
12.646743
 11
73.335722
 21
13.110772
  0
ARC
  8
ボルト／ビス
  6
CONTINUOUS
 10
74.835673
 20
13.5901
 40
1.574676
 50
225.0
 51
252.278033
  0
LINE
  8
ボルト／ビス
  6
CONTINUOUS
 10
76.954172
 20
9.24467
 11
73.552105
 21
12.646743
  0
LINE
  8
ボルト／ビス
  6
CONTINUOUS
 10
73.335722
 20
13.110772
 11
74.62611
 21
14.401162
  0
LINE
  8
ボルト／ビス
  6
CONTINUOUS
 10
74.356343
 20
12.090152
 11
75.646732
 21
13.380543
  0
LINE
  8
ボルト／ビス
  6
CONTINUOUS
 10
77.418205
 20
9.02829
 11
78.708592
 21
10.31868
  0
LINE
  8
ボルト／ビス
  6
CONTINUOUS
 10
76.397582
 20
10.048907
 11
77.687973
 21
11.339298
  0
LINE
  8
ボルト／ビス
  6
CONTINUOUS
 10
75.015018
 20
15.07291
 11
74.48469
 21
14.542583
  0
LINE
  8
ボルト／ビス
  6
CONTINUOUS
 10
75.041005
 20
15.68332
 11
74.722808
 21
15.365125
  0
LINE
  8
ボルト／ビス
  6
CONTINUOUS
 10
79.380345
 20
10.707588
 11
78.850015
 21
10.17726
  0
LINE
  8
ボルト／ビス
  6
CONTINUOUS
 10
79.990755
 20
10.733575
 11
79.672555
 21
10.415378
  0
LINE
  8
ボルト／ビス
  6
CONTINUOUS
 10
74.722808
 20
15.365125
 11
79.672555
 21
10.415378
  0
LINE
  8
ボルト／ビス
  6
CONTINUOUS
 10
75.041005
 20
15.68332
 11
79.990755
 21
10.733575
  0
LINE
  8
ボルト／ビス
  6
CONTINUOUS
 10
74.48469
 20
14.542583
 11
78.850015
 21
10.17726
  0
LINE
  8
ボルト／ビス
  6
CONTINUOUS
 10
77.19768
 20
12.890252
 11
76.66735
 21
12.35992
  0
LINE
  8
ボルト／ビス
  6
CONTINUOUS
 10
73.48537
 20
9.17794
 11
85.506183
 21
21.198757
  0
LINE
  8
ボルト／ビス
  6
CONTINUOUS
 10
82.324202
 20
20.138095
 11
82.92525
 21
20.24416
  0
LINE
  8
ボルト／ビス
  6
CONTINUOUS
 10
84.445525
 20
18.016772
 11
84.551595
 21
18.617815
  0
LINE
  8
ボルト／ビス
  6
CONTINUOUS
 10
84.445525
 20
18.016772
 11
82.324202
 21
20.138095
  0
LINE
  8
ボルト／ビス
  6
CONTINUOUS
 10
84.551595
 20
18.617815
 11
82.92525
 21
20.24416
  0
LINE
  8
ボルト／ビス
  6
CONTINUOUS
 10
76.70271
 20
14.02162
 11
82.92525
 21
20.24416
  0
LINE
  8
ボルト／ビス
  6
CONTINUOUS
 10
78.32905
 20
12.395275
 11
84.551595
 21
18.617815
  0
LINE
  8
ボルト／ビス
  6
CONTINUOUS
 10
76.455218
 20
14.269108
 11
82.324202
 21
20.138095
  0
LINE
  8
ボルト／ビス
  6
CONTINUOUS
 10
78.57654
 20
12.14779
 11
84.445525
 21
18.016772
  0
ENDBLK
  0
BLOCK
  2
*GRP_0047
 70
    65
 10
0.0
 20
0.0
  0
LINE
  8
ボルト／ビス
  6
CONTINUOUS
 10
82.75245
 20
15.042952
 11
82.968832
 21
14.57892
  0
ARC
  8
ボルト／ビス
  6
CONTINUOUS
 10
81.468883
 20
14.099589
 40
1.574676
 50
45.0
 51
72.278033
  0
ARC
  8
ボルト／ビス
  6
CONTINUOUS
 10
76.783296
 20
12.475864
 40
6.036034
 50
31.165015
 51
58.834998
  0
LINE
  8
ボルト／ビス
  6
CONTINUOUS
 10
79.350377
 20
18.445023
 11
78.886345
 21
18.661403
  0
ARC
  8
ボルト／ビス
  6
CONTINUOUS
 10
78.407021
 20
17.161452
 40
1.574676
 50
17.721967
 51
45.0
  0
LINE
  8
ボルト／ビス
  6
CONTINUOUS
 10
82.75245
 20
15.042952
 11
79.350377
 21
18.445023
  0
LINE
  8
ボルト／ビス
  6
CONTINUOUS
 10
78.886345
 20
18.661403
 11
77.59596
 21
17.371012
  0
LINE
  8
ボルト／ビス
  6
CONTINUOUS
 10
79.906968
 20
17.640783
 11
78.616577
 21
16.350393
  0
LINE
  8
ボルト／ビス
  6
CONTINUOUS
 10
82.968832
 20
14.57892
 11
81.678442
 21
13.28853
  0
LINE
  8
ボルト／ビス
  6
CONTINUOUS
 10
81.94821
 20
15.599538
 11
80.657822
 21
14.309147
  0
LINE
  8
ボルト／ビス
  6
CONTINUOUS
 10
77.59596
 20
17.371012
 11
81.678442
 21
13.28853
  0
ENDBLK
  0
BLOCK
  2
*GRP_0048
 70
    65
 10
0.0
 20
0.0
  0
LINE
  8
ボルト／ビス
  6
CONTINUOUS
 10
44.843563
 20
9.24467
 11
44.37953
 21
9.02829
  0
ARC
  8
ボルト／ビス
  6
CONTINUOUS
 10
43.9002
 20
10.528238
 40
1.574676
 50
315.0
 51
342.278033
  0
ARC
  8
ボルト／ビス
  6
CONTINUOUS
 10
42.276475
 20
15.213825
 40
6.036034
 50
301.165015
 51
328.834998
  0
LINE
  8
ボルト／ビス
  6
CONTINUOUS
 10
48.24563
 20
12.646743
 11
48.462012
 21
13.110772
  0
ARC
  8
ボルト／ビス
  6
CONTINUOUS
 10
46.962062
 20
13.5901
 40
1.574676
 50
287.721967
 51
315.0
  0
LINE
  8
ボルト／ビス
  6
CONTINUOUS
 10
44.843563
 20
9.24467
 11
48.24563
 21
12.646743
  0
LINE
  8
ボルト／ビス
  6
CONTINUOUS
 10
48.462012
 20
13.110772
 11
47.171625
 21
14.401162
  0
LINE
  8
ボルト／ビス
  6
CONTINUOUS
 10
47.441393
 20
12.090152
 11
46.151002
 21
13.380543
  0
LINE
  8
ボルト／ビス
  6
CONTINUOUS
 10
44.37953
 20
9.02829
 11
43.089142
 21
10.31868
  0
LINE
  8
ボルト／ビス
  6
CONTINUOUS
 10
45.400152
 20
10.048907
 11
44.109763
 21
11.339298
  0
LINE
  8
ボルト／ビス
  6
CONTINUOUS
 10
46.782718
 20
15.07291
 11
47.313045
 21
14.542583
  0
LINE
  8
ボルト／ビス
  6
CONTINUOUS
 10
46.75673
 20
15.68332
 11
47.074928
 21
15.365125
  0
LINE
  8
ボルト／ビス
  6
CONTINUOUS
 10
42.41739
 20
10.707588
 11
42.94772
 21
10.17726
  0
LINE
  8
ボルト／ビス
  6
CONTINUOUS
 10
41.80698
 20
10.733575
 11
42.12518
 21
10.415378
  0
LINE
  8
ボルト／ビス
  6
CONTINUOUS
 10
47.074928
 20
15.365125
 11
42.12518
 21
10.415378
  0
LINE
  8
ボルト／ビス
  6
CONTINUOUS
 10
46.75673
 20
15.68332
 11
41.80698
 21
10.733575
  0
LINE
  8
ボルト／ビス
  6
CONTINUOUS
 10
47.313045
 20
14.542583
 11
42.94772
 21
10.17726
  0
LINE
  8
ボルト／ビス
  6
CONTINUOUS
 10
44.600055
 20
12.890252
 11
45.130385
 21
12.35992
  0
LINE
  8
ボルト／ビス
  6
CONTINUOUS
 10
48.312365
 20
9.17794
 11
36.291553
 21
21.198757
  0
LINE
  8
ボルト／ビス
  6
CONTINUOUS
 10
39.473532
 20
20.138095
 11
38.872485
 21
20.24416
  0
LINE
  8
ボルト／ビス
  6
CONTINUOUS
 10
37.35221
 20
18.016772
 11
37.24614
 21
18.617815
  0
LINE
  8
ボルト／ビス
  6
CONTINUOUS
 10
37.35221
 20
18.016772
 11
39.473532
 21
20.138095
  0
LINE
  8
ボルト／ビス
  6
CONTINUOUS
 10
37.24614
 20
18.617815
 11
38.872485
 21
20.24416
  0
LINE
  8
ボルト／ビス
  6
CONTINUOUS
 10
45.095025
 20
14.02162
 11
38.872485
 21
20.24416
  0
LINE
  8
ボルト／ビス
  6
CONTINUOUS
 10
43.468685
 20
12.395275
 11
37.24614
 21
18.617815
  0
LINE
  8
ボルト／ビス
  6
CONTINUOUS
 10
45.342518
 20
14.269108
 11
39.473532
 21
20.138095
  0
LINE
  8
ボルト／ビス
  6
CONTINUOUS
 10
43.221195
 20
12.14779
 11
37.35221
 21
18.016772
  0
ENDBLK
  0
BLOCK
  2
*GRP_0049
 70
    65
 10
0.0
 20
0.0
  0
LINE
  8
ボルト／ビス
  6
CONTINUOUS
 10
39.045285
 20
15.042952
 11
38.828903
 21
14.57892
  0
ARC
  8
ボルト／ビス
  6
CONTINUOUS
 10
40.328852
 20
14.099589
 40
1.574676
 50
107.721967
 51
135.0
  0
ARC
  8
ボルト／ビス
  6
CONTINUOUS
 10
45.014439
 20
12.475864
 40
6.036034
 50
121.165002
 51
148.834985
  0
LINE
  8
ボルト／ビス
  6
CONTINUOUS
 10
42.447357
 20
18.445023
 11
42.91139
 21
18.661403
  0
ARC
  8
ボルト／ビス
  6
CONTINUOUS
 10
43.390714
 20
17.161452
 40
1.574676
 50
135.0
 51
162.278033
  0
LINE
  8
ボルト／ビス
  6
CONTINUOUS
 10
39.045285
 20
15.042952
 11
42.447357
 21
18.445023
  0
LINE
  8
ボルト／ビス
  6
CONTINUOUS
 10
42.91139
 20
18.661403
 11
44.201775
 21
17.371012
  0
LINE
  8
ボルト／ビス
  6
CONTINUOUS
 10
41.890768
 20
17.640783
 11
43.181157
 21
16.350393
  0
LINE
  8
ボルト／ビス
  6
CONTINUOUS
 10
38.828903
 20
14.57892
 11
40.119292
 21
13.28853
  0
LINE
  8
ボルト／ビス
  6
CONTINUOUS
 10
39.849525
 20
15.599538
 11
41.139912
 21
14.309147
  0
LINE
  8
ボルト／ビス
  6
CONTINUOUS
 10
44.201775
 20
17.371012
 11
40.119292
 21
13.28853
  0
ENDBLK
  0
BLOCK
  2
*GRP_0050
 70
    65
 10
0.0
 20
0.0
  0
LINE
  8
ボルト／ビス
  6
CONTINUOUS
 10
44.843563
 20
-16.06179
 11
44.37953
 21
-15.84541
  0
ARC
  8
ボルト／ビス
  6
CONTINUOUS
 10
43.9002
 20
-17.345358
 40
1.574676
 50
17.721967
 51
45.0
  0
ARC
  8
ボルト／ビス
  6
CONTINUOUS
 10
42.276475
 20
-22.030945
 40
6.036034
 50
31.165002
 51
58.834985
  0
LINE
  8
ボルト／ビス
  6
CONTINUOUS
 10
48.24563
 20
-19.463862
 11
48.462012
 21
-19.927892
  0
ARC
  8
ボルト／ビス
  6
CONTINUOUS
 10
46.962062
 20
-20.40722
 40
1.574676
 50
45.0
 51
72.278033
  0
LINE
  8
ボルト／ビス
  6
CONTINUOUS
 10
44.843563
 20
-16.06179
 11
48.24563
 21
-19.463862
  0
LINE
  8
ボルト／ビス
  6
CONTINUOUS
 10
48.462012
 20
-19.927892
 11
47.171625
 21
-21.218282
  0
LINE
  8
ボルト／ビス
  6
CONTINUOUS
 10
47.441393
 20
-18.907272
 11
46.151002
 21
-20.197663
  0
LINE
  8
ボルト／ビス
  6
CONTINUOUS
 10
44.37953
 20
-15.84541
 11
43.089142
 21
-17.1358
  0
LINE
  8
ボルト／ビス
  6
CONTINUOUS
 10
45.400152
 20
-16.866028
 11
44.109763
 21
-18.156418
  0
LINE
  8
ボルト／ビス
  6
CONTINUOUS
 10
46.782718
 20
-21.89003
 11
47.313045
 21
-21.359703
  0
LINE
  8
ボルト／ビス
  6
CONTINUOUS
 10
46.75673
 20
-22.50044
 11
47.074928
 21
-22.182245
  0
LINE
  8
ボルト／ビス
  6
CONTINUOUS
 10
42.41739
 20
-17.524708
 11
42.94772
 21
-16.99438
  0
LINE
  8
ボルト／ビス
  6
CONTINUOUS
 10
41.80698
 20
-17.550695
 11
42.12518
 21
-17.232498
  0
LINE
  8
ボルト／ビス
  6
CONTINUOUS
 10
47.074928
 20
-22.182245
 11
42.12518
 21
-17.232498
  0
LINE
  8
ボルト／ビス
  6
CONTINUOUS
 10
46.75673
 20
-22.50044
 11
41.80698
 21
-17.550695
  0
LINE
  8
ボルト／ビス
  6
CONTINUOUS
 10
47.313045
 20
-21.359703
 11
42.94772
 21
-16.99438
  0
LINE
  8
ボルト／ビス
  6
CONTINUOUS
 10
44.600055
 20
-19.707373
 11
45.130385
 21
-19.17704
  0
LINE
  8
ボルト／ビス
  6
CONTINUOUS
 10
48.312365
 20
-15.99506
 11
36.291553
 21
-28.015877
  0
LINE
  8
ボルト／ビス
  6
CONTINUOUS
 10
39.473532
 20
-26.955215
 11
38.872485
 21
-27.06128
  0
LINE
  8
ボルト／ビス
  6
CONTINUOUS
 10
37.35221
 20
-24.833893
 11
37.24614
 21
-25.434935
  0
LINE
  8
ボルト／ビス
  6
CONTINUOUS
 10
37.35221
 20
-24.833893
 11
39.473532
 21
-26.955215
  0
LINE
  8
ボルト／ビス
  6
CONTINUOUS
 10
37.24614
 20
-25.434935
 11
38.872485
 21
-27.06128
  0
LINE
  8
ボルト／ビス
  6
CONTINUOUS
 10
45.095025
 20
-20.83874
 11
38.872485
 21
-27.06128
  0
LINE
  8
ボルト／ビス
  6
CONTINUOUS
 10
43.468685
 20
-19.212395
 11
37.24614
 21
-25.434935
  0
LINE
  8
ボルト／ビス
  6
CONTINUOUS
 10
45.342518
 20
-21.086228
 11
39.473532
 21
-26.955215
  0
LINE
  8
ボルト／ビス
  6
CONTINUOUS
 10
43.221195
 20
-18.96491
 11
37.35221
 21
-24.833893
  0
ENDBLK
  0
BLOCK
  2
*GRP_0051
 70
    65
 10
0.0
 20
0.0
  0
LINE
  8
ボルト／ビス
  6
CONTINUOUS
 10
39.045285
 20
-21.860073
 11
38.828903
 21
-21.39604
  0
ARC
  8
ボルト／ビス
  6
CONTINUOUS
 10
40.328852
 20
-20.916709
 40
1.574676
 50
225.0
 51
252.278033
  0
ARC
  8
ボルト／ビス
  6
CONTINUOUS
 10
45.014439
 20
-19.292984
 40
6.036034
 50
211.165015
 51
238.834998
  0
LINE
  8
ボルト／ビス
  6
CONTINUOUS
 10
42.447357
 20
-25.262143
 11
42.91139
 21
-25.478522
  0
ARC
  8
ボルト／ビス
  6
CONTINUOUS
 10
43.390714
 20
-23.978572
 40
1.574676
 50
197.721967
 51
225.0
  0
LINE
  8
ボルト／ビス
  6
CONTINUOUS
 10
39.045285
 20
-21.860073
 11
42.447357
 21
-25.262143
  0
LINE
  8
ボルト／ビス
  6
CONTINUOUS
 10
42.91139
 20
-25.478522
 11
44.201775
 21
-24.188133
  0
LINE
  8
ボルト／ビス
  6
CONTINUOUS
 10
41.890768
 20
-24.457902
 11
43.181157
 21
-23.167512
  0
LINE
  8
ボルト／ビス
  6
CONTINUOUS
 10
38.828903
 20
-21.39604
 11
40.119292
 21
-20.10565
  0
LINE
  8
ボルト／ビス
  6
CONTINUOUS
 10
39.849525
 20
-22.416658
 11
41.139912
 21
-21.126267
  0
LINE
  8
ボルト／ビス
  6
CONTINUOUS
 10
44.201775
 20
-24.188133
 11
40.119292
 21
-20.10565
  0
ENDBLK
  0
BLOCK
  2
*GRP_0052
 70
    65
 10
0.0
 20
0.0
  0
LINE
  8
ボルト／ビス
  6
CONTINUOUS
 10
76.954172
 20
-16.06179
 11
77.418205
 21
-15.84541
  0
ARC
  8
ボルト／ビス
  6
CONTINUOUS
 10
77.897535
 20
-17.345358
 40
1.574676
 50
135.0
 51
162.278033
  0
ARC
  8
ボルト／ビス
  6
CONTINUOUS
 10
79.52126
 20
-22.030945
 40
6.036034
 50
121.165015
 51
148.834998
  0
LINE
  8
ボルト／ビス
  6
CONTINUOUS
 10
73.552105
 20
-19.463862
 11
73.335722
 21
-19.927892
  0
ARC
  8
ボルト／ビス
  6
CONTINUOUS
 10
74.835673
 20
-20.40722
 40
1.574676
 50
107.721967
 51
135.0
  0
LINE
  8
ボルト／ビス
  6
CONTINUOUS
 10
76.954172
 20
-16.06179
 11
73.552105
 21
-19.463862
  0
LINE
  8
ボルト／ビス
  6
CONTINUOUS
 10
73.335722
 20
-19.927892
 11
74.62611
 21
-21.218282
  0
LINE
  8
ボルト／ビス
  6
CONTINUOUS
 10
74.356343
 20
-18.907272
 11
75.646732
 21
-20.197663
  0
LINE
  8
ボルト／ビス
  6
CONTINUOUS
 10
77.418205
 20
-15.84541
 11
78.708592
 21
-17.1358
  0
LINE
  8
ボルト／ビス
  6
CONTINUOUS
 10
76.397582
 20
-16.866028
 11
77.687973
 21
-18.156418
  0
LINE
  8
ボルト／ビス
  6
CONTINUOUS
 10
75.015018
 20
-21.89003
 11
74.48469
 21
-21.359703
  0
LINE
  8
ボルト／ビス
  6
CONTINUOUS
 10
75.041005
 20
-22.50044
 11
74.722808
 21
-22.182245
  0
LINE
  8
ボルト／ビス
  6
CONTINUOUS
 10
79.380345
 20
-17.524708
 11
78.850015
 21
-16.99438
  0
LINE
  8
ボルト／ビス
  6
CONTINUOUS
 10
79.990755
 20
-17.550695
 11
79.672555
 21
-17.232498
  0
LINE
  8
ボルト／ビス
  6
CONTINUOUS
 10
74.722808
 20
-22.182245
 11
79.672555
 21
-17.232498
  0
LINE
  8
ボルト／ビス
  6
CONTINUOUS
 10
75.041005
 20
-22.50044
 11
79.990755
 21
-17.550695
  0
LINE
  8
ボルト／ビス
  6
CONTINUOUS
 10
74.48469
 20
-21.359703
 11
78.850015
 21
-16.99438
  0
LINE
  8
ボルト／ビス
  6
CONTINUOUS
 10
77.19768
 20
-19.707373
 11
76.66735
 21
-19.17704
  0
LINE
  8
ボルト／ビス
  6
CONTINUOUS
 10
73.48537
 20
-15.99506
 11
85.506183
 21
-28.015877
  0
LINE
  8
ボルト／ビス
  6
CONTINUOUS
 10
82.324202
 20
-26.955215
 11
82.92525
 21
-27.06128
  0
LINE
  8
ボルト／ビス
  6
CONTINUOUS
 10
84.445525
 20
-24.833893
 11
84.551595
 21
-25.434935
  0
LINE
  8
ボルト／ビス
  6
CONTINUOUS
 10
84.445525
 20
-24.833893
 11
82.324202
 21
-26.955215
  0
LINE
  8
ボルト／ビス
  6
CONTINUOUS
 10
84.551595
 20
-25.434935
 11
82.92525
 21
-27.06128
  0
LINE
  8
ボルト／ビス
  6
CONTINUOUS
 10
76.70271
 20
-20.83874
 11
82.92525
 21
-27.06128
  0
LINE
  8
ボルト／ビス
  6
CONTINUOUS
 10
78.32905
 20
-19.212395
 11
84.551595
 21
-25.434935
  0
LINE
  8
ボルト／ビス
  6
CONTINUOUS
 10
76.455218
 20
-21.086228
 11
82.324202
 21
-26.955215
  0
LINE
  8
ボルト／ビス
  6
CONTINUOUS
 10
78.57654
 20
-18.96491
 11
84.445525
 21
-24.833893
  0
ENDBLK
  0
BLOCK
  2
*GRP_0053
 70
    65
 10
0.0
 20
0.0
  0
LINE
  8
ボルト／ビス
  6
CONTINUOUS
 10
82.75245
 20
-21.860073
 11
82.968832
 21
-21.39604
  0
ARC
  8
ボルト／ビス
  6
CONTINUOUS
 10
81.468883
 20
-20.916709
 40
1.574676
 50
287.721967
 51
315.0
  0
ARC
  8
ボルト／ビス
  6
CONTINUOUS
 10
76.783296
 20
-19.292984
 40
6.036034
 50
301.165002
 51
328.834985
  0
LINE
  8
ボルト／ビス
  6
CONTINUOUS
 10
79.350377
 20
-25.262143
 11
78.886345
 21
-25.478522
  0
ARC
  8
ボルト／ビス
  6
CONTINUOUS
 10
78.407021
 20
-23.978572
 40
1.574676
 50
315.0
 51
342.278033
  0
LINE
  8
ボルト／ビス
  6
CONTINUOUS
 10
82.75245
 20
-21.860073
 11
79.350377
 21
-25.262143
  0
LINE
  8
ボルト／ビス
  6
CONTINUOUS
 10
78.886345
 20
-25.478522
 11
77.59596
 21
-24.188133
  0
LINE
  8
ボルト／ビス
  6
CONTINUOUS
 10
79.906968
 20
-24.457902
 11
78.616577
 21
-23.167512
  0
LINE
  8
ボルト／ビス
  6
CONTINUOUS
 10
82.968832
 20
-21.39604
 11
81.678442
 21
-20.10565
  0
LINE
  8
ボルト／ビス
  6
CONTINUOUS
 10
81.94821
 20
-22.416658
 11
80.657822
 21
-21.126267
  0
LINE
  8
ボルト／ビス
  6
CONTINUOUS
 10
77.59596
 20
-24.188133
 11
81.678442
 21
-20.10565
  0
ENDBLK
  0
BLOCK
  2
*GRP_0054
 70
    65
 10
0.0
 20
0.0
  0
LINE
  8
ゴム等
  6
CONTINUOUS
 10
-22.927255
 20
83.313472
 11
-23.651697
 21
83.507588
  0
LINE
  8
ゴム等
  6
CONTINUOUS
 10
-24.363447
 20
80.851293
 11
-23.651697
 21
83.507588
  0
LINE
  8
ゴム等
  6
CONTINUOUS
 10
-28.598042
 20
81.468303
 11
-24.97582
 21
80.497738
  0
LINE
  8
ゴム等
  6
CONTINUOUS
 10
-24.363447
 20
80.851293
 11
-24.97582
 21
80.497738
  0
LINE
  8
ゴム等
  6
CONTINUOUS
 10
-22.927255
 20
83.313472
 11
-22.733137
 21
84.03792
  0
LINE
  8
ゴム等
  6
CONTINUOUS
 10
-22.733137
 20
84.03792
 11
-27.56277
 21
85.332007
  0
LINE
  8
ゴム等
  6
CONTINUOUS
 10
-28.598042
 20
81.468303
 11
-27.56277
 21
85.332007
  0
LINE
  8
ゴム等
  6
CONTINUOUS
 10
-23.206563
 20
84.164773
 11
-22.859993
 21
83.564497
  0
LINE
  8
ゴム等
  6
CONTINUOUS
 10
-23.889575
 20
84.347785
 11
-23.359242
 21
83.429225
  0
LINE
  8
ゴム等
  6
CONTINUOUS
 10
-24.57259
 20
84.530797
 11
-23.756347
 21
83.117025
  0
LINE
  8
ゴム等
  6
CONTINUOUS
 10
-25.2556
 20
84.713805
 11
-23.93936
 21
82.434015
  0
LINE
  8
ゴム等
  6
CONTINUOUS
 10
-25.93861
 20
84.896817
 11
-24.12237
 21
81.751002
  0
LINE
  8
ゴム等
  6
CONTINUOUS
 10
-26.621627
 20
85.07983
 11
-24.305382
 21
81.067987
  0
LINE
  8
ゴム等
  6
CONTINUOUS
 10
-27.304637
 20
85.262843
 11
-24.659077
 21
80.680608
  0
LINE
  8
ゴム等
  6
CONTINUOUS
 10
-27.676615
 20
84.907128
 11
-25.15922
 21
80.54688
  0
LINE
  8
ゴム等
  6
CONTINUOUS
 10
-27.859627
 20
84.224113
 11
-25.842235
 21
80.729892
  0
LINE
  8
ゴム等
  6
CONTINUOUS
 10
-28.04264
 20
83.541102
 11
-26.525248
 21
80.912905
  0
LINE
  8
ゴム等
  6
CONTINUOUS
 10
-28.225652
 20
82.858085
 11
-27.20826
 21
81.095915
  0
LINE
  8
ゴム等
  6
CONTINUOUS
 10
-28.408665
 20
82.175075
 11
-27.891273
 21
81.278925
  0
ENDBLK
  0
BLOCK
  2
*GRP_0055
 70
    65
 10
0.0
 20
0.0
  0
LINE
  8
ゴム等
  6
CONTINUOUS
 10
-50.749015
 20
75.85865
 11
-50.218685
 21
76.38898
  0
LINE
  8
ゴム等
  6
CONTINUOUS
 10
-48.274145
 20
74.444437
 11
-50.218685
 21
76.38898
  0
LINE
  8
ゴム等
  6
CONTINUOUS
 10
-44.915383
 20
77.096083
 11
-47.567037
 21
74.444435
  0
LINE
  8
ゴム等
  6
CONTINUOUS
 10
-48.274145
 20
74.444437
 11
-47.567037
 21
74.444435
  0
LINE
  8
ゴム等
  6
CONTINUOUS
 10
-50.749015
 20
75.85865
 11
-51.279348
 21
76.388983
  0
LINE
  8
ゴム等
  6
CONTINUOUS
 10
-51.279348
 20
76.388983
 11
-47.743808
 21
79.924512
  0
LINE
  8
ゴム等
  6
CONTINUOUS
 10
-44.915383
 20
77.096083
 11
-47.743808
 21
79.924512
  0
LINE
  8
ゴム等
  6
CONTINUOUS
 10
-50.932777
 20
76.735553
 11
-50.932777
 21
76.042412
  0
LINE
  8
ゴム等
  6
CONTINUOUS
 10
-50.432777
 20
77.235553
 11
-50.432777
 21
76.17489
  0
LINE
  8
ゴム等
  6
CONTINUOUS
 10
-49.932775
 20
77.735553
 11
-49.932775
 21
76.103067
  0
LINE
  8
ゴム等
  6
CONTINUOUS
 10
-49.432775
 20
78.235548
 11
-49.432777
 21
75.60307
  0
LINE
  8
ゴム等
  6
CONTINUOUS
 10
-48.932777
 20
78.735545
 11
-48.93278
 21
75.10307
  0
LINE
  8
ゴム等
  6
CONTINUOUS
 10
-48.432773
 20
79.235548
 11
-48.432777
 21
74.603067
  0
LINE
  8
ゴム等
  6
CONTINUOUS
 10
-47.932775
 20
79.735548
 11
-47.932777
 21
74.444435
  0
LINE
  8
ゴム等
  6
CONTINUOUS
 10
-47.432775
 20
79.613478
 11
-47.43278
 21
74.578695
  0
LINE
  8
ゴム等
  6
CONTINUOUS
 10
-46.932775
 20
79.113475
 11
-46.932777
 21
75.078695
  0
LINE
  8
ゴム等
  6
CONTINUOUS
 10
-46.432777
 20
78.613478
 11
-46.432777
 21
75.578695
  0
LINE
  8
ゴム等
  6
CONTINUOUS
 10
-45.932775
 20
78.113472
 11
-45.932775
 21
76.078693
  0
LINE
  8
ゴム等
  6
CONTINUOUS
 10
-45.432775
 20
77.613475
 11
-45.432775
 21
76.57869
  0
ENDBLK
  0
BLOCK
  2
*GRP_0056
 70
    65
 10
0.0
 20
0.0
  0
POLYLINE
  8
寸法
  6
BYBLOCK
 62
     0
 66
     1
  0
VERTEX
  8
寸法
 10
-23.570178
 20
80.510215
  0
VERTEX
  8
寸法
 10
-26.168255
 20
82.010215
  0
VERTEX
  8
寸法
 10
-24.668255
 20
79.412138
  0
SEQEND
  0
POLYLINE
  8
寸法
  6
BYBLOCK
 62
     0
 66
     1
  0
VERTEX
  8
寸法
 10
-26.168255
 20
82.010215
  0
VERTEX
  8
寸法
 10
-14.764725
 20
70.606685
  0
VERTEX
  8
寸法
 10
-11.822397
 20
70.606685
  0
SEQEND
  0
ENDBLK
  0
BLOCK
  2
M6頭
 70
    64
 10
-180.218008
 20
149.01779
  0
POLYLINE
  8
ボルト／ビス
 66
     1
  0
VERTEX
  8
ボルト／ビス
 10
-182.718008
 20
153.347918
  0
VERTEX
  8
ボルト／ビス
 10
-177.718008
 20
153.347918
  0
VERTEX
  8
ボルト／ビス
 10
-175.218008
 20
149.01779
  0
VERTEX
  8
ボルト／ビス
 10
-177.718008
 20
144.687663
  0
VERTEX
  8
ボルト／ビス
 10
-182.718008
 20
144.687663
  0
VERTEX
  8
ボルト／ビス
 10
-185.218008
 20
149.01779
  0
VERTEX
  8
ボルト／ビス
 10
-182.718008
 20
153.347918
  0
SEQEND
  0
CIRCLE
  8
ボルト／ビス
 10
-180.218008
 20
149.01779
 40
4.330127
  0
ENDBLK
  0
ENDSEC
  0
SECTION
  2
ENTITIES
  0
POLYLINE
  8
通り芯
  6
CONTINUOUS
 66
     1
 70
     1
  0
VERTEX
  8
通り芯
 10
-210.0
 20
-148.5
  0
VERTEX
  8
通り芯
 10
210.0
 20
-148.5
  0
VERTEX
  8
通り芯
 10
210.0
 20
148.5
  0
VERTEX
  8
通り芯
 10
-210.0
 20
148.5
  0
SEQEND
  0
INSERT
  2
*GRP_0002
  8
補助線
  6
CONTINUOUS
 10
0.0
 20
0.0
  0
INSERT
  2
*GRP_0030
  8
補助線
  6
CONTINUOUS
 10
0.0
 20
0.0
  0
INSERT
  2
*GRP_0001
  8
型材断面
  6
CONTINUOUS
 10
0.0
 20
0.0
  0
INSERT
  2
M6頭
  8
型材断面
  6
CONTINUOUS
 10
-100.038998
 20
15.50653
 50
270.0
 41
0.5
 42
-0.5
  0
ARC
  8
型材断面
  6
CONTINUOUS
 10
60.898869
 20
29.825461
 40
1.5
 50
45.0
 51
135.0
  0
LINE
  8
型材断面
  6
CONTINUOUS
 10
97.744275
 20
-47.32503
 11
76.101668
 21
-25.682423
  0
LINE
  8
型材断面
  6
CONTINUOUS
 10
104.815343
 20
-40.253968
 11
83.172732
 21
-18.61136
  0
LINE
  8
型材断面
  6
DOT
 10
98.274605
 20
-46.794703
 11
76.631998
 21
-25.152095
  0
LINE
  8
型材断面
  6
DOT
 10
104.285015
 20
-40.784295
 11
82.642403
 21
-19.141687
  0
LINE
  8
型材断面
  6
CONTINUOUS
 10
97.744275
 20
40.507913
 11
76.101668
 21
18.865305
  0
LINE
  8
型材断面
  6
CONTINUOUS
 10
104.815343
 20
33.436847
 11
83.172732
 21
11.79424
  0
LINE
  8
型材断面
  6
DOT
 10
98.274605
 20
39.977583
 11
76.631998
 21
18.334975
  0
LINE
  8
型材断面
  6
DOT
 10
104.285015
 20
33.967178
 11
82.642403
 21
12.32457
  0
LINE
  8
型材断面
  6
CONTINUOUS
 10
24.05346
 20
40.507913
 11
45.696068
 21
18.865305
  0
LINE
  8
型材断面
  6
CONTINUOUS
 10
16.982393
 20
33.436847
 11
38.625005
 21
11.79424
  0
LINE
  8
型材断面
  6
DOT
 10
23.523133
 20
39.977583
 11
45.16574
 21
18.334975
  0
LINE
  8
型材断面
  6
DOT
 10
17.512723
 20
33.967178
 11
39.155333
 21
12.32457
  0
LINE
  8
型材断面
  6
CONTINUOUS
 10
24.05346
 20
-47.32503
 11
45.696068
 21
-25.682423
  0
LINE
  8
型材断面
  6
CONTINUOUS
 10
16.982393
 20
-40.253968
 11
38.625005
 21
-18.61136
  0
LINE
  8
型材断面
  6
DOT
 10
23.523133
 20
-46.794703
 11
45.16574
 21
-25.152095
  0
LINE
  8
型材断面
  6
DOT
 10
17.512723
 20
-40.784295
 11
39.155333
 21
-19.141687
  0
POLYLINE
  8
型材断面
  6
CONTINUOUS
 66
     1
 70
     1
  0
VERTEX
  8
型材断面
 10
15.616408
 20
82.500247
  0
VERTEX
  8
型材断面
 10
-12.801485
 20
82.500247
  0
VERTEX
  8
型材断面
 10
-12.801485
 20
76.705228
  0
VERTEX
  8
型材断面
 10
15.616408
 20
76.705228
  0
SEQEND
  0
POLYLINE
  8
型材断面
  6
CONTINUOUS
 62
    47
 66
     1
  0
VERTEX
  8
型材断面
 10
-90.2
 20
18.5
  0
VERTEX
  8
型材断面
 10
-90.175
 20
18.5
  0
VERTEX
  8
型材断面
 10
-90.125
 20
18.5
  0
VERTEX
  8
型材断面
 10
-90.1
 20
18.5
  0
VERTEX
  8
型材断面
 10
-90.075
 20
18.5
  0
VERTEX
  8
型材断面
 10
-90.05
 20
18.5
  0
VERTEX
  8
型材断面
 10
-90.025
 20
18.5
  0
VERTEX
  8
型材断面
 10
-90.0
 20
18.525
  0
VERTEX
  8
型材断面
 10
-89.95
 20
18.525
  0
VERTEX
  8
型材断面
 10
-89.925
 20
18.525
  0
VERTEX
  8
型材断面
 10
-89.9
 20
18.525
  0
VERTEX
  8
型材断面
 10
-89.875
 20
18.525
  0
VERTEX
  8
型材断面
 10
-89.85
 20
18.55
  0
VERTEX
  8
型材断面
 10
-89.825
 20
18.55
  0
VERTEX
  8
型材断面
 10
-89.8
 20
18.55
  0
VERTEX
  8
型材断面
 10
-89.775
 20
18.55
  0
VERTEX
  8
型材断面
 10
-89.75
 20
18.575
  0
VERTEX
  8
型材断面
 10
-89.725
 20
18.575
  0
VERTEX
  8
型材断面
 10
-89.7
 20
18.575
  0
VERTEX
  8
型材断面
 10
-89.675
 20
18.6
  0
VERTEX
  8
型材断面
 10
-89.65
 20
18.6
  0
VERTEX
  8
型材断面
 10
-89.625
 20
18.625
  0
VERTEX
  8
型材断面
 10
-89.6
 20
18.625
  0
VERTEX
  8
型材断面
 10
-89.575
 20
18.625
  0
VERTEX
  8
型材断面
 10
-89.55
 20
18.65
  0
VERTEX
  8
型材断面
 10
-89.525
 20
18.65
  0
VERTEX
  8
型材断面
 10
-89.525
 20
18.675
  0
VERTEX
  8
型材断面
 10
-89.5
 20
18.675
  0
VERTEX
  8
型材断面
 10
-89.475
 20
18.7
  0
VERTEX
  8
型材断面
 10
-89.45
 20
18.7
  0
VERTEX
  8
型材断面
 10
-89.45
 20
18.725
  0
VERTEX
  8
型材断面
 10
-89.425
 20
18.75
  0
VERTEX
  8
型材断面
 10
-89.4
 20
18.75
  0
VERTEX
  8
型材断面
 10
-89.4
 20
18.775
  0
VERTEX
  8
型材断面
 10
-89.375
 20
18.775
  0
VERTEX
  8
型材断面
 10
-89.375
 20
18.8
  0
VERTEX
  8
型材断面
 10
-89.35
 20
18.825
  0
VERTEX
  8
型材断面
 10
-89.35
 20
18.825
  0
VERTEX
  8
型材断面
 10
-89.325
 20
18.85
  0
VERTEX
  8
型材断面
 10
-89.325
 20
18.85
  0
VERTEX
  8
型材断面
 10
-89.325
 20
18.875
  0
VERTEX
  8
型材断面
 10
-89.3
 20
18.9
  0
VERTEX
  8
型材断面
 10
-89.3
 20
18.9
  0
VERTEX
  8
型材断面
 10
-89.3
 20
18.925
  0
VERTEX
  8
型材断面
 10
-89.3
 20
18.95
  0
VERTEX
  8
型材断面
 10
-89.275
 20
18.95
  0
VERTEX
  8
型材断面
 10
-89.275
 20
18.975
  0
VERTEX
  8
型材断面
 10
-89.275
 20
19.0
  0
VERTEX
  8
型材断面
 10
-89.275
 20
19.025
  0
VERTEX
  8
型材断面
 10
-89.275
 20
19.025
  0
SEQEND
  0
POLYLINE
  8
型材断面
  6
CONTINUOUS
 62
    47
 66
     1
  0
VERTEX
  8
型材断面
 10
-90.5
 20
19.025
  0
VERTEX
  8
型材断面
 10
-90.5
 20
19.025
  0
VERTEX
  8
型材断面
 10
-90.475
 20
19.025
  0
VERTEX
  8
型材断面
 10
-90.475
 20
19.025
  0
VERTEX
  8
型材断面
 10
-90.45
 20
19.025
  0
VERTEX
  8
型材断面
 10
-90.45
 20
19.025
  0
VERTEX
  8
型材断面
 10
-90.45
 20
19.025
  0
VERTEX
  8
型材断面
 10
-90.425
 20
19.025
  0
VERTEX
  8
型材断面
 10
-90.425
 20
19.025
  0
VERTEX
  8
型材断面
 10
-90.425
 20
19.025
  0
VERTEX
  8
型材断面
 10
-90.4
 20
19.05
  0
VERTEX
  8
型材断面
 10
-90.4
 20
19.05
  0
VERTEX
  8
型材断面
 10
-90.375
 20
19.05
  0
VERTEX
  8
型材断面
 10
-90.375
 20
19.05
  0
VERTEX
  8
型材断面
 10
-90.375
 20
19.05
  0
VERTEX
  8
型材断面
 10
-90.35
 20
19.05
  0
VERTEX
  8
型材断面
 10
-90.35
 20
19.05
  0
VERTEX
  8
型材断面
 10
-90.35
 20
19.05
  0
VERTEX
  8
型材断面
 10
-90.325
 20
19.05
  0
VERTEX
  8
型材断面
 10
-90.325
 20
19.05
  0
VERTEX
  8
型材断面
 10
-90.325
 20
19.075
  0
VERTEX
  8
型材断面
 10
-90.3
 20
19.075
  0
VERTEX
  8
型材断面
 10
-90.3
 20
19.075
  0
VERTEX
  8
型材断面
 10
-90.3
 20
19.075
  0
VERTEX
  8
型材断面
 10
-90.3
 20
19.075
  0
VERTEX
  8
型材断面
 10
-90.275
 20
19.075
  0
VERTEX
  8
型材断面
 10
-90.275
 20
19.075
  0
VERTEX
  8
型材断面
 10
-90.275
 20
19.1
  0
VERTEX
  8
型材断面
 10
-90.25
 20
19.1
  0
VERTEX
  8
型材断面
 10
-90.25
 20
19.1
  0
VERTEX
  8
型材断面
 10
-90.25
 20
19.1
  0
VERTEX
  8
型材断面
 10
-90.25
 20
19.1
  0
VERTEX
  8
型材断面
 10
-90.25
 20
19.125
  0
VERTEX
  8
型材断面
 10
-90.225
 20
19.125
  0
VERTEX
  8
型材断面
 10
-90.225
 20
19.125
  0
VERTEX
  8
型材断面
 10
-90.225
 20
19.125
  0
VERTEX
  8
型材断面
 10
-90.225
 20
19.125
  0
VERTEX
  8
型材断面
 10
-90.225
 20
19.15
  0
VERTEX
  8
型材断面
 10
-90.225
 20
19.15
  0
VERTEX
  8
型材断面
 10
-90.2
 20
19.15
  0
VERTEX
  8
型材断面
 10
-90.2
 20
19.15
  0
VERTEX
  8
型材断面
 10
-90.2
 20
19.15
  0
VERTEX
  8
型材断面
 10
-90.2
 20
19.175
  0
VERTEX
  8
型材断面
 10
-90.2
 20
19.175
  0
VERTEX
  8
型材断面
 10
-90.2
 20
19.175
  0
VERTEX
  8
型材断面
 10
-90.2
 20
19.175
  0
VERTEX
  8
型材断面
 10
-90.2
 20
19.2
  0
VERTEX
  8
型材断面
 10
-90.2
 20
19.2
  0
VERTEX
  8
型材断面
 10
-90.2
 20
19.2
  0
VERTEX
  8
型材断面
 10
-90.2
 20
19.2
  0
SEQEND
  0
LINE
  8
型材断面
  6
CONTINUOUS
 62
    47
 10
-93.856625
 20
18.511758
 11
-89.263998
 21
18.511758
  0
LINE
  8
型材断面
  6
CONTINUOUS
 62
    47
 10
-93.856625
 20
15.507007
 11
-93.856625
 21
18.511758
  0
POLYLINE
  8
型材断面
  6
CONTINUOUS
 62
    47
 66
     1
  0
VERTEX
  8
型材断面
 10
-89.275
 20
11.95
  0
VERTEX
  8
型材断面
 10
-89.275
 20
11.975
  0
VERTEX
  8
型材断面
 10
-89.275
 20
12.0
  0
VERTEX
  8
型材断面
 10
-89.275
 20
12.0
  0
VERTEX
  8
型材断面
 10
-89.275
 20
12.025
  0
VERTEX
  8
型材断面
 10
-89.3
 20
12.05
  0
VERTEX
  8
型材断面
 10
-89.3
 20
12.05
  0
VERTEX
  8
型材断面
 10
-89.3
 20
12.075
  0
VERTEX
  8
型材断面
 10
-89.3
 20
12.1
  0
VERTEX
  8
型材断面
 10
-89.325
 20
12.1
  0
VERTEX
  8
型材断面
 10
-89.325
 20
12.125
  0
VERTEX
  8
型材断面
 10
-89.325
 20
12.15
  0
VERTEX
  8
型材断面
 10
-89.35
 20
12.15
  0
VERTEX
  8
型材断面
 10
-89.35
 20
12.175
  0
VERTEX
  8
型材断面
 10
-89.375
 20
12.2
  0
VERTEX
  8
型材断面
 10
-89.375
 20
12.2
  0
VERTEX
  8
型材断面
 10
-89.4
 20
12.225
  0
VERTEX
  8
型材断面
 10
-89.4
 20
12.225
  0
VERTEX
  8
型材断面
 10
-89.425
 20
12.25
  0
VERTEX
  8
型材断面
 10
-89.45
 20
12.275
  0
VERTEX
  8
型材断面
 10
-89.45
 20
12.275
  0
VERTEX
  8
型材断面
 10
-89.475
 20
12.3
  0
VERTEX
  8
型材断面
 10
-89.5
 20
12.3
  0
VERTEX
  8
型材断面
 10
-89.525
 20
12.325
  0
VERTEX
  8
型材断面
 10
-89.525
 20
12.325
  0
VERTEX
  8
型材断面
 10
-89.55
 20
12.35
  0
VERTEX
  8
型材断面
 10
-89.575
 20
12.35
  0
VERTEX
  8
型材断面
 10
-89.6
 20
12.375
  0
VERTEX
  8
型材断面
 10
-89.625
 20
12.375
  0
VERTEX
  8
型材断面
 10
-89.65
 20
12.375
  0
VERTEX
  8
型材断面
 10
-89.675
 20
12.4
  0
VERTEX
  8
型材断面
 10
-89.7
 20
12.4
  0
VERTEX
  8
型材断面
 10
-89.725
 20
12.425
  0
VERTEX
  8
型材断面
 10
-89.75
 20
12.425
  0
VERTEX
  8
型材断面
 10
-89.775
 20
12.425
  0
VERTEX
  8
型材断面
 10
-89.8
 20
12.425
  0
VERTEX
  8
型材断面
 10
-89.825
 20
12.45
  0
VERTEX
  8
型材断面
 10
-89.85
 20
12.45
  0
VERTEX
  8
型材断面
 10
-89.875
 20
12.45
  0
VERTEX
  8
型材断面
 10
-89.9
 20
12.475
  0
VERTEX
  8
型材断面
 10
-89.925
 20
12.475
  0
VERTEX
  8
型材断面
 10
-89.95
 20
12.475
  0
VERTEX
  8
型材断面
 10
-90.0
 20
12.475
  0
VERTEX
  8
型材断面
 10
-90.025
 20
12.475
  0
VERTEX
  8
型材断面
 10
-90.05
 20
12.475
  0
VERTEX
  8
型材断面
 10
-90.075
 20
12.475
  0
VERTEX
  8
型材断面
 10
-90.1
 20
12.475
  0
VERTEX
  8
型材断面
 10
-90.125
 20
12.5
  0
VERTEX
  8
型材断面
 10
-90.175
 20
12.5
  0
VERTEX
  8
型材断面
 10
-90.2
 20
12.5
  0
SEQEND
  0
POLYLINE
  8
型材断面
  6
CONTINUOUS
 62
    47
 66
     1
  0
VERTEX
  8
型材断面
 10
-90.2
 20
11.775
  0
VERTEX
  8
型材断面
 10
-90.2
 20
11.8
  0
VERTEX
  8
型材断面
 10
-90.2
 20
11.8
  0
VERTEX
  8
型材断面
 10
-90.2
 20
11.8
  0
VERTEX
  8
型材断面
 10
-90.2
 20
11.8
  0
VERTEX
  8
型材断面
 10
-90.2
 20
11.8
  0
VERTEX
  8
型材断面
 10
-90.2
 20
11.825
  0
VERTEX
  8
型材断面
 10
-90.2
 20
11.825
  0
VERTEX
  8
型材断面
 10
-90.2
 20
11.825
  0
VERTEX
  8
型材断面
 10
-90.2
 20
11.825
  0
VERTEX
  8
型材断面
 10
-90.2
 20
11.85
  0
VERTEX
  8
型材断面
 10
-90.225
 20
11.85
  0
VERTEX
  8
型材断面
 10
-90.225
 20
11.85
  0
VERTEX
  8
型材断面
 10
-90.225
 20
11.85
  0
VERTEX
  8
型材断面
 10
-90.225
 20
11.85
  0
VERTEX
  8
型材断面
 10
-90.225
 20
11.875
  0
VERTEX
  8
型材断面
 10
-90.225
 20
11.875
  0
VERTEX
  8
型材断面
 10
-90.25
 20
11.875
  0
VERTEX
  8
型材断面
 10
-90.25
 20
11.875
  0
VERTEX
  8
型材断面
 10
-90.25
 20
11.875
  0
VERTEX
  8
型材断面
 10
-90.25
 20
11.9
  0
VERTEX
  8
型材断面
 10
-90.25
 20
11.9
  0
VERTEX
  8
型材断面
 10
-90.275
 20
11.9
  0
VERTEX
  8
型材断面
 10
-90.275
 20
11.9
  0
VERTEX
  8
型材断面
 10
-90.275
 20
11.9
  0
VERTEX
  8
型材断面
 10
-90.3
 20
11.9
  0
VERTEX
  8
型材断面
 10
-90.3
 20
11.925
  0
VERTEX
  8
型材断面
 10
-90.3
 20
11.925
  0
VERTEX
  8
型材断面
 10
-90.3
 20
11.925
  0
VERTEX
  8
型材断面
 10
-90.325
 20
11.925
  0
VERTEX
  8
型材断面
 10
-90.325
 20
11.925
  0
VERTEX
  8
型材断面
 10
-90.325
 20
11.925
  0
VERTEX
  8
型材断面
 10
-90.35
 20
11.925
  0
VERTEX
  8
型材断面
 10
-90.35
 20
11.925
  0
VERTEX
  8
型材断面
 10
-90.35
 20
11.95
  0
VERTEX
  8
型材断面
 10
-90.375
 20
11.95
  0
VERTEX
  8
型材断面
 10
-90.375
 20
11.95
  0
VERTEX
  8
型材断面
 10
-90.375
 20
11.95
  0
VERTEX
  8
型材断面
 10
-90.4
 20
11.95
  0
VERTEX
  8
型材断面
 10
-90.4
 20
11.95
  0
VERTEX
  8
型材断面
 10
-90.425
 20
11.95
  0
VERTEX
  8
型材断面
 10
-90.425
 20
11.95
  0
VERTEX
  8
型材断面
 10
-90.425
 20
11.95
  0
VERTEX
  8
型材断面
 10
-90.45
 20
11.95
  0
VERTEX
  8
型材断面
 10
-90.45
 20
11.95
  0
VERTEX
  8
型材断面
 10
-90.45
 20
11.95
  0
VERTEX
  8
型材断面
 10
-90.475
 20
11.95
  0
VERTEX
  8
型材断面
 10
-90.475
 20
11.95
  0
VERTEX
  8
型材断面
 10
-90.5
 20
11.95
  0
VERTEX
  8
型材断面
 10
-90.5
 20
11.95
  0
SEQEND
  0
LINE
  8
型材断面
  6
CONTINUOUS
 62
    47
 10
-93.856625
 20
12.50226
 11
-89.263998
 21
12.50226
  0
LINE
  8
型材断面
  6
CONTINUOUS
 62
    47
 10
-93.856625
 20
15.507007
 11
-93.856625
 21
12.50226
  0
LINE
  8
型材断面
  6
CONTINUOUS
 62
    47
 10
-90.182522
 20
19.219513
 11
-90.182522
 21
24.665293
  0
LINE
  8
型材断面
  6
CONTINUOUS
 62
    47
 10
-90.182522
 20
11.794505
 11
-90.182522
 21
6.348723
  0
LINE
  8
型材断面
  6
CONTINUOUS
 62
    47
 10
-90.182522
 20
24.665293
 11
-93.965745
 21
25.926223
  0
LINE
  8
型材断面
  6
CONTINUOUS
 62
    47
 10
-93.965745
 20
25.926223
 11
-93.506483
 21
26.385435
  0
LINE
  8
型材断面
  6
CONTINUOUS
 62
    47
 10
-90.182522
 20
6.348723
 11
-93.965745
 21
5.087793
  0
LINE
  8
型材断面
  6
CONTINUOUS
 62
    47
 10
-93.965745
 20
5.087793
 11
-93.506483
 21
4.628583
  0
POLYLINE
  8
型材断面
  6
CONTINUOUS
 62
    47
 66
     1
  0
VERTEX
  8
型材断面
 10
-94.8
 20
12.5
  0
VERTEX
  8
型材断面
 10
-94.775
 20
12.475
  0
VERTEX
  8
型材断面
 10
-94.775
 20
12.45
  0
VERTEX
  8
型材断面
 10
-94.775
 20
12.45
  0
VERTEX
  8
型材断面
 10
-94.775
 20
12.425
  0
VERTEX
  8
型材断面
 10
-94.775
 20
12.4
  0
VERTEX
  8
型材断面
 10
-94.775
 20
12.4
  0
VERTEX
  8
型材断面
 10
-94.775
 20
12.375
  0
VERTEX
  8
型材断面
 10
-94.75
 20
12.35
  0
VERTEX
  8
型材断面
 10
-94.75
 20
12.35
  0
VERTEX
  8
型材断面
 10
-94.75
 20
12.325
  0
VERTEX
  8
型材断面
 10
-94.725
 20
12.3
  0
VERTEX
  8
型材断面
 10
-94.725
 20
12.3
  0
VERTEX
  8
型材断面
 10
-94.7
 20
12.275
  0
VERTEX
  8
型材断面
 10
-94.7
 20
12.25
  0
VERTEX
  8
型材断面
 10
-94.675
 20
12.25
  0
VERTEX
  8
型材断面
 10
-94.675
 20
12.225
  0
VERTEX
  8
型材断面
 10
-94.65
 20
12.225
  0
VERTEX
  8
型材断面
 10
-94.65
 20
12.2
  0
VERTEX
  8
型材断面
 10
-94.625
 20
12.175
  0
VERTEX
  8
型材断面
 10
-94.6
 20
12.175
  0
VERTEX
  8
型材断面
 10
-94.575
 20
12.15
  0
VERTEX
  8
型材断面
 10
-94.575
 20
12.15
  0
VERTEX
  8
型材断面
 10
-94.55
 20
12.125
  0
VERTEX
  8
型材断面
 10
-94.525
 20
12.125
  0
VERTEX
  8
型材断面
 10
-94.5
 20
12.1
  0
VERTEX
  8
型材断面
 10
-94.475
 20
12.1
  0
VERTEX
  8
型材断面
 10
-94.475
 20
12.075
  0
VERTEX
  8
型材断面
 10
-94.45
 20
12.075
  0
VERTEX
  8
型材断面
 10
-94.425
 20
12.075
  0
VERTEX
  8
型材断面
 10
-94.4
 20
12.05
  0
VERTEX
  8
型材断面
 10
-94.375
 20
12.05
  0
VERTEX
  8
型材断面
 10
-94.35
 20
12.025
  0
VERTEX
  8
型材断面
 10
-94.325
 20
12.025
  0
VERTEX
  8
型材断面
 10
-94.3
 20
12.025
  0
VERTEX
  8
型材断面
 10
-94.275
 20
12.0
  0
VERTEX
  8
型材断面
 10
-94.25
 20
12.0
  0
VERTEX
  8
型材断面
 10
-94.225
 20
12.0
  0
VERTEX
  8
型材断面
 10
-94.175
 20
12.0
  0
VERTEX
  8
型材断面
 10
-94.15
 20
11.975
  0
VERTEX
  8
型材断面
 10
-94.125
 20
11.975
  0
VERTEX
  8
型材断面
 10
-94.1
 20
11.975
  0
VERTEX
  8
型材断面
 10
-94.075
 20
11.975
  0
VERTEX
  8
型材断面
 10
-94.05
 20
11.975
  0
VERTEX
  8
型材断面
 10
-94.025
 20
11.975
  0
VERTEX
  8
型材断面
 10
-93.975
 20
11.975
  0
VERTEX
  8
型材断面
 10
-93.95
 20
11.95
  0
VERTEX
  8
型材断面
 10
-93.925
 20
11.95
  0
VERTEX
  8
型材断面
 10
-93.9
 20
11.95
  0
VERTEX
  8
型材断面
 10
-93.875
 20
11.95
  0
SEQEND
  0
POLYLINE
  8
型材断面
  6
CONTINUOUS
 62
    47
 66
     1
  0
VERTEX
  8
型材断面
 10
-94.8
 20
18.5
  0
VERTEX
  8
型材断面
 10
-94.775
 20
18.525
  0
VERTEX
  8
型材断面
 10
-94.775
 20
18.525
  0
VERTEX
  8
型材断面
 10
-94.775
 20
18.55
  0
VERTEX
  8
型材断面
 10
-94.775
 20
18.575
  0
VERTEX
  8
型材断面
 10
-94.775
 20
18.575
  0
VERTEX
  8
型材断面
 10
-94.775
 20
18.6
  0
VERTEX
  8
型材断面
 10
-94.775
 20
18.625
  0
VERTEX
  8
型材断面
 10
-94.75
 20
18.625
  0
VERTEX
  8
型材断面
 10
-94.75
 20
18.65
  0
VERTEX
  8
型材断面
 10
-94.75
 20
18.675
  0
VERTEX
  8
型材断面
 10
-94.725
 20
18.675
  0
VERTEX
  8
型材断面
 10
-94.725
 20
18.7
  0
VERTEX
  8
型材断面
 10
-94.7
 20
18.725
  0
VERTEX
  8
型材断面
 10
-94.7
 20
18.725
  0
VERTEX
  8
型材断面
 10
-94.675
 20
18.75
  0
VERTEX
  8
型材断面
 10
-94.675
 20
18.75
  0
VERTEX
  8
型材断面
 10
-94.65
 20
18.775
  0
VERTEX
  8
型材断面
 10
-94.65
 20
18.8
  0
VERTEX
  8
型材断面
 10
-94.625
 20
18.8
  0
VERTEX
  8
型材断面
 10
-94.6
 20
18.825
  0
VERTEX
  8
型材断面
 10
-94.575
 20
18.825
  0
VERTEX
  8
型材断面
 10
-94.575
 20
18.85
  0
VERTEX
  8
型材断面
 10
-94.55
 20
18.85
  0
VERTEX
  8
型材断面
 10
-94.525
 20
18.875
  0
VERTEX
  8
型材断面
 10
-94.5
 20
18.875
  0
VERTEX
  8
型材断面
 10
-94.475
 20
18.9
  0
VERTEX
  8
型材断面
 10
-94.475
 20
18.9
  0
VERTEX
  8
型材断面
 10
-94.45
 20
18.925
  0
VERTEX
  8
型材断面
 10
-94.425
 20
18.925
  0
VERTEX
  8
型材断面
 10
-94.4
 20
18.925
  0
VERTEX
  8
型材断面
 10
-94.375
 20
18.95
  0
VERTEX
  8
型材断面
 10
-94.35
 20
18.95
  0
VERTEX
  8
型材断面
 10
-94.325
 20
18.95
  0
VERTEX
  8
型材断面
 10
-94.3
 20
18.975
  0
VERTEX
  8
型材断面
 10
-94.275
 20
18.975
  0
VERTEX
  8
型材断面
 10
-94.25
 20
18.975
  0
VERTEX
  8
型材断面
 10
-94.225
 20
19.0
  0
VERTEX
  8
型材断面
 10
-94.175
 20
19.0
  0
VERTEX
  8
型材断面
 10
-94.15
 20
19.0
  0
VERTEX
  8
型材断面
 10
-94.125
 20
19.0
  0
VERTEX
  8
型材断面
 10
-94.1
 20
19.0
  0
VERTEX
  8
型材断面
 10
-94.075
 20
19.025
  0
VERTEX
  8
型材断面
 10
-94.05
 20
19.025
  0
VERTEX
  8
型材断面
 10
-94.025
 20
19.025
  0
VERTEX
  8
型材断面
 10
-93.975
 20
19.025
  0
VERTEX
  8
型材断面
 10
-93.95
 20
19.025
  0
VERTEX
  8
型材断面
 10
-93.925
 20
19.025
  0
VERTEX
  8
型材断面
 10
-93.9
 20
19.025
  0
VERTEX
  8
型材断面
 10
-93.875
 20
19.025
  0
SEQEND
  0
POLYLINE
  8
型材断面
  6
CONTINUOUS
 62
    47
 66
     1
  0
VERTEX
  8
型材断面
 10
-89.725
 20
5.875
  0
VERTEX
  8
型材断面
 10
-89.7
 20
5.875
  0
VERTEX
  8
型材断面
 10
-89.675
 20
5.9
  0
VERTEX
  8
型材断面
 10
-89.65
 20
5.9
  0
VERTEX
  8
型材断面
 10
-89.625
 20
5.925
  0
VERTEX
  8
型材断面
 10
-89.6
 20
5.925
  0
VERTEX
  8
型材断面
 10
-89.6
 20
5.95
  0
VERTEX
  8
型材断面
 10
-89.575
 20
5.95
  0
VERTEX
  8
型材断面
 10
-89.55
 20
5.95
  0
VERTEX
  8
型材断面
 10
-89.525
 20
5.975
  0
VERTEX
  8
型材断面
 10
-89.5
 20
5.975
  0
VERTEX
  8
型材断面
 10
-89.475
 20
6.0
  0
VERTEX
  8
型材断面
 10
-89.475
 20
6.025
  0
VERTEX
  8
型材断面
 10
-89.45
 20
6.025
  0
VERTEX
  8
型材断面
 10
-89.425
 20
6.05
  0
VERTEX
  8
型材断面
 10
-89.425
 20
6.05
  0
VERTEX
  8
型材断面
 10
-89.4
 20
6.075
  0
VERTEX
  8
型材断面
 10
-89.375
 20
6.075
  0
VERTEX
  8
型材断面
 10
-89.375
 20
6.1
  0
VERTEX
  8
型材断面
 10
-89.35
 20
6.125
  0
VERTEX
  8
型材断面
 10
-89.35
 20
6.125
  0
VERTEX
  8
型材断面
 10
-89.325
 20
6.15
  0
VERTEX
  8
型材断面
 10
-89.325
 20
6.175
  0
VERTEX
  8
型材断面
 10
-89.325
 20
6.175
  0
VERTEX
  8
型材断面
 10
-89.3
 20
6.2
  0
VERTEX
  8
型材断面
 10
-89.3
 20
6.225
  0
VERTEX
  8
型材断面
 10
-89.3
 20
6.225
  0
VERTEX
  8
型材断面
 10
-89.3
 20
6.25
  0
VERTEX
  8
型材断面
 10
-89.275
 20
6.275
  0
VERTEX
  8
型材断面
 10
-89.275
 20
6.275
  0
VERTEX
  8
型材断面
 10
-89.275
 20
6.3
  0
VERTEX
  8
型材断面
 10
-89.275
 20
6.325
  0
VERTEX
  8
型材断面
 10
-89.275
 20
6.325
  0
SEQEND
  0
POLYLINE
  8
型材断面
  6
CONTINUOUS
 62
    47
 66
     1
  0
VERTEX
  8
型材断面
 10
-89.275
 20
24.65
  0
VERTEX
  8
型材断面
 10
-89.275
 20
24.675
  0
VERTEX
  8
型材断面
 10
-89.275
 20
24.675
  0
VERTEX
  8
型材断面
 10
-89.275
 20
24.7
  0
VERTEX
  8
型材断面
 10
-89.275
 20
24.725
  0
VERTEX
  8
型材断面
 10
-89.3
 20
24.75
  0
VERTEX
  8
型材断面
 10
-89.3
 20
24.75
  0
VERTEX
  8
型材断面
 10
-89.3
 20
24.775
  0
VERTEX
  8
型材断面
 10
-89.3
 20
24.8
  0
VERTEX
  8
型材断面
 10
-89.325
 20
24.8
  0
VERTEX
  8
型材断面
 10
-89.325
 20
24.825
  0
VERTEX
  8
型材断面
 10
-89.325
 20
24.85
  0
VERTEX
  8
型材断面
 10
-89.35
 20
24.85
  0
VERTEX
  8
型材断面
 10
-89.35
 20
24.875
  0
VERTEX
  8
型材断面
 10
-89.375
 20
24.875
  0
VERTEX
  8
型材断面
 10
-89.375
 20
24.9
  0
VERTEX
  8
型材断面
 10
-89.4
 20
24.925
  0
VERTEX
  8
型材断面
 10
-89.425
 20
24.925
  0
VERTEX
  8
型材断面
 10
-89.425
 20
24.95
  0
VERTEX
  8
型材断面
 10
-89.45
 20
24.95
  0
VERTEX
  8
型材断面
 10
-89.475
 20
24.975
  0
VERTEX
  8
型材断面
 10
-89.475
 20
25.0
  0
VERTEX
  8
型材断面
 10
-89.5
 20
25.0
  0
VERTEX
  8
型材断面
 10
-89.525
 20
25.025
  0
VERTEX
  8
型材断面
 10
-89.55
 20
25.025
  0
VERTEX
  8
型材断面
 10
-89.575
 20
25.05
  0
VERTEX
  8
型材断面
 10
-89.6
 20
25.05
  0
VERTEX
  8
型材断面
 10
-89.6
 20
25.075
  0
VERTEX
  8
型材断面
 10
-89.625
 20
25.075
  0
VERTEX
  8
型材断面
 10
-89.65
 20
25.075
  0
VERTEX
  8
型材断面
 10
-89.675
 20
25.1
  0
VERTEX
  8
型材断面
 10
-89.7
 20
25.1
  0
VERTEX
  8
型材断面
 10
-89.725
 20
25.1
  0
SEQEND
  0
LINE
  8
型材断面
  6
CONTINUOUS
 62
    47
 10
-93.506483
 20
26.385435
 11
-89.263998
 21
24.971433
  0
LINE
  8
型材断面
  6
CONTINUOUS
 62
    47
 10
-89.263998
 20
18.511758
 11
-89.263998
 21
24.971433
  0
LINE
  8
型材断面
  6
CONTINUOUS
 62
    47
 10
-93.506483
 20
4.628583
 11
-89.263998
 21
6.042583
  0
LINE
  8
型材断面
  6
CONTINUOUS
 62
    47
 10
-89.263998
 20
12.50226
 11
-89.263998
 21
6.042583
  0
LINE
  8
型材断面
  6
CONTINUOUS
 62
    47
 10
-90.488695
 20
11.97201
 11
-94.77515
 21
11.97201
  0
LINE
  8
型材断面
  6
CONTINUOUS
 62
    47
 10
-94.77515
 20
15.507007
 11
-94.77515
 21
11.97201
  0
LINE
  8
型材断面
  6
CONTINUOUS
 62
    47
 10
-94.77515
 20
15.507007
 11
-94.77515
 21
19.042008
  0
LINE
  8
型材断面
  6
CONTINUOUS
 62
    47
 10
-90.488695
 20
19.042008
 11
-94.77515
 21
19.042008
  0
LINE
  8
型材断面
  6
CONTINUOUS
 62
    47
 10
-126.311195
 20
15.50701
 11
-126.311195
 21
17.274508
  0
LINE
  8
型材断面
  6
CONTINUOUS
 62
    47
 10
-126.311195
 20
15.50701
 11
-126.311195
 21
13.739508
  0
POLYLINE
  8
型材断面
  6
CONTINUOUS
 62
    47
 66
     1
  0
VERTEX
  8
型材断面
 10
-126.325
 20
13.2
  0
VERTEX
  8
型材断面
 10
-126.3
 20
13.2
  0
VERTEX
  8
型材断面
 10
-126.275
 20
13.2
  0
VERTEX
  8
型材断面
 10
-126.225
 20
13.2
  0
VERTEX
  8
型材断面
 10
-126.2
 20
13.2
  0
VERTEX
  8
型材断面
 10
-126.175
 20
13.2
  0
VERTEX
  8
型材断面
 10
-126.15
 20
13.2
  0
VERTEX
  8
型材断面
 10
-126.125
 20
13.2
  0
VERTEX
  8
型材断面
 10
-126.1
 20
13.225
  0
VERTEX
  8
型材断面
 10
-126.05
 20
13.225
  0
VERTEX
  8
型材断面
 10
-126.025
 20
13.225
  0
VERTEX
  8
型材断面
 10
-126.0
 20
13.225
  0
VERTEX
  8
型材断面
 10
-125.975
 20
13.225
  0
VERTEX
  8
型材断面
 10
-125.95
 20
13.25
  0
VERTEX
  8
型材断面
 10
-125.925
 20
13.25
  0
VERTEX
  8
型材断面
 10
-125.9
 20
13.25
  0
VERTEX
  8
型材断面
 10
-125.875
 20
13.275
  0
VERTEX
  8
型材断面
 10
-125.85
 20
13.275
  0
VERTEX
  8
型材断面
 10
-125.825
 20
13.275
  0
VERTEX
  8
型材断面
 10
-125.8
 20
13.3
  0
VERTEX
  8
型材断面
 10
-125.775
 20
13.3
  0
VERTEX
  8
型材断面
 10
-125.75
 20
13.3
  0
VERTEX
  8
型材断面
 10
-125.725
 20
13.325
  0
VERTEX
  8
型材断面
 10
-125.7
 20
13.325
  0
VERTEX
  8
型材断面
 10
-125.675
 20
13.35
  0
VERTEX
  8
型材断面
 10
-125.675
 20
13.35
  0
VERTEX
  8
型材断面
 10
-125.65
 20
13.375
  0
VERTEX
  8
型材断面
 10
-125.625
 20
13.375
  0
VERTEX
  8
型材断面
 10
-125.6
 20
13.4
  0
VERTEX
  8
型材断面
 10
-125.6
 20
13.4
  0
VERTEX
  8
型材断面
 10
-125.575
 20
13.425
  0
VERTEX
  8
型材断面
 10
-125.55
 20
13.45
  0
VERTEX
  8
型材断面
 10
-125.55
 20
13.45
  0
VERTEX
  8
型材断面
 10
-125.525
 20
13.475
  0
VERTEX
  8
型材断面
 10
-125.5
 20
13.475
  0
VERTEX
  8
型材断面
 10
-125.5
 20
13.5
  0
VERTEX
  8
型材断面
 10
-125.475
 20
13.5
  0
VERTEX
  8
型材断面
 10
-125.475
 20
13.525
  0
VERTEX
  8
型材断面
 10
-125.45
 20
13.55
  0
VERTEX
  8
型材断面
 10
-125.45
 20
13.55
  0
VERTEX
  8
型材断面
 10
-125.45
 20
13.575
  0
VERTEX
  8
型材断面
 10
-125.425
 20
13.6
  0
VERTEX
  8
型材断面
 10
-125.425
 20
13.6
  0
VERTEX
  8
型材断面
 10
-125.425
 20
13.625
  0
VERTEX
  8
型材断面
 10
-125.425
 20
13.65
  0
VERTEX
  8
型材断面
 10
-125.425
 20
13.65
  0
VERTEX
  8
型材断面
 10
-125.4
 20
13.675
  0
VERTEX
  8
型材断面
 10
-125.4
 20
13.7
  0
VERTEX
  8
型材断面
 10
-125.4
 20
13.7
  0
VERTEX
  8
型材断面
 10
-125.4
 20
13.725
  0
SEQEND
  0
POLYLINE
  8
型材断面
  6
CONTINUOUS
 62
    47
 66
     1
  0
VERTEX
  8
型材断面
 10
-125.4
 20
17.25
  0
VERTEX
  8
型材断面
 10
-125.4
 20
17.275
  0
VERTEX
  8
型材断面
 10
-125.4
 20
17.3
  0
VERTEX
  8
型材断面
 10
-125.4
 20
17.325
  0
VERTEX
  8
型材断面
 10
-125.425
 20
17.325
  0
VERTEX
  8
型材断面
 10
-125.425
 20
17.35
  0
VERTEX
  8
型材断面
 10
-125.425
 20
17.375
  0
VERTEX
  8
型材断面
 10
-125.425
 20
17.375
  0
VERTEX
  8
型材断面
 10
-125.425
 20
17.4
  0
VERTEX
  8
型材断面
 10
-125.45
 20
17.425
  0
VERTEX
  8
型材断面
 10
-125.45
 20
17.425
  0
VERTEX
  8
型材断面
 10
-125.45
 20
17.45
  0
VERTEX
  8
型材断面
 10
-125.475
 20
17.45
  0
VERTEX
  8
型材断面
 10
-125.475
 20
17.475
  0
VERTEX
  8
型材断面
 10
-125.5
 20
17.5
  0
VERTEX
  8
型材断面
 10
-125.5
 20
17.5
  0
VERTEX
  8
型材断面
 10
-125.525
 20
17.525
  0
VERTEX
  8
型材断面
 10
-125.55
 20
17.525
  0
VERTEX
  8
型材断面
 10
-125.55
 20
17.55
  0
VERTEX
  8
型材断面
 10
-125.575
 20
17.575
  0
VERTEX
  8
型材断面
 10
-125.6
 20
17.575
  0
VERTEX
  8
型材断面
 10
-125.6
 20
17.6
  0
VERTEX
  8
型材断面
 10
-125.625
 20
17.6
  0
VERTEX
  8
型材断面
 10
-125.65
 20
17.625
  0
VERTEX
  8
型材断面
 10
-125.675
 20
17.625
  0
VERTEX
  8
型材断面
 10
-125.675
 20
17.65
  0
VERTEX
  8
型材断面
 10
-125.7
 20
17.65
  0
VERTEX
  8
型材断面
 10
-125.725
 20
17.675
  0
VERTEX
  8
型材断面
 10
-125.75
 20
17.675
  0
VERTEX
  8
型材断面
 10
-125.775
 20
17.675
  0
VERTEX
  8
型材断面
 10
-125.8
 20
17.7
  0
VERTEX
  8
型材断面
 10
-125.825
 20
17.7
  0
VERTEX
  8
型材断面
 10
-125.85
 20
17.725
  0
VERTEX
  8
型材断面
 10
-125.875
 20
17.725
  0
VERTEX
  8
型材断面
 10
-125.9
 20
17.725
  0
VERTEX
  8
型材断面
 10
-125.925
 20
17.75
  0
VERTEX
  8
型材断面
 10
-125.95
 20
17.75
  0
VERTEX
  8
型材断面
 10
-125.975
 20
17.75
  0
VERTEX
  8
型材断面
 10
-126.0
 20
17.75
  0
VERTEX
  8
型材断面
 10
-126.025
 20
17.775
  0
VERTEX
  8
型材断面
 10
-126.05
 20
17.775
  0
VERTEX
  8
型材断面
 10
-126.1
 20
17.775
  0
VERTEX
  8
型材断面
 10
-126.125
 20
17.775
  0
VERTEX
  8
型材断面
 10
-126.15
 20
17.775
  0
VERTEX
  8
型材断面
 10
-126.175
 20
17.775
  0
VERTEX
  8
型材断面
 10
-126.2
 20
17.8
  0
VERTEX
  8
型材断面
 10
-126.225
 20
17.8
  0
VERTEX
  8
型材断面
 10
-126.275
 20
17.8
  0
VERTEX
  8
型材断面
 10
-126.3
 20
17.8
  0
VERTEX
  8
型材断面
 10
-126.325
 20
17.8
  0
SEQEND
  0
LINE
  8
型材断面
  6
CONTINUOUS
 62
    47
 10
-125.39267
 20
17.804758
 11
-125.39267
 21
13.209258
  0
LINE
  8
型材断面
  6
CONTINUOUS
 62
    47
 10
-119.038928
 20
31.115505
 11
-115.591907
 21
29.96663
  0
POLYLINE
  8
型材断面
  6
CONTINUOUS
 62
    47
 66
     1
  0
VERTEX
  8
型材断面
 10
-119.85
 20
31.375
  0
VERTEX
  8
型材断面
 10
-119.825
 20
31.375
  0
VERTEX
  8
型材断面
 10
-119.825
 20
31.4
  0
VERTEX
  8
型材断面
 10
-119.8
 20
31.4
  0
VERTEX
  8
型材断面
 10
-119.775
 20
31.425
  0
VERTEX
  8
型材断面
 10
-119.775
 20
31.45
  0
VERTEX
  8
型材断面
 10
-119.75
 20
31.45
  0
VERTEX
  8
型材断面
 10
-119.725
 20
31.475
  0
VERTEX
  8
型材断面
 10
-119.7
 20
31.475
  0
VERTEX
  8
型材断面
 10
-119.675
 20
31.5
  0
VERTEX
  8
型材断面
 10
-119.65
 20
31.5
  0
VERTEX
  8
型材断面
 10
-119.65
 20
31.5
  0
VERTEX
  8
型材断面
 10
-119.625
 20
31.525
  0
VERTEX
  8
型材断面
 10
-119.6
 20
31.525
  0
VERTEX
  8
型材断面
 10
-119.575
 20
31.55
  0
VERTEX
  8
型材断面
 10
-119.55
 20
31.55
  0
VERTEX
  8
型材断面
 10
-119.525
 20
31.55
  0
VERTEX
  8
型材断面
 10
-119.5
 20
31.575
  0
VERTEX
  8
型材断面
 10
-119.475
 20
31.575
  0
VERTEX
  8
型材断面
 10
-119.45
 20
31.575
  0
VERTEX
  8
型材断面
 10
-119.425
 20
31.6
  0
VERTEX
  8
型材断面
 10
-119.375
 20
31.6
  0
VERTEX
  8
型材断面
 10
-119.35
 20
31.6
  0
VERTEX
  8
型材断面
 10
-119.325
 20
31.6
  0
VERTEX
  8
型材断面
 10
-119.3
 20
31.625
  0
VERTEX
  8
型材断面
 10
-119.275
 20
31.625
  0
VERTEX
  8
型材断面
 10
-119.25
 20
31.625
  0
VERTEX
  8
型材断面
 10
-119.225
 20
31.625
  0
VERTEX
  8
型材断面
 10
-119.2
 20
31.625
  0
VERTEX
  8
型材断面
 10
-119.15
 20
31.625
  0
VERTEX
  8
型材断面
 10
-119.125
 20
31.625
  0
VERTEX
  8
型材断面
 10
-119.1
 20
31.625
  0
VERTEX
  8
型材断面
 10
-119.075
 20
31.625
  0
VERTEX
  8
型材断面
 10
-119.05
 20
31.625
  0
VERTEX
  8
型材断面
 10
-119.0
 20
31.625
  0
VERTEX
  8
型材断面
 10
-118.975
 20
31.625
  0
VERTEX
  8
型材断面
 10
-118.95
 20
31.625
  0
VERTEX
  8
型材断面
 10
-118.925
 20
31.625
  0
VERTEX
  8
型材断面
 10
-118.9
 20
31.625
  0
VERTEX
  8
型材断面
 10
-118.875
 20
31.625
  0
VERTEX
  8
型材断面
 10
-118.825
 20
31.625
  0
VERTEX
  8
型材断面
 10
-118.8
 20
31.625
  0
VERTEX
  8
型材断面
 10
-118.775
 20
31.6
  0
VERTEX
  8
型材断面
 10
-118.75
 20
31.6
  0
VERTEX
  8
型材断面
 10
-118.725
 20
31.6
  0
VERTEX
  8
型材断面
 10
-118.7
 20
31.6
  0
VERTEX
  8
型材断面
 10
-118.675
 20
31.575
  0
VERTEX
  8
型材断面
 10
-118.65
 20
31.575
  0
VERTEX
  8
型材断面
 10
-118.625
 20
31.575
  0
VERTEX
  8
型材断面
 10
-118.6
 20
31.55
  0
SEQEND
  0
LINE
  8
型材断面
  6
CONTINUOUS
 62
    47
 10
-115.132645
 20
30.42584
 11
-119.37513
 21
31.839838
  0
LINE
  8
型材断面
  6
CONTINUOUS
 62
    47
 10
-115.591907
 20
29.96663
 11
-115.132645
 21
30.42584
  0
POLYLINE
  8
型材断面
  6
CONTINUOUS
 62
    47
 66
     1
  0
VERTEX
  8
型材断面
 10
-132.375
 20
17.25
  0
VERTEX
  8
型材断面
 10
-132.4
 20
17.25
  0
VERTEX
  8
型材断面
 10
-132.425
 20
17.275
  0
VERTEX
  8
型材断面
 10
-132.45
 20
17.275
  0
VERTEX
  8
型材断面
 10
-132.475
 20
17.275
  0
VERTEX
  8
型材断面
 10
-132.5
 20
17.275
  0
VERTEX
  8
型材断面
 10
-132.55
 20
17.275
  0
VERTEX
  8
型材断面
 10
-132.575
 20
17.275
  0
VERTEX
  8
型材断面
 10
-132.6
 20
17.275
  0
VERTEX
  8
型材断面
 10
-132.625
 20
17.275
  0
VERTEX
  8
型材断面
 10
-132.65
 20
17.3
  0
VERTEX
  8
型材断面
 10
-132.675
 20
17.3
  0
VERTEX
  8
型材断面
 10
-132.7
 20
17.3
  0
VERTEX
  8
型材断面
 10
-132.725
 20
17.3
  0
VERTEX
  8
型材断面
 10
-132.775
 20
17.325
  0
VERTEX
  8
型材断面
 10
-132.8
 20
17.325
  0
VERTEX
  8
型材断面
 10
-132.825
 20
17.325
  0
VERTEX
  8
型材断面
 10
-132.85
 20
17.35
  0
VERTEX
  8
型材断面
 10
-132.875
 20
17.35
  0
VERTEX
  8
型材断面
 10
-132.9
 20
17.35
  0
VERTEX
  8
型材断面
 10
-132.925
 20
17.375
  0
VERTEX
  8
型材断面
 10
-132.95
 20
17.375
  0
VERTEX
  8
型材断面
 10
-132.95
 20
17.4
  0
VERTEX
  8
型材断面
 10
-132.975
 20
17.4
  0
VERTEX
  8
型材断面
 10
-133.0
 20
17.425
  0
VERTEX
  8
型材断面
 10
-133.025
 20
17.425
  0
VERTEX
  8
型材断面
 10
-133.05
 20
17.425
  0
VERTEX
  8
型材断面
 10
-133.075
 20
17.45
  0
VERTEX
  8
型材断面
 10
-133.075
 20
17.475
  0
VERTEX
  8
型材断面
 10
-133.1
 20
17.475
  0
VERTEX
  8
型材断面
 10
-133.125
 20
17.5
  0
VERTEX
  8
型材断面
 10
-133.125
 20
17.5
  0
VERTEX
  8
型材断面
 10
-133.15
 20
17.525
  0
VERTEX
  8
型材断面
 10
-133.175
 20
17.525
  0
VERTEX
  8
型材断面
 10
-133.175
 20
17.55
  0
VERTEX
  8
型材断面
 10
-133.2
 20
17.575
  0
VERTEX
  8
型材断面
 10
-133.2
 20
17.575
  0
VERTEX
  8
型材断面
 10
-133.225
 20
17.6
  0
VERTEX
  8
型材断面
 10
-133.225
 20
17.6
  0
VERTEX
  8
型材断面
 10
-133.225
 20
17.625
  0
VERTEX
  8
型材断面
 10
-133.25
 20
17.65
  0
VERTEX
  8
型材断面
 10
-133.25
 20
17.65
  0
VERTEX
  8
型材断面
 10
-133.25
 20
17.675
  0
VERTEX
  8
型材断面
 10
-133.275
 20
17.7
  0
VERTEX
  8
型材断面
 10
-133.275
 20
17.7
  0
VERTEX
  8
型材断面
 10
-133.275
 20
17.725
  0
VERTEX
  8
型材断面
 10
-133.275
 20
17.75
  0
VERTEX
  8
型材断面
 10
-133.275
 20
17.75
  0
VERTEX
  8
型材断面
 10
-133.275
 20
17.775
  0
VERTEX
  8
型材断面
 10
-133.275
 20
17.8
  0
VERTEX
  8
型材断面
 10
-133.275
 20
17.825
  0
VERTEX
  8
型材断面
 10
-133.275
 20
17.825
  0
VERTEX
  8
型材断面
 10
-133.275
 20
17.85
  0
VERTEX
  8
型材断面
 10
-133.275
 20
17.875
  0
VERTEX
  8
型材断面
 10
-133.275
 20
17.875
  0
VERTEX
  8
型材断面
 10
-133.275
 20
17.9
  0
VERTEX
  8
型材断面
 10
-133.25
 20
17.925
  0
VERTEX
  8
型材断面
 10
-133.25
 20
17.925
  0
VERTEX
  8
型材断面
 10
-133.25
 20
17.95
  0
VERTEX
  8
型材断面
 10
-133.225
 20
17.975
  0
VERTEX
  8
型材断面
 10
-133.225
 20
17.975
  0
VERTEX
  8
型材断面
 10
-133.2
 20
18.0
  0
VERTEX
  8
型材断面
 10
-133.2
 20
18.0
  0
VERTEX
  8
型材断面
 10
-133.175
 20
18.025
  0
VERTEX
  8
型材断面
 10
-133.175
 20
18.05
  0
VERTEX
  8
型材断面
 10
-133.15
 20
18.05
  0
SEQEND
  0
LINE
  8
型材断面
  6
CONTINUOUS
 62
    47
 10
-126.311195
 20
17.274508
 11
-133.942135
 21
17.274508
  0
LINE
  8
型材断面
  6
CONTINUOUS
 62
    47
 10
-119.375133
 20
31.83984
 11
-133.942135
 21
17.274508
  0
LINE
  8
型材断面
  6
CONTINUOUS
 62
    47
 10
-119.038933
 20
31.115505
 11
-132.351207
 21
17.804758
  0
LINE
  8
型材断面
  6
CONTINUOUS
 62
    47
 10
-125.39267
 20
17.804758
 11
-132.351207
 21
17.804758
  0
LINE
  8
型材断面
  6
CONTINUOUS
 62
    47
 10
-119.038928
 20
-0.101485
 11
-115.591907
 21
1.04739
  0
POLYLINE
  8
型材断面
  6
CONTINUOUS
 62
    47
 66
     1
  0
VERTEX
  8
型材断面
 10
-118.6
 20
-0.575
  0
VERTEX
  8
型材断面
 10
-118.625
 20
-0.575
  0
VERTEX
  8
型材断面
 10
-118.65
 20
-0.6
  0
VERTEX
  8
型材断面
 10
-118.675
 20
-0.6
  0
VERTEX
  8
型材断面
 10
-118.7
 20
-0.6
  0
VERTEX
  8
型材断面
 10
-118.725
 20
-0.6
  0
VERTEX
  8
型材断面
 10
-118.75
 20
-0.625
  0
VERTEX
  8
型材断面
 10
-118.775
 20
-0.625
  0
VERTEX
  8
型材断面
 10
-118.8
 20
-0.625
  0
VERTEX
  8
型材断面
 10
-118.825
 20
-0.625
  0
VERTEX
  8
型材断面
 10
-118.875
 20
-0.625
  0
VERTEX
  8
型材断面
 10
-118.9
 20
-0.625
  0
VERTEX
  8
型材断面
 10
-118.925
 20
-0.65
  0
VERTEX
  8
型材断面
 10
-118.95
 20
-0.65
  0
VERTEX
  8
型材断面
 10
-118.975
 20
-0.65
  0
VERTEX
  8
型材断面
 10
-119.0
 20
-0.65
  0
VERTEX
  8
型材断面
 10
-119.05
 20
-0.65
  0
VERTEX
  8
型材断面
 10
-119.075
 20
-0.65
  0
VERTEX
  8
型材断面
 10
-119.1
 20
-0.65
  0
VERTEX
  8
型材断面
 10
-119.125
 20
-0.65
  0
VERTEX
  8
型材断面
 10
-119.15
 20
-0.65
  0
VERTEX
  8
型材断面
 10
-119.2
 20
-0.65
  0
VERTEX
  8
型材断面
 10
-119.225
 20
-0.625
  0
VERTEX
  8
型材断面
 10
-119.25
 20
-0.625
  0
VERTEX
  8
型材断面
 10
-119.275
 20
-0.625
  0
VERTEX
  8
型材断面
 10
-119.3
 20
-0.625
  0
VERTEX
  8
型材断面
 10
-119.325
 20
-0.625
  0
VERTEX
  8
型材断面
 10
-119.35
 20
-0.625
  0
VERTEX
  8
型材断面
 10
-119.375
 20
-0.6
  0
VERTEX
  8
型材断面
 10
-119.425
 20
-0.6
  0
VERTEX
  8
型材断面
 10
-119.45
 20
-0.6
  0
VERTEX
  8
型材断面
 10
-119.475
 20
-0.575
  0
VERTEX
  8
型材断面
 10
-119.5
 20
-0.575
  0
VERTEX
  8
型材断面
 10
-119.525
 20
-0.575
  0
VERTEX
  8
型材断面
 10
-119.55
 20
-0.55
  0
VERTEX
  8
型材断面
 10
-119.575
 20
-0.55
  0
VERTEX
  8
型材断面
 10
-119.6
 20
-0.55
  0
VERTEX
  8
型材断面
 10
-119.625
 20
-0.525
  0
VERTEX
  8
型材断面
 10
-119.65
 20
-0.525
  0
VERTEX
  8
型材断面
 10
-119.65
 20
-0.5
  0
VERTEX
  8
型材断面
 10
-119.675
 20
-0.5
  0
VERTEX
  8
型材断面
 10
-119.7
 20
-0.475
  0
VERTEX
  8
型材断面
 10
-119.725
 20
-0.475
  0
VERTEX
  8
型材断面
 10
-119.75
 20
-0.45
  0
VERTEX
  8
型材断面
 10
-119.775
 20
-0.45
  0
VERTEX
  8
型材断面
 10
-119.775
 20
-0.425
  0
VERTEX
  8
型材断面
 10
-119.8
 20
-0.425
  0
VERTEX
  8
型材断面
 10
-119.825
 20
-0.4
  0
VERTEX
  8
型材断面
 10
-119.825
 20
-0.4
  0
VERTEX
  8
型材断面
 10
-119.85
 20
-0.375
  0
SEQEND
  0
LINE
  8
型材断面
  6
CONTINUOUS
 62
    47
 10
-115.132645
 20
0.58818
 11
-119.37513
 21
-0.82582
  0
LINE
  8
型材断面
  6
CONTINUOUS
 62
    47
 10
-115.591907
 20
1.04739
 11
-115.132645
 21
0.58818
  0
POLYLINE
  8
型材断面
  6
CONTINUOUS
 62
    47
 66
     1
  0
VERTEX
  8
型材断面
 10
-133.15
 20
12.925
  0
VERTEX
  8
型材断面
 10
-133.175
 20
12.95
  0
VERTEX
  8
型材断面
 10
-133.175
 20
12.95
  0
VERTEX
  8
型材断面
 10
-133.2
 20
12.975
  0
VERTEX
  8
型材断面
 10
-133.2
 20
13.0
  0
VERTEX
  8
型材断面
 10
-133.225
 20
13.0
  0
VERTEX
  8
型材断面
 10
-133.225
 20
13.025
  0
VERTEX
  8
型材断面
 10
-133.25
 20
13.05
  0
VERTEX
  8
型材断面
 10
-133.25
 20
13.05
  0
VERTEX
  8
型材断面
 10
-133.25
 20
13.075
  0
VERTEX
  8
型材断面
 10
-133.275
 20
13.1
  0
VERTEX
  8
型材断面
 10
-133.275
 20
13.1
  0
VERTEX
  8
型材断面
 10
-133.275
 20
13.125
  0
VERTEX
  8
型材断面
 10
-133.275
 20
13.15
  0
VERTEX
  8
型材断面
 10
-133.275
 20
13.15
  0
VERTEX
  8
型材断面
 10
-133.275
 20
13.175
  0
VERTEX
  8
型材断面
 10
-133.275
 20
13.2
  0
VERTEX
  8
型材断面
 10
-133.275
 20
13.2
  0
VERTEX
  8
型材断面
 10
-133.275
 20
13.225
  0
VERTEX
  8
型材断面
 10
-133.275
 20
13.25
  0
VERTEX
  8
型材断面
 10
-133.275
 20
13.25
  0
VERTEX
  8
型材断面
 10
-133.275
 20
13.275
  0
VERTEX
  8
型材断面
 10
-133.275
 20
13.3
  0
VERTEX
  8
型材断面
 10
-133.25
 20
13.3
  0
VERTEX
  8
型材断面
 10
-133.25
 20
13.325
  0
VERTEX
  8
型材断面
 10
-133.25
 20
13.35
  0
VERTEX
  8
型材断面
 10
-133.225
 20
13.35
  0
VERTEX
  8
型材断面
 10
-133.225
 20
13.375
  0
VERTEX
  8
型材断面
 10
-133.225
 20
13.4
  0
VERTEX
  8
型材断面
 10
-133.2
 20
13.4
  0
VERTEX
  8
型材断面
 10
-133.2
 20
13.425
  0
VERTEX
  8
型材断面
 10
-133.175
 20
13.45
  0
VERTEX
  8
型材断面
 10
-133.175
 20
13.45
  0
VERTEX
  8
型材断面
 10
-133.15
 20
13.475
  0
VERTEX
  8
型材断面
 10
-133.125
 20
13.475
  0
VERTEX
  8
型材断面
 10
-133.125
 20
13.5
  0
VERTEX
  8
型材断面
 10
-133.1
 20
13.5
  0
VERTEX
  8
型材断面
 10
-133.075
 20
13.525
  0
VERTEX
  8
型材断面
 10
-133.075
 20
13.55
  0
VERTEX
  8
型材断面
 10
-133.05
 20
13.55
  0
VERTEX
  8
型材断面
 10
-133.025
 20
13.575
  0
VERTEX
  8
型材断面
 10
-133.0
 20
13.575
  0
VERTEX
  8
型材断面
 10
-132.975
 20
13.6
  0
VERTEX
  8
型材断面
 10
-132.95
 20
13.6
  0
VERTEX
  8
型材断面
 10
-132.95
 20
13.6
  0
VERTEX
  8
型材断面
 10
-132.925
 20
13.625
  0
VERTEX
  8
型材断面
 10
-132.9
 20
13.625
  0
VERTEX
  8
型材断面
 10
-132.875
 20
13.65
  0
VERTEX
  8
型材断面
 10
-132.85
 20
13.65
  0
VERTEX
  8
型材断面
 10
-132.825
 20
13.65
  0
VERTEX
  8
型材断面
 10
-132.8
 20
13.675
  0
VERTEX
  8
型材断面
 10
-132.775
 20
13.675
  0
VERTEX
  8
型材断面
 10
-132.725
 20
13.675
  0
VERTEX
  8
型材断面
 10
-132.7
 20
13.7
  0
VERTEX
  8
型材断面
 10
-132.675
 20
13.7
  0
VERTEX
  8
型材断面
 10
-132.65
 20
13.7
  0
VERTEX
  8
型材断面
 10
-132.625
 20
13.7
  0
VERTEX
  8
型材断面
 10
-132.6
 20
13.7
  0
VERTEX
  8
型材断面
 10
-132.575
 20
13.725
  0
VERTEX
  8
型材断面
 10
-132.55
 20
13.725
  0
VERTEX
  8
型材断面
 10
-132.5
 20
13.725
  0
VERTEX
  8
型材断面
 10
-132.475
 20
13.725
  0
VERTEX
  8
型材断面
 10
-132.45
 20
13.725
  0
VERTEX
  8
型材断面
 10
-132.425
 20
13.725
  0
VERTEX
  8
型材断面
 10
-132.4
 20
13.725
  0
VERTEX
  8
型材断面
 10
-132.375
 20
13.725
  0
SEQEND
  0
LINE
  8
型材断面
  6
CONTINUOUS
 62
    47
 10
-119.038933
 20
-0.101485
 11
-132.351205
 21
13.209258
  0
LINE
  8
型材断面
  6
CONTINUOUS
 62
    47
 10
-125.39267
 20
13.209258
 11
-132.351205
 21
13.209258
  0
LINE
  8
型材断面
  6
CONTINUOUS
 62
    47
 10
-126.311195
 20
13.739508
 11
-133.942133
 21
13.739508
  0
LINE
  8
型材断面
  6
CONTINUOUS
 62
    47
 10
-119.375133
 20
-0.82582
 11
-133.942133
 21
13.739508
  0
LINE
  8
型材断面
  6
DASHDOT
 62
    47
 10
-123.640395
 20
15.507007
 11
-127.609803
 21
15.507007
  0
LINE
  8
型材断面
  6
CONTINUOUS
 62
    47
 10
-106.299867
 20
19.042008
 11
-106.810157
 21
19.572257
  0
LINE
  8
型材断面
  6
CONTINUOUS
 62
    47
 10
-103.646347
 20
19.042008
 11
-103.136055
 21
19.572257
  0
LINE
  8
型材断面
  6
CONTINUOUS
 62
    47
 10
-107.422508
 20
19.572257
 11
-107.422508
 21
19.042008
  0
LINE
  8
型材断面
  6
CONTINUOUS
 62
    47
 10
-101.379577
 20
25.22973
 11
-100.920315
 21
25.68894
  0
LINE
  8
型材断面
  6
CONTINUOUS
 62
    47
 10
-101.379577
 20
25.22973
 11
-97.932557
 21
24.080855
  0
LINE
  8
型材断面
  6
CONTINUOUS
 62
    47
 10
-97.932557
 20
24.080855
 11
-102.441662
 21
19.572257
  0
LINE
  8
型材断面
  6
DASHDOT
 62
    47
 10
-104.973107
 20
18.511758
 11
-104.973107
 21
20.058503
  0
POLYLINE
  8
型材断面
  6
CONTINUOUS
 62
    47
 66
     1
  0
VERTEX
  8
型材断面
 10
-102.45
 20
19.025
  0
VERTEX
  8
型材断面
 10
-102.425
 20
19.025
  0
VERTEX
  8
型材断面
 10
-102.4
 20
19.025
  0
VERTEX
  8
型材断面
 10
-102.375
 20
19.025
  0
VERTEX
  8
型材断面
 10
-102.325
 20
19.025
  0
VERTEX
  8
型材断面
 10
-102.3
 20
19.025
  0
VERTEX
  8
型材断面
 10
-102.275
 20
19.05
  0
VERTEX
  8
型材断面
 10
-102.25
 20
19.05
  0
VERTEX
  8
型材断面
 10
-102.225
 20
19.05
  0
VERTEX
  8
型材断面
 10
-102.2
 20
19.05
  0
VERTEX
  8
型材断面
 10
-102.15
 20
19.05
  0
VERTEX
  8
型材断面
 10
-102.125
 20
19.075
  0
VERTEX
  8
型材断面
 10
-102.1
 20
19.075
  0
VERTEX
  8
型材断面
 10
-102.075
 20
19.075
  0
VERTEX
  8
型材断面
 10
-102.05
 20
19.075
  0
VERTEX
  8
型材断面
 10
-102.025
 20
19.1
  0
VERTEX
  8
型材断面
 10
-102.0
 20
19.1
  0
VERTEX
  8
型材断面
 10
-101.975
 20
19.1
  0
VERTEX
  8
型材断面
 10
-101.95
 20
19.125
  0
VERTEX
  8
型材断面
 10
-101.925
 20
19.125
  0
VERTEX
  8
型材断面
 10
-101.9
 20
19.15
  0
VERTEX
  8
型材断面
 10
-101.875
 20
19.15
  0
VERTEX
  8
型材断面
 10
-101.85
 20
19.15
  0
VERTEX
  8
型材断面
 10
-101.825
 20
19.175
  0
VERTEX
  8
型材断面
 10
-101.8
 20
19.175
  0
VERTEX
  8
型材断面
 10
-101.775
 20
19.2
  0
VERTEX
  8
型材断面
 10
-101.775
 20
19.2
  0
VERTEX
  8
型材断面
 10
-101.75
 20
19.225
  0
VERTEX
  8
型材断面
 10
-101.725
 20
19.225
  0
VERTEX
  8
型材断面
 10
-101.7
 20
19.25
  0
VERTEX
  8
型材断面
 10
-101.7
 20
19.275
  0
VERTEX
  8
型材断面
 10
-101.675
 20
19.275
  0
VERTEX
  8
型材断面
 10
-101.65
 20
19.3
  0
SEQEND
  0
POLYLINE
  8
型材断面
  6
CONTINUOUS
 62
    47
 66
     1
  0
VERTEX
  8
型材断面
 10
-97.15
 20
23.8
  0
VERTEX
  8
型材断面
 10
-97.125
 20
23.825
  0
VERTEX
  8
型材断面
 10
-97.125
 20
23.825
  0
VERTEX
  8
型材断面
 10
-97.1
 20
23.85
  0
VERTEX
  8
型材断面
 10
-97.1
 20
23.875
  0
VERTEX
  8
型材断面
 10
-97.075
 20
23.875
  0
VERTEX
  8
型材断面
 10
-97.075
 20
23.9
  0
VERTEX
  8
型材断面
 10
-97.075
 20
23.925
  0
VERTEX
  8
型材断面
 10
-97.05
 20
23.925
  0
VERTEX
  8
型材断面
 10
-97.05
 20
23.95
  0
VERTEX
  8
型材断面
 10
-97.05
 20
23.975
  0
VERTEX
  8
型材断面
 10
-97.05
 20
23.975
  0
VERTEX
  8
型材断面
 10
-97.025
 20
24.0
  0
VERTEX
  8
型材断面
 10
-97.025
 20
24.025
  0
VERTEX
  8
型材断面
 10
-97.025
 20
24.025
  0
VERTEX
  8
型材断面
 10
-97.025
 20
24.05
  0
VERTEX
  8
型材断面
 10
-97.025
 20
24.075
  0
VERTEX
  8
型材断面
 10
-97.025
 20
24.075
  0
VERTEX
  8
型材断面
 10
-97.025
 20
24.1
  0
VERTEX
  8
型材断面
 10
-97.025
 20
24.125
  0
VERTEX
  8
型材断面
 10
-97.025
 20
24.15
  0
VERTEX
  8
型材断面
 10
-97.05
 20
24.15
  0
VERTEX
  8
型材断面
 10
-97.05
 20
24.175
  0
VERTEX
  8
型材断面
 10
-97.05
 20
24.2
  0
VERTEX
  8
型材断面
 10
-97.05
 20
24.2
  0
VERTEX
  8
型材断面
 10
-97.075
 20
24.225
  0
VERTEX
  8
型材断面
 10
-97.075
 20
24.25
  0
VERTEX
  8
型材断面
 10
-97.075
 20
24.25
  0
VERTEX
  8
型材断面
 10
-97.1
 20
24.275
  0
VERTEX
  8
型材断面
 10
-97.1
 20
24.275
  0
VERTEX
  8
型材断面
 10
-97.125
 20
24.3
  0
VERTEX
  8
型材断面
 10
-97.125
 20
24.325
  0
VERTEX
  8
型材断面
 10
-97.15
 20
24.325
  0
VERTEX
  8
型材断面
 10
-97.175
 20
24.35
  0
VERTEX
  8
型材断面
 10
-97.175
 20
24.375
  0
VERTEX
  8
型材断面
 10
-97.2
 20
24.375
  0
VERTEX
  8
型材断面
 10
-97.225
 20
24.4
  0
VERTEX
  8
型材断面
 10
-97.225
 20
24.4
  0
VERTEX
  8
型材断面
 10
-97.25
 20
24.425
  0
VERTEX
  8
型材断面
 10
-97.275
 20
24.425
  0
VERTEX
  8
型材断面
 10
-97.3
 20
24.45
  0
VERTEX
  8
型材断面
 10
-97.325
 20
24.45
  0
VERTEX
  8
型材断面
 10
-97.35
 20
24.475
  0
VERTEX
  8
型材断面
 10
-97.35
 20
24.475
  0
VERTEX
  8
型材断面
 10
-97.375
 20
24.5
  0
VERTEX
  8
型材断面
 10
-97.4
 20
24.5
  0
VERTEX
  8
型材断面
 10
-97.425
 20
24.5
  0
VERTEX
  8
型材断面
 10
-97.45
 20
24.525
  0
VERTEX
  8
型材断面
 10
-97.475
 20
24.525
  0
SEQEND
  0
LINE
  8
型材断面
  6
CONTINUOUS
 62
    47
 10
-100.920315
 20
25.68894
 11
-96.67783
 21
24.27494
  0
LINE
  8
型材断面
  6
CONTINUOUS
 62
    47
 10
-96.67783
 20
24.27494
 11
-101.911358
 21
19.042008
  0
LINE
  8
型材断面
  6
CONTINUOUS
 62
    47
 10
-102.441662
 20
19.572257
 11
-107.422508
 21
19.572257
  0
LINE
  8
型材断面
  6
CONTINUOUS
 62
    47
 10
-101.911358
 20
19.042008
 11
-107.422508
 21
19.042008
  0
LINE
  8
型材断面
  6
CONTINUOUS
 62
    47
 10
-103.518775
 20
19.17457
 11
-106.427438
 21
19.17457
  0
LINE
  8
型材断面
  6
CONTINUOUS
 62
    47
 10
-103.391202
 20
19.307133
 11
-106.555012
 21
19.307133
  0
LINE
  8
型材断面
  6
CONTINUOUS
 62
    47
 10
-103.26363
 20
19.439695
 11
-106.682588
 21
19.439695
  0
LINE
  8
型材断面
  6
CONTINUOUS
 62
    47
 10
-124.474145
 20
16.744257
 11
-120.187692
 21
16.744257
  0
LINE
  8
型材断面
  6
CONTINUOUS
 62
    47
 10
-124.474145
 20
16.744257
 11
-124.474145
 21
13.739508
  0
LINE
  8
型材断面
  6
CONTINUOUS
 62
    47
 10
-120.187692
 20
16.744257
 11
-120.187692
 21
13.739508
  0
LINE
  8
型材断面
  6
CONTINUOUS
 62
    47
 10
-119.269165
 20
13.739508
 11
-120.187692
 21
13.739508
  0
LINE
  8
型材断面
  6
CONTINUOUS
 62
    47
 10
-124.474145
 20
13.739508
 11
-125.39267
 21
13.739508
  0
POLYLINE
  8
型材断面
  6
CONTINUOUS
 62
    47
 66
     1
  0
VERTEX
  8
型材断面
 10
-125.4
 20
16.725
  0
VERTEX
  8
型材断面
 10
-125.4
 20
16.75
  0
VERTEX
  8
型材断面
 10
-125.4
 20
16.775
  0
VERTEX
  8
型材断面
 10
-125.4
 20
16.775
  0
VERTEX
  8
型材断面
 10
-125.4
 20
16.8
  0
VERTEX
  8
型材断面
 10
-125.4
 20
16.825
  0
VERTEX
  8
型材断面
 10
-125.4
 20
16.825
  0
VERTEX
  8
型材断面
 10
-125.375
 20
16.85
  0
VERTEX
  8
型材断面
 10
-125.375
 20
16.875
  0
VERTEX
  8
型材断面
 10
-125.375
 20
16.875
  0
VERTEX
  8
型材断面
 10
-125.35
 20
16.9
  0
VERTEX
  8
型材断面
 10
-125.35
 20
16.925
  0
VERTEX
  8
型材断面
 10
-125.35
 20
16.925
  0
VERTEX
  8
型材断面
 10
-125.325
 20
16.95
  0
VERTEX
  8
型材断面
 10
-125.325
 20
16.95
  0
VERTEX
  8
型材断面
 10
-125.3
 20
16.975
  0
VERTEX
  8
型材断面
 10
-125.275
 20
17.0
  0
VERTEX
  8
型材断面
 10
-125.275
 20
17.0
  0
VERTEX
  8
型材断面
 10
-125.25
 20
17.025
  0
VERTEX
  8
型材断面
 10
-125.25
 20
17.025
  0
VERTEX
  8
型材断面
 10
-125.225
 20
17.05
  0
VERTEX
  8
型材断面
 10
-125.2
 20
17.05
  0
VERTEX
  8
型材断面
 10
-125.175
 20
17.075
  0
VERTEX
  8
型材断面
 10
-125.175
 20
17.1
  0
VERTEX
  8
型材断面
 10
-125.15
 20
17.1
  0
VERTEX
  8
型材断面
 10
-125.125
 20
17.125
  0
VERTEX
  8
型材断面
 10
-125.1
 20
17.125
  0
VERTEX
  8
型材断面
 10
-125.075
 20
17.125
  0
VERTEX
  8
型材断面
 10
-125.05
 20
17.15
  0
VERTEX
  8
型材断面
 10
-125.025
 20
17.15
  0
VERTEX
  8
型材断面
 10
-125.0
 20
17.175
  0
VERTEX
  8
型材断面
 10
-125.0
 20
17.175
  0
VERTEX
  8
型材断面
 10
-124.975
 20
17.175
  0
VERTEX
  8
型材断面
 10
-124.925
 20
17.2
  0
VERTEX
  8
型材断面
 10
-124.9
 20
17.2
  0
VERTEX
  8
型材断面
 10
-124.875
 20
17.2
  0
VERTEX
  8
型材断面
 10
-124.85
 20
17.225
  0
VERTEX
  8
型材断面
 10
-124.825
 20
17.225
  0
VERTEX
  8
型材断面
 10
-124.8
 20
17.225
  0
VERTEX
  8
型材断面
 10
-124.775
 20
17.225
  0
VERTEX
  8
型材断面
 10
-124.75
 20
17.25
  0
VERTEX
  8
型材断面
 10
-124.725
 20
17.25
  0
VERTEX
  8
型材断面
 10
-124.7
 20
17.25
  0
VERTEX
  8
型材断面
 10
-124.65
 20
17.25
  0
VERTEX
  8
型材断面
 10
-124.625
 20
17.25
  0
VERTEX
  8
型材断面
 10
-124.6
 20
17.25
  0
VERTEX
  8
型材断面
 10
-124.575
 20
17.25
  0
VERTEX
  8
型材断面
 10
-124.55
 20
17.25
  0
VERTEX
  8
型材断面
 10
-124.525
 20
17.25
  0
VERTEX
  8
型材断面
 10
-124.475
 20
17.25
  0
SEQEND
  0
POLYLINE
  8
型材断面
  6
CONTINUOUS
 62
    47
 66
     1
  0
VERTEX
  8
型材断面
 10
-120.2
 20
17.25
  0
VERTEX
  8
型材断面
 10
-120.175
 20
17.25
  0
VERTEX
  8
型材断面
 10
-120.15
 20
17.25
  0
VERTEX
  8
型材断面
 10
-120.1
 20
17.25
  0
VERTEX
  8
型材断面
 10
-120.075
 20
17.25
  0
VERTEX
  8
型材断面
 10
-120.05
 20
17.25
  0
VERTEX
  8
型材断面
 10
-120.025
 20
17.25
  0
VERTEX
  8
型材断面
 10
-120.0
 20
17.25
  0
VERTEX
  8
型材断面
 10
-119.975
 20
17.25
  0
VERTEX
  8
型材断面
 10
-119.95
 20
17.25
  0
VERTEX
  8
型材断面
 10
-119.9
 20
17.225
  0
VERTEX
  8
型材断面
 10
-119.875
 20
17.225
  0
VERTEX
  8
型材断面
 10
-119.85
 20
17.225
  0
VERTEX
  8
型材断面
 10
-119.825
 20
17.225
  0
VERTEX
  8
型材断面
 10
-119.8
 20
17.2
  0
VERTEX
  8
型材断面
 10
-119.775
 20
17.2
  0
VERTEX
  8
型材断面
 10
-119.75
 20
17.2
  0
VERTEX
  8
型材断面
 10
-119.725
 20
17.175
  0
VERTEX
  8
型材断面
 10
-119.7
 20
17.175
  0
VERTEX
  8
型材断面
 10
-119.675
 20
17.175
  0
VERTEX
  8
型材断面
 10
-119.65
 20
17.15
  0
VERTEX
  8
型材断面
 10
-119.625
 20
17.15
  0
VERTEX
  8
型材断面
 10
-119.6
 20
17.125
  0
VERTEX
  8
型材断面
 10
-119.575
 20
17.125
  0
VERTEX
  8
型材断面
 10
-119.55
 20
17.125
  0
VERTEX
  8
型材断面
 10
-119.55
 20
17.1
  0
VERTEX
  8
型材断面
 10
-119.525
 20
17.1
  0
VERTEX
  8
型材断面
 10
-119.5
 20
17.075
  0
VERTEX
  8
型材断面
 10
-119.475
 20
17.05
  0
VERTEX
  8
型材断面
 10
-119.475
 20
17.05
  0
VERTEX
  8
型材断面
 10
-119.45
 20
17.025
  0
VERTEX
  8
型材断面
 10
-119.425
 20
17.025
  0
VERTEX
  8
型材断面
 10
-119.425
 20
17.0
  0
VERTEX
  8
型材断面
 10
-119.4
 20
17.0
  0
VERTEX
  8
型材断面
 10
-119.375
 20
16.975
  0
VERTEX
  8
型材断面
 10
-119.375
 20
16.95
  0
VERTEX
  8
型材断面
 10
-119.35
 20
16.95
  0
VERTEX
  8
型材断面
 10
-119.35
 20
16.925
  0
VERTEX
  8
型材断面
 10
-119.35
 20
16.925
  0
VERTEX
  8
型材断面
 10
-119.325
 20
16.9
  0
VERTEX
  8
型材断面
 10
-119.325
 20
16.875
  0
VERTEX
  8
型材断面
 10
-119.3
 20
16.875
  0
VERTEX
  8
型材断面
 10
-119.3
 20
16.85
  0
VERTEX
  8
型材断面
 10
-119.3
 20
16.825
  0
VERTEX
  8
型材断面
 10
-119.3
 20
16.825
  0
VERTEX
  8
型材断面
 10
-119.3
 20
16.8
  0
VERTEX
  8
型材断面
 10
-119.275
 20
16.775
  0
VERTEX
  8
型材断面
 10
-119.275
 20
16.775
  0
VERTEX
  8
型材断面
 10
-119.275
 20
16.75
  0
VERTEX
  8
型材断面
 10
-119.275
 20
16.725
  0
SEQEND
  0
LINE
  8
型材断面
  6
CONTINUOUS
 62
    47
 10
-119.269165
 20
13.739508
 11
-119.269165
 21
17.274508
  0
LINE
  8
型材断面
  6
CONTINUOUS
 62
    47
 10
-119.269165
 20
17.274508
 11
-125.39267
 21
17.274508
  0
LINE
  8
型材断面
  6
CONTINUOUS
 62
    47
 10
-125.39267
 20
13.739508
 11
-125.39267
 21
17.274508
  0
LINE
  8
型材断面
  6
CONTINUOUS
 62
    47
 10
-119.269165
 20
16.390757
 11
-120.187692
 21
16.390757
  0
LINE
  8
型材断面
  6
CONTINUOUS
 62
    47
 10
-119.269165
 20
14.623257
 11
-120.187692
 21
14.623257
  0
LINE
  8
型材断面
  6
CONTINUOUS
 62
    47
 10
-119.95806
 20
16.390757
 11
-119.95806
 21
14.623257
  0
LINE
  8
型材断面
  6
CONTINUOUS
 62
    47
 10
-119.728428
 20
16.390757
 11
-119.728428
 21
14.623257
  0
LINE
  8
型材断面
  6
CONTINUOUS
 62
    47
 10
-119.498797
 20
16.390757
 11
-119.498797
 21
14.623257
  0
LINE
  8
型材断面
  6
DASHDOT
 62
    47
 10
-126.507463
 20
15.507007
 11
-118.147818
 21
15.507007
  0
LINE
  8
型材断面
  6
CONTINUOUS
 62
    47
 10
-125.39267
 20
16.390757
 11
-124.474145
 21
16.390757
  0
LINE
  8
型材断面
  6
CONTINUOUS
 62
    47
 10
-125.39267
 20
14.623257
 11
-124.474145
 21
14.623257
  0
LINE
  8
型材断面
  6
CONTINUOUS
 62
    47
 10
-125.163037
 20
14.623257
 11
-125.163037
 21
16.390757
  0
LINE
  8
型材断面
  6
CONTINUOUS
 62
    47
 10
-124.933407
 20
14.623257
 11
-124.933407
 21
16.390757
  0
LINE
  8
型材断面
  6
CONTINUOUS
 62
    47
 10
-124.703775
 20
14.623257
 11
-124.703775
 21
16.390757
  0
LINE
  8
型材断面
  6
CONTINUOUS
 62
    47
 10
-106.299867
 20
11.97201
 11
-106.810157
 21
11.44176
  0
LINE
  8
型材断面
  6
CONTINUOUS
 62
    47
 10
-103.646347
 20
11.97201
 11
-103.136055
 21
11.44176
  0
LINE
  8
型材断面
  6
CONTINUOUS
 62
    47
 10
-107.422508
 20
11.44176
 11
-107.422508
 21
11.97201
  0
LINE
  8
型材断面
  6
CONTINUOUS
 62
    47
 10
-101.379577
 20
5.78429
 11
-100.920315
 21
5.325078
  0
LINE
  8
型材断面
  6
CONTINUOUS
 62
    47
 10
-101.379577
 20
5.784288
 11
-97.932557
 21
6.933163
  0
LINE
  8
型材断面
  6
CONTINUOUS
 62
    47
 10
-97.932557
 20
6.933163
 11
-102.441662
 21
11.44176
  0
LINE
  8
型材断面
  6
DASHDOT
 62
    47
 10
-104.973107
 20
12.50226
 11
-104.973107
 21
10.955513
  0
POLYLINE
  8
型材断面
  6
CONTINUOUS
 62
    47
 66
     1
  0
VERTEX
  8
型材断面
 10
-101.65
 20
11.7
  0
VERTEX
  8
型材断面
 10
-101.675
 20
11.7
  0
VERTEX
  8
型材断面
 10
-101.7
 20
11.725
  0
VERTEX
  8
型材断面
 10
-101.7
 20
11.75
  0
VERTEX
  8
型材断面
 10
-101.725
 20
11.75
  0
VERTEX
  8
型材断面
 10
-101.75
 20
11.775
  0
VERTEX
  8
型材断面
 10
-101.775
 20
11.775
  0
VERTEX
  8
型材断面
 10
-101.775
 20
11.8
  0
VERTEX
  8
型材断面
 10
-101.8
 20
11.8
  0
VERTEX
  8
型材断面
 10
-101.825
 20
11.825
  0
VERTEX
  8
型材断面
 10
-101.85
 20
11.825
  0
VERTEX
  8
型材断面
 10
-101.875
 20
11.85
  0
VERTEX
  8
型材断面
 10
-101.9
 20
11.85
  0
VERTEX
  8
型材断面
 10
-101.925
 20
11.85
  0
VERTEX
  8
型材断面
 10
-101.95
 20
11.875
  0
VERTEX
  8
型材断面
 10
-101.975
 20
11.875
  0
VERTEX
  8
型材断面
 10
-102.0
 20
11.9
  0
VERTEX
  8
型材断面
 10
-102.025
 20
11.9
  0
VERTEX
  8
型材断面
 10
-102.05
 20
11.9
  0
VERTEX
  8
型材断面
 10
-102.075
 20
11.9
  0
VERTEX
  8
型材断面
 10
-102.1
 20
11.925
  0
VERTEX
  8
型材断面
 10
-102.125
 20
11.925
  0
VERTEX
  8
型材断面
 10
-102.15
 20
11.925
  0
VERTEX
  8
型材断面
 10
-102.2
 20
11.925
  0
VERTEX
  8
型材断面
 10
-102.225
 20
11.95
  0
VERTEX
  8
型材断面
 10
-102.25
 20
11.95
  0
VERTEX
  8
型材断面
 10
-102.275
 20
11.95
  0
VERTEX
  8
型材断面
 10
-102.3
 20
11.95
  0
VERTEX
  8
型材断面
 10
-102.325
 20
11.95
  0
VERTEX
  8
型材断面
 10
-102.375
 20
11.95
  0
VERTEX
  8
型材断面
 10
-102.4
 20
11.95
  0
VERTEX
  8
型材断面
 10
-102.425
 20
11.95
  0
VERTEX
  8
型材断面
 10
-102.45
 20
11.95
  0
SEQEND
  0
POLYLINE
  8
型材断面
  6
CONTINUOUS
 62
    47
 66
     1
  0
VERTEX
  8
型材断面
 10
-97.475
 20
6.45
  0
VERTEX
  8
型材断面
 10
-97.45
 20
6.475
  0
VERTEX
  8
型材断面
 10
-97.425
 20
6.475
  0
VERTEX
  8
型材断面
 10
-97.4
 20
6.5
  0
VERTEX
  8
型材断面
 10
-97.375
 20
6.5
  0
VERTEX
  8
型材断面
 10
-97.35
 20
6.5
  0
VERTEX
  8
型材断面
 10
-97.35
 20
6.525
  0
VERTEX
  8
型材断面
 10
-97.325
 20
6.525
  0
VERTEX
  8
型材断面
 10
-97.3
 20
6.55
  0
VERTEX
  8
型材断面
 10
-97.275
 20
6.55
  0
VERTEX
  8
型材断面
 10
-97.25
 20
6.575
  0
VERTEX
  8
型材断面
 10
-97.225
 20
6.575
  0
VERTEX
  8
型材断面
 10
-97.225
 20
6.6
  0
VERTEX
  8
型材断面
 10
-97.2
 20
6.6
  0
VERTEX
  8
型材断面
 10
-97.175
 20
6.625
  0
VERTEX
  8
型材断面
 10
-97.175
 20
6.65
  0
VERTEX
  8
型材断面
 10
-97.15
 20
6.65
  0
VERTEX
  8
型材断面
 10
-97.125
 20
6.675
  0
VERTEX
  8
型材断面
 10
-97.125
 20
6.675
  0
VERTEX
  8
型材断面
 10
-97.1
 20
6.7
  0
VERTEX
  8
型材断面
 10
-97.1
 20
6.725
  0
VERTEX
  8
型材断面
 10
-97.075
 20
6.725
  0
VERTEX
  8
型材断面
 10
-97.075
 20
6.75
  0
VERTEX
  8
型材断面
 10
-97.075
 20
6.775
  0
VERTEX
  8
型材断面
 10
-97.05
 20
6.775
  0
VERTEX
  8
型材断面
 10
-97.05
 20
6.8
  0
VERTEX
  8
型材断面
 10
-97.05
 20
6.825
  0
VERTEX
  8
型材断面
 10
-97.05
 20
6.825
  0
VERTEX
  8
型材断面
 10
-97.025
 20
6.85
  0
VERTEX
  8
型材断面
 10
-97.025
 20
6.875
  0
VERTEX
  8
型材断面
 10
-97.025
 20
6.875
  0
VERTEX
  8
型材断面
 10
-97.025
 20
6.9
  0
VERTEX
  8
型材断面
 10
-97.025
 20
6.925
  0
VERTEX
  8
型材断面
 10
-97.025
 20
6.95
  0
VERTEX
  8
型材断面
 10
-97.025
 20
6.95
  0
VERTEX
  8
型材断面
 10
-97.025
 20
6.975
  0
VERTEX
  8
型材断面
 10
-97.025
 20
7.0
  0
VERTEX
  8
型材断面
 10
-97.05
 20
7.0
  0
VERTEX
  8
型材断面
 10
-97.05
 20
7.025
  0
VERTEX
  8
型材断面
 10
-97.05
 20
7.05
  0
VERTEX
  8
型材断面
 10
-97.05
 20
7.05
  0
VERTEX
  8
型材断面
 10
-97.075
 20
7.075
  0
VERTEX
  8
型材断面
 10
-97.075
 20
7.1
  0
VERTEX
  8
型材断面
 10
-97.075
 20
7.1
  0
VERTEX
  8
型材断面
 10
-97.1
 20
7.125
  0
VERTEX
  8
型材断面
 10
-97.1
 20
7.15
  0
VERTEX
  8
型材断面
 10
-97.125
 20
7.15
  0
VERTEX
  8
型材断面
 10
-97.125
 20
7.175
  0
VERTEX
  8
型材断面
 10
-97.15
 20
7.175
  0
SEQEND
  0
LINE
  8
型材断面
  6
CONTINUOUS
 62
    47
 10
-100.920315
 20
5.325075
 11
-96.67783
 21
6.739077
  0
LINE
  8
型材断面
  6
CONTINUOUS
 62
    47
 10
-96.67783
 20
6.739077
 11
-101.911358
 21
11.97201
  0
LINE
  8
型材断面
  6
CONTINUOUS
 62
    47
 10
-102.441662
 20
11.44176
 11
-107.422508
 21
11.44176
  0
LINE
  8
型材断面
  6
CONTINUOUS
 62
    47
 10
-101.911358
 20
11.97201
 11
-107.422508
 21
11.97201
  0
LINE
  8
型材断面
  6
CONTINUOUS
 62
    47
 10
-103.518775
 20
11.839447
 11
-106.427438
 21
11.839447
  0
LINE
  8
型材断面
  6
CONTINUOUS
 62
    47
 10
-103.391202
 20
11.706885
 11
-106.555012
 21
11.706885
  0
LINE
  8
型材断面
  6
CONTINUOUS
 62
    47
 10
-103.26363
 20
11.574323
 11
-106.682588
 21
11.574323
  0
LINE
  8
型材断面
  6
CONTINUOUS
 62
    47
 10
-118.35064
 20
15.507007
 11
-118.35064
 21
18.511758
  0
LINE
  8
型材断面
  6
CONTINUOUS
 62
    47
 10
-118.35064
 20
15.507007
 11
-118.35064
 21
12.50226
  0
LINE
  8
型材断面
  6
CONTINUOUS
 62
    47
 10
-119.269165
 20
15.507007
 11
-119.269165
 21
11.97201
  0
LINE
  8
型材断面
  6
CONTINUOUS
 62
    47
 10
-119.269165
 20
15.507007
 11
-119.269165
 21
19.042008
  0
LINE
  8
型材断面
  6
CONTINUOUS
 62
    47
 10
-119.269165
 20
14.888385
 11
-118.35064
 21
14.888385
  0
LINE
  8
型材断面
  6
CONTINUOUS
 62
    47
 10
-119.269165
 20
16.125633
 11
-118.35064
 21
16.125633
  0
LINE
  8
型材断面
  6
CONTINUOUS
 62
    47
 10
-119.039535
 20
16.125633
 11
-119.039535
 21
14.888385
  0
LINE
  8
型材断面
  6
CONTINUOUS
 62
    47
 10
-118.809903
 20
16.125633
 11
-118.809903
 21
14.888385
  0
LINE
  8
型材断面
  6
CONTINUOUS
 62
    47
 10
-118.580272
 20
16.125633
 11
-118.580272
 21
14.888385
  0
LINE
  8
型材断面
  6
CONTINUOUS
 62
    47
 10
-95.693675
 20
15.507007
 11
-95.693675
 21
18.511758
  0
LINE
  8
型材断面
  6
CONTINUOUS
 62
    47
 10
-95.693675
 20
15.507007
 11
-95.693675
 21
12.50226
  0
LINE
  8
型材断面
  6
CONTINUOUS
 62
    47
 10
-94.77515
 20
15.507007
 11
-94.77515
 21
11.97201
  0
LINE
  8
型材断面
  6
CONTINUOUS
 62
    47
 10
-118.35064
 20
12.50226
 11
-95.693675
 21
12.50226
  0
LINE
  8
型材断面
  6
CONTINUOUS
 62
    47
 10
-118.35064
 20
18.511758
 11
-95.693675
 21
18.511758
  0
LINE
  8
型材断面
  6
CONTINUOUS
 62
    47
 10
-119.269165
 20
11.97201
 11
-94.77515
 21
11.97201
  0
LINE
  8
型材断面
  6
CONTINUOUS
 62
    47
 10
-119.269165
 20
19.042008
 11
-94.77515
 21
19.042008
  0
LINE
  8
型材断面
  6
CONTINUOUS
 62
    47
 10
-94.77515
 20
15.507007
 11
-94.77515
 21
19.042008
  0
LINE
  8
型材断面
  6
CONTINUOUS
 62
    47
 10
-106.04472
 20
18.511758
 11
-106.04472
 21
19.042008
  0
LINE
  8
型材断面
  6
CONTINUOUS
 62
    47
 10
-103.901493
 20
18.511758
 11
-103.901493
 21
19.042008
  0
LINE
  8
型材断面
  6
CONTINUOUS
 62
    47
 10
-106.04472
 20
18.64432
 11
-103.901493
 21
18.64432
  0
LINE
  8
型材断面
  6
CONTINUOUS
 62
    47
 10
-106.04472
 20
18.776882
 11
-103.901493
 21
18.776882
  0
LINE
  8
型材断面
  6
CONTINUOUS
 62
    47
 10
-106.04472
 20
18.909445
 11
-103.901493
 21
18.909445
  0
LINE
  8
型材断面
  6
DASHDOT
 62
    47
 10
-104.973107
 20
19.572257
 11
-104.973107
 21
18.016668
  0
LINE
  8
型材断面
  6
CONTINUOUS
 62
    47
 10
-106.04472
 20
12.50226
 11
-106.04472
 21
11.97201
  0
LINE
  8
型材断面
  6
CONTINUOUS
 62
    47
 10
-103.901493
 20
12.50226
 11
-103.901493
 21
11.97201
  0
LINE
  8
型材断面
  6
CONTINUOUS
 62
    47
 10
-106.04472
 20
12.369698
 11
-103.901493
 21
12.369698
  0
LINE
  8
型材断面
  6
CONTINUOUS
 62
    47
 10
-106.04472
 20
12.237135
 11
-103.901493
 21
12.237135
  0
LINE
  8
型材断面
  6
CONTINUOUS
 62
    47
 10
-106.04472
 20
12.104572
 11
-103.901493
 21
12.104572
  0
LINE
  8
型材断面
  6
DASHDOT
 62
    47
 10
-104.973107
 20
11.44176
 11
-104.973107
 21
12.99735
  0
LINE
  8
型材断面
  6
DASHDOT
 62
    47
 10
-117.61987
 20
15.507007
 11
-120.06521
 21
15.507007
  0
LINE
  8
型材断面
  6
CONTINUOUS
 62
    47
 10
-126.311195
 20
16.24936
 11
-125.39267
 21
16.24936
  0
LINE
  8
型材断面
  6
CONTINUOUS
 62
    47
 10
-126.311195
 20
14.76466
 11
-125.39267
 21
14.76466
  0
LINE
  8
型材断面
  6
CONTINUOUS
 62
    47
 10
-126.081563
 20
16.24936
 11
-126.081563
 21
14.76466
  0
LINE
  8
型材断面
  6
CONTINUOUS
 62
    47
 10
-125.851933
 20
16.24936
 11
-125.851933
 21
14.76466
  0
LINE
  8
型材断面
  6
CONTINUOUS
 62
    47
 10
-125.6223
 20
16.24936
 11
-125.6223
 21
14.76466
  0
INSERT
  2
M6頭
  8
型材断面
  6
CONTINUOUS
 10
-100.038998
 20
-22.32365
 50
90.0
 41
0.5
 42
0.5
  0
POLYLINE
  8
型材断面
  6
CONTINUOUS
 62
    47
 66
     1
  0
VERTEX
  8
型材断面
 10
-89.275
 20
-25.875
  0
VERTEX
  8
型材断面
 10
-89.275
 20
-25.85
  0
VERTEX
  8
型材断面
 10
-89.275
 20
-25.85
  0
VERTEX
  8
型材断面
 10
-89.275
 20
-25.825
  0
VERTEX
  8
型材断面
 10
-89.275
 20
-25.8
  0
VERTEX
  8
型材断面
 10
-89.3
 20
-25.775
  0
VERTEX
  8
型材断面
 10
-89.3
 20
-25.775
  0
VERTEX
  8
型材断面
 10
-89.3
 20
-25.75
  0
VERTEX
  8
型材断面
 10
-89.3
 20
-25.725
  0
VERTEX
  8
型材断面
 10
-89.325
 20
-25.725
  0
VERTEX
  8
型材断面
 10
-89.325
 20
-25.7
  0
VERTEX
  8
型材断面
 10
-89.325
 20
-25.7
  0
VERTEX
  8
型材断面
 10
-89.35
 20
-25.675
  0
VERTEX
  8
型材断面
 10
-89.35
 20
-25.65
  0
VERTEX
  8
型材断面
 10
-89.375
 20
-25.65
  0
VERTEX
  8
型材断面
 10
-89.375
 20
-25.625
  0
VERTEX
  8
型材断面
 10
-89.4
 20
-25.6
  0
VERTEX
  8
型材断面
 10
-89.4
 20
-25.6
  0
VERTEX
  8
型材断面
 10
-89.425
 20
-25.575
  0
VERTEX
  8
型材断面
 10
-89.45
 20
-25.575
  0
VERTEX
  8
型材断面
 10
-89.45
 20
-25.55
  0
VERTEX
  8
型材断面
 10
-89.475
 20
-25.55
  0
VERTEX
  8
型材断面
 10
-89.5
 20
-25.525
  0
VERTEX
  8
型材断面
 10
-89.525
 20
-25.525
  0
VERTEX
  8
型材断面
 10
-89.525
 20
-25.5
  0
VERTEX
  8
型材断面
 10
-89.55
 20
-25.5
  0
VERTEX
  8
型材断面
 10
-89.575
 20
-25.475
  0
VERTEX
  8
型材断面
 10
-89.6
 20
-25.475
  0
VERTEX
  8
型材断面
 10
-89.625
 20
-25.45
  0
VERTEX
  8
型材断面
 10
-89.65
 20
-25.45
  0
VERTEX
  8
型材断面
 10
-89.675
 20
-25.425
  0
VERTEX
  8
型材断面
 10
-89.7
 20
-25.425
  0
VERTEX
  8
型材断面
 10
-89.725
 20
-25.425
  0
VERTEX
  8
型材断面
 10
-89.75
 20
-25.4
  0
VERTEX
  8
型材断面
 10
-89.775
 20
-25.4
  0
VERTEX
  8
型材断面
 10
-89.8
 20
-25.4
  0
VERTEX
  8
型材断面
 10
-89.825
 20
-25.375
  0
VERTEX
  8
型材断面
 10
-89.85
 20
-25.375
  0
VERTEX
  8
型材断面
 10
-89.875
 20
-25.375
  0
VERTEX
  8
型材断面
 10
-89.9
 20
-25.375
  0
VERTEX
  8
型材断面
 10
-89.925
 20
-25.375
  0
VERTEX
  8
型材断面
 10
-89.95
 20
-25.35
  0
VERTEX
  8
型材断面
 10
-90.0
 20
-25.35
  0
VERTEX
  8
型材断面
 10
-90.025
 20
-25.35
  0
VERTEX
  8
型材断面
 10
-90.05
 20
-25.35
  0
VERTEX
  8
型材断面
 10
-90.075
 20
-25.35
  0
VERTEX
  8
型材断面
 10
-90.1
 20
-25.35
  0
VERTEX
  8
型材断面
 10
-90.125
 20
-25.35
  0
VERTEX
  8
型材断面
 10
-90.175
 20
-25.35
  0
VERTEX
  8
型材断面
 10
-90.2
 20
-25.35
  0
SEQEND
  0
POLYLINE
  8
型材断面
  6
CONTINUOUS
 62
    47
 66
     1
  0
VERTEX
  8
型材断面
 10
-90.2
 20
-26.05
  0
VERTEX
  8
型材断面
 10
-90.2
 20
-26.05
  0
VERTEX
  8
型材断面
 10
-90.2
 20
-26.025
  0
VERTEX
  8
型材断面
 10
-90.2
 20
-26.025
  0
VERTEX
  8
型材断面
 10
-90.2
 20
-26.025
  0
VERTEX
  8
型材断面
 10
-90.2
 20
-26.025
  0
VERTEX
  8
型材断面
 10
-90.2
 20
-26.025
  0
VERTEX
  8
型材断面
 10
-90.2
 20
-26.0
  0
VERTEX
  8
型材断面
 10
-90.2
 20
-26.0
  0
VERTEX
  8
型材断面
 10
-90.2
 20
-26.0
  0
VERTEX
  8
型材断面
 10
-90.2
 20
-26.0
  0
VERTEX
  8
型材断面
 10
-90.225
 20
-25.975
  0
VERTEX
  8
型材断面
 10
-90.225
 20
-25.975
  0
VERTEX
  8
型材断面
 10
-90.225
 20
-25.975
  0
VERTEX
  8
型材断面
 10
-90.225
 20
-25.975
  0
VERTEX
  8
型材断面
 10
-90.225
 20
-25.975
  0
VERTEX
  8
型材断面
 10
-90.225
 20
-25.95
  0
VERTEX
  8
型材断面
 10
-90.25
 20
-25.95
  0
VERTEX
  8
型材断面
 10
-90.25
 20
-25.95
  0
VERTEX
  8
型材断面
 10
-90.25
 20
-25.95
  0
VERTEX
  8
型材断面
 10
-90.25
 20
-25.95
  0
VERTEX
  8
型材断面
 10
-90.25
 20
-25.95
  0
VERTEX
  8
型材断面
 10
-90.275
 20
-25.925
  0
VERTEX
  8
型材断面
 10
-90.275
 20
-25.925
  0
VERTEX
  8
型材断面
 10
-90.275
 20
-25.925
  0
VERTEX
  8
型材断面
 10
-90.3
 20
-25.925
  0
VERTEX
  8
型材断面
 10
-90.3
 20
-25.925
  0
VERTEX
  8
型材断面
 10
-90.3
 20
-25.925
  0
VERTEX
  8
型材断面
 10
-90.3
 20
-25.9
  0
VERTEX
  8
型材断面
 10
-90.325
 20
-25.9
  0
VERTEX
  8
型材断面
 10
-90.325
 20
-25.9
  0
VERTEX
  8
型材断面
 10
-90.325
 20
-25.9
  0
VERTEX
  8
型材断面
 10
-90.35
 20
-25.9
  0
VERTEX
  8
型材断面
 10
-90.35
 20
-25.9
  0
VERTEX
  8
型材断面
 10
-90.35
 20
-25.9
  0
VERTEX
  8
型材断面
 10
-90.375
 20
-25.9
  0
VERTEX
  8
型材断面
 10
-90.375
 20
-25.875
  0
VERTEX
  8
型材断面
 10
-90.375
 20
-25.875
  0
VERTEX
  8
型材断面
 10
-90.4
 20
-25.875
  0
VERTEX
  8
型材断面
 10
-90.4
 20
-25.875
  0
VERTEX
  8
型材断面
 10
-90.425
 20
-25.875
  0
VERTEX
  8
型材断面
 10
-90.425
 20
-25.875
  0
VERTEX
  8
型材断面
 10
-90.425
 20
-25.875
  0
VERTEX
  8
型材断面
 10
-90.45
 20
-25.875
  0
VERTEX
  8
型材断面
 10
-90.45
 20
-25.875
  0
VERTEX
  8
型材断面
 10
-90.45
 20
-25.875
  0
VERTEX
  8
型材断面
 10
-90.475
 20
-25.875
  0
VERTEX
  8
型材断面
 10
-90.475
 20
-25.875
  0
VERTEX
  8
型材断面
 10
-90.5
 20
-25.875
  0
VERTEX
  8
型材断面
 10
-90.5
 20
-25.875
  0
SEQEND
  0
LINE
  8
型材断面
  6
CONTINUOUS
 62
    47
 10
-93.856625
 20
-25.328877
 11
-89.263998
 21
-25.328877
  0
LINE
  8
型材断面
  6
CONTINUOUS
 62
    47
 10
-93.856625
 20
-22.324128
 11
-93.856625
 21
-25.328877
  0
POLYLINE
  8
型材断面
  6
CONTINUOUS
 62
    47
 66
     1
  0
VERTEX
  8
型材断面
 10
-90.2
 20
-19.325
  0
VERTEX
  8
型材断面
 10
-90.175
 20
-19.325
  0
VERTEX
  8
型材断面
 10
-90.125
 20
-19.325
  0
VERTEX
  8
型材断面
 10
-90.1
 20
-19.325
  0
VERTEX
  8
型材断面
 10
-90.075
 20
-19.325
  0
VERTEX
  8
型材断面
 10
-90.05
 20
-19.325
  0
VERTEX
  8
型材断面
 10
-90.025
 20
-19.325
  0
VERTEX
  8
型材断面
 10
-90.0
 20
-19.325
  0
VERTEX
  8
型材断面
 10
-89.95
 20
-19.325
  0
VERTEX
  8
型材断面
 10
-89.925
 20
-19.3
  0
VERTEX
  8
型材断面
 10
-89.9
 20
-19.3
  0
VERTEX
  8
型材断面
 10
-89.875
 20
-19.3
  0
VERTEX
  8
型材断面
 10
-89.85
 20
-19.3
  0
VERTEX
  8
型材断面
 10
-89.825
 20
-19.275
  0
VERTEX
  8
型材断面
 10
-89.8
 20
-19.275
  0
VERTEX
  8
型材断面
 10
-89.775
 20
-19.275
  0
VERTEX
  8
型材断面
 10
-89.75
 20
-19.275
  0
VERTEX
  8
型材断面
 10
-89.725
 20
-19.25
  0
VERTEX
  8
型材断面
 10
-89.7
 20
-19.25
  0
VERTEX
  8
型材断面
 10
-89.675
 20
-19.225
  0
VERTEX
  8
型材断面
 10
-89.65
 20
-19.225
  0
VERTEX
  8
型材断面
 10
-89.625
 20
-19.225
  0
VERTEX
  8
型材断面
 10
-89.6
 20
-19.2
  0
VERTEX
  8
型材断面
 10
-89.575
 20
-19.2
  0
VERTEX
  8
型材断面
 10
-89.55
 20
-19.175
  0
VERTEX
  8
型材断面
 10
-89.525
 20
-19.175
  0
VERTEX
  8
型材断面
 10
-89.525
 20
-19.15
  0
VERTEX
  8
型材断面
 10
-89.5
 20
-19.15
  0
VERTEX
  8
型材断面
 10
-89.475
 20
-19.125
  0
VERTEX
  8
型材断面
 10
-89.45
 20
-19.125
  0
VERTEX
  8
型材断面
 10
-89.45
 20
-19.1
  0
VERTEX
  8
型材断面
 10
-89.425
 20
-19.1
  0
VERTEX
  8
型材断面
 10
-89.4
 20
-19.075
  0
VERTEX
  8
型材断面
 10
-89.4
 20
-19.05
  0
VERTEX
  8
型材断面
 10
-89.375
 20
-19.05
  0
VERTEX
  8
型材断面
 10
-89.375
 20
-19.025
  0
VERTEX
  8
型材断面
 10
-89.35
 20
-19.025
  0
VERTEX
  8
型材断面
 10
-89.35
 20
-19.0
  0
VERTEX
  8
型材断面
 10
-89.325
 20
-18.975
  0
VERTEX
  8
型材断面
 10
-89.325
 20
-18.975
  0
VERTEX
  8
型材断面
 10
-89.325
 20
-18.95
  0
VERTEX
  8
型材断面
 10
-89.3
 20
-18.925
  0
VERTEX
  8
型材断面
 10
-89.3
 20
-18.925
  0
VERTEX
  8
型材断面
 10
-89.3
 20
-18.9
  0
VERTEX
  8
型材断面
 10
-89.3
 20
-18.875
  0
VERTEX
  8
型材断面
 10
-89.275
 20
-18.875
  0
VERTEX
  8
型材断面
 10
-89.275
 20
-18.85
  0
VERTEX
  8
型材断面
 10
-89.275
 20
-18.825
  0
VERTEX
  8
型材断面
 10
-89.275
 20
-18.825
  0
VERTEX
  8
型材断面
 10
-89.275
 20
-18.8
  0
SEQEND
  0
POLYLINE
  8
型材断面
  6
CONTINUOUS
 62
    47
 66
     1
  0
VERTEX
  8
型材断面
 10
-90.5
 20
-18.8
  0
VERTEX
  8
型材断面
 10
-90.5
 20
-18.8
  0
VERTEX
  8
型材断面
 10
-90.475
 20
-18.8
  0
VERTEX
  8
型材断面
 10
-90.475
 20
-18.8
  0
VERTEX
  8
型材断面
 10
-90.45
 20
-18.8
  0
VERTEX
  8
型材断面
 10
-90.45
 20
-18.8
  0
VERTEX
  8
型材断面
 10
-90.45
 20
-18.8
  0
VERTEX
  8
型材断面
 10
-90.425
 20
-18.8
  0
VERTEX
  8
型材断面
 10
-90.425
 20
-18.8
  0
VERTEX
  8
型材断面
 10
-90.425
 20
-18.8
  0
VERTEX
  8
型材断面
 10
-90.4
 20
-18.8
  0
VERTEX
  8
型材断面
 10
-90.4
 20
-18.8
  0
VERTEX
  8
型材断面
 10
-90.375
 20
-18.8
  0
VERTEX
  8
型材断面
 10
-90.375
 20
-18.775
  0
VERTEX
  8
型材断面
 10
-90.375
 20
-18.775
  0
VERTEX
  8
型材断面
 10
-90.35
 20
-18.775
  0
VERTEX
  8
型材断面
 10
-90.35
 20
-18.775
  0
VERTEX
  8
型材断面
 10
-90.35
 20
-18.775
  0
VERTEX
  8
型材断面
 10
-90.325
 20
-18.775
  0
VERTEX
  8
型材断面
 10
-90.325
 20
-18.775
  0
VERTEX
  8
型材断面
 10
-90.325
 20
-18.775
  0
VERTEX
  8
型材断面
 10
-90.3
 20
-18.775
  0
VERTEX
  8
型材断面
 10
-90.3
 20
-18.75
  0
VERTEX
  8
型材断面
 10
-90.3
 20
-18.75
  0
VERTEX
  8
型材断面
 10
-90.3
 20
-18.75
  0
VERTEX
  8
型材断面
 10
-90.275
 20
-18.75
  0
VERTEX
  8
型材断面
 10
-90.275
 20
-18.75
  0
VERTEX
  8
型材断面
 10
-90.275
 20
-18.75
  0
VERTEX
  8
型材断面
 10
-90.25
 20
-18.725
  0
VERTEX
  8
型材断面
 10
-90.25
 20
-18.725
  0
VERTEX
  8
型材断面
 10
-90.25
 20
-18.725
  0
VERTEX
  8
型材断面
 10
-90.25
 20
-18.725
  0
VERTEX
  8
型材断面
 10
-90.25
 20
-18.725
  0
VERTEX
  8
型材断面
 10
-90.225
 20
-18.7
  0
VERTEX
  8
型材断面
 10
-90.225
 20
-18.7
  0
VERTEX
  8
型材断面
 10
-90.225
 20
-18.7
  0
VERTEX
  8
型材断面
 10
-90.225
 20
-18.7
  0
VERTEX
  8
型材断面
 10
-90.225
 20
-18.7
  0
VERTEX
  8
型材断面
 10
-90.225
 20
-18.675
  0
VERTEX
  8
型材断面
 10
-90.2
 20
-18.675
  0
VERTEX
  8
型材断面
 10
-90.2
 20
-18.675
  0
VERTEX
  8
型材断面
 10
-90.2
 20
-18.675
  0
VERTEX
  8
型材断面
 10
-90.2
 20
-18.675
  0
VERTEX
  8
型材断面
 10
-90.2
 20
-18.65
  0
VERTEX
  8
型材断面
 10
-90.2
 20
-18.65
  0
VERTEX
  8
型材断面
 10
-90.2
 20
-18.65
  0
VERTEX
  8
型材断面
 10
-90.2
 20
-18.65
  0
VERTEX
  8
型材断面
 10
-90.2
 20
-18.625
  0
VERTEX
  8
型材断面
 10
-90.2
 20
-18.625
  0
VERTEX
  8
型材断面
 10
-90.2
 20
-18.625
  0
SEQEND
  0
LINE
  8
型材断面
  6
CONTINUOUS
 62
    47
 10
-93.856625
 20
-19.31938
 11
-89.263998
 21
-19.31938
  0
LINE
  8
型材断面
  6
CONTINUOUS
 62
    47
 10
-93.856625
 20
-22.324128
 11
-93.856625
 21
-19.31938
  0
LINE
  8
型材断面
  6
CONTINUOUS
 62
    47
 10
-90.182522
 20
-26.036632
 11
-90.182522
 21
-31.482413
  0
LINE
  8
型材断面
  6
CONTINUOUS
 62
    47
 10
-90.182522
 20
-18.611625
 11
-90.182522
 21
-13.165842
  0
LINE
  8
型材断面
  6
CONTINUOUS
 62
    47
 10
-90.182522
 20
-31.482413
 11
-93.965745
 21
-32.743343
  0
LINE
  8
型材断面
  6
CONTINUOUS
 62
    47
 10
-93.965745
 20
-32.743343
 11
-93.506483
 21
-33.202555
  0
LINE
  8
型材断面
  6
CONTINUOUS
 62
    47
 10
-90.182522
 20
-13.165842
 11
-93.965745
 21
-11.904912
  0
LINE
  8
型材断面
  6
CONTINUOUS
 62
    47
 10
-93.965745
 20
-11.904912
 11
-93.506483
 21
-11.445702
  0
POLYLINE
  8
型材断面
  6
CONTINUOUS
 62
    47
 66
     1
  0
VERTEX
  8
型材断面
 10
-93.875
 20
-18.8
  0
VERTEX
  8
型材断面
 10
-93.9
 20
-18.8
  0
VERTEX
  8
型材断面
 10
-93.925
 20
-18.8
  0
VERTEX
  8
型材断面
 10
-93.95
 20
-18.8
  0
VERTEX
  8
型材断面
 10
-93.975
 20
-18.8
  0
VERTEX
  8
型材断面
 10
-94.025
 20
-18.8
  0
VERTEX
  8
型材断面
 10
-94.05
 20
-18.8
  0
VERTEX
  8
型材断面
 10
-94.075
 20
-18.825
  0
VERTEX
  8
型材断面
 10
-94.1
 20
-18.825
  0
VERTEX
  8
型材断面
 10
-94.125
 20
-18.825
  0
VERTEX
  8
型材断面
 10
-94.15
 20
-18.825
  0
VERTEX
  8
型材断面
 10
-94.175
 20
-18.825
  0
VERTEX
  8
型材断面
 10
-94.225
 20
-18.85
  0
VERTEX
  8
型材断面
 10
-94.25
 20
-18.85
  0
VERTEX
  8
型材断面
 10
-94.275
 20
-18.85
  0
VERTEX
  8
型材断面
 10
-94.3
 20
-18.85
  0
VERTEX
  8
型材断面
 10
-94.325
 20
-18.875
  0
VERTEX
  8
型材断面
 10
-94.35
 20
-18.875
  0
VERTEX
  8
型材断面
 10
-94.375
 20
-18.875
  0
VERTEX
  8
型材断面
 10
-94.4
 20
-18.9
  0
VERTEX
  8
型材断面
 10
-94.425
 20
-18.9
  0
VERTEX
  8
型材断面
 10
-94.45
 20
-18.925
  0
VERTEX
  8
型材断面
 10
-94.475
 20
-18.925
  0
VERTEX
  8
型材断面
 10
-94.475
 20
-18.95
  0
VERTEX
  8
型材断面
 10
-94.5
 20
-18.95
  0
VERTEX
  8
型材断面
 10
-94.525
 20
-18.975
  0
VERTEX
  8
型材断面
 10
-94.55
 20
-18.975
  0
VERTEX
  8
型材断面
 10
-94.575
 20
-19.0
  0
VERTEX
  8
型材断面
 10
-94.575
 20
-19.0
  0
VERTEX
  8
型材断面
 10
-94.6
 20
-19.025
  0
VERTEX
  8
型材断面
 10
-94.625
 20
-19.025
  0
VERTEX
  8
型材断面
 10
-94.65
 20
-19.05
  0
VERTEX
  8
型材断面
 10
-94.65
 20
-19.05
  0
VERTEX
  8
型材断面
 10
-94.675
 20
-19.075
  0
VERTEX
  8
型材断面
 10
-94.675
 20
-19.075
  0
VERTEX
  8
型材断面
 10
-94.7
 20
-19.1
  0
VERTEX
  8
型材断面
 10
-94.7
 20
-19.125
  0
VERTEX
  8
型材断面
 10
-94.725
 20
-19.125
  0
VERTEX
  8
型材断面
 10
-94.725
 20
-19.15
  0
VERTEX
  8
型材断面
 10
-94.75
 20
-19.175
  0
VERTEX
  8
型材断面
 10
-94.75
 20
-19.175
  0
VERTEX
  8
型材断面
 10
-94.75
 20
-19.2
  0
VERTEX
  8
型材断面
 10
-94.775
 20
-19.225
  0
VERTEX
  8
型材断面
 10
-94.775
 20
-19.225
  0
VERTEX
  8
型材断面
 10
-94.775
 20
-19.25
  0
VERTEX
  8
型材断面
 10
-94.775
 20
-19.275
  0
VERTEX
  8
型材断面
 10
-94.775
 20
-19.275
  0
VERTEX
  8
型材断面
 10
-94.775
 20
-19.3
  0
VERTEX
  8
型材断面
 10
-94.775
 20
-19.325
  0
VERTEX
  8
型材断面
 10
-94.8
 20
-19.325
  0
SEQEND
  0
POLYLINE
  8
型材断面
  6
CONTINUOUS
 62
    47
 66
     1
  0
VERTEX
  8
型材断面
 10
-93.875
 20
-25.875
  0
VERTEX
  8
型材断面
 10
-93.9
 20
-25.875
  0
VERTEX
  8
型材断面
 10
-93.925
 20
-25.875
  0
VERTEX
  8
型材断面
 10
-93.95
 20
-25.875
  0
VERTEX
  8
型材断面
 10
-93.975
 20
-25.875
  0
VERTEX
  8
型材断面
 10
-94.025
 20
-25.875
  0
VERTEX
  8
型材断面
 10
-94.05
 20
-25.85
  0
VERTEX
  8
型材断面
 10
-94.075
 20
-25.85
  0
VERTEX
  8
型材断面
 10
-94.1
 20
-25.85
  0
VERTEX
  8
型材断面
 10
-94.125
 20
-25.85
  0
VERTEX
  8
型材断面
 10
-94.15
 20
-25.85
  0
VERTEX
  8
型材断面
 10
-94.175
 20
-25.85
  0
VERTEX
  8
型材断面
 10
-94.225
 20
-25.825
  0
VERTEX
  8
型材断面
 10
-94.25
 20
-25.825
  0
VERTEX
  8
型材断面
 10
-94.275
 20
-25.825
  0
VERTEX
  8
型材断面
 10
-94.3
 20
-25.8
  0
VERTEX
  8
型材断面
 10
-94.325
 20
-25.8
  0
VERTEX
  8
型材断面
 10
-94.35
 20
-25.8
  0
VERTEX
  8
型材断面
 10
-94.375
 20
-25.775
  0
VERTEX
  8
型材断面
 10
-94.4
 20
-25.775
  0
VERTEX
  8
型材断面
 10
-94.425
 20
-25.775
  0
VERTEX
  8
型材断面
 10
-94.45
 20
-25.75
  0
VERTEX
  8
型材断面
 10
-94.475
 20
-25.75
  0
VERTEX
  8
型材断面
 10
-94.475
 20
-25.725
  0
VERTEX
  8
型材断面
 10
-94.5
 20
-25.725
  0
VERTEX
  8
型材断面
 10
-94.525
 20
-25.7
  0
VERTEX
  8
型材断面
 10
-94.55
 20
-25.7
  0
VERTEX
  8
型材断面
 10
-94.575
 20
-25.675
  0
VERTEX
  8
型材断面
 10
-94.575
 20
-25.675
  0
VERTEX
  8
型材断面
 10
-94.6
 20
-25.65
  0
VERTEX
  8
型材断面
 10
-94.625
 20
-25.65
  0
VERTEX
  8
型材断面
 10
-94.65
 20
-25.625
  0
VERTEX
  8
型材断面
 10
-94.65
 20
-25.625
  0
VERTEX
  8
型材断面
 10
-94.675
 20
-25.6
  0
VERTEX
  8
型材断面
 10
-94.675
 20
-25.575
  0
VERTEX
  8
型材断面
 10
-94.7
 20
-25.575
  0
VERTEX
  8
型材断面
 10
-94.7
 20
-25.55
  0
VERTEX
  8
型材断面
 10
-94.725
 20
-25.55
  0
VERTEX
  8
型材断面
 10
-94.725
 20
-25.525
  0
VERTEX
  8
型材断面
 10
-94.75
 20
-25.5
  0
VERTEX
  8
型材断面
 10
-94.75
 20
-25.5
  0
VERTEX
  8
型材断面
 10
-94.75
 20
-25.475
  0
VERTEX
  8
型材断面
 10
-94.775
 20
-25.45
  0
VERTEX
  8
型材断面
 10
-94.775
 20
-25.45
  0
VERTEX
  8
型材断面
 10
-94.775
 20
-25.425
  0
VERTEX
  8
型材断面
 10
-94.775
 20
-25.4
  0
VERTEX
  8
型材断面
 10
-94.775
 20
-25.4
  0
VERTEX
  8
型材断面
 10
-94.775
 20
-25.375
  0
VERTEX
  8
型材断面
 10
-94.775
 20
-25.35
  0
VERTEX
  8
型材断面
 10
-94.8
 20
-25.35
  0
SEQEND
  0
POLYLINE
  8
型材断面
  6
CONTINUOUS
 62
    47
 66
     1
  0
VERTEX
  8
型材断面
 10
-89.275
 20
-13.175
  0
VERTEX
  8
型材断面
 10
-89.275
 20
-13.15
  0
VERTEX
  8
型材断面
 10
-89.275
 20
-13.15
  0
VERTEX
  8
型材断面
 10
-89.275
 20
-13.125
  0
VERTEX
  8
型材断面
 10
-89.275
 20
-13.1
  0
VERTEX
  8
型材断面
 10
-89.3
 20
-13.1
  0
VERTEX
  8
型材断面
 10
-89.3
 20
-13.075
  0
VERTEX
  8
型材断面
 10
-89.3
 20
-13.05
  0
VERTEX
  8
型材断面
 10
-89.3
 20
-13.05
  0
VERTEX
  8
型材断面
 10
-89.325
 20
-13.025
  0
VERTEX
  8
型材断面
 10
-89.325
 20
-13.0
  0
VERTEX
  8
型材断面
 10
-89.325
 20
-13.0
  0
VERTEX
  8
型材断面
 10
-89.35
 20
-12.975
  0
VERTEX
  8
型材断面
 10
-89.35
 20
-12.95
  0
VERTEX
  8
型材断面
 10
-89.375
 20
-12.95
  0
VERTEX
  8
型材断面
 10
-89.375
 20
-12.925
  0
VERTEX
  8
型材断面
 10
-89.4
 20
-12.925
  0
VERTEX
  8
型材断面
 10
-89.425
 20
-12.9
  0
VERTEX
  8
型材断面
 10
-89.425
 20
-12.875
  0
VERTEX
  8
型材断面
 10
-89.45
 20
-12.875
  0
VERTEX
  8
型材断面
 10
-89.475
 20
-12.85
  0
VERTEX
  8
型材断面
 10
-89.475
 20
-12.85
  0
VERTEX
  8
型材断面
 10
-89.5
 20
-12.825
  0
VERTEX
  8
型材断面
 10
-89.525
 20
-12.825
  0
VERTEX
  8
型材断面
 10
-89.55
 20
-12.8
  0
VERTEX
  8
型材断面
 10
-89.575
 20
-12.8
  0
VERTEX
  8
型材断面
 10
-89.6
 20
-12.775
  0
VERTEX
  8
型材断面
 10
-89.6
 20
-12.775
  0
VERTEX
  8
型材断面
 10
-89.625
 20
-12.75
  0
VERTEX
  8
型材断面
 10
-89.65
 20
-12.75
  0
VERTEX
  8
型材断面
 10
-89.675
 20
-12.725
  0
VERTEX
  8
型材断面
 10
-89.7
 20
-12.725
  0
VERTEX
  8
型材断面
 10
-89.725
 20
-12.725
  0
SEQEND
  0
POLYLINE
  8
型材断面
  6
CONTINUOUS
 62
    47
 66
     1
  0
VERTEX
  8
型材断面
 10
-89.725
 20
-31.95
  0
VERTEX
  8
型材断面
 10
-89.7
 20
-31.95
  0
VERTEX
  8
型材断面
 10
-89.675
 20
-31.925
  0
VERTEX
  8
型材断面
 10
-89.65
 20
-31.925
  0
VERTEX
  8
型材断面
 10
-89.625
 20
-31.925
  0
VERTEX
  8
型材断面
 10
-89.6
 20
-31.9
  0
VERTEX
  8
型材断面
 10
-89.6
 20
-31.9
  0
VERTEX
  8
型材断面
 10
-89.575
 20
-31.875
  0
VERTEX
  8
型材断面
 10
-89.55
 20
-31.875
  0
VERTEX
  8
型材断面
 10
-89.525
 20
-31.85
  0
VERTEX
  8
型材断面
 10
-89.5
 20
-31.85
  0
VERTEX
  8
型材断面
 10
-89.475
 20
-31.825
  0
VERTEX
  8
型材断面
 10
-89.475
 20
-31.825
  0
VERTEX
  8
型材断面
 10
-89.45
 20
-31.8
  0
VERTEX
  8
型材断面
 10
-89.425
 20
-31.8
  0
VERTEX
  8
型材断面
 10
-89.425
 20
-31.775
  0
VERTEX
  8
型材断面
 10
-89.4
 20
-31.75
  0
VERTEX
  8
型材断面
 10
-89.375
 20
-31.75
  0
VERTEX
  8
型材断面
 10
-89.375
 20
-31.725
  0
VERTEX
  8
型材断面
 10
-89.35
 20
-31.725
  0
VERTEX
  8
型材断面
 10
-89.35
 20
-31.7
  0
VERTEX
  8
型材断面
 10
-89.325
 20
-31.675
  0
VERTEX
  8
型材断面
 10
-89.325
 20
-31.675
  0
VERTEX
  8
型材断面
 10
-89.325
 20
-31.65
  0
VERTEX
  8
型材断面
 10
-89.3
 20
-31.625
  0
VERTEX
  8
型材断面
 10
-89.3
 20
-31.625
  0
VERTEX
  8
型材断面
 10
-89.3
 20
-31.6
  0
VERTEX
  8
型材断面
 10
-89.3
 20
-31.575
  0
VERTEX
  8
型材断面
 10
-89.275
 20
-31.575
  0
VERTEX
  8
型材断面
 10
-89.275
 20
-31.55
  0
VERTEX
  8
型材断面
 10
-89.275
 20
-31.525
  0
VERTEX
  8
型材断面
 10
-89.275
 20
-31.5
  0
VERTEX
  8
型材断面
 10
-89.275
 20
-31.5
  0
SEQEND
  0
LINE
  8
型材断面
  6
CONTINUOUS
 62
    47
 10
-93.506483
 20
-33.202555
 11
-89.263998
 21
-31.788552
  0
LINE
  8
型材断面
  6
CONTINUOUS
 62
    47
 10
-89.263998
 20
-25.328877
 11
-89.263998
 21
-31.788552
  0
LINE
  8
型材断面
  6
CONTINUOUS
 62
    47
 10
-93.506483
 20
-11.445702
 11
-89.263998
 21
-12.859703
  0
LINE
  8
型材断面
  6
CONTINUOUS
 62
    47
 10
-89.263998
 20
-19.31938
 11
-89.263998
 21
-12.859703
  0
LINE
  8
型材断面
  6
CONTINUOUS
 62
    47
 10
-90.488695
 20
-18.78913
 11
-94.77515
 21
-18.78913
  0
LINE
  8
型材断面
  6
CONTINUOUS
 62
    47
 10
-94.77515
 20
-22.324128
 11
-94.77515
 21
-18.78913
  0
LINE
  8
型材断面
  6
CONTINUOUS
 62
    47
 10
-94.77515
 20
-22.324128
 11
-94.77515
 21
-25.859127
  0
LINE
  8
型材断面
  6
CONTINUOUS
 62
    47
 10
-90.488695
 20
-25.859127
 11
-94.77515
 21
-25.859127
  0
LINE
  8
型材断面
  6
CONTINUOUS
 62
    47
 10
-126.311195
 20
-22.32413
 11
-126.311195
 21
-24.091627
  0
LINE
  8
型材断面
  6
CONTINUOUS
 62
    47
 10
-126.311195
 20
-22.32413
 11
-126.311195
 21
-20.556628
  0
POLYLINE
  8
型材断面
  6
CONTINUOUS
 62
    47
 66
     1
  0
VERTEX
  8
型材断面
 10
-125.4
 20
-20.575
  0
VERTEX
  8
型材断面
 10
-125.4
 20
-20.55
  0
VERTEX
  8
型材断面
 10
-125.4
 20
-20.525
  0
VERTEX
  8
型材断面
 10
-125.4
 20
-20.525
  0
VERTEX
  8
型材断面
 10
-125.425
 20
-20.5
  0
VERTEX
  8
型材断面
 10
-125.425
 20
-20.475
  0
VERTEX
  8
型材断面
 10
-125.425
 20
-20.475
  0
VERTEX
  8
型材断面
 10
-125.425
 20
-20.45
  0
VERTEX
  8
型材断面
 10
-125.425
 20
-20.425
  0
VERTEX
  8
型材断面
 10
-125.45
 20
-20.425
  0
VERTEX
  8
型材断面
 10
-125.45
 20
-20.4
  0
VERTEX
  8
型材断面
 10
-125.45
 20
-20.375
  0
VERTEX
  8
型材断面
 10
-125.475
 20
-20.375
  0
VERTEX
  8
型材断面
 10
-125.475
 20
-20.35
  0
VERTEX
  8
型材断面
 10
-125.5
 20
-20.35
  0
VERTEX
  8
型材断面
 10
-125.5
 20
-20.325
  0
VERTEX
  8
型材断面
 10
-125.525
 20
-20.3
  0
VERTEX
  8
型材断面
 10
-125.55
 20
-20.3
  0
VERTEX
  8
型材断面
 10
-125.55
 20
-20.275
  0
VERTEX
  8
型材断面
 10
-125.575
 20
-20.275
  0
VERTEX
  8
型材断面
 10
-125.6
 20
-20.25
  0
VERTEX
  8
型材断面
 10
-125.6
 20
-20.25
  0
VERTEX
  8
型材断面
 10
-125.625
 20
-20.225
  0
VERTEX
  8
型材断面
 10
-125.65
 20
-20.225
  0
VERTEX
  8
型材断面
 10
-125.675
 20
-20.2
  0
VERTEX
  8
型材断面
 10
-125.675
 20
-20.2
  0
VERTEX
  8
型材断面
 10
-125.7
 20
-20.175
  0
VERTEX
  8
型材断面
 10
-125.725
 20
-20.175
  0
VERTEX
  8
型材断面
 10
-125.75
 20
-20.15
  0
VERTEX
  8
型材断面
 10
-125.775
 20
-20.15
  0
VERTEX
  8
型材断面
 10
-125.8
 20
-20.125
  0
VERTEX
  8
型材断面
 10
-125.825
 20
-20.125
  0
VERTEX
  8
型材断面
 10
-125.85
 20
-20.125
  0
VERTEX
  8
型材断面
 10
-125.875
 20
-20.1
  0
VERTEX
  8
型材断面
 10
-125.9
 20
-20.1
  0
VERTEX
  8
型材断面
 10
-125.925
 20
-20.1
  0
VERTEX
  8
型材断面
 10
-125.95
 20
-20.075
  0
VERTEX
  8
型材断面
 10
-125.975
 20
-20.075
  0
VERTEX
  8
型材断面
 10
-126.0
 20
-20.075
  0
VERTEX
  8
型材断面
 10
-126.025
 20
-20.075
  0
VERTEX
  8
型材断面
 10
-126.05
 20
-20.05
  0
VERTEX
  8
型材断面
 10
-126.1
 20
-20.05
  0
VERTEX
  8
型材断面
 10
-126.125
 20
-20.05
  0
VERTEX
  8
型材断面
 10
-126.15
 20
-20.05
  0
VERTEX
  8
型材断面
 10
-126.175
 20
-20.05
  0
VERTEX
  8
型材断面
 10
-126.2
 20
-20.05
  0
VERTEX
  8
型材断面
 10
-126.225
 20
-20.05
  0
VERTEX
  8
型材断面
 10
-126.275
 20
-20.05
  0
VERTEX
  8
型材断面
 10
-126.3
 20
-20.05
  0
VERTEX
  8
型材断面
 10
-126.325
 20
-20.05
  0
SEQEND
  0
POLYLINE
  8
型材断面
  6
CONTINUOUS
 62
    47
 66
     1
  0
VERTEX
  8
型材断面
 10
-126.325
 20
-24.625
  0
VERTEX
  8
型材断面
 10
-126.3
 20
-24.625
  0
VERTEX
  8
型材断面
 10
-126.275
 20
-24.625
  0
VERTEX
  8
型材断面
 10
-126.225
 20
-24.625
  0
VERTEX
  8
型材断面
 10
-126.2
 20
-24.625
  0
VERTEX
  8
型材断面
 10
-126.175
 20
-24.625
  0
VERTEX
  8
型材断面
 10
-126.15
 20
-24.625
  0
VERTEX
  8
型材断面
 10
-126.125
 20
-24.625
  0
VERTEX
  8
型材断面
 10
-126.1
 20
-24.625
  0
VERTEX
  8
型材断面
 10
-126.05
 20
-24.6
  0
VERTEX
  8
型材断面
 10
-126.025
 20
-24.6
  0
VERTEX
  8
型材断面
 10
-126.0
 20
-24.6
  0
VERTEX
  8
型材断面
 10
-125.975
 20
-24.6
  0
VERTEX
  8
型材断面
 10
-125.95
 20
-24.6
  0
VERTEX
  8
型材断面
 10
-125.925
 20
-24.575
  0
VERTEX
  8
型材断面
 10
-125.9
 20
-24.575
  0
VERTEX
  8
型材断面
 10
-125.875
 20
-24.575
  0
VERTEX
  8
型材断面
 10
-125.85
 20
-24.55
  0
VERTEX
  8
型材断面
 10
-125.825
 20
-24.55
  0
VERTEX
  8
型材断面
 10
-125.8
 20
-24.55
  0
VERTEX
  8
型材断面
 10
-125.775
 20
-24.525
  0
VERTEX
  8
型材断面
 10
-125.75
 20
-24.525
  0
VERTEX
  8
型材断面
 10
-125.725
 20
-24.5
  0
VERTEX
  8
型材断面
 10
-125.7
 20
-24.5
  0
VERTEX
  8
型材断面
 10
-125.675
 20
-24.475
  0
VERTEX
  8
型材断面
 10
-125.675
 20
-24.475
  0
VERTEX
  8
型材断面
 10
-125.65
 20
-24.45
  0
VERTEX
  8
型材断面
 10
-125.625
 20
-24.45
  0
VERTEX
  8
型材断面
 10
-125.6
 20
-24.425
  0
VERTEX
  8
型材断面
 10
-125.6
 20
-24.425
  0
VERTEX
  8
型材断面
 10
-125.575
 20
-24.4
  0
VERTEX
  8
型材断面
 10
-125.55
 20
-24.4
  0
VERTEX
  8
型材断面
 10
-125.55
 20
-24.375
  0
VERTEX
  8
型材断面
 10
-125.525
 20
-24.375
  0
VERTEX
  8
型材断面
 10
-125.5
 20
-24.35
  0
VERTEX
  8
型材断面
 10
-125.5
 20
-24.325
  0
VERTEX
  8
型材断面
 10
-125.475
 20
-24.325
  0
VERTEX
  8
型材断面
 10
-125.475
 20
-24.3
  0
VERTEX
  8
型材断面
 10
-125.45
 20
-24.275
  0
VERTEX
  8
型材断面
 10
-125.45
 20
-24.275
  0
VERTEX
  8
型材断面
 10
-125.45
 20
-24.25
  0
VERTEX
  8
型材断面
 10
-125.425
 20
-24.25
  0
VERTEX
  8
型材断面
 10
-125.425
 20
-24.225
  0
VERTEX
  8
型材断面
 10
-125.425
 20
-24.2
  0
VERTEX
  8
型材断面
 10
-125.425
 20
-24.2
  0
VERTEX
  8
型材断面
 10
-125.425
 20
-24.175
  0
VERTEX
  8
型材断面
 10
-125.4
 20
-24.15
  0
VERTEX
  8
型材断面
 10
-125.4
 20
-24.15
  0
VERTEX
  8
型材断面
 10
-125.4
 20
-24.125
  0
VERTEX
  8
型材断面
 10
-125.4
 20
-24.1
  0
SEQEND
  0
LINE
  8
型材断面
  6
CONTINUOUS
 62
    47
 10
-125.39267
 20
-24.621878
 11
-125.39267
 21
-20.026378
  0
LINE
  8
型材断面
  6
CONTINUOUS
 62
    47
 10
-119.038928
 20
-37.932625
 11
-115.591907
 21
-36.78375
  0
POLYLINE
  8
型材断面
  6
CONTINUOUS
 62
    47
 66
     1
  0
VERTEX
  8
型材断面
 10
-118.6
 20
-38.4
  0
VERTEX
  8
型材断面
 10
-118.625
 20
-38.425
  0
VERTEX
  8
型材断面
 10
-118.65
 20
-38.425
  0
VERTEX
  8
型材断面
 10
-118.675
 20
-38.425
  0
VERTEX
  8
型材断面
 10
-118.7
 20
-38.425
  0
VERTEX
  8
型材断面
 10
-118.725
 20
-38.45
  0
VERTEX
  8
型材断面
 10
-118.75
 20
-38.45
  0
VERTEX
  8
型材断面
 10
-118.775
 20
-38.45
  0
VERTEX
  8
型材断面
 10
-118.8
 20
-38.45
  0
VERTEX
  8
型材断面
 10
-118.825
 20
-38.45
  0
VERTEX
  8
型材断面
 10
-118.875
 20
-38.475
  0
VERTEX
  8
型材断面
 10
-118.9
 20
-38.475
  0
VERTEX
  8
型材断面
 10
-118.925
 20
-38.475
  0
VERTEX
  8
型材断面
 10
-118.95
 20
-38.475
  0
VERTEX
  8
型材断面
 10
-118.975
 20
-38.475
  0
VERTEX
  8
型材断面
 10
-119.0
 20
-38.475
  0
VERTEX
  8
型材断面
 10
-119.05
 20
-38.475
  0
VERTEX
  8
型材断面
 10
-119.075
 20
-38.475
  0
VERTEX
  8
型材断面
 10
-119.1
 20
-38.475
  0
VERTEX
  8
型材断面
 10
-119.125
 20
-38.475
  0
VERTEX
  8
型材断面
 10
-119.15
 20
-38.475
  0
VERTEX
  8
型材断面
 10
-119.2
 20
-38.475
  0
VERTEX
  8
型材断面
 10
-119.225
 20
-38.475
  0
VERTEX
  8
型材断面
 10
-119.25
 20
-38.475
  0
VERTEX
  8
型材断面
 10
-119.275
 20
-38.45
  0
VERTEX
  8
型材断面
 10
-119.3
 20
-38.45
  0
VERTEX
  8
型材断面
 10
-119.325
 20
-38.45
  0
VERTEX
  8
型材断面
 10
-119.35
 20
-38.45
  0
VERTEX
  8
型材断面
 10
-119.375
 20
-38.45
  0
VERTEX
  8
型材断面
 10
-119.425
 20
-38.425
  0
VERTEX
  8
型材断面
 10
-119.45
 20
-38.425
  0
VERTEX
  8
型材断面
 10
-119.475
 20
-38.425
  0
VERTEX
  8
型材断面
 10
-119.5
 20
-38.4
  0
VERTEX
  8
型材断面
 10
-119.525
 20
-38.4
  0
VERTEX
  8
型材断面
 10
-119.55
 20
-38.4
  0
VERTEX
  8
型材断面
 10
-119.575
 20
-38.375
  0
VERTEX
  8
型材断面
 10
-119.6
 20
-38.375
  0
VERTEX
  8
型材断面
 10
-119.625
 20
-38.375
  0
VERTEX
  8
型材断面
 10
-119.65
 20
-38.35
  0
VERTEX
  8
型材断面
 10
-119.65
 20
-38.35
  0
VERTEX
  8
型材断面
 10
-119.675
 20
-38.325
  0
VERTEX
  8
型材断面
 10
-119.7
 20
-38.325
  0
VERTEX
  8
型材断面
 10
-119.725
 20
-38.3
  0
VERTEX
  8
型材断面
 10
-119.75
 20
-38.3
  0
VERTEX
  8
型材断面
 10
-119.775
 20
-38.275
  0
VERTEX
  8
型材断面
 10
-119.775
 20
-38.275
  0
VERTEX
  8
型材断面
 10
-119.8
 20
-38.25
  0
VERTEX
  8
型材断面
 10
-119.825
 20
-38.25
  0
VERTEX
  8
型材断面
 10
-119.825
 20
-38.225
  0
VERTEX
  8
型材断面
 10
-119.85
 20
-38.2
  0
SEQEND
  0
LINE
  8
型材断面
  6
CONTINUOUS
 62
    47
 10
-115.132645
 20
-37.24296
 11
-119.37513
 21
-38.656958
  0
LINE
  8
型材断面
  6
CONTINUOUS
 62
    47
 10
-115.591907
 20
-36.78375
 11
-115.132645
 21
-37.24296
  0
POLYLINE
  8
型材断面
  6
CONTINUOUS
 62
    47
 66
     1
  0
VERTEX
  8
型材断面
 10
-133.15
 20
-24.9
  0
VERTEX
  8
型材断面
 10
-133.175
 20
-24.875
  0
VERTEX
  8
型材断面
 10
-133.175
 20
-24.875
  0
VERTEX
  8
型材断面
 10
-133.2
 20
-24.85
  0
VERTEX
  8
型材断面
 10
-133.2
 20
-24.85
  0
VERTEX
  8
型材断面
 10
-133.225
 20
-24.825
  0
VERTEX
  8
型材断面
 10
-133.225
 20
-24.8
  0
VERTEX
  8
型材断面
 10
-133.25
 20
-24.8
  0
VERTEX
  8
型材断面
 10
-133.25
 20
-24.775
  0
VERTEX
  8
型材断面
 10
-133.25
 20
-24.75
  0
VERTEX
  8
型材断面
 10
-133.275
 20
-24.75
  0
VERTEX
  8
型材断面
 10
-133.275
 20
-24.725
  0
VERTEX
  8
型材断面
 10
-133.275
 20
-24.7
  0
VERTEX
  8
型材断面
 10
-133.275
 20
-24.7
  0
VERTEX
  8
型材断面
 10
-133.275
 20
-24.675
  0
VERTEX
  8
型材断面
 10
-133.275
 20
-24.65
  0
VERTEX
  8
型材断面
 10
-133.275
 20
-24.65
  0
VERTEX
  8
型材断面
 10
-133.275
 20
-24.625
  0
VERTEX
  8
型材断面
 10
-133.275
 20
-24.6
  0
VERTEX
  8
型材断面
 10
-133.275
 20
-24.575
  0
VERTEX
  8
型材断面
 10
-133.275
 20
-24.575
  0
VERTEX
  8
型材断面
 10
-133.275
 20
-24.55
  0
VERTEX
  8
型材断面
 10
-133.275
 20
-24.525
  0
VERTEX
  8
型材断面
 10
-133.25
 20
-24.525
  0
VERTEX
  8
型材断面
 10
-133.25
 20
-24.5
  0
VERTEX
  8
型材断面
 10
-133.25
 20
-24.475
  0
VERTEX
  8
型材断面
 10
-133.225
 20
-24.475
  0
VERTEX
  8
型材断面
 10
-133.225
 20
-24.45
  0
VERTEX
  8
型材断面
 10
-133.225
 20
-24.45
  0
VERTEX
  8
型材断面
 10
-133.2
 20
-24.425
  0
VERTEX
  8
型材断面
 10
-133.2
 20
-24.4
  0
VERTEX
  8
型材断面
 10
-133.175
 20
-24.4
  0
VERTEX
  8
型材断面
 10
-133.175
 20
-24.375
  0
VERTEX
  8
型材断面
 10
-133.15
 20
-24.35
  0
VERTEX
  8
型材断面
 10
-133.125
 20
-24.35
  0
VERTEX
  8
型材断面
 10
-133.125
 20
-24.325
  0
VERTEX
  8
型材断面
 10
-133.1
 20
-24.325
  0
VERTEX
  8
型材断面
 10
-133.075
 20
-24.3
  0
VERTEX
  8
型材断面
 10
-133.075
 20
-24.3
  0
VERTEX
  8
型材断面
 10
-133.05
 20
-24.275
  0
VERTEX
  8
型材断面
 10
-133.025
 20
-24.275
  0
VERTEX
  8
型材断面
 10
-133.0
 20
-24.25
  0
VERTEX
  8
型材断面
 10
-132.975
 20
-24.25
  0
VERTEX
  8
型材断面
 10
-132.95
 20
-24.225
  0
VERTEX
  8
型材断面
 10
-132.95
 20
-24.225
  0
VERTEX
  8
型材断面
 10
-132.925
 20
-24.2
  0
VERTEX
  8
型材断面
 10
-132.9
 20
-24.2
  0
VERTEX
  8
型材断面
 10
-132.875
 20
-24.2
  0
VERTEX
  8
型材断面
 10
-132.85
 20
-24.175
  0
VERTEX
  8
型材断面
 10
-132.825
 20
-24.175
  0
VERTEX
  8
型材断面
 10
-132.8
 20
-24.175
  0
VERTEX
  8
型材断面
 10
-132.775
 20
-24.15
  0
VERTEX
  8
型材断面
 10
-132.725
 20
-24.15
  0
VERTEX
  8
型材断面
 10
-132.7
 20
-24.15
  0
VERTEX
  8
型材断面
 10
-132.675
 20
-24.125
  0
VERTEX
  8
型材断面
 10
-132.65
 20
-24.125
  0
VERTEX
  8
型材断面
 10
-132.625
 20
-24.125
  0
VERTEX
  8
型材断面
 10
-132.6
 20
-24.125
  0
VERTEX
  8
型材断面
 10
-132.575
 20
-24.125
  0
VERTEX
  8
型材断面
 10
-132.55
 20
-24.125
  0
VERTEX
  8
型材断面
 10
-132.5
 20
-24.1
  0
VERTEX
  8
型材断面
 10
-132.475
 20
-24.1
  0
VERTEX
  8
型材断面
 10
-132.45
 20
-24.1
  0
VERTEX
  8
型材断面
 10
-132.425
 20
-24.1
  0
VERTEX
  8
型材断面
 10
-132.4
 20
-24.1
  0
VERTEX
  8
型材断面
 10
-132.375
 20
-24.1
  0
SEQEND
  0
LINE
  8
型材断面
  6
CONTINUOUS
 62
    47
 10
-126.311195
 20
-24.091627
 11
-133.942135
 21
-24.091627
  0
LINE
  8
型材断面
  6
CONTINUOUS
 62
    47
 10
-119.375133
 20
-38.65696
 11
-133.942135
 21
-24.091627
  0
LINE
  8
型材断面
  6
CONTINUOUS
 62
    47
 10
-119.038933
 20
-37.932625
 11
-132.351207
 21
-24.621878
  0
LINE
  8
型材断面
  6
CONTINUOUS
 62
    47
 10
-125.39267
 20
-24.621878
 11
-132.351207
 21
-24.621878
  0
LINE
  8
型材断面
  6
CONTINUOUS
 62
    47
 10
-119.038928
 20
-6.715635
 11
-115.591907
 21
-7.86451
  0
POLYLINE
  8
型材断面
  6
CONTINUOUS
 62
    47
 66
     1
  0
VERTEX
  8
型材断面
 10
-119.85
 20
-6.475
  0
VERTEX
  8
型材断面
 10
-119.825
 20
-6.45
  0
VERTEX
  8
型材断面
 10
-119.825
 20
-6.425
  0
VERTEX
  8
型材断面
 10
-119.8
 20
-6.425
  0
VERTEX
  8
型材断面
 10
-119.775
 20
-6.4
  0
VERTEX
  8
型材断面
 10
-119.775
 20
-6.4
  0
VERTEX
  8
型材断面
 10
-119.75
 20
-6.375
  0
VERTEX
  8
型材断面
 10
-119.725
 20
-6.375
  0
VERTEX
  8
型材断面
 10
-119.7
 20
-6.35
  0
VERTEX
  8
型材断面
 10
-119.675
 20
-6.35
  0
VERTEX
  8
型材断面
 10
-119.65
 20
-6.325
  0
VERTEX
  8
型材断面
 10
-119.65
 20
-6.325
  0
VERTEX
  8
型材断面
 10
-119.625
 20
-6.3
  0
VERTEX
  8
型材断面
 10
-119.6
 20
-6.3
  0
VERTEX
  8
型材断面
 10
-119.575
 20
-6.3
  0
VERTEX
  8
型材断面
 10
-119.55
 20
-6.275
  0
VERTEX
  8
型材断面
 10
-119.525
 20
-6.275
  0
VERTEX
  8
型材断面
 10
-119.5
 20
-6.275
  0
VERTEX
  8
型材断面
 10
-119.475
 20
-6.25
  0
VERTEX
  8
型材断面
 10
-119.45
 20
-6.25
  0
VERTEX
  8
型材断面
 10
-119.425
 20
-6.25
  0
VERTEX
  8
型材断面
 10
-119.375
 20
-6.225
  0
VERTEX
  8
型材断面
 10
-119.35
 20
-6.225
  0
VERTEX
  8
型材断面
 10
-119.325
 20
-6.225
  0
VERTEX
  8
型材断面
 10
-119.3
 20
-6.225
  0
VERTEX
  8
型材断面
 10
-119.275
 20
-6.225
  0
VERTEX
  8
型材断面
 10
-119.25
 20
-6.2
  0
VERTEX
  8
型材断面
 10
-119.225
 20
-6.2
  0
VERTEX
  8
型材断面
 10
-119.2
 20
-6.2
  0
VERTEX
  8
型材断面
 10
-119.15
 20
-6.2
  0
VERTEX
  8
型材断面
 10
-119.125
 20
-6.2
  0
VERTEX
  8
型材断面
 10
-119.1
 20
-6.2
  0
VERTEX
  8
型材断面
 10
-119.075
 20
-6.2
  0
VERTEX
  8
型材断面
 10
-119.05
 20
-6.2
  0
VERTEX
  8
型材断面
 10
-119.0
 20
-6.2
  0
VERTEX
  8
型材断面
 10
-118.975
 20
-6.2
  0
VERTEX
  8
型材断面
 10
-118.95
 20
-6.2
  0
VERTEX
  8
型材断面
 10
-118.925
 20
-6.2
  0
VERTEX
  8
型材断面
 10
-118.9
 20
-6.2
  0
VERTEX
  8
型材断面
 10
-118.875
 20
-6.2
  0
VERTEX
  8
型材断面
 10
-118.825
 20
-6.2
  0
VERTEX
  8
型材断面
 10
-118.8
 20
-6.225
  0
VERTEX
  8
型材断面
 10
-118.775
 20
-6.225
  0
VERTEX
  8
型材断面
 10
-118.75
 20
-6.225
  0
VERTEX
  8
型材断面
 10
-118.725
 20
-6.225
  0
VERTEX
  8
型材断面
 10
-118.7
 20
-6.25
  0
VERTEX
  8
型材断面
 10
-118.675
 20
-6.25
  0
VERTEX
  8
型材断面
 10
-118.65
 20
-6.25
  0
VERTEX
  8
型材断面
 10
-118.625
 20
-6.25
  0
VERTEX
  8
型材断面
 10
-118.6
 20
-6.275
  0
SEQEND
  0
LINE
  8
型材断面
  6
CONTINUOUS
 62
    47
 10
-115.132645
 20
-7.4053
 11
-119.37513
 21
-5.9913
  0
LINE
  8
型材断面
  6
CONTINUOUS
 62
    47
 10
-115.591907
 20
-7.86451
 11
-115.132645
 21
-7.4053
  0
POLYLINE
  8
型材断面
  6
CONTINUOUS
 62
    47
 66
     1
  0
VERTEX
  8
型材断面
 10
-132.375
 20
-20.575
  0
VERTEX
  8
型材断面
 10
-132.4
 20
-20.575
  0
VERTEX
  8
型材断面
 10
-132.425
 20
-20.575
  0
VERTEX
  8
型材断面
 10
-132.45
 20
-20.575
  0
VERTEX
  8
型材断面
 10
-132.475
 20
-20.575
  0
VERTEX
  8
型材断面
 10
-132.5
 20
-20.55
  0
VERTEX
  8
型材断面
 10
-132.55
 20
-20.55
  0
VERTEX
  8
型材断面
 10
-132.575
 20
-20.55
  0
VERTEX
  8
型材断面
 10
-132.6
 20
-20.55
  0
VERTEX
  8
型材断面
 10
-132.625
 20
-20.55
  0
VERTEX
  8
型材断面
 10
-132.65
 20
-20.55
  0
VERTEX
  8
型材断面
 10
-132.675
 20
-20.525
  0
VERTEX
  8
型材断面
 10
-132.7
 20
-20.525
  0
VERTEX
  8
型材断面
 10
-132.725
 20
-20.525
  0
VERTEX
  8
型材断面
 10
-132.775
 20
-20.525
  0
VERTEX
  8
型材断面
 10
-132.8
 20
-20.5
  0
VERTEX
  8
型材断面
 10
-132.825
 20
-20.5
  0
VERTEX
  8
型材断面
 10
-132.85
 20
-20.5
  0
VERTEX
  8
型材断面
 10
-132.875
 20
-20.475
  0
VERTEX
  8
型材断面
 10
-132.9
 20
-20.475
  0
VERTEX
  8
型材断面
 10
-132.925
 20
-20.475
  0
VERTEX
  8
型材断面
 10
-132.95
 20
-20.45
  0
VERTEX
  8
型材断面
 10
-132.95
 20
-20.45
  0
VERTEX
  8
型材断面
 10
-132.975
 20
-20.425
  0
VERTEX
  8
型材断面
 10
-133.0
 20
-20.425
  0
VERTEX
  8
型材断面
 10
-133.025
 20
-20.4
  0
VERTEX
  8
型材断面
 10
-133.05
 20
-20.4
  0
VERTEX
  8
型材断面
 10
-133.075
 20
-20.375
  0
VERTEX
  8
型材断面
 10
-133.075
 20
-20.375
  0
VERTEX
  8
型材断面
 10
-133.1
 20
-20.35
  0
VERTEX
  8
型材断面
 10
-133.125
 20
-20.35
  0
VERTEX
  8
型材断面
 10
-133.125
 20
-20.325
  0
VERTEX
  8
型材断面
 10
-133.15
 20
-20.3
  0
VERTEX
  8
型材断面
 10
-133.175
 20
-20.3
  0
VERTEX
  8
型材断面
 10
-133.175
 20
-20.275
  0
VERTEX
  8
型材断面
 10
-133.2
 20
-20.275
  0
VERTEX
  8
型材断面
 10
-133.2
 20
-20.25
  0
VERTEX
  8
型材断面
 10
-133.225
 20
-20.225
  0
VERTEX
  8
型材断面
 10
-133.225
 20
-20.225
  0
VERTEX
  8
型材断面
 10
-133.225
 20
-20.2
  0
VERTEX
  8
型材断面
 10
-133.25
 20
-20.175
  0
VERTEX
  8
型材断面
 10
-133.25
 20
-20.175
  0
VERTEX
  8
型材断面
 10
-133.25
 20
-20.15
  0
VERTEX
  8
型材断面
 10
-133.275
 20
-20.125
  0
VERTEX
  8
型材断面
 10
-133.275
 20
-20.125
  0
VERTEX
  8
型材断面
 10
-133.275
 20
-20.1
  0
VERTEX
  8
型材断面
 10
-133.275
 20
-20.075
  0
VERTEX
  8
型材断面
 10
-133.275
 20
-20.075
  0
VERTEX
  8
型材断面
 10
-133.275
 20
-20.05
  0
VERTEX
  8
型材断面
 10
-133.275
 20
-20.025
  0
VERTEX
  8
型材断面
 10
-133.275
 20
-20.025
  0
VERTEX
  8
型材断面
 10
-133.275
 20
-20.0
  0
VERTEX
  8
型材断面
 10
-133.275
 20
-19.975
  0
VERTEX
  8
型材断面
 10
-133.275
 20
-19.975
  0
VERTEX
  8
型材断面
 10
-133.275
 20
-19.95
  0
VERTEX
  8
型材断面
 10
-133.275
 20
-19.925
  0
VERTEX
  8
型材断面
 10
-133.25
 20
-19.925
  0
VERTEX
  8
型材断面
 10
-133.25
 20
-19.9
  0
VERTEX
  8
型材断面
 10
-133.25
 20
-19.875
  0
VERTEX
  8
型材断面
 10
-133.225
 20
-19.875
  0
VERTEX
  8
型材断面
 10
-133.225
 20
-19.85
  0
VERTEX
  8
型材断面
 10
-133.2
 20
-19.825
  0
VERTEX
  8
型材断面
 10
-133.2
 20
-19.825
  0
VERTEX
  8
型材断面
 10
-133.175
 20
-19.8
  0
VERTEX
  8
型材断面
 10
-133.175
 20
-19.8
  0
VERTEX
  8
型材断面
 10
-133.15
 20
-19.775
  0
SEQEND
  0
LINE
  8
型材断面
  6
CONTINUOUS
 62
    47
 10
-119.038933
 20
-6.715635
 11
-132.351205
 21
-20.026378
  0
LINE
  8
型材断面
  6
CONTINUOUS
 62
    47
 10
-125.39267
 20
-20.026378
 11
-132.351205
 21
-20.026378
  0
LINE
  8
型材断面
  6
CONTINUOUS
 62
    47
 10
-126.311195
 20
-20.556628
 11
-133.942133
 21
-20.556628
  0
LINE
  8
型材断面
  6
CONTINUOUS
 62
    47
 10
-119.375133
 20
-5.9913
 11
-133.942133
 21
-20.556628
  0
LINE
  8
型材断面
  6
DASHDOT
 62
    47
 10
-123.640395
 20
-22.324128
 11
-127.609803
 21
-22.324128
  0
LINE
  8
型材断面
  6
CONTINUOUS
 62
    47
 10
-106.299867
 20
-25.859127
 11
-106.810157
 21
-26.389377
  0
LINE
  8
型材断面
  6
CONTINUOUS
 62
    47
 10
-103.646347
 20
-25.859127
 11
-103.136055
 21
-26.389377
  0
LINE
  8
型材断面
  6
CONTINUOUS
 62
    47
 10
-107.422508
 20
-26.389377
 11
-107.422508
 21
-25.859127
  0
LINE
  8
型材断面
  6
CONTINUOUS
 62
    47
 10
-101.379577
 20
-32.04685
 11
-100.920315
 21
-32.50606
  0
LINE
  8
型材断面
  6
CONTINUOUS
 62
    47
 10
-101.379577
 20
-32.04685
 11
-97.932557
 21
-30.897975
  0
LINE
  8
型材断面
  6
CONTINUOUS
 62
    47
 10
-97.932557
 20
-30.897975
 11
-102.441662
 21
-26.389377
  0
LINE
  8
型材断面
  6
DASHDOT
 62
    47
 10
-104.973107
 20
-25.328877
 11
-104.973107
 21
-26.875623
  0
POLYLINE
  8
型材断面
  6
CONTINUOUS
 62
    47
 66
     1
  0
VERTEX
  8
型材断面
 10
-101.65
 20
-26.125
  0
VERTEX
  8
型材断面
 10
-101.675
 20
-26.125
  0
VERTEX
  8
型材断面
 10
-101.7
 20
-26.1
  0
VERTEX
  8
型材断面
 10
-101.7
 20
-26.1
  0
VERTEX
  8
型材断面
 10
-101.725
 20
-26.075
  0
VERTEX
  8
型材断面
 10
-101.75
 20
-26.075
  0
VERTEX
  8
型材断面
 10
-101.775
 20
-26.05
  0
VERTEX
  8
型材断面
 10
-101.775
 20
-26.05
  0
VERTEX
  8
型材断面
 10
-101.8
 20
-26.025
  0
VERTEX
  8
型材断面
 10
-101.825
 20
-26.025
  0
VERTEX
  8
型材断面
 10
-101.85
 20
-26.0
  0
VERTEX
  8
型材断面
 10
-101.875
 20
-26.0
  0
VERTEX
  8
型材断面
 10
-101.9
 20
-25.975
  0
VERTEX
  8
型材断面
 10
-101.925
 20
-25.975
  0
VERTEX
  8
型材断面
 10
-101.95
 20
-25.95
  0
VERTEX
  8
型材断面
 10
-101.975
 20
-25.95
  0
VERTEX
  8
型材断面
 10
-102.0
 20
-25.95
  0
VERTEX
  8
型材断面
 10
-102.025
 20
-25.925
  0
VERTEX
  8
型材断面
 10
-102.05
 20
-25.925
  0
VERTEX
  8
型材断面
 10
-102.075
 20
-25.925
  0
VERTEX
  8
型材断面
 10
-102.1
 20
-25.9
  0
VERTEX
  8
型材断面
 10
-102.125
 20
-25.9
  0
VERTEX
  8
型材断面
 10
-102.15
 20
-25.9
  0
VERTEX
  8
型材断面
 10
-102.2
 20
-25.9
  0
VERTEX
  8
型材断面
 10
-102.225
 20
-25.9
  0
VERTEX
  8
型材断面
 10
-102.25
 20
-25.875
  0
VERTEX
  8
型材断面
 10
-102.275
 20
-25.875
  0
VERTEX
  8
型材断面
 10
-102.3
 20
-25.875
  0
VERTEX
  8
型材断面
 10
-102.325
 20
-25.875
  0
VERTEX
  8
型材断面
 10
-102.375
 20
-25.875
  0
VERTEX
  8
型材断面
 10
-102.4
 20
-25.875
  0
VERTEX
  8
型材断面
 10
-102.425
 20
-25.875
  0
VERTEX
  8
型材断面
 10
-102.45
 20
-25.875
  0
SEQEND
  0
POLYLINE
  8
型材断面
  6
CONTINUOUS
 62
    47
 66
     1
  0
VERTEX
  8
型材断面
 10
-97.475
 20
-31.375
  0
VERTEX
  8
型材断面
 10
-97.45
 20
-31.35
  0
VERTEX
  8
型材断面
 10
-97.425
 20
-31.35
  0
VERTEX
  8
型材断面
 10
-97.4
 20
-31.35
  0
VERTEX
  8
型材断面
 10
-97.375
 20
-31.325
  0
VERTEX
  8
型材断面
 10
-97.35
 20
-31.325
  0
VERTEX
  8
型材断面
 10
-97.35
 20
-31.3
  0
VERTEX
  8
型材断面
 10
-97.325
 20
-31.3
  0
VERTEX
  8
型材断面
 10
-97.3
 20
-31.275
  0
VERTEX
  8
型材断面
 10
-97.275
 20
-31.275
  0
VERTEX
  8
型材断面
 10
-97.25
 20
-31.25
  0
VERTEX
  8
型材断面
 10
-97.225
 20
-31.25
  0
VERTEX
  8
型材断面
 10
-97.225
 20
-31.225
  0
VERTEX
  8
型材断面
 10
-97.2
 20
-31.225
  0
VERTEX
  8
型材断面
 10
-97.175
 20
-31.2
  0
VERTEX
  8
型材断面
 10
-97.175
 20
-31.2
  0
VERTEX
  8
型材断面
 10
-97.15
 20
-31.175
  0
VERTEX
  8
型材断面
 10
-97.125
 20
-31.15
  0
VERTEX
  8
型材断面
 10
-97.125
 20
-31.15
  0
VERTEX
  8
型材断面
 10
-97.1
 20
-31.125
  0
VERTEX
  8
型材断面
 10
-97.1
 20
-31.125
  0
VERTEX
  8
型材断面
 10
-97.075
 20
-31.1
  0
VERTEX
  8
型材断面
 10
-97.075
 20
-31.075
  0
VERTEX
  8
型材断面
 10
-97.075
 20
-31.075
  0
VERTEX
  8
型材断面
 10
-97.05
 20
-31.05
  0
VERTEX
  8
型材断面
 10
-97.05
 20
-31.025
  0
VERTEX
  8
型材断面
 10
-97.05
 20
-31.025
  0
VERTEX
  8
型材断面
 10
-97.05
 20
-31.0
  0
VERTEX
  8
型材断面
 10
-97.025
 20
-30.975
  0
VERTEX
  8
型材断面
 10
-97.025
 20
-30.95
  0
VERTEX
  8
型材断面
 10
-97.025
 20
-30.95
  0
VERTEX
  8
型材断面
 10
-97.025
 20
-30.925
  0
VERTEX
  8
型材断面
 10
-97.025
 20
-30.9
  0
VERTEX
  8
型材断面
 10
-97.025
 20
-30.9
  0
VERTEX
  8
型材断面
 10
-97.025
 20
-30.875
  0
VERTEX
  8
型材断面
 10
-97.025
 20
-30.85
  0
VERTEX
  8
型材断面
 10
-97.025
 20
-30.85
  0
VERTEX
  8
型材断面
 10
-97.05
 20
-30.825
  0
VERTEX
  8
型材断面
 10
-97.05
 20
-30.8
  0
VERTEX
  8
型材断面
 10
-97.05
 20
-30.8
  0
VERTEX
  8
型材断面
 10
-97.05
 20
-30.775
  0
VERTEX
  8
型材断面
 10
-97.075
 20
-30.75
  0
VERTEX
  8
型材断面
 10
-97.075
 20
-30.75
  0
VERTEX
  8
型材断面
 10
-97.075
 20
-30.725
  0
VERTEX
  8
型材断面
 10
-97.1
 20
-30.7
  0
VERTEX
  8
型材断面
 10
-97.1
 20
-30.7
  0
VERTEX
  8
型材断面
 10
-97.125
 20
-30.675
  0
VERTEX
  8
型材断面
 10
-97.125
 20
-30.65
  0
VERTEX
  8
型材断面
 10
-97.15
 20
-30.65
  0
SEQEND
  0
LINE
  8
型材断面
  6
CONTINUOUS
 62
    47
 10
-100.920315
 20
-32.50606
 11
-96.67783
 21
-31.09206
  0
LINE
  8
型材断面
  6
CONTINUOUS
 62
    47
 10
-96.67783
 20
-31.09206
 11
-101.911358
 21
-25.859127
  0
LINE
  8
型材断面
  6
CONTINUOUS
 62
    47
 10
-102.441662
 20
-26.389377
 11
-107.422508
 21
-26.389377
  0
LINE
  8
型材断面
  6
CONTINUOUS
 62
    47
 10
-101.911358
 20
-25.859127
 11
-107.422508
 21
-25.859127
  0
LINE
  8
型材断面
  6
CONTINUOUS
 62
    47
 10
-103.518775
 20
-25.99169
 11
-106.427438
 21
-25.99169
  0
LINE
  8
型材断面
  6
CONTINUOUS
 62
    47
 10
-103.391202
 20
-26.124252
 11
-106.555012
 21
-26.124252
  0
LINE
  8
型材断面
  6
CONTINUOUS
 62
    47
 10
-103.26363
 20
-26.256815
 11
-106.682588
 21
-26.256815
  0
LINE
  8
型材断面
  6
CONTINUOUS
 62
    47
 10
-124.474145
 20
-23.561377
 11
-120.187692
 21
-23.561377
  0
LINE
  8
型材断面
  6
CONTINUOUS
 62
    47
 10
-124.474145
 20
-23.561377
 11
-124.474145
 21
-20.556628
  0
LINE
  8
型材断面
  6
CONTINUOUS
 62
    47
 10
-120.187692
 20
-23.561377
 11
-120.187692
 21
-20.556628
  0
LINE
  8
型材断面
  6
CONTINUOUS
 62
    47
 10
-119.269165
 20
-20.556628
 11
-120.187692
 21
-20.556628
  0
LINE
  8
型材断面
  6
CONTINUOUS
 62
    47
 10
-124.474145
 20
-20.556628
 11
-125.39267
 21
-20.556628
  0
POLYLINE
  8
型材断面
  6
CONTINUOUS
 62
    47
 66
     1
  0
VERTEX
  8
型材断面
 10
-124.475
 20
-24.1
  0
VERTEX
  8
型材断面
 10
-124.525
 20
-24.1
  0
VERTEX
  8
型材断面
 10
-124.55
 20
-24.1
  0
VERTEX
  8
型材断面
 10
-124.575
 20
-24.1
  0
VERTEX
  8
型材断面
 10
-124.6
 20
-24.1
  0
VERTEX
  8
型材断面
 10
-124.625
 20
-24.1
  0
VERTEX
  8
型材断面
 10
-124.65
 20
-24.1
  0
VERTEX
  8
型材断面
 10
-124.7
 20
-24.1
  0
VERTEX
  8
型材断面
 10
-124.725
 20
-24.075
  0
VERTEX
  8
型材断面
 10
-124.75
 20
-24.075
  0
VERTEX
  8
型材断面
 10
-124.775
 20
-24.075
  0
VERTEX
  8
型材断面
 10
-124.8
 20
-24.075
  0
VERTEX
  8
型材断面
 10
-124.825
 20
-24.075
  0
VERTEX
  8
型材断面
 10
-124.85
 20
-24.05
  0
VERTEX
  8
型材断面
 10
-124.875
 20
-24.05
  0
VERTEX
  8
型材断面
 10
-124.9
 20
-24.05
  0
VERTEX
  8
型材断面
 10
-124.925
 20
-24.025
  0
VERTEX
  8
型材断面
 10
-124.975
 20
-24.025
  0
VERTEX
  8
型材断面
 10
-125.0
 20
-24.025
  0
VERTEX
  8
型材断面
 10
-125.0
 20
-24.0
  0
VERTEX
  8
型材断面
 10
-125.025
 20
-24.0
  0
VERTEX
  8
型材断面
 10
-125.05
 20
-24.0
  0
VERTEX
  8
型材断面
 10
-125.075
 20
-23.975
  0
VERTEX
  8
型材断面
 10
-125.1
 20
-23.975
  0
VERTEX
  8
型材断面
 10
-125.125
 20
-23.95
  0
VERTEX
  8
型材断面
 10
-125.15
 20
-23.95
  0
VERTEX
  8
型材断面
 10
-125.175
 20
-23.925
  0
VERTEX
  8
型材断面
 10
-125.175
 20
-23.925
  0
VERTEX
  8
型材断面
 10
-125.2
 20
-23.9
  0
VERTEX
  8
型材断面
 10
-125.225
 20
-23.9
  0
VERTEX
  8
型材断面
 10
-125.25
 20
-23.875
  0
VERTEX
  8
型材断面
 10
-125.25
 20
-23.875
  0
VERTEX
  8
型材断面
 10
-125.275
 20
-23.85
  0
VERTEX
  8
型材断面
 10
-125.275
 20
-23.825
  0
VERTEX
  8
型材断面
 10
-125.3
 20
-23.825
  0
VERTEX
  8
型材断面
 10
-125.325
 20
-23.8
  0
VERTEX
  8
型材断面
 10
-125.325
 20
-23.8
  0
VERTEX
  8
型材断面
 10
-125.35
 20
-23.775
  0
VERTEX
  8
型材断面
 10
-125.35
 20
-23.75
  0
VERTEX
  8
型材断面
 10
-125.35
 20
-23.75
  0
VERTEX
  8
型材断面
 10
-125.375
 20
-23.725
  0
VERTEX
  8
型材断面
 10
-125.375
 20
-23.7
  0
VERTEX
  8
型材断面
 10
-125.375
 20
-23.7
  0
VERTEX
  8
型材断面
 10
-125.4
 20
-23.675
  0
VERTEX
  8
型材断面
 10
-125.4
 20
-23.65
  0
VERTEX
  8
型材断面
 10
-125.4
 20
-23.65
  0
VERTEX
  8
型材断面
 10
-125.4
 20
-23.625
  0
VERTEX
  8
型材断面
 10
-125.4
 20
-23.6
  0
VERTEX
  8
型材断面
 10
-125.4
 20
-23.6
  0
VERTEX
  8
型材断面
 10
-125.4
 20
-23.575
  0
SEQEND
  0
POLYLINE
  8
型材断面
  6
CONTINUOUS
 62
    47
 66
     1
  0
VERTEX
  8
型材断面
 10
-119.275
 20
-23.575
  0
VERTEX
  8
型材断面
 10
-119.275
 20
-23.6
  0
VERTEX
  8
型材断面
 10
-119.275
 20
-23.6
  0
VERTEX
  8
型材断面
 10
-119.275
 20
-23.625
  0
VERTEX
  8
型材断面
 10
-119.3
 20
-23.65
  0
VERTEX
  8
型材断面
 10
-119.3
 20
-23.65
  0
VERTEX
  8
型材断面
 10
-119.3
 20
-23.675
  0
VERTEX
  8
型材断面
 10
-119.3
 20
-23.7
  0
VERTEX
  8
型材断面
 10
-119.3
 20
-23.7
  0
VERTEX
  8
型材断面
 10
-119.325
 20
-23.725
  0
VERTEX
  8
型材断面
 10
-119.325
 20
-23.75
  0
VERTEX
  8
型材断面
 10
-119.35
 20
-23.75
  0
VERTEX
  8
型材断面
 10
-119.35
 20
-23.775
  0
VERTEX
  8
型材断面
 10
-119.35
 20
-23.8
  0
VERTEX
  8
型材断面
 10
-119.375
 20
-23.8
  0
VERTEX
  8
型材断面
 10
-119.375
 20
-23.825
  0
VERTEX
  8
型材断面
 10
-119.4
 20
-23.825
  0
VERTEX
  8
型材断面
 10
-119.425
 20
-23.85
  0
VERTEX
  8
型材断面
 10
-119.425
 20
-23.875
  0
VERTEX
  8
型材断面
 10
-119.45
 20
-23.875
  0
VERTEX
  8
型材断面
 10
-119.475
 20
-23.9
  0
VERTEX
  8
型材断面
 10
-119.475
 20
-23.9
  0
VERTEX
  8
型材断面
 10
-119.5
 20
-23.925
  0
VERTEX
  8
型材断面
 10
-119.525
 20
-23.925
  0
VERTEX
  8
型材断面
 10
-119.55
 20
-23.95
  0
VERTEX
  8
型材断面
 10
-119.55
 20
-23.95
  0
VERTEX
  8
型材断面
 10
-119.575
 20
-23.975
  0
VERTEX
  8
型材断面
 10
-119.6
 20
-23.975
  0
VERTEX
  8
型材断面
 10
-119.625
 20
-24.0
  0
VERTEX
  8
型材断面
 10
-119.65
 20
-24.0
  0
VERTEX
  8
型材断面
 10
-119.675
 20
-24.0
  0
VERTEX
  8
型材断面
 10
-119.7
 20
-24.025
  0
VERTEX
  8
型材断面
 10
-119.725
 20
-24.025
  0
VERTEX
  8
型材断面
 10
-119.75
 20
-24.025
  0
VERTEX
  8
型材断面
 10
-119.775
 20
-24.05
  0
VERTEX
  8
型材断面
 10
-119.8
 20
-24.05
  0
VERTEX
  8
型材断面
 10
-119.825
 20
-24.05
  0
VERTEX
  8
型材断面
 10
-119.85
 20
-24.075
  0
VERTEX
  8
型材断面
 10
-119.875
 20
-24.075
  0
VERTEX
  8
型材断面
 10
-119.9
 20
-24.075
  0
VERTEX
  8
型材断面
 10
-119.95
 20
-24.075
  0
VERTEX
  8
型材断面
 10
-119.975
 20
-24.075
  0
VERTEX
  8
型材断面
 10
-120.0
 20
-24.1
  0
VERTEX
  8
型材断面
 10
-120.025
 20
-24.1
  0
VERTEX
  8
型材断面
 10
-120.05
 20
-24.1
  0
VERTEX
  8
型材断面
 10
-120.075
 20
-24.1
  0
VERTEX
  8
型材断面
 10
-120.1
 20
-24.1
  0
VERTEX
  8
型材断面
 10
-120.15
 20
-24.1
  0
VERTEX
  8
型材断面
 10
-120.175
 20
-24.1
  0
VERTEX
  8
型材断面
 10
-120.2
 20
-24.1
  0
SEQEND
  0
LINE
  8
型材断面
  6
CONTINUOUS
 62
    47
 10
-119.269165
 20
-20.556628
 11
-119.269165
 21
-24.091627
  0
LINE
  8
型材断面
  6
CONTINUOUS
 62
    47
 10
-119.269165
 20
-24.091627
 11
-125.39267
 21
-24.091627
  0
LINE
  8
型材断面
  6
CONTINUOUS
 62
    47
 10
-125.39267
 20
-20.556628
 11
-125.39267
 21
-24.091627
  0
LINE
  8
型材断面
  6
CONTINUOUS
 62
    47
 10
-119.269165
 20
-23.207877
 11
-120.187692
 21
-23.207877
  0
LINE
  8
型材断面
  6
CONTINUOUS
 62
    47
 10
-119.269165
 20
-21.440377
 11
-120.187692
 21
-21.440377
  0
LINE
  8
型材断面
  6
CONTINUOUS
 62
    47
 10
-119.95806
 20
-23.207877
 11
-119.95806
 21
-21.440377
  0
LINE
  8
型材断面
  6
CONTINUOUS
 62
    47
 10
-119.728428
 20
-23.207877
 11
-119.728428
 21
-21.440377
  0
LINE
  8
型材断面
  6
CONTINUOUS
 62
    47
 10
-119.498797
 20
-23.207877
 11
-119.498797
 21
-21.440377
  0
LINE
  8
型材断面
  6
DASHDOT
 62
    47
 10
-126.507463
 20
-22.324128
 11
-118.147818
 21
-22.324128
  0
LINE
  8
型材断面
  6
CONTINUOUS
 62
    47
 10
-125.39267
 20
-23.207877
 11
-124.474145
 21
-23.207877
  0
LINE
  8
型材断面
  6
CONTINUOUS
 62
    47
 10
-125.39267
 20
-21.440377
 11
-124.474145
 21
-21.440377
  0
LINE
  8
型材断面
  6
CONTINUOUS
 62
    47
 10
-125.163037
 20
-21.440377
 11
-125.163037
 21
-23.207877
  0
LINE
  8
型材断面
  6
CONTINUOUS
 62
    47
 10
-124.933407
 20
-21.440377
 11
-124.933407
 21
-23.207877
  0
LINE
  8
型材断面
  6
CONTINUOUS
 62
    47
 10
-124.703775
 20
-21.440377
 11
-124.703775
 21
-23.207877
  0
LINE
  8
型材断面
  6
CONTINUOUS
 62
    47
 10
-106.299867
 20
-18.78913
 11
-106.810157
 21
-18.25888
  0
LINE
  8
型材断面
  6
CONTINUOUS
 62
    47
 10
-103.646347
 20
-18.78913
 11
-103.136055
 21
-18.25888
  0
LINE
  8
型材断面
  6
CONTINUOUS
 62
    47
 10
-107.422508
 20
-18.25888
 11
-107.422508
 21
-18.78913
  0
LINE
  8
型材断面
  6
CONTINUOUS
 62
    47
 10
-101.379577
 20
-12.60141
 11
-100.920315
 21
-12.142198
  0
LINE
  8
型材断面
  6
CONTINUOUS
 62
    47
 10
-101.379577
 20
-12.601408
 11
-97.932557
 21
-13.750282
  0
LINE
  8
型材断面
  6
CONTINUOUS
 62
    47
 10
-97.932557
 20
-13.750282
 11
-102.441662
 21
-18.25888
  0
LINE
  8
型材断面
  6
DASHDOT
 62
    47
 10
-104.973107
 20
-19.31938
 11
-104.973107
 21
-17.772632
  0
POLYLINE
  8
型材断面
  6
CONTINUOUS
 62
    47
 66
     1
  0
VERTEX
  8
型材断面
 10
-102.45
 20
-18.8
  0
VERTEX
  8
型材断面
 10
-102.425
 20
-18.8
  0
VERTEX
  8
型材断面
 10
-102.4
 20
-18.8
  0
VERTEX
  8
型材断面
 10
-102.375
 20
-18.8
  0
VERTEX
  8
型材断面
 10
-102.325
 20
-18.8
  0
VERTEX
  8
型材断面
 10
-102.3
 20
-18.8
  0
VERTEX
  8
型材断面
 10
-102.275
 20
-18.8
  0
VERTEX
  8
型材断面
 10
-102.25
 20
-18.8
  0
VERTEX
  8
型材断面
 10
-102.225
 20
-18.775
  0
VERTEX
  8
型材断面
 10
-102.2
 20
-18.775
  0
VERTEX
  8
型材断面
 10
-102.15
 20
-18.775
  0
VERTEX
  8
型材断面
 10
-102.125
 20
-18.775
  0
VERTEX
  8
型材断面
 10
-102.1
 20
-18.75
  0
VERTEX
  8
型材断面
 10
-102.075
 20
-18.75
  0
VERTEX
  8
型材断面
 10
-102.05
 20
-18.75
  0
VERTEX
  8
型材断面
 10
-102.025
 20
-18.75
  0
VERTEX
  8
型材断面
 10
-102.0
 20
-18.725
  0
VERTEX
  8
型材断面
 10
-101.975
 20
-18.725
  0
VERTEX
  8
型材断面
 10
-101.95
 20
-18.7
  0
VERTEX
  8
型材断面
 10
-101.925
 20
-18.7
  0
VERTEX
  8
型材断面
 10
-101.9
 20
-18.7
  0
VERTEX
  8
型材断面
 10
-101.875
 20
-18.675
  0
VERTEX
  8
型材断面
 10
-101.85
 20
-18.675
  0
VERTEX
  8
型材断面
 10
-101.825
 20
-18.65
  0
VERTEX
  8
型材断面
 10
-101.8
 20
-18.65
  0
VERTEX
  8
型材断面
 10
-101.775
 20
-18.625
  0
VERTEX
  8
型材断面
 10
-101.775
 20
-18.625
  0
VERTEX
  8
型材断面
 10
-101.75
 20
-18.6
  0
VERTEX
  8
型材断面
 10
-101.725
 20
-18.6
  0
VERTEX
  8
型材断面
 10
-101.7
 20
-18.575
  0
VERTEX
  8
型材断面
 10
-101.7
 20
-18.575
  0
VERTEX
  8
型材断面
 10
-101.675
 20
-18.55
  0
VERTEX
  8
型材断面
 10
-101.65
 20
-18.525
  0
SEQEND
  0
POLYLINE
  8
型材断面
  6
CONTINUOUS
 62
    47
 66
     1
  0
VERTEX
  8
型材断面
 10
-97.15
 20
-14.025
  0
VERTEX
  8
型材断面
 10
-97.125
 20
-14.025
  0
VERTEX
  8
型材断面
 10
-97.125
 20
-14.0
  0
VERTEX
  8
型材断面
 10
-97.1
 20
-13.975
  0
VERTEX
  8
型材断面
 10
-97.1
 20
-13.975
  0
VERTEX
  8
型材断面
 10
-97.075
 20
-13.95
  0
VERTEX
  8
型材断面
 10
-97.075
 20
-13.925
  0
VERTEX
  8
型材断面
 10
-97.075
 20
-13.925
  0
VERTEX
  8
型材断面
 10
-97.05
 20
-13.9
  0
VERTEX
  8
型材断面
 10
-97.05
 20
-13.875
  0
VERTEX
  8
型材断面
 10
-97.05
 20
-13.875
  0
VERTEX
  8
型材断面
 10
-97.05
 20
-13.85
  0
VERTEX
  8
型材断面
 10
-97.025
 20
-13.825
  0
VERTEX
  8
型材断面
 10
-97.025
 20
-13.825
  0
VERTEX
  8
型材断面
 10
-97.025
 20
-13.8
  0
VERTEX
  8
型材断面
 10
-97.025
 20
-13.775
  0
VERTEX
  8
型材断面
 10
-97.025
 20
-13.775
  0
VERTEX
  8
型材断面
 10
-97.025
 20
-13.75
  0
VERTEX
  8
型材断面
 10
-97.025
 20
-13.725
  0
VERTEX
  8
型材断面
 10
-97.025
 20
-13.7
  0
VERTEX
  8
型材断面
 10
-97.025
 20
-13.7
  0
VERTEX
  8
型材断面
 10
-97.05
 20
-13.675
  0
VERTEX
  8
型材断面
 10
-97.05
 20
-13.65
  0
VERTEX
  8
型材断面
 10
-97.05
 20
-13.65
  0
VERTEX
  8
型材断面
 10
-97.05
 20
-13.625
  0
VERTEX
  8
型材断面
 10
-97.075
 20
-13.6
  0
VERTEX
  8
型材断面
 10
-97.075
 20
-13.6
  0
VERTEX
  8
型材断面
 10
-97.075
 20
-13.575
  0
VERTEX
  8
型材断面
 10
-97.1
 20
-13.55
  0
VERTEX
  8
型材断面
 10
-97.1
 20
-13.55
  0
VERTEX
  8
型材断面
 10
-97.125
 20
-13.525
  0
VERTEX
  8
型材断面
 10
-97.125
 20
-13.525
  0
VERTEX
  8
型材断面
 10
-97.15
 20
-13.5
  0
VERTEX
  8
型材断面
 10
-97.175
 20
-13.475
  0
VERTEX
  8
型材断面
 10
-97.175
 20
-13.475
  0
VERTEX
  8
型材断面
 10
-97.2
 20
-13.45
  0
VERTEX
  8
型材断面
 10
-97.225
 20
-13.45
  0
VERTEX
  8
型材断面
 10
-97.225
 20
-13.425
  0
VERTEX
  8
型材断面
 10
-97.25
 20
-13.425
  0
VERTEX
  8
型材断面
 10
-97.275
 20
-13.4
  0
VERTEX
  8
型材断面
 10
-97.3
 20
-13.4
  0
VERTEX
  8
型材断面
 10
-97.325
 20
-13.375
  0
VERTEX
  8
型材断面
 10
-97.35
 20
-13.375
  0
VERTEX
  8
型材断面
 10
-97.35
 20
-13.35
  0
VERTEX
  8
型材断面
 10
-97.375
 20
-13.35
  0
VERTEX
  8
型材断面
 10
-97.4
 20
-13.325
  0
VERTEX
  8
型材断面
 10
-97.425
 20
-13.325
  0
VERTEX
  8
型材断面
 10
-97.45
 20
-13.3
  0
VERTEX
  8
型材断面
 10
-97.475
 20
-13.3
  0
SEQEND
  0
LINE
  8
型材断面
  6
CONTINUOUS
 62
    47
 10
-100.920315
 20
-12.142195
 11
-96.67783
 21
-13.556197
  0
LINE
  8
型材断面
  6
CONTINUOUS
 62
    47
 10
-96.67783
 20
-13.556197
 11
-101.911358
 21
-18.78913
  0
LINE
  8
型材断面
  6
CONTINUOUS
 62
    47
 10
-102.441662
 20
-18.25888
 11
-107.422508
 21
-18.25888
  0
LINE
  8
型材断面
  6
CONTINUOUS
 62
    47
 10
-101.911358
 20
-18.78913
 11
-107.422508
 21
-18.78913
  0
LINE
  8
型材断面
  6
CONTINUOUS
 62
    47
 10
-103.518775
 20
-18.656567
 11
-106.427438
 21
-18.656567
  0
LINE
  8
型材断面
  6
CONTINUOUS
 62
    47
 10
-103.391202
 20
-18.524005
 11
-106.555012
 21
-18.524005
  0
LINE
  8
型材断面
  6
CONTINUOUS
 62
    47
 10
-103.26363
 20
-18.391442
 11
-106.682588
 21
-18.391442
  0
LINE
  8
型材断面
  6
CONTINUOUS
 62
    47
 10
-118.35064
 20
-22.324128
 11
-118.35064
 21
-25.328877
  0
LINE
  8
型材断面
  6
CONTINUOUS
 62
    47
 10
-118.35064
 20
-22.324128
 11
-118.35064
 21
-19.31938
  0
LINE
  8
型材断面
  6
CONTINUOUS
 62
    47
 10
-119.269165
 20
-22.324128
 11
-119.269165
 21
-18.78913
  0
LINE
  8
型材断面
  6
CONTINUOUS
 62
    47
 10
-119.269165
 20
-22.324128
 11
-119.269165
 21
-25.859127
  0
LINE
  8
型材断面
  6
CONTINUOUS
 62
    47
 10
-119.269165
 20
-21.705505
 11
-118.35064
 21
-21.705505
  0
LINE
  8
型材断面
  6
CONTINUOUS
 62
    47
 10
-119.269165
 20
-22.942753
 11
-118.35064
 21
-22.942753
  0
LINE
  8
型材断面
  6
CONTINUOUS
 62
    47
 10
-119.039535
 20
-22.942753
 11
-119.039535
 21
-21.705505
  0
LINE
  8
型材断面
  6
CONTINUOUS
 62
    47
 10
-118.809903
 20
-22.942753
 11
-118.809903
 21
-21.705505
  0
LINE
  8
型材断面
  6
CONTINUOUS
 62
    47
 10
-118.580272
 20
-22.942753
 11
-118.580272
 21
-21.705505
  0
LINE
  8
型材断面
  6
CONTINUOUS
 62
    47
 10
-95.693675
 20
-22.324128
 11
-95.693675
 21
-25.328877
  0
LINE
  8
型材断面
  6
CONTINUOUS
 62
    47
 10
-95.693675
 20
-22.324128
 11
-95.693675
 21
-19.31938
  0
LINE
  8
型材断面
  6
CONTINUOUS
 62
    47
 10
-94.77515
 20
-22.324128
 11
-94.77515
 21
-18.78913
  0
LINE
  8
型材断面
  6
CONTINUOUS
 62
    47
 10
-118.35064
 20
-19.31938
 11
-95.693675
 21
-19.31938
  0
LINE
  8
型材断面
  6
CONTINUOUS
 62
    47
 10
-118.35064
 20
-25.328877
 11
-95.693675
 21
-25.328877
  0
LINE
  8
型材断面
  6
CONTINUOUS
 62
    47
 10
-119.269165
 20
-18.78913
 11
-94.77515
 21
-18.78913
  0
LINE
  8
型材断面
  6
CONTINUOUS
 62
    47
 10
-119.269165
 20
-25.859127
 11
-94.77515
 21
-25.859127
  0
LINE
  8
型材断面
  6
CONTINUOUS
 62
    47
 10
-94.77515
 20
-22.324128
 11
-94.77515
 21
-25.859127
  0
LINE
  8
型材断面
  6
CONTINUOUS
 62
    47
 10
-106.04472
 20
-25.328877
 11
-106.04472
 21
-25.859127
  0
LINE
  8
型材断面
  6
CONTINUOUS
 62
    47
 10
-103.901493
 20
-25.328877
 11
-103.901493
 21
-25.859127
  0
LINE
  8
型材断面
  6
CONTINUOUS
 62
    47
 10
-106.04472
 20
-25.46144
 11
-103.901493
 21
-25.46144
  0
LINE
  8
型材断面
  6
CONTINUOUS
 62
    47
 10
-106.04472
 20
-25.594002
 11
-103.901493
 21
-25.594002
  0
LINE
  8
型材断面
  6
CONTINUOUS
 62
    47
 10
-106.04472
 20
-25.726565
 11
-103.901493
 21
-25.726565
  0
LINE
  8
型材断面
  6
DASHDOT
 62
    47
 10
-104.973107
 20
-26.389377
 11
-104.973107
 21
-24.833788
  0
LINE
  8
型材断面
  6
CONTINUOUS
 62
    47
 10
-106.04472
 20
-19.31938
 11
-106.04472
 21
-18.78913
  0
LINE
  8
型材断面
  6
CONTINUOUS
 62
    47
 10
-103.901493
 20
-19.31938
 11
-103.901493
 21
-18.78913
  0
LINE
  8
型材断面
  6
CONTINUOUS
 62
    47
 10
-106.04472
 20
-19.186817
 11
-103.901493
 21
-19.186817
  0
LINE
  8
型材断面
  6
CONTINUOUS
 62
    47
 10
-106.04472
 20
-19.054255
 11
-103.901493
 21
-19.054255
  0
LINE
  8
型材断面
  6
CONTINUOUS
 62
    47
 10
-106.04472
 20
-18.921692
 11
-103.901493
 21
-18.921692
  0
LINE
  8
型材断面
  6
DASHDOT
 62
    47
 10
-104.973107
 20
-18.25888
 11
-104.973107
 21
-19.81447
  0
LINE
  8
型材断面
  6
DASHDOT
 62
    47
 10
-117.61987
 20
-22.324128
 11
-120.06521
 21
-22.324128
  0
LINE
  8
型材断面
  6
CONTINUOUS
 62
    47
 10
-126.311195
 20
-23.06648
 11
-125.39267
 21
-23.06648
  0
LINE
  8
型材断面
  6
CONTINUOUS
 62
    47
 10
-126.311195
 20
-21.58178
 11
-125.39267
 21
-21.58178
  0
LINE
  8
型材断面
  6
CONTINUOUS
 62
    47
 10
-126.081563
 20
-23.06648
 11
-126.081563
 21
-21.58178
  0
LINE
  8
型材断面
  6
CONTINUOUS
 62
    47
 10
-125.851933
 20
-23.06648
 11
-125.851933
 21
-21.58178
  0
LINE
  8
型材断面
  6
CONTINUOUS
 62
    47
 10
-125.6223
 20
-23.06648
 11
-125.6223
 21
-21.58178
  0
ARC
  8
型材断面
  6
CONTINUOUS
 62
    47
 10
-29.739257
 20
72.411222
 40
0.75
 50
195.000007
 51
285.000007
  0
ARC
  8
型材断面
  6
CONTINUOUS
 62
    47
 10
-29.562482
 20
72.717408
 40
0.25
 50
195.000007
 51
285.000007
  0
LINE
  8
型材断面
  6
CONTINUOUS
 62
    47
 10
-31.24016
 20
75.114885
 11
-30.26959
 21
71.492663
  0
LINE
  8
型材断面
  6
CONTINUOUS
 62
    47
 10
-35.345345
 20
74.014903
 11
-31.24016
 21
75.114885
  0
ARC
  8
型材断面
  6
CONTINUOUS
 62
    47
 10
-39.398515
 20
69.82303
 40
0.75
 50
285.000007
 51
375.000007
  0
ARC
  8
型材断面
  6
CONTINUOUS
 62
    47
 10
-39.704699
 20
69.999808
 40
0.25
 50
285.000007
 51
375.000007
  0
LINE
  8
型材断面
  6
CONTINUOUS
 62
    47
 10
-39.450528
 20
72.914922
 11
-38.479955
 21
69.2927
  0
LINE
  8
型材断面
  6
CONTINUOUS
 62
    47
 10
-35.345345
 20
74.014903
 11
-39.450528
 21
72.914922
  0
LINE
  8
型材断面
  6
CONTINUOUS
 62
    47
 10
-29.496748
 20
72.476202
 11
-22.056548
 21
74.4698
  0
LINE
  8
型材断面
  6
CONTINUOUS
 62
    47
 10
-39.641028
 20
69.75805
 11
-47.081228
 21
67.764452
  0
LINE
  8
型材断面
  6
CONTINUOUS
 62
    47
 10
-22.056548
 20
74.4698
 11
-21.133345
 21
77.915243
  0
LINE
  8
型材断面
  6
CONTINUOUS
 62
    47
 10
-21.133345
 20
77.915243
 11
-20.408897
 21
77.72113
  0
LINE
  8
型材断面
  6
CONTINUOUS
 62
    47
 10
-47.081228
 20
67.764452
 11
-49.603467
 21
70.286693
  0
LINE
  8
型材断面
  6
CONTINUOUS
 62
    47
 10
-49.603467
 20
70.286693
 11
-50.1338
 21
69.756363
  0
ARC
  8
型材断面
  6
CONTINUOUS
 62
    47
 10
-39.450527
 20
72.914925
 40
0.75
 50
105.000007
 51
195.000007
  0
ARC
  8
型材断面
  6
CONTINUOUS
 62
    47
 10
-31.24016
 20
75.114888
 40
0.75
 50
15.000007
 51
105.000007
  0
ARC
  8
型材断面
  6
CONTINUOUS
 62
    47
 10
-47.081226
 20
67.764456
 40
0.75
 50
225.00005
 51
285.000007
  0
ARC
  8
型材断面
  6
CONTINUOUS
 62
    47
 10
-22.056547
 20
74.469802
 40
0.75
 50
285.000007
 51
344.999965
  0
LINE
  8
型材断面
  6
CONTINUOUS
 62
    47
 10
-20.408897
 20
77.72113
 11
-21.444175
 21
73.857428
  0
LINE
  8
型材断面
  6
CONTINUOUS
 62
    47
 10
-30.26959
 20
71.492663
 11
-21.444175
 21
73.857428
  0
LINE
  8
型材断面
  6
CONTINUOUS
 62
    47
 10
-50.1338
 20
69.756363
 11
-47.30537
 21
66.927938
  0
LINE
  8
型材断面
  6
CONTINUOUS
 62
    47
 10
-38.479955
 20
69.2927
 11
-47.30537
 21
66.927938
  0
LINE
  8
型材断面
  6
CONTINUOUS
 62
    47
 10
-39.463217
 20
70.06451
 11
-40.369088
 21
73.445253
  0
LINE
  8
型材断面
  6
CONTINUOUS
 62
    47
 10
-35.53946
 20
74.739348
 11
-40.369088
 21
73.445253
  0
LINE
  8
型材断面
  6
CONTINUOUS
 62
    47
 10
-35.53946
 20
74.739348
 11
-30.70983
 21
76.033442
  0
LINE
  8
型材断面
  6
CONTINUOUS
 62
    47
 10
-29.803963
 20
72.6527
 11
-30.70983
 21
76.033442
  0
LINE
  8
型材断面
  6
CONTINUOUS
 62
    47
 10
-42.204053
 20
99.61194
 11
-39.78924
 21
100.258987
  0
LINE
  8
型材断面
  6
CONTINUOUS
 62
    47
 10
-42.204053
 20
99.61194
 11
-44.618868
 21
98.964892
  0
ARC
  8
型材断面
  6
CONTINUOUS
 62
    47
 10
-44.618866
 20
98.96489
 40
0.75
 50
195.000007
 51
285.000007
  0
ARC
  8
型材断面
  6
CONTINUOUS
 62
    47
 10
-39.789237
 20
100.258986
 40
0.75
 50
285.000007
 51
375.000007
  0
LINE
  8
型材断面
  6
CONTINUOUS
 62
    47
 10
-38.87068
 20
99.728658
 11
-45.149197
 21
98.046333
  0
LINE
  8
型材断面
  6
CONTINUOUS
 62
    47
 10
-19.342365
 20
99.590248
 11
-20.183528
 21
96.45099
  0
ARC
  8
型材断面
  6
CONTINUOUS
 62
    47
 10
-19.342366
 20
99.59025
 40
0.75
 50
-14.999995
 51
75.000012
  0
LINE
  8
型材断面
  6
CONTINUOUS
 62
    47
 10
-19.459083
 20
96.256875
 11
-18.423808
 21
100.120578
  0
LINE
  8
型材断面
  6
CONTINUOUS
 62
    47
 10
-20.183528
 20
96.45099
 11
-19.459083
 21
96.256875
  0
ARC
  8
型材断面
  6
CONTINUOUS
 62
    47
 10
-40.341245
 20
105.21688
 40
0.75
 50
75.000014
 51
195.000007
  0
LINE
  8
型材断面
  6
CONTINUOUS
 62
    47
 10
-39.78924
 20
100.258987
 11
-41.401905
 21
106.277537
  0
LINE
  8
型材断面
  6
CONTINUOUS
 62
    47
 10
-18.423808
 20
100.12058
 11
-41.401905
 21
106.277537
  0
LINE
  8
型材断面
  6
CONTINUOUS
 62
    47
 10
-19.342368
 20
99.59025
 11
-40.341248
 21
105.21688
  0
LINE
  8
型材断面
  6
CONTINUOUS
 62
    47
 10
-38.87068
 20
99.728658
 11
-40.341248
 21
105.21688
  0
LINE
  8
型材断面
  6
CONTINUOUS
 62
    47
 10
-61.992003
 20
88.162307
 11
-59.693908
 21
85.86421
  0
ARC
  8
型材断面
  6
CONTINUOUS
 62
    47
 10
-61.992001
 20
88.162308
 40
0.75
 50
135.000003
 51
225.00001
  0
LINE
  8
型材断面
  6
CONTINUOUS
 62
    47
 10
-60.224237
 20
85.33388
 11
-63.052665
 21
88.162305
  0
LINE
  8
型材断面
  6
CONTINUOUS
 62
    47
 10
-59.693908
 20
85.86421
 11
-60.224237
 21
85.33388
  0
ARC
  8
型材断面
  6
CONTINUOUS
 62
    47
 10
-46.619758
 20
103.534557
 40
0.75
 50
15.000007
 51
135.000001
  0
LINE
  8
型材断面
  6
CONTINUOUS
 62
    47
 10
-61.992008
 20
88.162307
 11
-46.619762
 21
103.534555
  0
LINE
  8
型材断面
  6
CONTINUOUS
 62
    47
 10
-45.149197
 20
98.046333
 11
-46.619762
 21
103.534555
  0
LINE
  8
型材断面
  6
CONTINUOUS
 62
    47
 10
-44.618868
 20
98.964892
 11
-46.231535
 21
104.98344
  0
LINE
  8
型材断面
  6
CONTINUOUS
 62
    47
 10
-63.052665
 20
88.162307
 11
-46.231535
 21
104.98344
  0
LINE
  8
型材断面
  6
DASHDOT
 62
    47
 10
-41.639628
 20
97.50547
 11
-42.478492
 21
100.636158
  0
LINE
  8
型材断面
  6
CONTINUOUS
 62
    47
 10
-33.14538
 20
85.12303
 11
-32.528775
 21
85.719613
  0
LINE
  8
型材断面
  6
CONTINUOUS
 62
    47
 10
-32.584605
 20
83.03019
 11
-31.752318
 21
82.821835
  0
LINE
  8
型材断面
  6
CONTINUOUS
 62
    47
 10
-32.658185
 20
86.202575
 11
-33.38263
 21
86.00846
  0
LINE
  8
型材断面
  6
CONTINUOUS
 62
    47
 10
-23.651703
 20
83.507585
 11
-22.927255
 21
83.313472
  0
LINE
  8
型材断面
  6
CONTINUOUS
 62
    47
 10
-23.651703
 20
83.507585
 11
-24.49286
 21
80.368327
  0
LINE
  8
型材断面
  6
CONTINUOUS
 62
    47
 10
-24.492862
 20
80.368327
 11
-31.60557
 21
82.274165
  0
LINE
  8
型材断面
  6
DASHDOT
 62
    47
 10
-33.589435
 20
83.882495
 11
-31.476225
 21
84.448727
  0
ARC
  8
型材断面
  6
CONTINUOUS
 62
    47
 10
-31.605571
 20
82.274171
 40
0.75
 50
195.000007
 51
255.000042
  0
ARC
  8
型材断面
  6
CONTINUOUS
 62
    47
 10
-24.492859
 20
80.368331
 40
0.75
 50
255.000043
 51
344.999971
  0
LINE
  8
型材断面
  6
CONTINUOUS
 62
    47
 10
-22.927255
 20
83.313472
 11
-23.96253
 21
79.44977
  0
LINE
  8
型材断面
  6
CONTINUOUS
 62
    47
 10
-23.96253
 20
79.44977
 11
-32.217945
 21
81.661797
  0
LINE
  8
型材断面
  6
CONTINUOUS
 62
    47
 10
-31.60557
 20
82.274165
 11
-32.658185
 21
86.202575
  0
LINE
  8
型材断面
  6
CONTINUOUS
 62
    47
 10
-32.217945
 20
81.661797
 11
-33.38263
 21
86.00846
  0
LINE
  8
型材断面
  6
CONTINUOUS
 62
    47
 10
-32.376533
 20
82.9781
 11
-32.991227
 21
85.272175
  0
LINE
  8
型材断面
  6
CONTINUOUS
 62
    47
 10
-32.168462
 20
82.926013
 11
-32.837078
 21
85.42132
  0
LINE
  8
型材断面
  6
CONTINUOUS
 62
    47
 10
-31.96039
 20
82.873925
 11
-32.682928
 21
85.570468
  0
LINE
  8
型材断面
  6
CONTINUOUS
 62
    47
 10
-40.125455
 20
98.615985
 11
-39.219588
 21
95.235245
  0
LINE
  8
型材断面
  6
CONTINUOUS
 62
    47
 10
-40.125455
 20
98.615985
 11
-44.23064
 21
97.516002
  0
LINE
  8
型材断面
  6
CONTINUOUS
 62
    47
 10
-39.219588
 20
95.235245
 11
-43.324773
 21
94.135262
  0
LINE
  8
型材断面
  6
CONTINUOUS
 62
    47
 10
-43.130657
 20
93.410817
 11
-43.324773
 21
94.135262
  0
LINE
  8
型材断面
  6
CONTINUOUS
 62
    47
 10
-44.23064
 20
97.516002
 11
-44.424755
 21
98.240447
  0
ARC
  8
型材断面
  6
CONTINUOUS
 62
    47
 10
-40.125453
 20
98.615986
 40
0.75
 50
15.000007
 51
105.000007
  0
ARC
  8
型材断面
  6
CONTINUOUS
 62
    47
 10
-39.219586
 20
95.235246
 40
0.75
 50
-74.999993
 51
15.000007
  0
LINE
  8
型材断面
  6
CONTINUOUS
 62
    47
 10
-43.130657
 20
93.410817
 11
-38.30103
 21
94.704915
  0
LINE
  8
型材断面
  6
CONTINUOUS
 62
    47
 10
-38.30103
 20
94.704915
 11
-39.595125
 21
99.534542
  0
LINE
  8
型材断面
  6
CONTINUOUS
 62
    47
 10
-44.424755
 20
98.240447
 11
-39.595125
 21
99.534542
  0
LINE
  8
型材断面
  6
CONTINUOUS
 62
    47
 10
-39.508438
 20
94.38139
 11
-39.70255
 21
95.105835
  0
LINE
  8
型材断面
  6
CONTINUOUS
 62
    47
 10
-41.92325
 20
93.734342
 11
-42.117365
 21
94.458787
  0
LINE
  8
型材断面
  6
CONTINUOUS
 62
    47
 10
-39.654022
 20
94.924722
 11
-42.068837
 21
94.277675
  0
LINE
  8
型材断面
  6
CONTINUOUS
 62
    47
 10
-39.605493
 20
94.743613
 11
-42.020308
 21
94.096565
  0
LINE
  8
型材断面
  6
CONTINUOUS
 62
    47
 10
-39.556965
 20
94.5625
 11
-41.97178
 21
93.915452
  0
LINE
  8
型材断面
  6
DASHDOT
 62
    47
 10
-42.245532
 20
99.766735
 11
-40.478867
 21
93.173455
  0
LINE
  8
型材断面
  6
CONTINUOUS
 62
    47
 10
-40.802532
 20
99.21102
 11
-40.608417
 21
98.486575
  0
LINE
  8
型材断面
  6
CONTINUOUS
 62
    47
 10
-43.217347
 20
98.56397
 11
-43.023232
 21
97.839528
  0
LINE
  8
型材断面
  6
CONTINUOUS
 62
    47
 10
-43.168818
 20
98.38286
 11
-40.754005
 21
99.029908
  0
LINE
  8
型材断面
  6
CONTINUOUS
 62
    47
 10
-43.12029
 20
98.20175
 11
-40.705475
 21
98.848798
  0
LINE
  8
型材断面
  6
CONTINUOUS
 62
    47
 10
-43.07176
 20
98.020637
 11
-40.656948
 21
98.667685
  0
LINE
  8
型材断面
  6
CONTINUOUS
 62
    47
 10
-42.804635
 20
82.53484
 11
-43.63692
 21
82.743193
  0
LINE
  8
型材断面
  6
CONTINUOUS
 62
    47
 10
-42.24386
 20
80.442
 11
-42.860462
 21
79.845415
  0
LINE
  8
型材断面
  6
CONTINUOUS
 62
    47
 10
-43.76633
 20
83.226155
 11
-43.041885
 21
83.42027
  0
LINE
  8
型材断面
  6
CONTINUOUS
 62
    47
 10
-50.218678
 20
76.388983
 11
-50.74901
 21
75.858653
  0
LINE
  8
型材断面
  6
CONTINUOUS
 62
    47
 10
-50.21868
 20
76.388983
 11
-47.920583
 21
74.090885
  0
LINE
  8
型材断面
  6
CONTINUOUS
 62
    47
 10
-47.920583
 20
74.090885
 11
-42.713715
 21
79.297745
  0
LINE
  8
型材断面
  6
DASHDOT
 62
    47
 10
-41.799802
 20
81.682532
 11
-43.913018
 21
81.116297
  0
ARC
  8
型材断面
  6
CONTINUOUS
 62
    47
 10
-42.713717
 20
79.297751
 40
0.75
 50
314.999973
 51
375.000007
  0
ARC
  8
型材断面
  6
CONTINUOUS
 62
    47
 10
-47.920585
 20
74.090888
 40
0.75
 50
225.000043
 51
314.999972
  0
LINE
  8
型材断面
  6
CONTINUOUS
 62
    47
 10
-50.749013
 20
75.85865
 11
-47.920583
 21
73.030225
  0
LINE
  8
型材断面
  6
CONTINUOUS
 62
    47
 10
-47.920583
 20
73.030225
 11
-41.8772
 21
79.073605
  0
LINE
  8
型材断面
  6
CONTINUOUS
 62
    47
 10
-42.713715
 20
79.297745
 11
-43.76633
 21
83.226155
  0
LINE
  8
型材断面
  6
CONTINUOUS
 62
    47
 10
-41.8772
 20
79.073605
 11
-43.041885
 21
83.42027
  0
LINE
  8
型材断面
  6
CONTINUOUS
 62
    47
 10
-42.39801
 20
80.292852
 11
-43.012705
 21
82.586925
  0
LINE
  8
型材断面
  6
CONTINUOUS
 62
    47
 10
-42.552163
 20
80.143707
 11
-43.220777
 21
82.639015
  0
LINE
  8
型材断面
  6
CONTINUOUS
 62
    47
 10
-42.706312
 20
79.99456
 11
-43.42885
 21
82.691105
  0
LINE
  8
型材断面
  6
CONTINUOUS
 62
    47
 10
-40.52173
 20
93.333423
 11
-36.416545
 21
94.433403
  0
LINE
  8
型材断面
  6
CONTINUOUS
 62
    47
 10
-40.52173
 20
93.333423
 11
-44.626912
 21
92.23344
  0
LINE
  8
型材断面
  6
CONTINUOUS
 62
    47
 10
-40.715845
 20
94.057865
 11
-45.54547
 21
92.76377
  0
LINE
  8
型材断面
  6
CONTINUOUS
 62
    47
 10
-40.715845
 20
94.057865
 11
-35.886215
 21
95.351963
  0
LINE
  8
型材断面
  6
CONTINUOUS
 62
    47
 10
-41.561028
 20
93.8314
 11
-41.366913
 21
93.106955
  0
LINE
  8
型材断面
  6
CONTINUOUS
 62
    47
 10
-39.870658
 20
94.284332
 11
-39.676545
 21
93.559887
  0
LINE
  8
型材断面
  6
CONTINUOUS
 62
    47
 10
-39.82213
 20
94.103223
 11
-41.512497
 21
93.65029
  0
LINE
  8
型材断面
  6
CONTINUOUS
 62
    47
 10
-39.773603
 20
93.92211
 11
-41.46397
 21
93.469177
  0
LINE
  8
型材断面
  6
CONTINUOUS
 62
    47
 10
-39.725072
 20
93.741
 11
-41.41544
 21
93.288068
  0
LINE
  8
型材断面
  6
CONTINUOUS
 62
    47
 10
-35.733575
 20
75.463793
 11
-31.62839
 21
76.563773
  0
LINE
  8
型材断面
  6
CONTINUOUS
 62
    47
 10
-35.733575
 20
75.463793
 11
-39.838757
 21
74.36381
  0
LINE
  8
型材断面
  6
CONTINUOUS
 62
    47
 10
-35.53946
 20
74.739348
 11
-40.369088
 21
73.445253
  0
LINE
  8
型材断面
  6
CONTINUOUS
 62
    47
 10
-44.626912
 20
92.23344
 11
-39.838757
 21
74.36381
  0
LINE
  8
型材断面
  6
CONTINUOUS
 62
    47
 10
-36.416545
 20
94.433403
 11
-31.62839
 21
76.563773
  0
LINE
  8
型材断面
  6
CONTINUOUS
 62
    47
 10
-45.54547
 20
92.76377
 11
-40.369088
 21
73.445253
  0
LINE
  8
型材断面
  6
CONTINUOUS
 62
    47
 10
-35.886215
 20
95.351963
 11
-30.70983
 21
76.033442
  0
LINE
  8
型材断面
  6
CONTINUOUS
 62
    47
 10
-35.53946
 20
74.739348
 11
-30.70983
 21
76.033442
  0
LINE
  8
型材断面
  6
CONTINUOUS
 62
    47
 10
-33.815902
 20
84.72768
 11
-33.091457
 21
84.921793
  0
LINE
  8
型材断面
  6
CONTINUOUS
 62
    47
 10
-33.36297
 20
83.03731
 11
-32.638525
 21
83.231423
  0
LINE
  8
型材断面
  6
CONTINUOUS
 62
    47
 10
-33.634793
 20
84.776208
 11
-33.181858
 21
83.085837
  0
LINE
  8
型材断面
  6
CONTINUOUS
 62
    47
 10
-33.45368
 20
84.824738
 11
-33.000748
 21
83.134368
  0
LINE
  8
型材断面
  6
CONTINUOUS
 62
    47
 10
-33.27257
 20
84.873265
 11
-32.819635
 21
83.182895
  0
LINE
  8
型材断面
  6
DASHDOT
 62
    47
 10
-32.140547
 20
84.270723
 11
-34.265845
 21
83.70125
  0
LINE
  8
型材断面
  6
CONTINUOUS
 62
    47
 10
-42.02627
 20
82.527717
 11
-42.750715
 21
82.333603
  0
LINE
  8
型材断面
  6
CONTINUOUS
 62
    47
 10
-41.573335
 20
80.837348
 11
-42.29778
 21
80.643232
  0
LINE
  8
型材断面
  6
CONTINUOUS
 62
    47
 10
-42.20738
 20
82.479188
 11
-41.754447
 21
80.788818
  0
LINE
  8
型材断面
  6
CONTINUOUS
 62
    47
 10
-42.388493
 20
82.43066
 11
-41.935557
 21
80.74029
  0
LINE
  8
型材断面
  6
CONTINUOUS
 62
    47
 10
-42.569603
 20
82.38213
 11
-42.11667
 21
80.69176
  0
LINE
  8
型材断面
  6
DASHDOT
 62
    47
 10
-43.248693
 20
81.294303
 11
-41.123395
 21
81.863775
  0
LINE
  8
型材断面
  6
DASHDOT
 62
    47
 10
-40.367295
 20
92.75706
 11
-40.884073
 21
94.685707
  0
LINE
  8
型材断面
  6
CONTINUOUS
 62
    47
 10
-41.18983
 20
99.8837
 11
-40.995715
 21
99.159255
  0
LINE
  8
型材断面
  6
CONTINUOUS
 62
    47
 10
-43.218272
 20
99.34018
 11
-43.02416
 21
98.615735
  0
LINE
  8
型材断面
  6
CONTINUOUS
 62
    47
 10
-41.1413
 20
99.70259
 11
-43.169745
 21
99.159067
  0
LINE
  8
型材断面
  6
CONTINUOUS
 62
    47
 10
-41.092772
 20
99.521478
 11
-43.121217
 21
98.977958
  0
LINE
  8
型材断面
  6
CONTINUOUS
 62
    47
 10
-41.044243
 20
99.340367
 11
-43.072688
 21
98.796847
  0
LINE
  8
型材断面
  6
CONTINUOUS
 10
-81.788998
 20
38.101162
 11
-50.1338
 21
69.756363
  0
LINE
  8
型材断面
  6
CONTINUOUS
 10
-81.788998
 20
32.444307
 11
-47.30537
 21
66.927938
  0
LINE
  8
型材断面
  6
CONTINUOUS
 10
-81.788998
 20
25.983655
 11
-38.479955
 21
69.2927
  0
LINE
  8
型材断面
  6
CONTINUOUS
 10
-81.788998
 20
19.973252
 11
-30.269592
 21
71.49266
  0
LINE
  8
型材断面
  6
CONTINUOUS
 10
-81.788998
 20
13.512602
 11
-21.444182
 21
73.85742
  0
LINE
  8
型材断面
  6
CONTINUOUS
 10
-81.788998
 20
39.161808
 11
-47.920583
 21
73.030225
  0
LINE
  8
型材断面
  6
CONTINUOUS
 10
-100.91912
 20
25.688543
 11
-50.749013
 21
75.85865
  0
LINE
  8
型材断面
  6
CONTINUOUS
 10
-116.546702
 20
29.011413
 11
-60.224237
 21
85.33388
  0
LINE
  8
型材断面
  6
CONTINUOUS
 10
-119.37513
 20
31.839838
 11
-63.052665
 21
88.162305
  0
LINE
  8
型材断面
  6
CONTINUOUS
 10
-81.788998
 20
-20.329723
 11
-25.374485
 21
-76.744237
  0
LINE
  8
型材断面
  6
CONTINUOUS
 10
-81.788998
 20
-26.790373
 11
-28.60481
 21
-79.974562
  0
LINE
  8
型材断面
  6
CONTINUOUS
 10
-81.788998
 20
-32.800775
 11
-31.610012
 21
-82.979763
  0
LINE
  8
型材断面
  6
CONTINUOUS
 10
-81.788998
 20
-39.261427
 11
-34.840337
 21
-86.21009
  0
LINE
  8
型材断面
  6
CONTINUOUS
 10
-81.788998
 20
-44.918282
 11
-37.668765
 21
-89.038518
  0
LINE
  8
型材断面
  6
CONTINUOUS
 10
-81.788998
 20
-45.978928
 11
-38.199088
 21
-89.56884
  0
LINE
  8
型材断面
  6
CONTINUOUS
 10
-100.91912
 20
-32.505663
 11
-41.027515
 21
-92.397267
  0
LINE
  8
型材断面
  6
CONTINUOUS
 10
-116.546702
 20
-35.828532
 11
-50.502745
 21
-101.872495
  0
LINE
  8
型材断面
  6
CONTINUOUS
 10
-119.37513
 20
-38.656958
 11
-53.33117
 21
-104.70092
  0
LINE
  8
型材断面
  6
CONTINUOUS
 10
9.637855
 20
-32.909428
 11
31.280467
 21
-11.26682
  0
LINE
  8
型材断面
  6
CONTINUOUS
 10
10.097135
 20
-33.368707
 11
31.739747
 21
-11.7261
  0
LINE
  8
型材断面
  6
CONTINUOUS
 10
10.334455
 20
-33.606027
 11
31.977067
 21
-11.96342
  0
LINE
  8
型材断面
  6
CONTINUOUS
 10
10.793737
 20
-34.06531
 11
32.43635
 21
-12.422703
  0
LINE
  8
型材断面
  6
CONTINUOUS
 10
11.942783
 20
-35.214358
 11
33.585395
 21
-13.57175
  0
LINE
  8
型材断面
  6
CONTINUOUS
 10
31.397998
 20
-54.66957
 11
53.040605
 21
-33.026958
  0
LINE
  8
型材断面
  6
CONTINUOUS
 10
30.938717
 20
-54.21029
 11
52.581325
 21
-32.567677
  0
LINE
  8
型材断面
  6
CONTINUOUS
 10
30.701397
 20
-53.97297
 11
52.344005
 21
-32.330357
  0
LINE
  8
型材断面
  6
CONTINUOUS
 10
30.242115
 20
-53.513688
 11
51.884722
 21
-31.871075
  0
LINE
  8
型材断面
  6
CONTINUOUS
 10
29.093067
 20
-52.364642
 11
50.735675
 21
-30.72203
  0
LINE
  8
型材断面
  6
CONTINUOUS
 10
31.280465
 20
-11.26682
 11
53.040605
 21
-33.026958
  0
LINE
  8
型材断面
  6
CONTINUOUS
 10
112.15988
 20
-32.909428
 11
90.517267
 21
-11.26682
  0
LINE
  8
型材断面
  6
CONTINUOUS
 10
111.7006
 20
-33.368707
 11
90.057987
 21
-11.7261
  0
LINE
  8
型材断面
  6
CONTINUOUS
 10
111.46328
 20
-33.606027
 11
89.820667
 21
-11.96342
  0
LINE
  8
型材断面
  6
CONTINUOUS
 10
111.003997
 20
-34.06531
 11
89.361385
 21
-12.422703
  0
LINE
  8
型材断面
  6
CONTINUOUS
 10
109.854953
 20
-35.214358
 11
88.21234
 21
-13.57175
  0
LINE
  8
型材断面
  6
CONTINUOUS
 10
90.399738
 20
-54.66957
 11
68.75713
 21
-33.026958
  0
LINE
  8
型材断面
  6
CONTINUOUS
 10
90.859017
 20
-54.21029
 11
69.21641
 21
-32.567677
  0
LINE
  8
型材断面
  6
CONTINUOUS
 10
91.096337
 20
-53.97297
 11
69.45373
 21
-32.330357
  0
LINE
  8
型材断面
  6
CONTINUOUS
 10
91.55562
 20
-53.513688
 11
69.913012
 21
-31.871075
  0
LINE
  8
型材断面
  6
CONTINUOUS
 10
92.704667
 20
-52.364642
 11
71.06206
 21
-30.72203
  0
LINE
  8
型材断面
  6
CONTINUOUS
 10
112.15988
 20
26.092308
 11
90.517267
 21
4.4497
  0
LINE
  8
型材断面
  6
CONTINUOUS
 10
111.7006
 20
26.551587
 11
90.057987
 21
4.90898
  0
LINE
  8
型材断面
  6
CONTINUOUS
 10
111.46328
 20
26.788907
 11
89.820667
 21
5.1463
  0
LINE
  8
型材断面
  6
CONTINUOUS
 10
111.003997
 20
27.24819
 11
89.361385
 21
5.605582
  0
LINE
  8
型材断面
  6
CONTINUOUS
 10
109.854953
 20
28.397237
 11
88.21234
 21
6.75463
  0
LINE
  8
型材断面
  6
CONTINUOUS
 10
90.399738
 20
47.85245
 11
68.75713
 21
26.209837
  0
LINE
  8
型材断面
  6
CONTINUOUS
 10
90.859017
 20
47.39317
 11
69.21641
 21
25.750557
  0
LINE
  8
型材断面
  6
CONTINUOUS
 10
91.096337
 20
47.15585
 11
69.45373
 21
25.513237
  0
LINE
  8
型材断面
  6
CONTINUOUS
 10
91.55562
 20
46.696567
 11
69.913012
 21
25.053955
  0
LINE
  8
型材断面
  6
CONTINUOUS
 10
92.704667
 20
45.547523
 11
71.06206
 21
23.90491
  0
LINE
  8
型材断面
  6
CONTINUOUS
 10
9.637855
 20
26.092308
 11
31.280467
 21
4.4497
  0
LINE
  8
型材断面
  6
CONTINUOUS
 10
10.097135
 20
26.551587
 11
31.739747
 21
4.90898
  0
LINE
  8
型材断面
  6
CONTINUOUS
 10
10.334455
 20
26.788907
 11
31.977067
 21
5.1463
  0
LINE
  8
型材断面
  6
CONTINUOUS
 10
10.793737
 20
27.24819
 11
32.43635
 21
5.605582
  0
LINE
  8
型材断面
  6
CONTINUOUS
 10
11.942783
 20
28.397237
 11
33.585395
 21
6.75463
  0
LINE
  8
型材断面
  6
CONTINUOUS
 10
31.397998
 20
47.85245
 11
53.040605
 21
26.209837
  0
LINE
  8
型材断面
  6
CONTINUOUS
 10
30.938717
 20
47.39317
 11
52.581325
 21
25.750557
  0
LINE
  8
型材断面
  6
CONTINUOUS
 10
30.701397
 20
47.15585
 11
52.344005
 21
25.513237
  0
LINE
  8
型材断面
  6
CONTINUOUS
 10
30.242115
 20
46.696567
 11
51.884722
 21
25.053955
  0
LINE
  8
型材断面
  6
CONTINUOUS
 10
29.093067
 20
45.547523
 11
50.735675
 21
23.90491
  0
LINE
  8
型材断面
  6
CONTINUOUS
 10
90.51727
 20
-11.266823
 11
68.757133
 21
-33.02696
  0
LINE
  8
型材断面
  6
CONTINUOUS
 10
31.280465
 20
4.4497
 11
53.040605
 21
26.20984
  0
LINE
  8
型材断面
  6
CONTINUOUS
 10
68.757133
 20
26.20984
 11
90.51727
 21
4.449703
  0
LINE
  8
型材断面
  6
CONTINUOUS
 10
-24.171995
 20
100.884345
 11
-25.013158
 21
97.745085
  0
LINE
  8
型材断面
  6
CONTINUOUS
 10
-20.18353
 20
96.45099
 11
-25.013158
 21
97.745085
  0
LINE
  8
型材断面
  6
CONTINUOUS
 10
-25.013158
 20
97.745085
 11
-19.342365
 21
99.590248
  0
LINE
  8
型材断面
  6
CONTINUOUS
 10
-58.456477
 20
91.69784
 11
-56.15838
 21
89.399742
  0
LINE
  8
型材断面
  6
CONTINUOUS
 10
-59.69391
 20
85.86421
 11
-56.15838
 21
89.399742
  0
LINE
  8
型材断面
  6
CONTINUOUS
 10
-56.15838
 20
89.399742
 11
-61.99201
 21
88.162303
  0
LINE
  8
ガラス
  6
CONTINUOUS
 10
-105.57163
 20
-29.974455
 11
-42.08818
 21
-93.45793
  0
LINE
  8
ガラス
  6
CONTINUOUS
 10
-108.04658
 20
-30.681483
 11
-43.67917
 21
-95.04892
  0
LINE
  8
ガラス
  6
CONTINUOUS
 10
-105.748408
 20
-30.151232
 11
-42.264958
 21
-93.634707
  0
LINE
  8
ガラス
  6
CONTINUOUS
 10
-108.223358
 20
-30.85826
 11
-43.855947
 21
-95.225698
  0
LINE
  8
ガラス
  6
CONTINUOUS
 10
-111.40544
 20
-31.918828
 11
-45.977265
 21
-97.347015
  0
LINE
  8
ガラス
  6
CONTINUOUS
 10
-111.582218
 20
-32.095605
 11
-46.154043
 21
-97.523793
  0
LINE
  8
ガラス
  6
CONTINUOUS
 10
-115.011792
 20
-33.120802
 11
-48.38143
 21
-99.75118
  0
LINE
  8
ガラス
  6
CONTINUOUS
 10
-114.835015
 20
-32.944025
 11
-48.204652
 21
-99.574402
  0
LINE
  8
ガラス
  6
CONTINUOUS
 10
-29.97759
 20
85.979065
 11
-27.674097
 21
94.575802
  0
LINE
  8
ガラス
  6
CONTINUOUS
 10
-25.656315
 20
90.5152
 11
-26.432765
 21
87.617423
  0
LINE
  8
ガラス
  6
CONTINUOUS
 10
-25.656315
 20
90.5152
 11
-29.330542
 21
88.393878
  0
LINE
  8
ガラス
  6
CONTINUOUS
 10
-28.554093
 20
91.291655
 11
-26.432765
 21
87.617423
  0
LINE
  8
ガラス
  6
CONTINUOUS
 10
-27.674097
 20
94.575802
 11
-13.47299
 21
90.77063
  0
LINE
  8
ガラス
  6
CONTINUOUS
 10
-27.738803
 20
94.33432
 11
-13.537695
 21
90.529147
  0
LINE
  8
ガラス
  6
CONTINUOUS
 10
-28.48938
 20
91.533137
 11
-14.288267
 21
87.727962
  0
LINE
  8
ガラス
  6
CONTINUOUS
 10
-28.554085
 20
91.291653
 11
-14.352975
 21
87.48648
  0
LINE
  8
ガラス
  6
CONTINUOUS
 10
-29.330542
 20
88.393878
 11
-15.12943
 21
84.588702
  0
LINE
  8
ガラス
  6
CONTINUOUS
 10
-29.395248
 20
88.152395
 11
-15.194135
 21
84.34722
  0
LINE
  8
ガラス
  6
CONTINUOUS
 10
-29.97759
 20
85.979065
 11
-15.776477
 21
82.17389
  0
LINE
  8
ガラス
  6
CONTINUOUS
 10
-29.912885
 20
86.220548
 11
-15.711773
 21
82.415373
  0
LINE
  8
ガラス
  6
CONTINUOUS
 10
-45.97604
 20
81.69229
 11
-52.269293
 21
87.985535
  0
LINE
  8
ガラス
  6
CONTINUOUS
 10
-114.481462
 20
25.773352
 11
-52.269293
 21
87.985535
  0
LINE
  8
ガラス
  6
CONTINUOUS
 10
-114.304685
 20
25.596575
 11
-52.092515
 21
87.808757
  0
LINE
  8
ガラス
  6
CONTINUOUS
 10
-111.051887
 20
24.748155
 11
-50.041905
 21
85.75815
  0
LINE
  8
ガラス
  6
CONTINUOUS
 10
-107.693027
 20
23.51081
 11
-47.743808
 21
83.460055
  0
LINE
  8
ガラス
  6
CONTINUOUS
 10
-107.51625
 20
23.334032
 11
-47.56703
 21
83.283278
  0
LINE
  8
ガラス
  6
CONTINUOUS
 10
-110.87511
 20
24.571378
 11
-49.865128
 21
85.581373
  0
LINE
  8
ガラス
  6
CONTINUOUS
 10
-105.0413
 20
22.627005
 11
-45.97604
 21
81.69229
  0
LINE
  8
ガラス
  6
CONTINUOUS
 10
-105.218077
 20
22.803782
 11
-46.152818
 21
81.869067
  0
LINE
  8
ガラス
  6
CONTINUOUS
 10
-51.986442
 20
83.460058
 11
-49.865128
 21
81.338735
  0
LINE
  8
ガラス
  6
CONTINUOUS
 10
-51.986442
 20
83.460058
 11
-47.743808
 21
83.460055
  0
LINE
  8
ガラス
  6
CONTINUOUS
 10
-49.865122
 20
85.581378
 11
-49.865128
 21
81.338735
  0
INSERT
  2
*GRP_0054
  8
ゴム等
  6
CONTINUOUS
 10
0.0
 20
0.0
  0
INSERT
  2
*GRP_0055
  8
ゴム等
  6
CONTINUOUS
 10
0.0
 20
0.0
  0
CIRCLE
  8
ボルト／ビス
  6
CONTINUOUS
 10
85.647608
 20
-3.40856
 40
2.88675
  0
CIRCLE
  8
ボルト／ビス
  6
CONTINUOUS
 10
85.647608
 20
-3.40856
 40
3.516905
  0
CIRCLE
  8
ボルト／ビス
  6
CONTINUOUS
 10
60.898868
 20
21.34018
 40
2.88675
  0
CIRCLE
  8
ボルト／ビス
  6
CONTINUOUS
 10
60.898868
 20
21.34018
 40
3.516905
  0
CIRCLE
  8
ボルト／ビス
  6
CONTINUOUS
 10
36.150128
 20
-3.40856
 40
2.88675
  0
CIRCLE
  8
ボルト／ビス
  6
CONTINUOUS
 10
36.150128
 20
-3.40856
 40
3.516905
  0
CIRCLE
  8
ボルト／ビス
  6
CONTINUOUS
 10
60.898868
 20
-28.1573
 40
2.88675
  0
CIRCLE
  8
ボルト／ビス
  6
CONTINUOUS
 10
60.898868
 20
-28.1573
 40
3.516905
  0
INSERT
  2
*GRP_0027
  8
ボルト／ビス
  6
CONTINUOUS
 10
0.0
 20
0.0
  0
INSERT
  2
*GRP_0028
  8
ボルト／ビス
  6
CONTINUOUS
 10
0.0
 20
0.0
  0
INSERT
  2
*GRP_0029
  8
ボルト／ビス
  6
CONTINUOUS
 10
0.0
 20
0.0
  0
INSERT
  2
*GRP_0031
  8
ボルト／ビス
  6
CONTINUOUS
 10
0.0
 20
0.0
  0
INSERT
  2
*GRP_0032
  8
ボルト／ビス
  6
CONTINUOUS
 10
0.0
 20
0.0
  0
INSERT
  2
*GRP_0033
  8
ボルト／ビス
  6
CONTINUOUS
 10
0.0
 20
0.0
  0
INSERT
  2
*GRP_0034
  8
ボルト／ビス
  6
CONTINUOUS
 10
0.0
 20
0.0
  0
INSERT
  2
*GRP_0035
  8
ボルト／ビス
  6
CONTINUOUS
 10
0.0
 20
0.0
  0
INSERT
  2
*GRP_0036
  8
ボルト／ビス
  6
CONTINUOUS
 10
0.0
 20
0.0
  0
INSERT
  2
*GRP_0046
  8
ボルト／ビス
  6
CONTINUOUS
 10
0.0
 20
0.0
  0
INSERT
  2
*GRP_0047
  8
ボルト／ビス
  6
CONTINUOUS
 10
0.0
 20
0.0
  0
INSERT
  2
*GRP_0048
  8
ボルト／ビス
  6
CONTINUOUS
 10
0.0
 20
0.0
  0
INSERT
  2
*GRP_0049
  8
ボルト／ビス
  6
CONTINUOUS
 10
0.0
 20
0.0
  0
INSERT
  2
*GRP_0050
  8
ボルト／ビス
  6
CONTINUOUS
 10
0.0
 20
0.0
  0
INSERT
  2
*GRP_0051
  8
ボルト／ビス
  6
CONTINUOUS
 10
0.0
 20
0.0
  0
INSERT
  2
*GRP_0052
  8
ボルト／ビス
  6
CONTINUOUS
 10
0.0
 20
0.0
  0
INSERT
  2
*GRP_0053
  8
ボルト／ビス
  6
CONTINUOUS
 10
0.0
 20
0.0
  0
INSERT
  2
*GRP_0003
  8
文字
  6
CONTINUOUS
 10
0.0
 20
0.0
  0
INSERT
  2
*GRP_0004
  8
文字
  6
CONTINUOUS
 10
0.0
 20
0.0
  0
INSERT
  2
*GRP_0005
  8
文字
  6
CONTINUOUS
 10
0.0
 20
0.0
  0
INSERT
  2
*GRP_0006
  8
文字
  6
CONTINUOUS
 10
0.0
 20
0.0
  0
TEXT
  7
TextStyle03
  8
文字
  6
CONTINUOUS
 10
-11.3
 20
77.875
  1
稜線フレーム
 40
4.0
 72
     5
 11
15.2
 21
77.875
  0
TEXT
  7
TextStyle03
  8
文字
  6
CONTINUOUS
 10
-15.85
 20
8.25
  1
M6×10ｽﾀｯﾄﾞﾎﾞﾙﾄ
 40
4.0
 72
     5
 11
17.65
 21
8.25
  0
TEXT
  7
TextStyle03
  8
文字
  6
CONTINUOUS
 10
-38.325
 20
20.3
  1
M6ﾎﾞﾙﾄ．ﾅｯﾄ.ﾜｯｼｬ.Ｓﾜｯｼｬ
 40
4.0
 72
     5
 11
13.175
 21
20.3
  0
TEXT
  7
TextStyle03
  8
文字
  6
CONTINUOUS
 10
-134.4
 20
23.05
  1
SUS-1.5t　H.L
 40
4.0
 50
90.0
 72
     5
 11
-134.4
 21
52.05
  0
TEXT
  7
TextStyle03
  8
文字
  6
CONTINUOUS
 10
-13.125
 20
-12.475
  1
SUS-1.5t　H.L
 40
3.5
 72
     5
 11
12.325
 21
-12.475
  0
TEXT
  7
TextStyle03
  8
文字
  6
CONTINUOUS
 10
-18.475
 20
-19.3
  1
FB-50×3.0t
 40
4.0
 72
     5
 11
6.025
 21
-19.3
  0
TEXT
  7
TextStyle03
  8
文字
  6
CONTINUOUS
 10
-18.475
 20
-23.8
  1
加工組み合わせ
 40
4.0
 72
     5
 11
12.525
 21
-23.8
  0
TEXT
  7
TextStyle03
  8
文字
  6
CONTINUOUS
 10
-10.8
 20
68.725
  1
TKR-1204S
 40
4.0
 72
     5
 11
9.2
 21
68.725
  0
TEXT
  7
TextStyle03
  8
文字
  6
CONTINUOUS
 10
24.0
 20
100.325
  1
ＮＳコード：ＮＳ４ＣＳ　ＮＳ４ＣＫＳ
 40
5.0
 72
     5
 11
124.625
 21
100.325
  0
TEXT
  7
TextStyle03
  8
文字
  6
CONTINUOUS
 10
24.875
 20
121.7
  1
シリーズ：ＳＴＦ４・ＳＴＦ４Ｋ
 40
5.0
 72
     5
 11
108.625
 21
121.7
  0
TEXT
  7
TextStyle03
  8
文字
  6
CONTINUOUS
 10
24.875
 20
116.075
  1
　　　　　四角錘ペアガラス（上下可動・固定）600～1600タイプ
 40
5.0
 72
     5
 11
190.1875
 21
116.075
  0
TEXT
  7
TextStyle03
  8
文字
  6
CONTINUOUS
 10
24.875
 20
110.45
  1
図面名　：頂部～稜線フレーム詳細図
 40
5.0
 72
     5
 11
119.875
 21
110.45
  0
INSERT
  2
*DIM_0011
  8
寸法
  6
CONTINUOUS
 10
0.0
 20
0.0
  0
INSERT
  2
*DIM_0012
  8
寸法
  6
CONTINUOUS
 10
0.0
 20
0.0
  0
INSERT
  2
*DIM_0013
  8
寸法
  6
CONTINUOUS
 10
0.0
 20
0.0
  0
INSERT
  2
*DIM_0014
  8
寸法
  6
CONTINUOUS
 10
0.0
 20
0.0
  0
INSERT
  2
*DIM_0015
  8
寸法
  6
CONTINUOUS
 10
0.0
 20
0.0
  0
INSERT
  2
*DIM_0016
  8
寸法
  6
CONTINUOUS
 10
0.0
 20
0.0
  0
INSERT
  2
*DIM_0017
  8
寸法
  6
CONTINUOUS
 10
0.0
 20
0.0
  0
INSERT
  2
*DIM_0018
  8
寸法
  6
CONTINUOUS
 10
0.0
 20
0.0
  0
INSERT
  2
*DIM_0019
  8
寸法
  6
CONTINUOUS
 10
0.0
 20
0.0
  0
INSERT
  2
*DIM_0020
  8
寸法
  6
CONTINUOUS
 10
0.0
 20
0.0
  0
INSERT
  2
*GRP_0021
  8
寸法
  6
CONTINUOUS
 10
0.0
 20
0.0
  0
INSERT
  2
*GRP_0022
  8
寸法
  6
CONTINUOUS
 10
0.0
 20
0.0
  0
INSERT
  2
*DIM_0023
  8
寸法
  6
CONTINUOUS
 10
0.0
 20
0.0
  0
INSERT
  2
*DIM_0024
  8
寸法
  6
CONTINUOUS
 10
0.0
 20
0.0
  0
INSERT
  2
*DIM_0025
  8
寸法
  6
CONTINUOUS
 10
0.0
 20
0.0
  0
INSERT
  2
*GRP_0026
  8
寸法
  6
CONTINUOUS
 10
0.0
 20
0.0
  0
INSERT
  2
*DIM_0037
  8
寸法
  6
CONTINUOUS
 10
0.0
 20
0.0
  0
INSERT
  2
*GRP_0038
  8
寸法
  6
CONTINUOUS
 10
0.0
 20
0.0
  0
INSERT
  2
*GRP_0039
  8
寸法
  6
CONTINUOUS
 10
0.0
 20
0.0
  0
INSERT
  2
*DIM_0040
  8
寸法
  6
CONTINUOUS
 10
0.0
 20
0.0
  0
INSERT
  2
*DIM_0041
  8
寸法
  6
CONTINUOUS
 10
0.0
 20
0.0
  0
INSERT
  2
*DIM_0042
  8
寸法
  6
CONTINUOUS
 10
0.0
 20
0.0
  0
INSERT
  2
*DIM_0043
  8
寸法
  6
CONTINUOUS
 10
0.0
 20
0.0
  0
INSERT
  2
*DIM_0044
  8
寸法
  6
CONTINUOUS
 10
0.0
 20
0.0
  0
INSERT
  2
*DIM_0045
  8
寸法
  6
CONTINUOUS
 10
0.0
 20
0.0
  0
INSERT
  2
*GRP_0056
  8
寸法
  6
CONTINUOUS
 10
0.0
 20
0.0
  0
LINE
  8
曲げ物
  6
CONTINUOUS
 10
-86.788998
 20
-44.774308
 11
-82.538998
 21
-44.774308
  0
LINE
  8
曲げ物
  6
CONTINUOUS
 10
-86.788998
 20
-45.834965
 11
-81.788998
 21
-45.834965
  0
LINE
  8
曲げ物
  6
CONTINUOUS
 10
-86.788998
 20
-45.834965
 11
-86.788998
 21
-38.763897
  0
LINE
  8
曲げ物
  6
CONTINUOUS
 10
-81.788998
 20
-45.834965
 11
-81.788998
 21
-3.40856
  0
LINE
  8
曲げ物
  6
CONTINUOUS
 10
-82.538998
 20
-44.774308
 11
-82.538998
 21
-3.40856
  0
LINE
  8
曲げ物
  6
DOT
 10
-86.788998
 20
-38.763897
 11
-86.788998
 21
-3.40856
  0
LINE
  8
曲げ物
  6
CONTINUOUS
 10
-86.788998
 20
37.957187
 11
-82.538998
 21
37.957187
  0
LINE
  8
曲げ物
  6
CONTINUOUS
 10
-86.788998
 20
39.017845
 11
-81.788998
 21
39.017845
  0
LINE
  8
曲げ物
  6
CONTINUOUS
 10
-86.788998
 20
39.017845
 11
-86.788998
 21
31.946777
  0
LINE
  8
曲げ物
  6
CONTINUOUS
 10
-81.788998
 20
39.017845
 11
-81.788998
 21
-3.40856
  0
LINE
  8
曲げ物
  6
CONTINUOUS
 10
-82.538998
 20
37.957187
 11
-82.538998
 21
-3.40856
  0
LINE
  8
曲げ物
  6
DOT
 10
-86.788998
 20
31.946777
 11
-86.788998
 21
-3.40856
  0
LINE
  8
曲げ物
  6
CONTINUOUS
 10
-81.788998
 20
-3.40856
 11
-107.538998
 21
-3.40856
  0
LINE
  8
曲げ物
  6
CONTINUOUS
 10
-107.538998
 20
-25.4639
 11
-94.238998
 21
-38.763897
  0
LINE
  8
曲げ物
  6
CONTINUOUS
 10
-82.538998
 20
-38.763897
 11
-94.238998
 21
-38.763897
  0
LINE
  8
曲げ物
  6
CONTINUOUS
 10
-82.538998
 20
-36.642575
 11
-96.36032
 21
-36.642575
  0
LINE
  8
曲げ物
  6
CONTINUOUS
 10
-107.538998
 20
18.64678
 11
-94.238998
 21
31.946777
  0
LINE
  8
曲げ物
  6
CONTINUOUS
 10
-107.538998
 20
-25.4639
 11
-107.538998
 21
18.64678
  0
LINE
  8
曲げ物
  6
CONTINUOUS
 10
-82.538998
 20
29.825455
 11
-96.36032
 21
29.825455
  0
LINE
  8
曲げ物
  6
CONTINUOUS
 10
-82.538998
 20
31.946777
 11
-94.238998
 21
31.946777
  0
LINE
  8
曲げ物
  6
DOT
 10
-82.538998
 20
-36.392573
 11
-83.288998
 21
-36.392573
  0
LINE
  8
曲げ物
  6
DOT
 10
-83.288998
 20
-36.392573
 11
-83.288998
 21
29.575455
  0
LINE
  8
曲げ物
  6
DOT
 10
-82.538998
 20
29.575455
 11
-83.288998
 21
29.575455
  0
LINE
  8
曲げ物
  6
CONTINUOUS
 10
60.898868
 20
-36.642583
 11
27.66485
 21
-3.40856
  0
LINE
  8
曲げ物
  6
CONTINUOUS
 10
60.898868
 20
29.82546
 11
94.13289
 21
-3.40856
  0
LINE
  8
曲げ物
  6
CONTINUOUS
 10
60.898868
 20
-36.642583
 11
95.193548
 21
-2.347897
  0
LINE
  8
曲げ物
  6
CONTINUOUS
 10
60.898868
 20
29.82546
 11
26.604188
 21
-4.46922
  0
ARC
  8
曲げ物
  6
CONTINUOUS
 10
60.898869
 20
-36.642577
 40
1.5
 50
225.0
 51
315.0
  0
ARC
  8
曲げ物
  6
CONTINUOUS
 10
60.898869
 20
29.825461
 40
1.5
 50
45.0
 51
135.0
  0
LINE
  8
曲げ物
  6
CONTINUOUS
 10
61.95953
 20
30.88612
 11
95.547103
 21
-2.701452
  0
ARC
  8
曲げ物
  6
CONTINUOUS
 10
94.839994
 20
-3.408558
 40
1.0
 50
315.0
 51
405.0
  0
LINE
  8
曲げ物
  6
CONTINUOUS
 10
26.250635
 20
-2.701452
 11
59.83821
 21
30.88612
  0
ARC
  8
曲げ物
  6
CONTINUOUS
 10
26.957743
 20
-3.408558
 40
1.0
 50
135.0
 51
225.0
  0
LINE
  8
曲げ物
  6
CONTINUOUS
 10
103.325278
 20
-3.40856
 11
102.264615
 21
-3.40856
  0
LINE
  8
曲げ物
  6
CONTINUOUS
 10
60.898868
 20
37.957187
 11
60.898868
 21
39.017845
  0
LINE
  8
曲げ物
  6
CONTINUOUS
 10
19.53312
 20
-3.40856
 11
18.472463
 21
-3.40856
  0
LINE
  8
曲げ物
  6
CONTINUOUS
 10
60.898868
 20
-45.834968
 11
60.898868
 21
-44.774308
  0
LINE
  8
曲げ物
  6
CONTINUOUS
 10
26.250635
 20
-4.115668
 11
60.898868
 21
-38.7639
  0
LINE
  8
曲げ物
  6
CONTINUOUS
 10
95.547103
 20
-4.115668
 11
60.898868
 21
-38.7639
  0
LINE
  8
曲げ物
  6
CONTINUOUS
 10
47.59887
 20
-25.4639
 11
48.659527
 21
-24.403243
  0
LINE
  8
曲げ物
  6
CONTINUOUS
 10
74.19887
 20
-25.4639
 11
73.138207
 21
-24.403243
  0
INSERT
  2
*HAT_0001
  8
曲げ物
 10
0.0
 20
0.0
  0
ARC
  8
曲げ物
  6
CONTINUOUS
 10
94.132888
 20
-3.408558
 40
1.5
 50
315.0
 51
405.0
  0
LINE
  8
曲げ物
  6
CONTINUOUS
 10
82.954212
 20
9.891438
 11
81.89355
 21
8.83078
  0
LINE
  8
曲げ物
  6
CONTINUOUS
 10
82.954212
 20
-16.70856
 11
81.89355
 21
-15.6479
  0
INSERT
  2
*HAT_0002
  8
曲げ物
 10
0.0
 20
0.0
  0
LINE
  8
曲げ物
  6
CONTINUOUS
 10
74.19887
 20
18.64678
 11
73.138207
 21
17.58612
  0
LINE
  8
曲げ物
  6
CONTINUOUS
 10
47.59887
 20
18.64678
 11
48.659527
 21
17.58612
  0
INSERT
  2
*HAT_0003
  8
曲げ物
 10
0.0
 20
0.0
  0
ARC
  8
曲げ物
  6
CONTINUOUS
 10
27.66485
 20
-3.408558
 40
1.5
 50
135.0
 51
225.0
  0
LINE
  8
曲げ物
  6
CONTINUOUS
 10
38.843527
 20
-16.70856
 11
39.90419
 21
-15.6479
  0
LINE
  8
曲げ物
  6
CONTINUOUS
 10
38.843527
 20
9.891438
 11
39.90419
 21
8.83078
  0
INSERT
  2
*HAT_0004
  8
曲げ物
 10
0.0
 20
0.0
  0
LINE
  8
曲げ物
  6
CONTINUOUS
 10
27.87698
 20
-3.40856
 11
60.898868
 21
-36.430447
  0
LINE
  8
曲げ物
  6
CONTINUOUS
 10
60.898868
 20
-36.430447
 11
93.920758
 21
-3.40856
  0
LINE
  8
曲げ物
  6
CONTINUOUS
 10
27.87698
 20
-3.40856
 11
60.898868
 21
29.61333
  0
LINE
  8
曲げ物
  6
CONTINUOUS
 10
93.920758
 20
-3.40856
 11
60.898868
 21
29.61333
  0
LINE
  8
曲げ物
  6
CONTINUOUS
 10
60.898868
 20
-44.774308
 11
51.096062
 21
-34.9715
  0
LINE
  8
曲げ物
  6
CONTINUOUS
 10
60.898868
 20
-45.834968
 11
50.565733
 21
-35.501832
  0
LINE
  8
曲げ物
  6
CONTINUOUS
 10
18.472463
 20
-3.40856
 11
28.805593
 21
-13.741693
  0
LINE
  8
曲げ物
  6
CONTINUOUS
 10
19.53312
 20
-3.40856
 11
29.335923
 21
-13.211362
  0
LINE
  8
曲げ物
  6
CONTINUOUS
 10
103.325278
 20
-3.40856
 11
92.992143
 21
6.924575
  0
LINE
  8
曲げ物
  6
CONTINUOUS
 10
102.264615
 20
-3.40856
 11
92.461813
 21
6.394245
  0
LINE
  8
曲げ物
  6
CONTINUOUS
 10
60.898868
 20
39.017845
 11
71.232005
 21
28.684713
  0
LINE
  8
曲げ物
  6
CONTINUOUS
 10
60.898868
 20
37.957187
 11
70.701675
 21
28.154383
  0
LINE
  8
曲げ物
  6
CONTINUOUS
 10
60.898868
 20
37.957187
 11
51.09606
 21
28.154383
  0
LINE
  8
曲げ物
  6
CONTINUOUS
 10
60.898868
 20
39.017845
 11
50.565733
 21
28.684713
  0
LINE
  8
曲げ物
  6
CONTINUOUS
 10
19.53312
 20
-3.40856
 11
29.335923
 21
6.394245
  0
LINE
  8
曲げ物
  6
CONTINUOUS
 10
18.472463
 20
-3.40856
 11
28.805595
 21
6.924573
  0
LINE
  8
曲げ物
  6
CONTINUOUS
 10
103.325278
 20
-3.40856
 11
92.992143
 21
-13.741695
  0
LINE
  8
曲げ物
  6
CONTINUOUS
 10
102.264615
 20
-3.40856
 11
92.46181
 21
-13.211362
  0
LINE
  8
曲げ物
  6
CONTINUOUS
 10
60.898868
 20
-45.834968
 11
71.232005
 21
-35.501832
  0
LINE
  8
曲げ物
  6
CONTINUOUS
 10
60.898868
 20
-44.774308
 11
70.701675
 21
-34.971503
  0
LINE
  8
曲げ物
  6
DOT
 10
79.813977
 20
13.031673
 11
78.753315
 21
11.971012
  0
LINE
  8
曲げ物
  6
DOT
 10
77.3391
 20
15.50655
 11
76.278442
 21
14.445888
  0
LINE
  8
曲げ物
  6
DOT
 10
77.073937
 20
15.241382
 11
79.54881
 21
12.766508
  0
LINE
  8
曲げ物
  6
DOT
 10
76.808772
 20
14.976217
 11
79.283648
 21
12.501345
  0
LINE
  8
曲げ物
  6
DOT
 10
76.543605
 20
14.711055
 11
79.018483
 21
12.236177
  0
LINE
  8
曲げ物
  6
DOT
 10
41.983757
 20
13.031673
 11
43.04442
 21
11.971012
  0
LINE
  8
曲げ物
  6
DOT
 10
44.458635
 20
15.50655
 11
45.519292
 21
14.445888
  0
LINE
  8
曲げ物
  6
DOT
 10
44.723798
 20
15.241382
 11
42.248925
 21
12.766508
  0
LINE
  8
曲げ物
  6
DOT
 10
44.988962
 20
14.976217
 11
42.514087
 21
12.501345
  0
LINE
  8
曲げ物
  6
DOT
 10
45.25413
 20
14.711055
 11
42.779253
 21
12.236177
  0
LINE
  8
曲げ物
  6
DOT
 10
41.983757
 20
-19.848793
 11
43.04442
 21
-18.788133
  0
LINE
  8
曲げ物
  6
DOT
 10
44.458635
 20
-22.32367
 11
45.519292
 21
-21.263008
  0
LINE
  8
曲げ物
  6
DOT
 10
44.723798
 20
-22.058503
 11
42.248925
 21
-19.583627
  0
LINE
  8
曲げ物
  6
DOT
 10
44.988962
 20
-21.793337
 11
42.514087
 21
-19.318465
  0
LINE
  8
曲げ物
  6
DOT
 10
45.25413
 20
-21.528175
 11
42.779253
 21
-19.053298
  0
LINE
  8
曲げ物
  6
DOT
 10
79.813977
 20
-19.848793
 11
78.753315
 21
-18.788133
  0
LINE
  8
曲げ物
  6
DOT
 10
77.3391
 20
-22.32367
 11
76.278442
 21
-21.263008
  0
LINE
  8
曲げ物
  6
DOT
 10
77.073937
 20
-22.058503
 11
79.54881
 21
-19.583627
  0
LINE
  8
曲げ物
  6
DOT
 10
76.808772
 20
-21.793337
 11
79.283648
 21
-19.318465
  0
LINE
  8
曲げ物
  6
DOT
 10
76.543605
 20
-21.528175
 11
79.018483
 21
-19.053298
  0
ARC
  8
St
  6
CONTINUOUS
 10
26.60419
 20
-4.469218
 40
0.186892
 50
45.0
 51
45.0
  0
ARC
  8
St
  6
CONTINUOUS
 10
26.60419
 20
-4.469218
 40
0.186892
 50
135.0
 51
315.0
  0
ARC
  8
St
  6
CONTINUOUS
 10
26.60419
 20
-4.469218
 40
0.320455
 50
45.0
 51
45.0
  0
ARC
  8
St
  6
CONTINUOUS
 10
26.60419
 20
-4.469218
 40
0.320455
 50
135.0
 51
315.0
  0
ARC
  8
St
  6
CONTINUOUS
 10
95.193548
 20
-2.347898
 40
0.186892
 50
225.0
 51
225.0
  0
ARC
  8
St
  6
CONTINUOUS
 10
95.193548
 20
-2.347898
 40
0.186892
 50
315.0
 51
495.0
  0
ARC
  8
St
  6
CONTINUOUS
 10
95.193548
 20
-2.347898
 40
0.320455
 50
225.0
 51
225.0
  0
ARC
  8
St
  6
CONTINUOUS
 10
95.193548
 20
-2.347898
 40
0.320455
 50
315.0
 51
495.0
  0
LINE
  8
St
  6
CONTINUOUS
 10
76.101668
 20
-25.682423
 11
75.041007
 21
-24.621763
  0
LINE
  8
St
  6
CONTINUOUS
 10
83.172732
 20
-18.61136
 11
82.112073
 21
-17.5507
  0
LINE
  8
St
  6
CONTINUOUS
 10
45.696068
 20
-25.682423
 11
46.756727
 21
-24.621763
  0
LINE
  8
St
  6
CONTINUOUS
 10
38.625002
 20
-18.61136
 11
39.685663
 21
-17.5507
  0
LINE
  8
St
  6
CONTINUOUS
 10
45.696068
 20
18.865302
 11
46.756727
 21
17.804643
  0
LINE
  8
St
  6
CONTINUOUS
 10
38.625002
 20
11.79424
 11
39.685663
 21
10.73358
  0
LINE
  8
St
  6
CONTINUOUS
 10
76.101668
 20
18.865302
 11
75.041007
 21
17.804643
  0
LINE
  8
St
  6
CONTINUOUS
 10
83.172732
 20
11.79424
 11
82.112073
 21
10.73358
  0
LINE
  8
St
  6
CONTINUOUS
 10
-104.434175
 20
-54.65856
 11
-103.903845
 21
-54.128233
  0
LINE
  8
St
  6
CONTINUOUS
 10
-104.434175
 20
47.841443
 11
-103.903845
 21
47.311112
  0
LINE
  8
St
  6
CONTINUOUS
 10
103.39887
 20
-45.90856
 11
18.39887
 21
-45.90856
  0
LINE
  8
St
  6
CONTINUOUS
 10
18.39887
 20
-45.90856
 11
18.39887
 21
39.09144
  0
LINE
  8
St
  6
CONTINUOUS
 10
18.39887
 20
39.09144
 11
103.39887
 21
39.09144
  0
LINE
  8
St
  6
CONTINUOUS
 10
103.39887
 20
-45.90856
 11
103.39887
 21
39.09144
  0
LINE
  8
St
  6
CONTINUOUS
 10
103.39887
 20
39.09144
 11
18.39887
 21
-45.90856
  0
LINE
  8
St
  6
CONTINUOUS
 10
18.39887
 20
39.09144
 11
103.39887
 21
-45.90856
  0
LINE
  8
St
  6
CONTINUOUS
 10
-113.184177
 20
39.09144
 11
-112.654338
 21
38.5616
  0
LINE
  8
St
  6
CONTINUOUS
 10
-155.684175
 20
-3.40856
 11
-113.184177
 21
39.09144
  0
LINE
  8
St
  6
CONTINUOUS
 10
-154.624497
 20
-3.40856
 11
-112.654338
 21
38.5616
  0
LINE
  8
St
  6
CONTINUOUS
 10
-113.184177
 20
39.09144
 11
-113.184177
 21
-3.40856
  0
LINE
  8
St
  6
CONTINUOUS
 10
-112.654338
 20
38.5616
 11
-112.654338
 21
-3.40856
  0
LINE
  8
St
  6
CONTINUOUS
 10
-113.184177
 20
-45.90856
 11
-113.184177
 21
-3.40856
  0
LINE
  8
St
  6
CONTINUOUS
 10
-112.654338
 20
-45.37872
 11
-112.654338
 21
-3.40856
  0
LINE
  8
St
  6
CONTINUOUS
 10
-113.184177
 20
-45.90856
 11
-112.654338
 21
-45.37872
  0
LINE
  8
St
  6
CONTINUOUS
 10
-154.624497
 20
-3.40856
 11
-112.654338
 21
-45.37872
  0
LINE
  8
St
  6
CONTINUOUS
 10
-155.684175
 20
-3.40856
 11
-113.184175
 21
-45.908558
  0
ARC
  8
St
  6
CONTINUOUS
 10
77.59596
 20
17.371011
 40
0.209479
 50
45.000083
 51
135.0
  0
ARC
  8
St
  6
CONTINUOUS
 10
77.59596
 20
17.371011
 40
0.352133
 50
45.000083
 51
135.0
  0
ARC
  8
St
  6
CONTINUOUS
 10
81.678441
 20
13.288532
 40
0.209479
 50
315.000018
 51
404.999935
  0
ARC
  8
St
  6
CONTINUOUS
 10
81.678441
 20
13.288532
 40
0.352133
 50
315.000018
 51
404.999935
  0
LINE
  8
St
  6
DOT
 10
78.399762
 20
16.56721
 11
77.339103
 21
15.506547
  0
LINE
  8
St
  6
DOT
 10
80.874638
 20
14.092335
 11
79.813977
 21
13.031673
  0
LINE
  8
St
  6
DOT
 10
78.134598
 20
16.302045
 11
80.609473
 21
13.82717
  0
LINE
  8
St
  6
DOT
 10
77.869433
 20
16.036878
 11
80.344307
 21
13.562003
  0
LINE
  8
St
  6
DOT
 10
77.604268
 20
15.771712
 11
80.079142
 21
13.296838
  0
ARC
  8
St
  6
CONTINUOUS
 10
44.201775
 20
17.371011
 40
0.209479
 50
45.0
 51
134.999917
  0
ARC
  8
St
  6
CONTINUOUS
 10
44.201775
 20
17.371011
 40
0.352133
 50
45.0
 51
134.999917
  0
ARC
  8
St
  6
CONTINUOUS
 10
40.119294
 20
13.288532
 40
0.209479
 50
135.000065
 51
224.999982
  0
ARC
  8
St
  6
CONTINUOUS
 10
40.119294
 20
13.288532
 40
0.352133
 50
135.000065
 51
224.999982
  0
LINE
  8
St
  6
DOT
 10
43.397972
 20
16.56721
 11
44.458633
 21
15.506547
  0
LINE
  8
St
  6
DOT
 10
40.923098
 20
14.092335
 11
41.983757
 21
13.031673
  0
LINE
  8
St
  6
DOT
 10
43.663138
 20
16.302045
 11
41.188263
 21
13.82717
  0
LINE
  8
St
  6
DOT
 10
43.928303
 20
16.036878
 11
41.453427
 21
13.562003
  0
LINE
  8
St
  6
DOT
 10
44.193468
 20
15.771712
 11
41.718592
 21
13.296838
  0
ARC
  8
St
  6
CONTINUOUS
 10
44.201775
 20
-24.188131
 40
0.209479
 50
225.000083
 51
315.0
  0
ARC
  8
St
  6
CONTINUOUS
 10
44.201775
 20
-24.188131
 40
0.352133
 50
225.000083
 51
315.0
  0
ARC
  8
St
  6
CONTINUOUS
 10
40.119294
 20
-20.105652
 40
0.209479
 50
135.000018
 51
224.999935
  0
ARC
  8
St
  6
CONTINUOUS
 10
40.119294
 20
-20.105652
 40
0.352133
 50
135.000018
 51
224.999935
  0
LINE
  8
St
  6
DOT
 10
43.397972
 20
-23.38433
 11
44.458633
 21
-22.323668
  0
LINE
  8
St
  6
DOT
 10
40.923098
 20
-20.909455
 11
41.983757
 21
-19.848793
  0
LINE
  8
St
  6
DOT
 10
43.663138
 20
-23.119165
 11
41.188263
 21
-20.64429
  0
LINE
  8
St
  6
DOT
 10
43.928303
 20
-22.853997
 11
41.453427
 21
-20.379122
  0
LINE
  8
St
  6
DOT
 10
44.193468
 20
-22.588832
 11
41.718592
 21
-20.113958
  0
ARC
  8
St
  6
CONTINUOUS
 10
77.59596
 20
-24.188131
 40
0.209479
 50
225.0
 51
314.999917
  0
ARC
  8
St
  6
CONTINUOUS
 10
77.59596
 20
-24.188131
 40
0.352133
 50
225.0
 51
314.999917
  0
ARC
  8
St
  6
CONTINUOUS
 10
81.678441
 20
-20.105652
 40
0.209479
 50
315.000065
 51
404.999982
  0
ARC
  8
St
  6
CONTINUOUS
 10
81.678441
 20
-20.105652
 40
0.352133
 50
315.000065
 51
404.999982
  0
LINE
  8
St
  6
DOT
 10
78.399762
 20
-23.38433
 11
77.339103
 21
-22.323668
  0
LINE
  8
St
  6
DOT
 10
80.874638
 20
-20.909455
 11
79.813977
 21
-19.848793
  0
LINE
  8
St
  6
DOT
 10
78.134598
 20
-23.119165
 11
80.609473
 21
-20.64429
  0
LINE
  8
St
  6
DOT
 10
77.869433
 20
-22.853997
 11
80.344307
 21
-20.379122
  0
LINE
  8
St
  6
DOT
 10
77.604268
 20
-22.588832
 11
80.079142
 21
-20.113958
  0
LINE
  8
その他部品等
  6
CONTINUOUS
 10
-46.231535
 20
104.98344
 11
-41.401905
 21
106.277537
  0
LINE
  8
その他部品等
  6
CONTINUOUS
 10
-45.172645
 20
101.031625
 11
-40.343018
 21
102.325722
  0
LINE
  8
その他部品等
  6
CONTINUOUS
 10
-44.618868
 20
98.964892
 11
-40.343018
 21
102.325722
  0
INSERT
  2
*HAT_0005
  8
その他部品等
 10
0.0
 20
0.0
  0
LINE
  8
その他部品等
  6
CONTINUOUS
 10
-19.459083
 20
96.256872
 11
-20.42965
 21
92.63466
  0
LINE
  8
その他部品等
  6
CONTINUOUS
 10
-21.874047
 20
96.90396
 11
-22.844615
 21
93.281747
  0
LINE
  8
その他部品等
  6
CONTINUOUS
 10
-24.047223
 20
97.486257
 11
-25.01779
 21
93.864048
  0
LINE
  8
その他部品等
  6
CONTINUOUS
 10
-25.01779
 20
93.864048
 11
-21.874047
 21
96.90396
  0
INSERT
  2
*HAT_0006
  8
その他部品等
 10
0.0
 20
0.0
  0
LINE
  8
その他部品等
  6
CONTINUOUS
 10
-60.224237
 20
85.33388
 11
-57.572592
 21
82.682235
  0
LINE
  8
その他部品等
  6
CONTINUOUS
 10
-58.45636
 20
87.101757
 11
-55.804715
 21
84.450113
  0
LINE
  8
その他部品等
  6
CONTINUOUS
 10
-56.865485
 20
88.69263
 11
-54.21384
 21
86.040985
  0
LINE
  8
その他部品等
  6
CONTINUOUS
 10
-55.804715
 20
84.450113
 11
-56.865485
 21
88.69263
  0
INSERT
  2
*HAT_0007
  8
その他部品等
 10
0.0
 20
0.0
  0
ENDSEC
  0
EOF
