  0
SECTION
  2
HEADER
  9
$EXTMIN
 10
-210.0
 20
-148.5
  9
$EXTMAX
 10
210.0
 20
148.5
  9
$PDMODE
 70
    32
  9
$PDSIZE
 40
1.5
  9
$LTSCALE
 40
10.0
  0
ENDSEC
  0
SECTION
  2
TABLES
  0
TABLE
  2
LTYPE
 70
    15
  0
LTYPE
  2
CONTINUOUS
 70
    64
  3
実線
 72
    65
 73
     0
 40
0.0
  0
LTYPE
  2
DASHED
 70
    64
  3
破線A
 72
    65
 73
     2
 40
0.6
 49
0.4
 49
-0.2
  0
LTYPE
  2
DASHEDX2
 70
    64
  3
破線B
 72
    65
 73
     2
 40
1.3
 49
0.9
 49
-0.4
  0
LTYPE
  2
DASHDOT
 70
    64
  3
１点鎖線A
 72
    65
 73
     4
 40
0.5375
 49
0.375
 49
-0.05
 49
0.0625
 49
-0.05
  0
LTYPE
  2
DASHDOTX2
 70
    64
  3
１点鎖線B
 72
    65
 73
     4
 40
1.075
 49
0.75
 49
-0.1
 49
0.125
 49
-0.1
  0
LTYPE
  2
DIVIDE2
 70
    64
  3
２点鎖線A
 72
    65
 73
     6
 40
0.5125
 49
0.3
 49
-0.0375
 49
0.05
 49
-0.0375
 49
0.05
 49
-0.0375
  0
LTYPE
  2
DIVIDE
 70
    64
  3
２点鎖線B
 72
    65
 73
     6
 40
1.05
 49
0.55
 49
-0.1
 49
0.1
 49
-0.1
 49
0.1
 49
-0.1
  0
LTYPE
  2
DOT
 70
    64
  3
点線A
 72
    65
 73
     2
 40
0.1125
 49
0.0625
 49
-0.05
  0
LTYPE
  2
DOTX2
 70
    64
  3
点線B
 72
    65
 73
     2
 40
0.275
 49
0.15
 49
-0.125
  0
LTYPE
  2
CONTINUOUS
 70
    64
  3
実線
 72
    65
 73
     0
 40
0.0
  0
LTYPE
  2
CONTINUOUS
 70
    64
  3
実線
 72
    65
 73
     0
 40
0.0
  0
LTYPE
  2
CONTINUOUS
 70
    64
  3
実線
 72
    65
 73
     0
 40
0.0
  0
LTYPE
  2
CONTINUOUS
 70
    64
  3
実線
 72
    65
 73
     0
 40
0.0
  0
LTYPE
  2
CONTINUOUS
 70
    64
  3
実線
 72
    65
 73
     0
 40
0.0
  0
LTYPE
  2
CONTINUOUS
 70
    64
  3
実線
 72
    65
 73
     0
 40
0.0
  0
ENDTAB
  0
TABLE
  2
LAYER
 70
    34
  0
LAYER
  2
通り芯
 70
     0
 62
    15
  6
CONTINUOUS
  0
LAYER
  2
補助線
 70
     0
 62
    16
  6
DOT
  0
LAYER
  2
躯体
 70
     0
 62
    31
  6
CONTINUOUS
  0
LAYER
  2
型材
 70
     0
 62
    32
  6
CONTINUOUS
  0
LAYER
  2
型材断面
 70
     0
 62
    47
  6
CONTINUOUS
  0
LAYER
  2
ガラス
 70
     0
 62
    48
  6
CONTINUOUS
  0
LAYER
  2
ゴム等
 70
     0
 62
    63
  6
CONTINUOUS
  0
LAYER
  2
ボルト／ビス
 70
     0
 62
    64
  6
CONTINUOUS
  0
LAYER
  2
文字
 70
     0
 62
    79
  6
CONTINUOUS
  0
LAYER
  2
寸法
 70
     0
 62
    80
  6
CONTINUOUS
  0
LAYER
  2
ﾊｯﾁﾝｸﾞ
 70
     0
 62
    95
  6
CONTINUOUS
  0
LAYER
  2
別途部材
 70
     0
 62
    96
  6
CONTINUOUS
  0
LAYER
  2
曲げ物
 70
     0
 62
   111
  6
CONTINUOUS
  0
LAYER
  2
鉄骨等
 70
     0
 62
   112
  6
CONTINUOUS
  0
LAYER
  2
St
 70
     0
 62
   127
  6
CONTINUOUS
  0
LAYER
  2
その他部品等
 70
     0
 62
   128
  6
CONTINUOUS
  0
LAYER
  2
ｶﾞｽｹｯﾄ
 70
     0
 62
   143
  6
CONTINUOUS
  0
LAYER
  2
ｽｹｯﾁ
 70
     0
 62
    14
  6
CONTINUOUS
  0
LAYER
  2
0
 70
     0
 62
    17
  6
CONTINUOUS
  0
LAYER
  2
1
 70
     0
 62
    30
  6
CONTINUOUS
  0
LAYER
  2
4
 70
     0
 62
    33
  6
CONTINUOUS
  0
LAYER
  2
ﾚｲﾔ3
 70
     0
 62
    46
  6
CONTINUOUS
  0
LAYER
  2
外形線
 70
     0
 62
    49
  6
CONTINUOUS
  0
LAYER
  2
部品
 70
     0
 62
    14
  6
CONTINUOUS
  0
LAYER
  2
サッシ芯
 70
     0
 62
    17
  6
DASHDOTX2
  0
LAYER
  2
寸法線
 70
     0
 62
    62
  6
CONTINUOUS
  0
LAYER
  2
姿図外形線
 70
     0
 62
    65
  6
CONTINUOUS
  0
LAYER
  2
姿補助線
 70
     0
 62
    30
  6
CONTINUOUS
  0
LAYER
  2
透視線
 70
     0
 62
    78
  6
DOT
  0
LAYER
  2
用紙
 70
     0
 62
    81
  6
CONTINUOUS
  0
LAYER
  2
実線図枠
 70
     0
 62
    94
  6
CONTINUOUS
  0
LAYER
  2
補助図枠
 70
     0
 62
    97
  6
CONTINUOUS
  0
LAYER
  2
建具記号
 70
     0
 62
   110
  6
CONTINUOUS
  0
LAYER
  2
補助文字
 70
     0
 62
   113
  6
CONTINUOUS
  0
ENDTAB
  0
TABLE
  2
STYLE
 70
    10
  0
STYLE
  2
STANDARD
 70
     0
 40
1.0
 41
1.0
 42
1.0
 50
0.0
 71
     0
  3
TXT
  4
BIGFONT
  0
STYLE
  2
TATE
 70
     4
 40
1.0
 41
1.0
 42
1.0
 50
0.0
 71
     0
  3
TXT
  4
BIGFONT
  0
STYLE
  2
TextStyle03
 70
     0
 40
1.0
 41
1.0
 42
1.0
 50
0.0
 71
     0
  3
MONOTXT
  4
BIGFONT
  0
STYLE
  2
TextStyle04
 70
     0
 40
1.0
 41
1.0
 42
1.0
 50
0.0
 71
     0
  3
MONOTXT
  4
BIGFONT
  0
STYLE
  2
TextStyle05
 70
     0
 40
1.0
 41
1.0
 42
1.0
 50
0.0
 71
     0
  3
MONOTXT
  4
BIGFONT
  0
STYLE
  2
TextStyle06
 70
     0
 40
1.0
 41
1.0
 42
1.0
 50
0.0
 71
     0
  3
MONOTXT
  4
BIGFONT
  0
STYLE
  2
TextStyle07
 70
     0
 40
1.0
 41
1.0
 42
1.0
 50
0.0
 71
     0
  3
MONOTXT
  4
BIGFONT
  0
STYLE
  2
TextStyle08
 70
     0
 40
1.0
 41
1.0
 42
1.0
 50
0.0
 71
     0
  3
MONOTXT
  4
BIGFONT
  0
STYLE
  2
TextStyle09
 70
     0
 40
1.0
 41
1.0
 42
1.0
 50
0.0
 71
     0
  3
MONOTXT
  4
BIGFONT
  0
STYLE
  2
TextStyle10
 70
     0
 40
1.0
 41
1.0
 42
1.0
 50
0.0
 71
     0
  3
MONOTXT
  4
BIGFONT
  0
ENDTAB
  0
ENDSEC
  0
SECTION
  2
BLOCKS
  0
BLOCK
  2
*HAT_0001
 70
    65
 10
0.0
 20
0.0
  0
LINE
  8
曲げ物
 10
74.025
 20
-25.325
 11
72.25
 21
-25.275
  0
LINE
  8
曲げ物
 10
49.575
 20
-25.275
 11
47.775
 21
-25.25
  0
LINE
  8
曲げ物
 10
73.425
 20
-26.25
 11
71.275
 21
-26.25
  0
LINE
  8
曲げ物
 10
72.4
 20
-27.275
 11
70.275
 21
-27.275
  0
LINE
  8
曲げ物
 10
71.4
 20
-28.275
 11
69.25
 21
-28.275
  0
LINE
  8
曲げ物
 10
70.375
 20
-29.3
 11
68.25
 21
-29.3
  0
LINE
  8
曲げ物
 10
69.4
 20
-30.275
 11
67.275
 21
-30.275
  0
LINE
  8
曲げ物
 10
68.4
 20
-31.275
 11
66.25
 21
-31.275
  0
LINE
  8
曲げ物
 10
67.425
 20
-32.25
 11
65.275
 21
-32.25
  0
LINE
  8
曲げ物
 10
66.4
 20
-33.275
 11
64.275
 21
-33.275
  0
LINE
  8
曲げ物
 10
65.4
 20
-34.275
 11
63.25
 21
-34.275
  0
LINE
  8
曲げ物
 10
64.425
 20
-35.25
 11
62.275
 21
-35.25
  0
LINE
  8
曲げ物
 10
63.4
 20
-36.275
 11
61.275
 21
-36.275
  0
LINE
  8
曲げ物
 10
50.575
 20
-26.3
 11
48.45
 21
-26.3
  0
LINE
  8
曲げ物
 10
51.55
 20
-27.275
 11
49.425
 21
-27.275
  0
LINE
  8
曲げ物
 10
52.575
 20
-28.275
 11
50.425
 21
-28.275
  0
LINE
  8
曲げ物
 10
53.55
 20
-29.25
 11
51.4
 21
-29.25
  0
LINE
  8
曲げ物
 10
54.55
 20
-30.275
 11
52.425
 21
-30.275
  0
LINE
  8
曲げ物
 10
55.575
 20
-31.275
 11
53.425
 21
-31.275
  0
LINE
  8
曲げ物
 10
56.55
 20
-32.3
 11
54.45
 21
-32.3
  0
LINE
  8
曲げ物
 10
57.55
 20
-33.275
 11
55.425
 21
-33.275
  0
LINE
  8
曲げ物
 10
58.575
 20
-34.275
 11
56.425
 21
-34.275
  0
LINE
  8
曲げ物
 10
59.55
 20
-35.25
 11
57.4
 21
-35.25
  0
LINE
  8
曲げ物
 10
60.55
 20
-36.275
 11
58.425
 21
-36.275
  0
LINE
  8
曲げ物
 10
62.425
 20
-37.25
 11
59.425
 21
-37.275
  0
LINE
  8
曲げ物
 10
61.425
 20
-38.25
 11
60.45
 21
-38.3
  0
ENDBLK
  0
BLOCK
  2
*HAT_0002
 70
    65
 10
0.0
 20
0.0
  0
LINE
  8
曲げ物
 10
82.8
 20
-16.575
 11
82.75
 21
-14.775
  0
LINE
  8
曲げ物
 10
82.75
 20
7.9
 11
82.725
 21
9.675
  0
LINE
  8
曲げ物
 10
83.725
 20
-15.95
 11
83.725
 21
-13.8
  0
LINE
  8
曲げ物
 10
84.75
 20
-14.925
 11
84.75
 21
-12.8
  0
LINE
  8
曲げ物
 10
85.75
 20
-13.925
 11
85.75
 21
-11.775
  0
LINE
  8
曲げ物
 10
86.775
 20
-12.9
 11
86.775
 21
-10.775
  0
LINE
  8
曲げ物
 10
87.75
 20
-11.925
 11
87.75
 21
-9.8
  0
LINE
  8
曲げ物
 10
88.75
 20
-10.925
 11
88.75
 21
-8.775
  0
LINE
  8
曲げ物
 10
89.725
 20
-9.95
 11
89.725
 21
-7.8
  0
LINE
  8
曲げ物
 10
90.75
 20
-8.925
 11
90.75
 21
-6.8
  0
LINE
  8
曲げ物
 10
91.75
 20
-7.925
 11
91.75
 21
-5.775
  0
LINE
  8
曲げ物
 10
92.725
 20
-6.95
 11
92.725
 21
-4.8
  0
LINE
  8
曲げ物
 10
93.75
 20
-5.925
 11
93.75
 21
-3.8
  0
LINE
  8
曲げ物
 10
83.775
 20
6.9
 11
83.775
 21
9.025
  0
LINE
  8
曲げ物
 10
84.75
 20
5.925
 11
84.75
 21
8.05
  0
LINE
  8
曲げ物
 10
85.75
 20
4.9
 11
85.75
 21
7.05
  0
LINE
  8
曲げ物
 10
86.725
 20
3.925
 11
86.725
 21
6.075
  0
LINE
  8
曲げ物
 10
87.75
 20
2.925
 11
87.75
 21
5.05
  0
LINE
  8
曲げ物
 10
88.75
 20
1.9
 11
88.75
 21
4.05
  0
LINE
  8
曲げ物
 10
89.775
 20
0.9
 11
89.775
 21
3.025
  0
LINE
  8
曲げ物
 10
90.75
 20
-0.075
 11
90.75
 21
2.05
  0
LINE
  8
曲げ物
 10
91.75
 20
-1.1
 11
91.75
 21
1.05
  0
LINE
  8
曲げ物
 10
92.725
 20
-2.075
 11
92.725
 21
0.075
  0
LINE
  8
曲げ物
 10
93.75
 20
-3.075
 11
93.75
 21
-0.95
  0
LINE
  8
曲げ物
 10
94.725
 20
-4.95
 11
94.75
 21
-1.95
  0
LINE
  8
曲げ物
 10
95.725
 20
-3.95
 11
95.775
 21
-2.975
  0
ENDBLK
  0
BLOCK
  2
*HAT_0003
 70
    65
 10
0.0
 20
0.0
  0
LINE
  8
曲げ物
 10
47.775
 20
18.475
 11
49.5
 21
18.475
  0
LINE
  8
曲げ物
 10
72.225
 20
18.45
 11
73.975
 21
18.45
  0
LINE
  8
曲げ物
 10
48.375
 20
19.45
 11
50.5
 21
19.45
  0
LINE
  8
曲げ物
 10
49.375
 20
20.475
 11
51.475
 21
20.475
  0
LINE
  8
曲げ物
 10
50.4
 20
21.45
 11
52.5
 21
21.45
  0
LINE
  8
曲げ物
 10
51.4
 20
22.45
 11
53.5
 21
22.45
  0
LINE
  8
曲げ物
 10
52.375
 20
23.425
 11
54.475
 21
23.425
  0
LINE
  8
曲げ物
 10
53.4
 20
24.45
 11
55.5
 21
24.45
  0
LINE
  8
曲げ物
 10
54.375
 20
25.45
 11
56.475
 21
25.45
  0
LINE
  8
曲げ物
 10
55.375
 20
26.425
 11
57.475
 21
26.425
  0
LINE
  8
曲げ物
 10
56.4
 20
27.45
 11
58.5
 21
27.45
  0
LINE
  8
曲げ物
 10
57.375
 20
28.425
 11
59.475
 21
28.425
  0
LINE
  8
曲げ物
 10
58.375
 20
29.425
 11
60.475
 21
29.425
  0
LINE
  8
曲げ物
 10
71.25
 20
19.45
 11
73.35
 21
19.45
  0
LINE
  8
曲げ物
 10
70.225
 20
20.425
 11
72.375
 21
20.425
  0
LINE
  8
曲げ物
 10
69.225
 20
21.45
 11
71.35
 21
21.45
  0
LINE
  8
曲げ物
 10
68.25
 20
22.45
 11
70.35
 21
22.45
  0
LINE
  8
曲げ物
 10
67.225
 20
23.425
 11
69.325
 21
23.425
  0
LINE
  8
曲げ物
 10
66.25
 20
24.45
 11
68.35
 21
24.45
  0
LINE
  8
曲げ物
 10
65.25
 20
25.45
 11
67.35
 21
25.45
  0
LINE
  8
曲げ物
 10
64.275
 20
26.425
 11
66.375
 21
26.425
  0
LINE
  8
曲げ物
 10
63.25
 20
27.45
 11
65.35
 21
27.45
  0
LINE
  8
曲げ物
 10
62.25
 20
28.425
 11
64.35
 21
28.425
  0
LINE
  8
曲げ物
 10
61.275
 20
29.425
 11
63.375
 21
29.425
  0
LINE
  8
曲げ物
 10
59.35
 20
30.4
 11
62.35
 21
30.4
  0
LINE
  8
曲げ物
 10
60.375
 20
31.425
 11
61.35
 21
31.425
  0
ENDBLK
  0
BLOCK
  2
*HAT_0004
 70
    65
 10
0.0
 20
0.0
  0
LINE
  8
曲げ物
 10
39.0
 20
9.7
 11
39.0
 21
7.975
  0
LINE
  8
曲げ物
 10
39.025
 20
-14.75
 11
39.025
 21
-16.5
  0
LINE
  8
曲げ物
 10
38.025
 20
9.1
 11
38.025
 21
6.975
  0
LINE
  8
曲げ物
 10
37.0
 20
8.1
 11
37.0
 21
5.95
  0
LINE
  8
曲げ物
 10
36.0
 20
7.075
 11
36.0
 21
4.975
  0
LINE
  8
曲げ物
 10
35.025
 20
6.075
 11
35.025
 21
3.975
  0
LINE
  8
曲げ物
 10
34.0
 20
5.1
 11
34.0
 21
3.0
  0
LINE
  8
曲げ物
 10
33.025
 20
4.075
 11
33.025
 21
1.975
  0
LINE
  8
曲げ物
 10
32.025
 20
3.1
 11
32.025
 21
1.0
  0
LINE
  8
曲げ物
 10
31.05
 20
2.1
 11
31.05
 21
0.0
  0
LINE
  8
曲げ物
 10
30.025
 20
1.075
 11
30.025
 21
-1.025
  0
LINE
  8
曲げ物
 10
29.05
 20
0.1
 11
29.05
 21
-2.0
  0
LINE
  8
曲げ物
 10
28.05
 20
-0.9
 11
28.05
 21
-3.0
  0
LINE
  8
曲げ物
 10
38.025
 20
-13.775
 11
38.025
 21
-15.875
  0
LINE
  8
曲げ物
 10
37.05
 20
-12.75
 11
37.05
 21
-14.9
  0
LINE
  8
曲げ物
 10
36.025
 20
-11.775
 11
36.025
 21
-13.875
  0
LINE
  8
曲げ物
 10
35.025
 20
-10.775
 11
35.025
 21
-12.875
  0
LINE
  8
曲げ物
 10
34.0
 20
-9.75
 11
34.0
 21
-11.85
  0
LINE
  8
曲げ物
 10
33.025
 20
-8.775
 11
33.025
 21
-10.875
  0
LINE
  8
曲げ物
 10
32.025
 20
-7.775
 11
32.025
 21
-9.875
  0
LINE
  8
曲げ物
 10
31.05
 20
-6.8
 11
31.05
 21
-8.9
  0
LINE
  8
曲げ物
 10
30.025
 20
-5.775
 11
30.025
 21
-7.875
  0
LINE
  8
曲げ物
 10
29.05
 20
-4.775
 11
29.05
 21
-6.875
  0
LINE
  8
曲げ物
 10
28.05
 20
-3.8
 11
28.05
 21
-5.9
  0
LINE
  8
曲げ物
 10
27.025
 20
-1.875
 11
27.025
 21
-4.875
  0
LINE
  8
曲げ物
 10
26.05
 20
-2.9
 11
26.05
 21
-3.9
  0
ENDBLK
  0
BLOCK
  2
*HAT_0005
 70
    65
 10
0.0
 20
0.0
  0
LINE
  8
その他部品等
 10
-24.025
 20
112.5
 11
-23.9
 21
112.65
  0
LINE
  8
その他部品等
 10
-25.375
 20
112.125
 11
-24.25
 21
114.025
  0
LINE
  8
その他部品等
 10
-26.725
 20
111.775
 11
-24.625
 21
115.4
  0
LINE
  8
その他部品等
 10
-28.1
 20
111.4
 11
-25.85
 21
115.275
  0
LINE
  8
その他部品等
 10
-28.9
 20
112.0
 11
-27.2
 21
114.925
  0
LINE
  8
その他部品等
 10
-29.275
 20
113.35
 11
-28.575
 21
114.55
  0
LINE
  8
その他部品等
 10
-29.0
 20
112.2
 11
-27.75
 21
111.475
  0
LINE
  8
その他部品等
 10
-29.35
 20
113.525
 11
-26.4
 21
111.85
  0
LINE
  8
その他部品等
 10
-28.9
 20
114.475
 11
-25.025
 21
112.225
  0
LINE
  8
その他部品等
 10
-27.55
 20
114.825
 11
-23.95
 21
112.725
  0
LINE
  8
その他部品等
 10
-26.2
 20
115.2
 11
-24.3
 21
114.125
  0
LINE
  8
その他部品等
 10
-24.825
 20
115.575
 11
-24.675
 21
115.475
  0
ENDBLK
  0
BLOCK
  2
*HAT_0006
 70
    65
 10
0.0
 20
0.0
  0
LINE
  8
その他部品等
 10
-10.575
 20
103.8
 11
-10.175
 21
104.2
  0
LINE
  8
その他部品等
 10
-11.675
 20
104.1
 11
-9.675
 21
106.125
  0
LINE
  8
その他部品等
 10
-12.8
 20
104.4
 11
-9.725
 21
107.45
  0
LINE
  8
その他部品等
 10
-13.35
 20
105.25
 11
-10.85
 21
107.75
  0
LINE
  8
その他部品等
 10
-12.825
 20
107.175
 11
-11.95
 21
108.05
  0
LINE
  8
その他部品等
 10
-13.4
 20
105.125
 11
-12.6
 21
104.35
  0
LINE
  8
その他部品等
 10
-13.1
 20
106.25
 11
-10.675
 21
103.825
  0
LINE
  8
その他部品等
 10
-12.8
 20
107.375
 11
-10.075
 21
104.65
  0
LINE
  8
その他部品等
 10
-12.125
 20
108.1
 11
-9.775
 21
105.75
  0
LINE
  8
その他部品等
 10
-10.175
 20
107.575
 11
-9.475
 21
106.875
  0
ENDBLK
  0
BLOCK
  2
*HAT_0007
 70
    65
 10
0.0
 20
0.0
  0
LINE
  8
その他部品等
 10
-35.85
 20
97.025
 11
-36.4
 21
97.175
  0
LINE
  8
その他部品等
 10
-35.05
 20
97.825
 11
-37.8
 21
98.6
  0
LINE
  8
その他部品等
 10
-34.225
 20
98.65
 11
-38.425
 21
99.75
  0
LINE
  8
その他部品等
 10
-34.175
 20
99.675
 11
-37.6
 21
100.575
  0
LINE
  8
その他部品等
 10
-35.6
 20
101.075
 11
-36.8
 21
101.4
  0
LINE
  8
その他部品等
 10
-34.075
 20
99.575
 11
-34.375
 21
98.525
  0
LINE
  8
その他部品等
 10
-34.9
 20
100.4
 11
-35.775
 21
97.1
  0
LINE
  8
その他部品等
 10
-35.725
 20
101.225
 11
-36.725
 21
97.5
  0
LINE
  8
その他部品等
 10
-36.65
 20
101.525
 11
-37.525
 21
98.325
  0
LINE
  8
その他部品等
 10
-38.1
 20
100.1
 11
-38.35
 21
99.15
  0
ENDBLK
  0
BLOCK
  2
*GRP_0001
 70
    65
 10
0.0
 20
0.0
  0
LINE
  8
型材断面
  6
CONTINUOUS
 10
195.0
 20
133.5
 11
195.0
 21
-133.5
  0
LINE
  8
型材断面
  6
CONTINUOUS
 10
195.0
 20
-133.5
 11
-185.0
 21
-133.5
  0
LINE
  8
型材断面
  6
CONTINUOUS
 10
-185.0
 20
-133.5
 11
-185.0
 21
133.5
  0
LINE
  8
型材断面
  6
CONTINUOUS
 10
195.0
 20
133.5
 11
-185.0
 21
133.5
  0
LINE
  8
型材断面
  6
CONTINUOUS
 10
145.0
 20
-133.5
 11
145.0
 21
-118.5
  0
LINE
  8
型材断面
  6
CONTINUOUS
 10
195.0
 20
-118.5
 11
145.0
 21
-118.5
  0
ENDBLK
  0
BLOCK
  2
*GRP_0002
 70
    65
 10
0.0
 20
0.0
  0
LINE
  8
補助線
  6
BYBLOCK
 62
     0
 10
-100.038998
 20
-18.658587
 11
-100.038998
 21
-25.988713
  0
LINE
  8
補助線
  6
BYBLOCK
 62
     0
 10
-103.70406
 20
-22.32365
 11
-96.373938
 21
-22.32365
  0
ENDBLK
  0
BLOCK
  2
*GRP_0003
 70
    65
 10
0.0
 20
0.0
  0
LINE
  8
補助線
  6
BYBLOCK
 62
     0
 10
-100.038998
 20
19.171593
 11
-100.038998
 21
11.841467
  0
LINE
  8
補助線
  6
BYBLOCK
 62
     0
 10
-103.70406
 20
15.50653
 11
-96.373938
 21
15.50653
  0
ENDBLK
  0
BLOCK
  2
*GRP_0004
 70
    65
 10
0.0
 20
0.0
  0
INSERT
  2
*GRP_0008
  8
補助線
  6
CONTINUOUS
 10
0.0
 20
0.0
  0
LINE
  8
ボルト／ビス
  6
CONTINUOUS
 10
33.263378
 20
-3.40856
 11
34.706753
 21
-5.90856
  0
LINE
  8
ボルト／ビス
  6
CONTINUOUS
 10
33.263378
 20
-3.40856
 11
34.706753
 21
-0.908558
  0
LINE
  8
ボルト／ビス
  6
CONTINUOUS
 10
37.593503
 20
-5.90856
 11
39.036882
 21
-3.40856
  0
LINE
  8
ボルト／ビス
  6
CONTINUOUS
 10
37.593503
 20
-0.908558
 11
39.036882
 21
-3.40856
  0
CIRCLE
  8
ボルト／ビス
  6
CONTINUOUS
 10
36.150128
 20
-3.40856
 40
2.500002
  0
LINE
  8
ボルト／ビス
  6
CONTINUOUS
 10
34.706753
 20
-0.908558
 11
37.593503
 21
-0.908558
  0
LINE
  8
ボルト／ビス
  6
CONTINUOUS
 10
37.593503
 20
-5.90856
 11
34.706753
 21
-5.90856
  0
ENDBLK
  0
BLOCK
  2
*GRP_0005
 70
    65
 10
0.0
 20
0.0
  0
INSERT
  2
*GRP_0009
  8
補助線
  6
CONTINUOUS
 10
0.0
 20
0.0
  0
LINE
  8
ボルト／ビス
  6
CONTINUOUS
 10
58.012118
 20
21.34018
 11
59.455493
 21
18.84018
  0
LINE
  8
ボルト／ビス
  6
CONTINUOUS
 10
58.012118
 20
21.34018
 11
59.455493
 21
23.840183
  0
LINE
  8
ボルト／ビス
  6
CONTINUOUS
 10
62.342243
 20
18.84018
 11
63.785622
 21
21.34018
  0
LINE
  8
ボルト／ビス
  6
CONTINUOUS
 10
62.342243
 20
23.840183
 11
63.785622
 21
21.34018
  0
CIRCLE
  8
ボルト／ビス
  6
CONTINUOUS
 10
60.898868
 20
21.34018
 40
2.500002
  0
LINE
  8
ボルト／ビス
  6
CONTINUOUS
 10
59.455493
 20
23.840183
 11
62.342243
 21
23.840183
  0
LINE
  8
ボルト／ビス
  6
CONTINUOUS
 10
62.342243
 20
18.84018
 11
59.455493
 21
18.84018
  0
ENDBLK
  0
BLOCK
  2
*GRP_0006
 70
    65
 10
0.0
 20
0.0
  0
INSERT
  2
*GRP_0010
  8
補助線
  6
CONTINUOUS
 10
0.0
 20
0.0
  0
LINE
  8
ボルト／ビス
  6
CONTINUOUS
 10
82.760858
 20
-3.40856
 11
84.204233
 21
-5.90856
  0
LINE
  8
ボルト／ビス
  6
CONTINUOUS
 10
82.760858
 20
-3.40856
 11
84.204233
 21
-0.908558
  0
LINE
  8
ボルト／ビス
  6
CONTINUOUS
 10
87.090983
 20
-5.90856
 11
88.534362
 21
-3.40856
  0
LINE
  8
ボルト／ビス
  6
CONTINUOUS
 10
87.090983
 20
-0.908558
 11
88.534362
 21
-3.40856
  0
CIRCLE
  8
ボルト／ビス
  6
CONTINUOUS
 10
85.647608
 20
-3.40856
 40
2.500002
  0
LINE
  8
ボルト／ビス
  6
CONTINUOUS
 10
84.204233
 20
-0.908558
 11
87.090983
 21
-0.908558
  0
LINE
  8
ボルト／ビス
  6
CONTINUOUS
 10
87.090983
 20
-5.90856
 11
84.204233
 21
-5.90856
  0
ENDBLK
  0
BLOCK
  2
*GRP_0007
 70
    65
 10
0.0
 20
0.0
  0
INSERT
  2
*GRP_0011
  8
補助線
  6
CONTINUOUS
 10
0.0
 20
0.0
  0
LINE
  8
ボルト／ビス
  6
CONTINUOUS
 10
58.012118
 20
-28.1573
 11
59.455493
 21
-30.6573
  0
LINE
  8
ボルト／ビス
  6
CONTINUOUS
 10
58.012118
 20
-28.1573
 11
59.455493
 21
-25.657298
  0
LINE
  8
ボルト／ビス
  6
CONTINUOUS
 10
62.342243
 20
-30.6573
 11
63.785622
 21
-28.1573
  0
LINE
  8
ボルト／ビス
  6
CONTINUOUS
 10
62.342243
 20
-25.657298
 11
63.785622
 21
-28.1573
  0
CIRCLE
  8
ボルト／ビス
  6
CONTINUOUS
 10
60.898868
 20
-28.1573
 40
2.500002
  0
LINE
  8
ボルト／ビス
  6
CONTINUOUS
 10
59.455493
 20
-25.657298
 11
62.342243
 21
-25.657298
  0
LINE
  8
ボルト／ビス
  6
CONTINUOUS
 10
62.342243
 20
-30.6573
 11
59.455493
 21
-30.6573
  0
ENDBLK
  0
BLOCK
  2
*GRP_0008
 70
    65
 10
0.0
 20
0.0
  0
LINE
  8
補助線
  6
BYBLOCK
 62
     0
 10
36.150128
 20
-2.15856
 11
36.150128
 21
-4.658558
  0
LINE
  8
補助線
  6
BYBLOCK
 62
     0
 10
34.90013
 20
-3.40856
 11
37.400128
 21
-3.40856
  0
ENDBLK
  0
BLOCK
  2
*GRP_0009
 70
    65
 10
0.0
 20
0.0
  0
LINE
  8
補助線
  6
BYBLOCK
 62
     0
 10
60.898868
 20
22.59018
 11
60.898868
 21
20.090183
  0
LINE
  8
補助線
  6
BYBLOCK
 62
     0
 10
59.64887
 20
21.34018
 11
62.148868
 21
21.34018
  0
ENDBLK
  0
BLOCK
  2
*GRP_0010
 70
    65
 10
0.0
 20
0.0
  0
LINE
  8
補助線
  6
BYBLOCK
 62
     0
 10
85.647608
 20
-2.15856
 11
85.647608
 21
-4.658558
  0
LINE
  8
補助線
  6
BYBLOCK
 62
     0
 10
84.39761
 20
-3.40856
 11
86.897608
 21
-3.40856
  0
ENDBLK
  0
BLOCK
  2
*GRP_0011
 70
    65
 10
0.0
 20
0.0
  0
LINE
  8
補助線
  6
BYBLOCK
 62
     0
 10
60.898868
 20
-26.9073
 11
60.898868
 21
-29.407298
  0
LINE
  8
補助線
  6
BYBLOCK
 62
     0
 10
59.64887
 20
-28.1573
 11
62.148868
 21
-28.1573
  0
ENDBLK
  0
BLOCK
  2
*GRP_0012
 70
    65
 10
0.0
 20
0.0
  0
LINE
  8
型材断面
  6
CONTINUOUS
 62
    47
 10
-25.76521
 20
109.931115
 11
-23.350397
 21
110.57816
  0
LINE
  8
型材断面
  6
CONTINUOUS
 62
    47
 10
-25.76521
 20
109.931115
 11
-28.180025
 21
109.284065
  0
ARC
  8
型材断面
  6
CONTINUOUS
 62
    47
 10
-23.644418
 20
114.573244
 40
0.75
 50
75.000004
 51
195.0
  0
LINE
  8
型材断面
  6
CONTINUOUS
 62
    47
 10
-9.202898
 20
110.70365
 11
-10.04406
 21
107.564395
  0
ARC
  8
型材断面
  6
CONTINUOUS
 62
    47
 10
-9.202899
 20
110.703651
 40
0.75
 50
-15.000003
 51
75.000004
  0
LINE
  8
型材断面
  6
CONTINUOUS
 62
    47
 10
-9.319615
 20
107.37028
 11
-8.28434
 21
111.233982
  0
LINE
  8
型材断面
  6
CONTINUOUS
 62
    47
 10
-10.04406
 20
107.564395
 11
-9.319615
 21
107.37028
  0
LINE
  8
型材断面
  6
CONTINUOUS
 62
    47
 10
-23.350397
 20
110.57816
 11
-24.70508
 21
115.633905
  0
LINE
  8
型材断面
  6
CONTINUOUS
 62
    47
 10
-8.284338
 20
111.233982
 11
-24.70508
 21
115.633905
  0
LINE
  8
型材断面
  6
CONTINUOUS
 62
    47
 10
-9.202898
 20
110.703652
 11
-23.644423
 21
114.573248
  0
ARC
  8
型材断面
  6
CONTINUOUS
 62
    47
 10
-29.922932
 20
112.890921
 40
0.75
 50
15.0
 51
134.999996
  0
LINE
  8
型材断面
  6
CONTINUOUS
 62
    47
 10
-40.49486
 20
102.318995
 11
-38.196765
 21
100.0209
  0
ARC
  8
型材断面
  6
CONTINUOUS
 62
    47
 10
-40.494858
 20
102.318996
 40
0.75
 50
134.999996
 51
225.000003
  0
LINE
  8
型材断面
  6
CONTINUOUS
 62
    47
 10
-38.727095
 20
99.490573
 11
-41.55552
 21
102.318995
  0
LINE
  8
型材断面
  6
CONTINUOUS
 62
    47
 10
-38.196765
 20
100.0209
 11
-38.727095
 21
99.490573
  0
LINE
  8
型材断面
  6
CONTINUOUS
 62
    47
 10
-41.55552
 20
102.318995
 11
-29.534707
 21
114.339807
  0
LINE
  8
型材断面
  6
CONTINUOUS
 62
    47
 10
-28.180025
 20
109.284065
 11
-29.534707
 21
114.339807
  0
LINE
  8
型材断面
  6
CONTINUOUS
 62
    47
 10
-40.494862
 20
102.318997
 11
-29.922937
 21
112.890922
  0
LINE
  8
型材断面
  6
CONTINUOUS
 10
-24.557802
 20
110.254637
 11
-24.363688
 21
109.530192
  0
LINE
  8
型材断面
  6
CONTINUOUS
 10
-26.972617
 20
109.60759
 11
-26.778503
 21
108.883145
  0
ARC
  8
型材断面
  6
CONTINUOUS
 10
-28.180024
 20
109.284064
 40
0.75
 50
195.0
 51
285.0
  0
ARC
  8
型材断面
  6
CONTINUOUS
 10
-23.350396
 20
110.578159
 40
0.75
 50
285.0
 51
375.0
  0
LINE
  8
型材断面
  6
CONTINUOUS
 62
    47
 10
-23.644423
 20
114.573248
 11
-22.43184
 21
110.04783
  0
LINE
  8
型材断面
  6
CONTINUOUS
 10
-22.43184
 20
110.04783
 11
-28.710355
 21
108.365505
  0
LINE
  8
型材断面
  6
CONTINUOUS
 62
    47
 10
-29.922937
 20
112.890922
 11
-28.710355
 21
108.365505
  0
LINE
  8
St
  6
CONTINUOUS
 62
    47
 10
-26.924088
 20
109.426477
 11
-24.509275
 21
110.073525
  0
LINE
  8
St
  6
CONTINUOUS
 62
    47
 10
-26.87556
 20
109.245368
 11
-24.460745
 21
109.892415
  0
LINE
  8
St
  6
CONTINUOUS
 62
    47
 10
-26.82703
 20
109.064255
 11
-24.412218
 21
109.711303
  0
ENDBLK
  0
BLOCK
  2
*GRP_0013
 70
    65
 10
0.0
 20
0.0
  0
ARC
  8
型材断面
  6
CONTINUOUS
 10
-16.328323
 20
96.928462
 40
0.75
 50
75.000048
 51
195.0
  0
LINE
  8
型材断面
  6
CONTINUOUS
 10
-12.088735
 20
99.933577
 11
-11.364285
 21
99.739465
  0
ARC
  8
型材断面
  6
CONTINUOUS
 10
-12.929894
 20
96.794317
 40
0.75
 50
255.000034
 51
344.999997
  0
LINE
  8
型材断面
  6
CONTINUOUS
 10
-17.388985
 20
97.989122
 11
-12.929895
 21
96.794318
  0
LINE
  8
型材断面
  6
CONTINUOUS
 10
-12.088735
 20
99.933577
 11
-12.929895
 21
96.794318
  0
LINE
  8
型材断面
  6
CONTINUOUS
 10
-16.328325
 20
96.928468
 11
-12.399565
 21
95.875763
  0
LINE
  8
型材断面
  6
CONTINUOUS
 10
-11.364285
 20
99.739465
 11
-12.399565
 21
95.875763
  0
LINE
  8
型材断面
  6
CONTINUOUS
 10
-15.63004
 20
94.322432
 11
-16.354485
 21
94.128318
  0
LINE
  8
型材断面
  6
CONTINUOUS
 10
-15.810965
 20
92.099872
 11
-15.08652
 21
92.293988
  0
LINE
  8
型材断面
  6
CONTINUOUS
 10
-15.629855
 20
92.148402
 11
-16.173373
 21
94.176845
  0
LINE
  8
型材断面
  6
CONTINUOUS
 10
-15.448743
 20
92.19693
 11
-15.992263
 21
94.225375
  0
LINE
  8
型材断面
  6
CONTINUOUS
 10
-15.267633
 20
92.24546
 11
-15.81115
 21
94.273903
  0
LINE
  8
型材断面
  6
CONTINUOUS
 10
-15.565088
 20
91.182243
 11
-17.388985
 21
97.989122
  0
LINE
  8
型材断面
  6
CONTINUOUS
 10
-14.840643
 20
91.376358
 11
-15.565088
 21
91.182243
  0
LINE
  8
型材断面
  6
CONTINUOUS
 10
-16.328325
 20
96.928468
 11
-14.840643
 21
91.376358
  0
ENDBLK
  0
BLOCK
  2
*GRP_0014
 70
    65
 10
0.0
 20
0.0
  0
ARC
  8
型材断面
  6
CONTINUOUS
 10
-27.436469
 20
93.952043
 40
0.75
 50
15.0
 51
134.999952
  0
LINE
  8
型材断面
  6
CONTINUOUS
 10
-32.610617
 20
94.434755
 11
-33.140953
 21
93.904425
  0
ARC
  8
型材断面
  6
CONTINUOUS
 10
-30.312522
 20
92.136656
 40
0.75
 50
225.000003
 51
314.999966
  0
LINE
  8
型材断面
  6
CONTINUOUS
 10
-27.04824
 20
95.400933
 11
-30.312522
 21
92.13666
  0
LINE
  8
型材断面
  6
CONTINUOUS
 10
-32.610617
 20
94.434755
 11
-30.312522
 21
92.13666
  0
LINE
  8
型材断面
  6
CONTINUOUS
 10
-27.43647
 20
93.952047
 11
-30.312522
 21
91.076
  0
LINE
  8
型材断面
  6
CONTINUOUS
 10
-33.140953
 20
93.904425
 11
-30.312522
 21
91.076
  0
LINE
  8
型材断面
  6
CONTINUOUS
 10
-26.738185
 20
91.346015
 11
-26.013742
 21
91.540128
  0
LINE
  8
型材断面
  6
CONTINUOUS
 10
-25.470222
 20
89.511685
 11
-26.194665
 21
89.31757
  0
LINE
  8
型材断面
  6
CONTINUOUS
 10
-25.651332
 20
89.463155
 11
-26.194852
 21
91.4916
  0
LINE
  8
型材断面
  6
CONTINUOUS
 10
-25.832445
 20
89.414627
 11
-26.375965
 21
91.44307
  0
LINE
  8
型材断面
  6
CONTINUOUS
 10
-26.013555
 20
89.366098
 11
-26.557075
 21
91.394542
  0
LINE
  8
型材断面
  6
CONTINUOUS
 10
-25.224342
 20
88.594055
 11
-27.04824
 21
95.400933
  0
LINE
  8
型材断面
  6
CONTINUOUS
 10
-25.948787
 20
88.39994
 11
-25.224342
 21
88.594055
  0
LINE
  8
型材断面
  6
CONTINUOUS
 10
-27.43647
 20
93.952047
 11
-25.948787
 21
88.39994
  0
ENDBLK
  0
BLOCK
  2
*GRP_0015
 70
    65
 10
0.0
 20
0.0
  0
ARC
  8
型材断面
  6
CONTINUOUS
 10
-15.370971
 20
90.457799
 40
0.75
 50
15.0
 51
105.0
  0
LINE
  8
型材断面
  6
CONTINUOUS
 10
-20.394715
 20
89.88815
 11
-14.840643
 21
91.376358
  0
LINE
  8
型材断面
  6
CONTINUOUS
 10
-20.2006
 20
89.163705
 11
-15.370972
 21
90.4578
  0
ARC
  8
型材断面
  6
CONTINUOUS
 10
-13.87007
 20
87.754135
 40
0.75
 50
195.0
 51
285.0
  0
ARC
  8
型材断面
  6
CONTINUOUS
 10
-13.693295
 20
88.060322
 40
0.25
 50
195.0
 51
285.0
  0
LINE
  8
型材断面
  6
CONTINUOUS
 10
-9.25994
 20
92.18749
 11
-8.535495
 21
91.993375
  0
LINE
  8
型材断面
  6
CONTINUOUS
 10
-9.25994
 20
92.18749
 11
-10.183145
 21
88.742045
  0
LINE
  8
型材断面
  6
CONTINUOUS
 10
-13.628587
 20
87.818843
 11
-10.183145
 21
88.742045
  0
LINE
  8
型材断面
  6
CONTINUOUS
 10
-14.840643
 20
91.376358
 11
-13.934775
 21
87.99562
  0
LINE
  8
型材断面
  6
CONTINUOUS
 10
-15.370972
 20
90.4578
 11
-14.400403
 21
86.835577
  0
ARC
  8
型材断面
  6
CONTINUOUS
 10
-10.183144
 20
88.742046
 40
0.75
 50
285.0
 51
344.999957
  0
LINE
  8
型材断面
  6
CONTINUOUS
 10
-8.535495
 20
91.993375
 11
-9.570773
 21
88.129675
  0
LINE
  8
型材断面
  6
CONTINUOUS
 10
-14.400403
 20
86.835577
 11
-9.570773
 21
88.129675
  0
ARC
  8
型材断面
  6
CONTINUOUS
 10
-25.030228
 20
87.869609
 40
0.75
 50
105.0
 51
195.0
  0
LINE
  8
型材断面
  6
CONTINUOUS
 10
-20.394715
 20
89.88815
 11
-25.948787
 21
88.39994
  0
LINE
  8
型材断面
  6
CONTINUOUS
 10
-20.2006
 20
89.163705
 11
-25.030228
 21
87.86961
  0
ARC
  8
型材断面
  6
CONTINUOUS
 10
-24.978215
 20
84.777717
 40
0.75
 50
285.0
 51
375.0
  0
ARC
  8
型材断面
  6
CONTINUOUS
 10
-25.2844
 20
84.954494
 40
0.25
 50
285.0
 51
375.0
  0
LINE
  8
型材断面
  6
CONTINUOUS
 10
-31.187382
 20
86.312047
 11
-31.717715
 21
85.781718
  0
LINE
  8
型材断面
  6
CONTINUOUS
 10
-31.187382
 20
86.312047
 11
-28.665143
 21
83.789807
  0
LINE
  8
型材断面
  6
CONTINUOUS
 10
-25.219697
 20
84.713012
 11
-28.665143
 21
83.789807
  0
LINE
  8
型材断面
  6
CONTINUOUS
 10
-25.948787
 20
88.39994
 11
-25.04292
 21
85.0192
  0
LINE
  8
型材断面
  6
CONTINUOUS
 10
-25.030228
 20
87.86961
 11
-24.059657
 21
84.247387
  0
ARC
  8
型材断面
  6
CONTINUOUS
 10
-28.665142
 20
83.78981
 40
0.75
 50
225.000043
 51
285.0
  0
LINE
  8
型材断面
  6
CONTINUOUS
 10
-31.717715
 20
85.781718
 11
-28.889287
 21
82.953292
  0
LINE
  8
型材断面
  6
CONTINUOUS
 10
-24.059657
 20
84.247387
 11
-28.889287
 21
82.953292
  0
ENDBLK
  0
BLOCK
  2
*GRP_0016
 70
    65
 10
0.0
 20
0.0
  0
LINE
  8
ボルト／ビス
  6
CONTINUOUS
 10
-14.905347
 20
91.61784
 11
-14.41099
 21
91.797773
  0
ARC
  8
ボルト／ビス
  6
CONTINUOUS
 10
-14.701708
 20
92.596513
 40
0.85
 50
289.999982
 51
374.999993
  0
LINE
  8
ボルト／ビス
  6
CONTINUOUS
 10
-13.880673
 20
92.816508
 11
-14.102578
 21
93.644675
  0
LINE
  8
ボルト／ビス
  6
CONTINUOUS
 10
-15.811215
 20
94.998582
 11
-15.293123
 21
95.089935
  0
ARC
  8
ボルト／ビス
  6
CONTINUOUS
 10
-15.145522
 20
94.25285
 40
0.85
 50
14.999993
 51
100.000004
  0
LINE
  8
ボルト／ビス
  6
CONTINUOUS
 10
-14.324485
 20
94.472845
 11
-14.102578
 21
93.644675
  0
LINE
  8
ボルト／ビス
  6
CONTINUOUS
 10
-13.978325
 20
92.43738
 11
-13.86137
 21
92.468717
  0
LINE
  8
ボルト／ビス
  6
CONTINUOUS
 10
-14.51185
 20
93.172665
 11
-14.602437
 21
93.510737
  0
LINE
  8
ボルト／ビス
  6
CONTINUOUS
 10
-14.146123
 20
93.063605
 11
-13.978325
 21
92.43738
  0
LINE
  8
ボルト／ビス
  6
CONTINUOUS
 10
-14.51185
 20
93.172665
 11
-14.391072
 21
93.205027
  0
ARC
  8
ボルト／ビス
  6
CONTINUOUS
 10
-14.339308
 20
93.011844
 40
0.2
 50
14.999993
 51
104.999993
  0
LINE
  8
ボルト／ビス
  6
CONTINUOUS
 10
-14.59862
 20
94.752355
 11
-14.481665
 21
94.783695
  0
LINE
  8
ボルト／ビス
  6
CONTINUOUS
 10
-14.693025
 20
93.848815
 11
-14.602437
 21
93.510737
  0
LINE
  8
ボルト／ビス
  6
CONTINUOUS
 10
-14.430822
 20
94.126123
 11
-14.59862
 21
94.752355
  0
LINE
  8
ボルト／ビス
  6
CONTINUOUS
 10
-14.693025
 20
93.848815
 11
-14.572245
 21
93.881178
  0
ARC
  8
ボルト／ビス
  6
CONTINUOUS
 10
-14.624009
 20
94.074363
 40
0.2
 50
284.999993
 51
374.999993
  0
LINE
  8
ボルト／ビス
  6
CONTINUOUS
 10
-14.905347
 20
91.61784
 11
-15.811215
 21
94.998582
  0
LINE
  8
ボルト／ビス
  6
CONTINUOUS
 10
-13.15047
 20
93.899792
 11
-20.30889
 21
91.9817
  0
LINE
  8
ボルト／ビス
  6
CONTINUOUS
 10
-17.755757
 20
91.630532
 11
-18.061945
 21
91.807308
  0
LINE
  8
ボルト／ビス
  6
CONTINUOUS
 10
-18.273395
 20
93.562385
 11
-18.450173
 21
93.256198
  0
LINE
  8
ボルト／ビス
  6
CONTINUOUS
 10
-17.755757
 20
91.630532
 11
-18.273395
 21
93.562385
  0
LINE
  8
ボルト／ビス
  6
CONTINUOUS
 10
-18.061945
 20
91.807308
 11
-18.450173
 21
93.256198
  0
LINE
  8
ボルト／ビス
  6
CONTINUOUS
 10
-15.164165
 20
92.583765
 11
-18.061945
 21
91.807308
  0
LINE
  8
ボルト／ビス
  6
CONTINUOUS
 10
-15.552395
 20
94.032655
 11
-18.450173
 21
93.256198
  0
LINE
  8
ボルト／ビス
  6
CONTINUOUS
 10
-15.6171
 20
94.274137
 11
-18.273395
 21
93.562385
  0
LINE
  8
ボルト／ビス
  6
CONTINUOUS
 10
-15.099463
 20
92.342285
 11
-17.755757
 21
91.630532
  0
ENDBLK
  0
BLOCK
  2
*GRP_0017
 70
    65
 10
0.0
 20
0.0
  0
LINE
  8
ボルト／ビス
  6
CONTINUOUS
 10
-26.01349
 20
88.641423
 11
-26.531585
 21
88.55007
  0
ARC
  8
ボルト／ビス
  6
CONTINUOUS
 10
-26.679185
 20
89.387158
 40
0.85
 50
195.000007
 51
280.000018
  0
LINE
  8
ボルト／ビス
  6
CONTINUOUS
 10
-27.500223
 20
89.16716
 11
-27.72213
 21
89.995325
  0
LINE
  8
ボルト／ビス
  6
CONTINUOUS
 10
-26.919358
 20
92.022163
 11
-27.413717
 21
91.842232
  0
ARC
  8
ボルト／ビス
  6
CONTINUOUS
 10
-27.122999
 20
91.043495
 40
0.85
 50
109.999996
 51
195.000007
  0
LINE
  8
ボルト／ビス
  6
CONTINUOUS
 10
-27.944038
 20
90.823497
 11
-27.72213
 21
89.995325
  0
LINE
  8
ボルト／ビス
  6
CONTINUOUS
 10
-27.226087
 20
88.88765
 11
-27.34304
 21
88.856313
  0
LINE
  8
ボルト／ビス
  6
CONTINUOUS
 10
-27.13168
 20
89.79119
 11
-27.222267
 21
90.129265
  0
LINE
  8
ボルト／ビス
  6
CONTINUOUS
 10
-27.393883
 20
89.513877
 11
-27.226087
 21
88.88765
  0
LINE
  8
ボルト／ビス
  6
CONTINUOUS
 10
-27.13168
 20
89.79119
 11
-27.252463
 21
89.758828
  0
ARC
  8
ボルト／ビス
  6
CONTINUOUS
 10
-27.200698
 20
89.565645
 40
0.2
 50
105.000007
 51
195.000007
  0
LINE
  8
ボルト／ビス
  6
CONTINUOUS
 10
-27.846385
 20
91.202628
 11
-27.963338
 21
91.17129
  0
LINE
  8
ボルト／ビス
  6
CONTINUOUS
 10
-27.312855
 20
90.46734
 11
-27.222267
 21
90.129265
  0
LINE
  8
ボルト／ビス
  6
CONTINUOUS
 10
-27.678585
 20
90.576395
 11
-27.846385
 21
91.202628
  0
LINE
  8
ボルト／ビス
  6
CONTINUOUS
 10
-27.312855
 20
90.46734
 11
-27.433637
 21
90.434978
  0
ARC
  8
ボルト／ビス
  6
CONTINUOUS
 10
-27.485399
 20
90.628164
 40
0.2
 50
195.000007
 51
285.000007
  0
LINE
  8
ボルト／ビス
  6
CONTINUOUS
 10
-26.01349
 20
88.641423
 11
-26.919358
 21
92.022163
  0
LINE
  8
ボルト／ビス
  6
CONTINUOUS
 10
-28.674235
 20
89.74021
 11
-21.515817
 21
91.658308
  0
LINE
  8
ボルト／ビス
  6
CONTINUOUS
 10
-23.55131
 20
90.07762
 11
-23.374535
 21
90.383805
  0
LINE
  8
ボルト／ビス
  6
CONTINUOUS
 10
-24.068948
 20
92.00947
 11
-23.762763
 21
91.832692
  0
LINE
  8
ボルト／ビス
  6
CONTINUOUS
 10
-23.55131
 20
90.07762
 11
-24.068948
 21
92.00947
  0
LINE
  8
ボルト／ビス
  6
CONTINUOUS
 10
-23.374535
 20
90.383805
 11
-23.762763
 21
91.832692
  0
LINE
  8
ボルト／ビス
  6
CONTINUOUS
 10
-26.27231
 20
89.607347
 11
-23.374535
 21
90.383805
  0
LINE
  8
ボルト／ビス
  6
CONTINUOUS
 10
-26.66054
 20
91.056237
 11
-23.762763
 21
91.832692
  0
LINE
  8
ボルト／ビス
  6
CONTINUOUS
 10
-26.725242
 20
91.297718
 11
-24.068948
 21
92.00947
  0
LINE
  8
ボルト／ビス
  6
CONTINUOUS
 10
-26.207605
 20
89.365868
 11
-23.55131
 21
90.07762
  0
ENDBLK
  0
BLOCK
  2
*GRP_0018
 70
    65
 10
0.0
 20
0.0
  0
LINE
  8
ボルト／ビス
  6
CONTINUOUS
 10
-24.07484
 20
110.384045
 11
-24.254773
 21
110.878405
  0
ARC
  8
ボルト／ビス
  6
CONTINUOUS
 10
-25.053511
 20
110.587685
 40
0.85
 50
19.999982
 51
104.999993
  0
LINE
  8
ボルト／ビス
  6
CONTINUOUS
 10
-25.273505
 20
111.408722
 11
-26.101675
 21
111.186817
  0
LINE
  8
ボルト／ビス
  6
CONTINUOUS
 10
-27.45558
 20
109.47818
 11
-27.546935
 21
109.99627
  0
ARC
  8
ボルト／ビス
  6
CONTINUOUS
 10
-26.709849
 20
110.143871
 40
0.85
 50
104.999993
 51
190.000004
  0
LINE
  8
ボルト／ビス
  6
CONTINUOUS
 10
-26.929845
 20
110.96491
 11
-26.101675
 21
111.186817
  0
LINE
  8
ボルト／ビス
  6
CONTINUOUS
 10
-24.89438
 20
111.311067
 11
-24.925715
 21
111.428025
  0
LINE
  8
ボルト／ビス
  6
CONTINUOUS
 10
-25.629662
 20
110.777545
 11
-25.967738
 21
110.686958
  0
LINE
  8
ボルト／ビス
  6
CONTINUOUS
 10
-25.520603
 20
111.143273
 11
-24.89438
 21
111.311067
  0
LINE
  8
ボルト／ビス
  6
CONTINUOUS
 10
-25.629662
 20
110.777545
 11
-25.662025
 21
110.898322
  0
ARC
  8
ボルト／ビス
  6
CONTINUOUS
 10
-25.468843
 20
110.950085
 40
0.2
 50
104.999993
 51
194.999993
  0
LINE
  8
ボルト／ビス
  6
CONTINUOUS
 10
-27.209353
 20
110.690772
 11
-27.240693
 21
110.80773
  0
LINE
  8
ボルト／ビス
  6
CONTINUOUS
 10
-26.305815
 20
110.59637
 11
-25.967738
 21
110.686958
  0
LINE
  8
ボルト／ビス
  6
CONTINUOUS
 10
-26.583122
 20
110.85857
 11
-27.209353
 21
110.690772
  0
LINE
  8
ボルト／ビス
  6
CONTINUOUS
 10
-26.305815
 20
110.59637
 11
-26.338177
 21
110.71715
  0
ARC
  8
ボルト／ビス
  6
CONTINUOUS
 10
-26.531361
 20
110.665385
 40
0.2
 50
14.999993
 51
104.999993
  0
LINE
  8
ボルト／ビス
  6
CONTINUOUS
 10
-24.07484
 20
110.384045
 11
-27.45558
 21
109.47818
  0
LINE
  8
ボルト／ビス
  6
CONTINUOUS
 10
-26.35679
 20
112.138925
 11
-24.4387
 21
104.980502
  0
LINE
  8
ボルト／ビス
  6
CONTINUOUS
 10
-24.087532
 20
107.533638
 11
-24.264307
 21
107.22745
  0
LINE
  8
ボルト／ビス
  6
CONTINUOUS
 10
-26.019385
 20
107.015998
 11
-25.713198
 21
106.83922
  0
LINE
  8
ボルト／ビス
  6
CONTINUOUS
 10
-24.087532
 20
107.533638
 11
-26.019385
 21
107.015998
  0
LINE
  8
ボルト／ビス
  6
CONTINUOUS
 10
-24.264307
 20
107.22745
 11
-25.713198
 21
106.83922
  0
LINE
  8
ボルト／ビス
  6
CONTINUOUS
 10
-25.040765
 20
110.125225
 11
-24.264307
 21
107.22745
  0
LINE
  8
ボルト／ビス
  6
CONTINUOUS
 10
-26.489657
 20
109.736997
 11
-25.713198
 21
106.83922
  0
LINE
  8
ボルト／ビス
  6
CONTINUOUS
 10
-26.731138
 20
109.672293
 11
-26.019385
 21
107.015998
  0
LINE
  8
ボルト／ビス
  6
CONTINUOUS
 10
-24.799285
 20
110.189933
 11
-24.087532
 21
107.533638
  0
ENDBLK
  0
BLOCK
  2
*DIM_0019
 70
    65
 10
0.0
 20
0.0
  0
LINE
  8
寸法
  6
BYBLOCK
 62
     0
 10
62.31308
 20
-47.24918
 11
105.338835
 21
-90.274938
  0
LINE
  8
寸法
  6
BYBLOCK
 62
     0
 10
104.73949
 20
-4.822772
 11
147.765245
 21
-47.84853
  0
LINE
  8
寸法
  6
BYBLOCK
 62
     0
 10
105.338835
 20
-90.274938
 11
147.765245
 21
-47.84853
  0
POINT
  8
寸法
 62
     0
 10
105.338835
 20
-90.274938
  0
POINT
  8
寸法
 62
     0
 10
147.765245
 20
-47.84853
  0
TEXT
  7
TextStyle03
  8
寸法
  6
CONTINUOUS
 62
     0
 10
124.247183
 20
-70.827691
  1
120
 40
3.5
 50
45.0
 72
     5
 11
128.277691
 21
-66.797183
  0
ENDBLK
  0
BLOCK
  2
*DIM_0020
 70
    65
 10
0.0
 20
0.0
  0
LINE
  8
寸法
  6
BYBLOCK
 62
     0
 10
100.823148
 20
-85.75925
 11
101.48512
 21
-86.421223
  0
LINE
  8
寸法
  6
BYBLOCK
 62
     0
 10
62.31308
 20
-40.178113
 11
105.020652
 21
-82.88569
  0
LINE
  8
寸法
  6
BYBLOCK
 62
     0
 10
101.48512
 20
-86.421223
 11
105.020652
 21
-82.88569
  0
POINT
  8
寸法
 62
     0
 10
101.48512
 20
-86.421223
  0
POINT
  8
寸法
 62
     0
 10
105.020652
 20
-82.88569
  0
TEXT
  7
TextStyle03
  8
寸法
  6
CONTINUOUS
 62
     0
 10
101.67045
 20
-85.729423
  1
10
 40
3.5
 50
45.0
 72
     5
 11
104.304423
 21
-83.09545
  0
ENDBLK
  0
BLOCK
  2
*DIM_0021
 70
    65
 10
0.0
 20
0.0
  0
LINE
  8
寸法
  6
BYBLOCK
 62
     0
 10
96.60776
 20
-3.76211
 11
140.375995
 21
-47.53035
  0
LINE
  8
寸法
  6
BYBLOCK
 62
     0
 10
105.020652
 20
-82.88569
 11
140.375995
 21
-47.53035
  0
POINT
  8
寸法
 62
     0
 10
140.375995
 20
-47.53035
  0
TEXT
  7
TextStyle03
  8
寸法
  6
CONTINUOUS
 62
     0
 10
120.397183
 20
-66.977691
  1
100
 40
3.5
 50
45.0
 72
     5
 11
124.427691
 21
-62.947183
  0
ENDBLK
  0
BLOCK
  2
*DIM_0022
 70
    65
 10
0.0
 20
0.0
  0
LINE
  8
寸法
  6
BYBLOCK
 62
     0
 10
104.73949
 20
-4.822772
 11
143.91153
 21
-43.994815
  0
LINE
  8
寸法
  6
BYBLOCK
 62
     0
 10
140.375995
 20
-47.53035
 11
143.91153
 21
-43.994815
  0
POINT
  8
寸法
 62
     0
 10
143.91153
 20
-43.994815
  0
TEXT
  7
TextStyle03
  8
寸法
  6
CONTINUOUS
 62
     0
 10
140.54545
 20
-46.829423
  1
10
 40
3.5
 50
45.0
 72
     5
 11
143.179423
 21
-44.19545
  0
ENDBLK
  0
BLOCK
  2
*DIM_0023
 70
    65
 10
0.0
 20
0.0
  0
LINE
  8
寸法
  6
BYBLOCK
 62
     0
 10
101.002025
 20
-78.867062
 11
100.590798
 21
-78.455835
  0
LINE
  8
寸法
  6
BYBLOCK
 62
     0
 10
84.233395
 20
-26.743083
 11
118.268472
 21
-60.778162
  0
LINE
  8
寸法
  6
BYBLOCK
 62
     0
 10
100.590798
 20
-78.455835
 11
118.268472
 21
-60.778162
  0
POINT
  8
寸法
 62
     0
 10
100.590798
 20
-78.455835
  0
POINT
  8
寸法
 62
     0
 10
118.268472
 20
-60.778162
  0
TEXT
  7
TextStyle03
  8
寸法
  6
CONTINUOUS
 62
     0
 10
107.84545
 20
-70.679423
  1
50
 40
3.5
 50
45.0
 72
     5
 11
110.479423
 21
-68.04545
  0
ENDBLK
  0
BLOCK
  2
*DIM_0024
 70
    65
 10
0.0
 20
0.0
  0
LINE
  8
寸法
  6
BYBLOCK
 62
     0
 10
101.911065
 20
-9.065415
 11
135.94614
 21
-43.100493
  0
LINE
  8
寸法
  6
BYBLOCK
 62
     0
 10
118.268472
 20
-60.778162
 11
135.94614
 21
-43.100493
  0
POINT
  8
寸法
 62
     0
 10
135.94614
 20
-43.100493
  0
TEXT
  7
TextStyle03
  8
寸法
  6
CONTINUOUS
 62
     0
 10
125.52045
 20
-53.004423
  1
50
 40
3.5
 50
45.0
 72
     5
 11
128.154423
 21
-50.37045
  0
ENDBLK
  0
BLOCK
  2
*DIM_0025
 70
    65
 10
0.0
 20
0.0
  0
LINE
  8
寸法
  6
BYBLOCK
 62
     0
 10
94.20874
 20
-53.688993
 11
105.019012
 21
-64.499268
  0
LINE
  8
寸法
  6
BYBLOCK
 62
     0
 10
111.179305
 20
-36.718427
 11
121.98958
 21
-47.528702
  0
LINE
  8
寸法
  6
BYBLOCK
 62
     0
 10
105.019012
 20
-64.499268
 11
121.98958
 21
-47.528702
  0
POINT
  8
寸法
 62
     0
 10
105.019012
 20
-64.499268
  0
POINT
  8
寸法
 62
     0
 10
121.98958
 20
-47.528702
  0
TEXT
  7
TextStyle03
  8
寸法
  6
CONTINUOUS
 62
     0
 10
111.92045
 20
-57.079423
  1
48
 40
3.5
 50
45.0
 72
     5
 11
114.554423
 21
-54.44545
  0
ENDBLK
  0
BLOCK
  2
*DIM_0026
 70
    65
 10
0.0
 20
0.0
  0
LINE
  8
寸法
  6
BYBLOCK
 62
     0
 10
60.764213
 20
31.814213
 11
75.22816
 21
46.278158
  0
LINE
  8
寸法
  6
BYBLOCK
 62
     0
 10
62.31308
 20
22.754392
 11
80.532503
 21
40.973815
  0
LINE
  8
寸法
  6
BYBLOCK
 62
     0
 10
75.22816
 20
46.278158
 11
80.532503
 21
40.973815
  0
POINT
  8
寸法
 62
     0
 10
75.22816
 20
46.278158
  0
POINT
  8
寸法
 62
     0
 10
80.532503
 20
40.973815
  0
TEXT
  7
TextStyle03
  8
寸法
  6
CONTINUOUS
 62
     0
 10
76.820577
 20
45.20455
  1
15
 40
3.5
 50
315.0
 72
     5
 11
79.45455
 21
42.570577
  0
ENDBLK
  0
BLOCK
  2
*DIM_0027
 70
    65
 10
0.0
 20
0.0
  0
LINE
  8
寸法
  6
BYBLOCK
 62
     0
 10
84.233395
 20
19.925963
 11
92.906875
 21
28.599443
  0
LINE
  8
寸法
  6
BYBLOCK
 62
     0
 10
80.532503
 20
40.973815
 11
92.906875
 21
28.599443
  0
POINT
  8
寸法
 62
     0
 10
92.906875
 20
28.599443
  0
TEXT
  7
TextStyle03
  8
寸法
  6
CONTINUOUS
 62
     0
 10
85.645577
 20
36.35455
  1
35
 40
3.5
 50
315.0
 72
     5
 11
88.27955
 21
33.720577
  0
ENDBLK
  0
BLOCK
  2
*DIM_0028
 70
    65
 10
0.0
 20
0.0
  0
LINE
  8
寸法
  6
BYBLOCK
 62
     0
 10
87.06182
 20
-1.994348
 11
105.281243
 21
16.225072
  0
LINE
  8
寸法
  6
BYBLOCK
 62
     0
 10
92.906875
 20
28.599443
 11
105.281243
 21
16.225072
  0
POINT
  8
寸法
 62
     0
 10
105.281243
 20
16.225072
  0
TEXT
  7
TextStyle03
  8
寸法
  6
CONTINUOUS
 62
     0
 10
98.020577
 20
23.97955
  1
35
 40
3.5
 50
315.0
 72
     5
 11
100.65455
 21
21.345577
  0
ENDBLK
  0
BLOCK
  2
*DIM_0029
 70
    65
 10
0.0
 20
0.0
  0
LINE
  8
寸法
  6
BYBLOCK
 62
     0
 10
96.60776
 20
-3.055005
 11
110.58454
 21
10.921775
  0
LINE
  8
寸法
  6
BYBLOCK
 62
     0
 10
105.281243
 20
16.225072
 11
110.58454
 21
10.921775
  0
POINT
  8
寸法
 62
     0
 10
110.58454
 20
10.921775
  0
TEXT
  7
TextStyle03
  8
寸法
  6
CONTINUOUS
 62
     0
 10
106.870577
 20
15.15455
  1
15
 40
3.5
 50
315.0
 72
     5
 11
109.50455
 21
12.520577
  0
ENDBLK
  0
BLOCK
  2
*GRP_0030
 70
    65
 10
0.0
 20
0.0
  0
POLYLINE
  8
寸法
  6
BYBLOCK
 62
     0
 66
     1
  0
VERTEX
  8
寸法
 10
36.38048
 20
20.01175
  0
VERTEX
  8
寸法
 10
38.978555
 20
18.51175
  0
VERTEX
  8
寸法
 10
37.478555
 20
21.109825
  0
SEQEND
  0
POLYLINE
  8
寸法
  6
BYBLOCK
 62
     0
 66
     1
  0
VERTEX
  8
寸法
 10
38.978555
 20
18.51175
  0
VERTEX
  8
寸法
 10
35.221832
 20
22.268472
  0
VERTEX
  8
寸法
 10
13.145165
 20
22.268472
  0
SEQEND
  0
ENDBLK
  0
BLOCK
  2
*GRP_0031
 70
    65
 10
0.0
 20
0.0
  0
POLYLINE
  8
寸法
  6
BYBLOCK
 62
     0
 66
     1
  0
VERTEX
  8
寸法
 10
33.552052
 20
-1.90856
  0
VERTEX
  8
寸法
 10
36.150128
 20
-3.40856
  0
VERTEX
  8
寸法
 10
34.650128
 20
-0.810485
  0
SEQEND
  0
POLYLINE
  8
寸法
  6
BYBLOCK
 62
     0
 66
     1
  0
VERTEX
  8
寸法
 10
36.150128
 20
-3.40856
  0
VERTEX
  8
寸法
 10
23.189072
 20
9.552495
  0
VERTEX
  8
寸法
 10
18.331352
 20
9.552495
  0
SEQEND
  0
ENDBLK
  0
BLOCK
  2
*GRP_0032
 70
    65
 10
0.0
 20
0.0
  0
POLYLINE
  8
寸法
  6
BYBLOCK
 62
     0
 66
     1
  0
VERTEX
  8
寸法
 10
22.176852
 20
-11.211028
  0
VERTEX
  8
寸法
 10
23.676852
 20
-8.61295
  0
VERTEX
  8
寸法
 10
21.078775
 20
-10.11295
  0
SEQEND
  0
POLYLINE
  8
寸法
  6
BYBLOCK
 62
     0
 66
     1
  0
VERTEX
  8
寸法
 10
23.676852
 20
-8.61295
  0
VERTEX
  8
寸法
 10
19.300872
 20
-12.988928
  0
VERTEX
  8
寸法
 10
13.868043
 20
-12.988928
  0
SEQEND
  0
ENDBLK
  0
BLOCK
  2
*GRP_0033
 70
    65
 10
0.0
 20
0.0
  0
POLYLINE
  8
寸法
  6
BYBLOCK
 62
     0
 66
     1
  0
VERTEX
  8
寸法
 10
30.944162
 20
-12.907272
  0
VERTEX
  8
寸法
 10
32.444162
 20
-10.309195
  0
VERTEX
  8
寸法
 10
29.846088
 20
-11.809195
  0
SEQEND
  0
POLYLINE
  8
寸法
  6
BYBLOCK
 62
     0
 66
     1
  0
VERTEX
  8
寸法
 10
32.444162
 20
-10.309195
  0
VERTEX
  8
寸法
 10
19.68228
 20
-23.071077
  0
VERTEX
  8
寸法
 10
14.142173
 20
-23.071077
  0
SEQEND
  0
ENDBLK
  0
BLOCK
  2
*DIM_0034
 70
    65
 10
0.0
 20
0.0
  0
LINE
  8
寸法
  6
BYBLOCK
 62
     0
 10
-81.788998
 20
-90.97947
 11
-81.788998
 21
-89.146633
  0
LINE
  8
寸法
  6
BYBLOCK
 62
     0
 10
-107.538998
 20
-27.4639
 11
-107.538998
 21
-89.146633
  0
LINE
  8
寸法
  6
BYBLOCK
 62
     0
 10
-81.788998
 20
-89.146633
 11
-107.538998
 21
-89.146633
  0
POINT
  8
寸法
 62
     0
 10
-81.788998
 20
-89.146633
  0
POINT
  8
寸法
 62
     0
 10
-107.538998
 20
-89.146633
  0
TEXT
  7
TextStyle03
  8
寸法
  6
CONTINUOUS
 62
     0
 10
-98.5125
 20
-88.775
  1
51.5
 40
3.5
 72
     5
 11
-90.8375
 21
-88.775
  0
ENDBLK
  0
BLOCK
  2
*DIM_0035
 70
    65
 10
0.0
 20
0.0
  0
LINE
  8
寸法
  6
BYBLOCK
 62
     0
 10
-148.342753
 20
-7.40856
 11
-148.342753
 21
-89.146633
  0
LINE
  8
寸法
  6
BYBLOCK
 62
     0
 10
-107.538998
 20
-89.146633
 11
-148.342753
 21
-89.146633
  0
POINT
  8
寸法
 62
     0
 10
-148.342753
 20
-89.146633
  0
TEXT
  7
TextStyle03
  8
寸法
  6
CONTINUOUS
 62
     0
 10
-131.7875
 20
-88.775
  1
81.6
 40
3.5
 72
     5
 11
-124.1125
 21
-88.775
  0
ENDBLK
  0
BLOCK
  2
*DIM_0036
 70
    65
 10
0.0
 20
0.0
  0
LINE
  8
寸法
  6
BYBLOCK
 62
     0
 10
-100.038998
 20
-27.328877
 11
-100.038998
 21
-82.624595
  0
LINE
  8
寸法
  6
BYBLOCK
 62
     0
 10
-107.538998
 20
-82.624595
 11
-100.038998
 21
-82.624595
  0
POINT
  8
寸法
 62
     0
 10
-107.538998
 20
-82.624595
  0
POINT
  8
寸法
 62
     0
 10
-100.038998
 20
-82.624595
  0
TEXT
  7
TextStyle03
  8
寸法
  6
CONTINUOUS
 62
     0
 10
-105.6625
 20
-82.25
  1
15
 40
3.5
 72
     5
 11
-101.9375
 21
-82.25
  0
ENDBLK
  0
BLOCK
  2
*DIM_0037
 70
    65
 10
0.0
 20
0.0
  0
LINE
  8
寸法
  6
BYBLOCK
 62
     0
 10
-81.788998
 20
-49.834965
 11
-81.788998
 21
-82.624595
  0
LINE
  8
寸法
  6
BYBLOCK
 62
     0
 10
-100.038998
 20
-82.624595
 11
-81.788998
 21
-82.624595
  0
POINT
  8
寸法
 62
     0
 10
-81.788998
 20
-82.624595
  0
TEXT
  7
TextStyle03
  8
寸法
  6
CONTINUOUS
 62
     0
 10
-94.7625
 20
-82.25
  1
36.5
 40
3.5
 72
     5
 11
-87.0875
 21
-82.25
  0
ENDBLK
  0
BLOCK
  2
*GRP_0038
 70
    65
 10
0.0
 20
0.0
  0
POLYLINE
  8
寸法
  6
BYBLOCK
 62
     0
 66
     1
  0
VERTEX
  8
寸法
 10
-133.60373
 20
15.42854
  0
VERTEX
  8
寸法
 10
-131.005655
 20
13.92854
  0
VERTEX
  8
寸法
 10
-132.505655
 20
16.526615
  0
SEQEND
  0
POLYLINE
  8
寸法
  6
BYBLOCK
 62
     0
 66
     1
  0
VERTEX
  8
寸法
 10
-131.005655
 20
13.92854
  0
VERTEX
  8
寸法
 10
-136.667663
 20
19.590547
  0
VERTEX
  8
寸法
 10
-136.667663
 20
22.676492
  0
SEQEND
  0
ENDBLK
  0
BLOCK
  2
*DIM_0039
 70
    65
 10
0.0
 20
0.0
  0
LINE
  8
寸法
  6
BYBLOCK
 62
     0
 10
-107.842755
 20
39.09144
 11
-174.864852
 21
39.09144
  0
LINE
  8
寸法
  6
BYBLOCK
 62
     0
 10
-107.842755
 20
-45.90856
 11
-174.864852
 21
-45.90856
  0
LINE
  8
寸法
  6
BYBLOCK
 62
     0
 10
-174.864852
 20
39.09144
 11
-174.864852
 21
-45.90856
  0
POINT
  8
寸法
 62
     0
 10
-174.864852
 20
39.09144
  0
POINT
  8
寸法
 62
     0
 10
-174.864852
 20
-45.90856
  0
TEXT
  7
TextStyle03
  8
寸法
  6
CONTINUOUS
 62
     0
 10
-175.25
 20
-6.275
  1
170
 40
3.5
 50
90.0
 72
     5
 11
-175.25
 21
-0.575
  0
ENDBLK
  0
BLOCK
  2
*DIM_0040
 70
    65
 10
0.0
 20
0.0
  0
LINE
  8
寸法
  6
BYBLOCK
 62
     0
 10
-165.33843
 20
39.09144
 11
-166.50261
 21
39.09144
  0
LINE
  8
寸法
  6
BYBLOCK
 62
     0
 10
-150.342753
 20
-3.40856
 11
-166.50261
 21
-3.40856
  0
LINE
  8
寸法
  6
BYBLOCK
 62
     0
 10
-166.50261
 20
39.09144
 11
-166.50261
 21
-3.40856
  0
POINT
  8
寸法
 62
     0
 10
-166.50261
 20
39.09144
  0
POINT
  8
寸法
 62
     0
 10
-166.50261
 20
-3.40856
  0
TEXT
  7
TextStyle03
  8
寸法
  6
CONTINUOUS
 62
     0
 10
-166.9
 20
15.9625
  1
85
 40
3.5
 50
90.0
 72
     5
 11
-166.9
 21
19.6875
  0
ENDBLK
  0
BLOCK
  2
*DIM_0041
 70
    65
 10
0.0
 20
0.0
  0
LINE
  8
寸法
  6
BYBLOCK
 62
     0
 10
-109.842755
 20
-45.90856
 11
-166.50261
 21
-45.90856
  0
LINE
  8
寸法
  6
BYBLOCK
 62
     0
 10
-166.50261
 20
-3.40856
 11
-166.50261
 21
-45.90856
  0
POINT
  8
寸法
 62
     0
 10
-166.50261
 20
-45.90856
  0
TEXT
  7
TextStyle03
  8
寸法
  6
CONTINUOUS
 62
     0
 10
-166.9
 20
-26.5375
  1
85
 40
3.5
 50
90.0
 72
     5
 11
-166.9
 21
-22.8125
  0
ENDBLK
  0
BLOCK
  2
*DIM_0042
 70
    65
 10
0.0
 20
0.0
  0
LINE
  8
寸法
  6
BYBLOCK
 62
     0
 10
-81.788998
 20
-47.834965
 11
-81.788998
 21
-98.386172
  0
LINE
  8
寸法
  6
BYBLOCK
 62
     0
 10
-105.842755
 20
-47.90856
 11
-105.842755
 21
-98.386172
  0
LINE
  8
寸法
  6
BYBLOCK
 62
     0
 10
-81.788998
 20
-98.386172
 11
-105.842755
 21
-98.386172
  0
POINT
  8
寸法
 62
     0
 10
-81.788998
 20
-98.386172
  0
POINT
  8
寸法
 62
     0
 10
-105.842755
 20
-98.386172
  0
TEXT
  7
TextStyle03
  8
寸法
  6
CONTINUOUS
 62
     0
 10
-97.6625
 20
-98.025
  1
48.1
 40
3.5
 72
     5
 11
-89.9875
 21
-98.025
  0
ENDBLK
  0
BLOCK
  2
*DIM_0043
 70
    65
 10
0.0
 20
0.0
  0
LINE
  8
寸法
  6
BYBLOCK
 62
     0
 10
-148.342753
 20
-9.40856
 11
-148.342753
 21
-98.386172
  0
LINE
  8
寸法
  6
BYBLOCK
 62
     0
 10
-105.842755
 20
-98.386172
 11
-148.342753
 21
-98.386172
  0
POINT
  8
寸法
 62
     0
 10
-148.342753
 20
-98.386172
  0
TEXT
  7
TextStyle03
  8
寸法
  6
CONTINUOUS
 62
     0
 10
-128.9625
 20
-98.025
  1
85
 40
3.5
 72
     5
 11
-125.2375
 21
-98.025
  0
ENDBLK
  0
BLOCK
  2
*GRP_0044
 70
    65
 10
0.0
 20
0.0
  0
LINE
  8
ボルト／ビス
  6
CONTINUOUS
 10
76.954172
 20
9.24467
 11
77.418205
 21
9.02829
  0
ARC
  8
ボルト／ビス
  6
CONTINUOUS
 10
77.897535
 20
10.528238
 40
1.574676
 50
197.721967
 51
225.0
  0
ARC
  8
ボルト／ビス
  6
CONTINUOUS
 10
79.52126
 20
15.213825
 40
6.036034
 50
211.165002
 51
238.834985
  0
LINE
  8
ボルト／ビス
  6
CONTINUOUS
 10
73.552105
 20
12.646743
 11
73.335722
 21
13.110772
  0
ARC
  8
ボルト／ビス
  6
CONTINUOUS
 10
74.835673
 20
13.5901
 40
1.574676
 50
225.0
 51
252.278033
  0
LINE
  8
ボルト／ビス
  6
CONTINUOUS
 10
76.954172
 20
9.24467
 11
73.552105
 21
12.646743
  0
LINE
  8
ボルト／ビス
  6
CONTINUOUS
 10
73.335722
 20
13.110772
 11
74.62611
 21
14.401162
  0
LINE
  8
ボルト／ビス
  6
CONTINUOUS
 10
74.356343
 20
12.090152
 11
75.646732
 21
13.380543
  0
LINE
  8
ボルト／ビス
  6
CONTINUOUS
 10
77.418205
 20
9.02829
 11
78.708592
 21
10.31868
  0
LINE
  8
ボルト／ビス
  6
CONTINUOUS
 10
76.397582
 20
10.048907
 11
77.687973
 21
11.339298
  0
LINE
  8
ボルト／ビス
  6
CONTINUOUS
 10
75.015018
 20
15.07291
 11
74.48469
 21
14.542583
  0
LINE
  8
ボルト／ビス
  6
CONTINUOUS
 10
75.041005
 20
15.68332
 11
74.722808
 21
15.365125
  0
LINE
  8
ボルト／ビス
  6
CONTINUOUS
 10
79.380345
 20
10.707588
 11
78.850015
 21
10.17726
  0
LINE
  8
ボルト／ビス
  6
CONTINUOUS
 10
79.990755
 20
10.733575
 11
79.672555
 21
10.415378
  0
LINE
  8
ボルト／ビス
  6
CONTINUOUS
 10
74.722808
 20
15.365125
 11
79.672555
 21
10.415378
  0
LINE
  8
ボルト／ビス
  6
CONTINUOUS
 10
75.041005
 20
15.68332
 11
79.990755
 21
10.733575
  0
LINE
  8
ボルト／ビス
  6
CONTINUOUS
 10
74.48469
 20
14.542583
 11
78.850015
 21
10.17726
  0
LINE
  8
ボルト／ビス
  6
CONTINUOUS
 10
77.19768
 20
12.890252
 11
76.66735
 21
12.35992
  0
LINE
  8
ボルト／ビス
  6
CONTINUOUS
 10
73.48537
 20
9.17794
 11
85.506183
 21
21.198757
  0
LINE
  8
ボルト／ビス
  6
CONTINUOUS
 10
82.324202
 20
20.138095
 11
82.92525
 21
20.24416
  0
LINE
  8
ボルト／ビス
  6
CONTINUOUS
 10
84.445525
 20
18.016772
 11
84.551595
 21
18.617815
  0
LINE
  8
ボルト／ビス
  6
CONTINUOUS
 10
84.445525
 20
18.016772
 11
82.324202
 21
20.138095
  0
LINE
  8
ボルト／ビス
  6
CONTINUOUS
 10
84.551595
 20
18.617815
 11
82.92525
 21
20.24416
  0
LINE
  8
ボルト／ビス
  6
CONTINUOUS
 10
76.70271
 20
14.02162
 11
82.92525
 21
20.24416
  0
LINE
  8
ボルト／ビス
  6
CONTINUOUS
 10
78.32905
 20
12.395275
 11
84.551595
 21
18.617815
  0
LINE
  8
ボルト／ビス
  6
CONTINUOUS
 10
76.455218
 20
14.269108
 11
82.324202
 21
20.138095
  0
LINE
  8
ボルト／ビス
  6
CONTINUOUS
 10
78.57654
 20
12.14779
 11
84.445525
 21
18.016772
  0
ENDBLK
  0
BLOCK
  2
*GRP_0045
 70
    65
 10
0.0
 20
0.0
  0
LINE
  8
ボルト／ビス
  6
CONTINUOUS
 10
82.75245
 20
15.042952
 11
82.968832
 21
14.57892
  0
ARC
  8
ボルト／ビス
  6
CONTINUOUS
 10
81.468883
 20
14.099589
 40
1.574676
 50
45.0
 51
72.278033
  0
ARC
  8
ボルト／ビス
  6
CONTINUOUS
 10
76.783296
 20
12.475864
 40
6.036034
 50
31.165015
 51
58.834998
  0
LINE
  8
ボルト／ビス
  6
CONTINUOUS
 10
79.350377
 20
18.445023
 11
78.886345
 21
18.661403
  0
ARC
  8
ボルト／ビス
  6
CONTINUOUS
 10
78.407021
 20
17.161452
 40
1.574676
 50
17.721967
 51
45.0
  0
LINE
  8
ボルト／ビス
  6
CONTINUOUS
 10
82.75245
 20
15.042952
 11
79.350377
 21
18.445023
  0
LINE
  8
ボルト／ビス
  6
CONTINUOUS
 10
78.886345
 20
18.661403
 11
77.59596
 21
17.371012
  0
LINE
  8
ボルト／ビス
  6
CONTINUOUS
 10
79.906968
 20
17.640783
 11
78.616577
 21
16.350393
  0
LINE
  8
ボルト／ビス
  6
CONTINUOUS
 10
82.968832
 20
14.57892
 11
81.678442
 21
13.28853
  0
LINE
  8
ボルト／ビス
  6
CONTINUOUS
 10
81.94821
 20
15.599538
 11
80.657822
 21
14.309147
  0
LINE
  8
ボルト／ビス
  6
CONTINUOUS
 10
77.59596
 20
17.371012
 11
81.678442
 21
13.28853
  0
ENDBLK
  0
BLOCK
  2
*GRP_0046
 70
    65
 10
0.0
 20
0.0
  0
LINE
  8
ボルト／ビス
  6
CONTINUOUS
 10
44.843563
 20
9.24467
 11
44.37953
 21
9.02829
  0
ARC
  8
ボルト／ビス
  6
CONTINUOUS
 10
43.9002
 20
10.528238
 40
1.574676
 50
315.0
 51
342.278033
  0
ARC
  8
ボルト／ビス
  6
CONTINUOUS
 10
42.276475
 20
15.213825
 40
6.036034
 50
301.165015
 51
328.834998
  0
LINE
  8
ボルト／ビス
  6
CONTINUOUS
 10
48.24563
 20
12.646743
 11
48.462012
 21
13.110772
  0
ARC
  8
ボルト／ビス
  6
CONTINUOUS
 10
46.962062
 20
13.5901
 40
1.574676
 50
287.721967
 51
315.0
  0
LINE
  8
ボルト／ビス
  6
CONTINUOUS
 10
44.843563
 20
9.24467
 11
48.24563
 21
12.646743
  0
LINE
  8
ボルト／ビス
  6
CONTINUOUS
 10
48.462012
 20
13.110772
 11
47.171625
 21
14.401162
  0
LINE
  8
ボルト／ビス
  6
CONTINUOUS
 10
47.441393
 20
12.090152
 11
46.151002
 21
13.380543
  0
LINE
  8
ボルト／ビス
  6
CONTINUOUS
 10
44.37953
 20
9.02829
 11
43.089142
 21
10.31868
  0
LINE
  8
ボルト／ビス
  6
CONTINUOUS
 10
45.400152
 20
10.048907
 11
44.109763
 21
11.339298
  0
LINE
  8
ボルト／ビス
  6
CONTINUOUS
 10
46.782718
 20
15.07291
 11
47.313045
 21
14.542583
  0
LINE
  8
ボルト／ビス
  6
CONTINUOUS
 10
46.75673
 20
15.68332
 11
47.074928
 21
15.365125
  0
LINE
  8
ボルト／ビス
  6
CONTINUOUS
 10
42.41739
 20
10.707588
 11
42.94772
 21
10.17726
  0
LINE
  8
ボルト／ビス
  6
CONTINUOUS
 10
41.80698
 20
10.733575
 11
42.12518
 21
10.415378
  0
LINE
  8
ボルト／ビス
  6
CONTINUOUS
 10
47.074928
 20
15.365125
 11
42.12518
 21
10.415378
  0
LINE
  8
ボルト／ビス
  6
CONTINUOUS
 10
46.75673
 20
15.68332
 11
41.80698
 21
10.733575
  0
LINE
  8
ボルト／ビス
  6
CONTINUOUS
 10
47.313045
 20
14.542583
 11
42.94772
 21
10.17726
  0
LINE
  8
ボルト／ビス
  6
CONTINUOUS
 10
44.600055
 20
12.890252
 11
45.130385
 21
12.35992
  0
LINE
  8
ボルト／ビス
  6
CONTINUOUS
 10
48.312365
 20
9.17794
 11
36.291553
 21
21.198757
  0
LINE
  8
ボルト／ビス
  6
CONTINUOUS
 10
39.473532
 20
20.138095
 11
38.872485
 21
20.24416
  0
LINE
  8
ボルト／ビス
  6
CONTINUOUS
 10
37.35221
 20
18.016772
 11
37.24614
 21
18.617815
  0
LINE
  8
ボルト／ビス
  6
CONTINUOUS
 10
37.35221
 20
18.016772
 11
39.473532
 21
20.138095
  0
LINE
  8
ボルト／ビス
  6
CONTINUOUS
 10
37.24614
 20
18.617815
 11
38.872485
 21
20.24416
  0
LINE
  8
ボルト／ビス
  6
CONTINUOUS
 10
45.095025
 20
14.02162
 11
38.872485
 21
20.24416
  0
LINE
  8
ボルト／ビス
  6
CONTINUOUS
 10
43.468685
 20
12.395275
 11
37.24614
 21
18.617815
  0
LINE
  8
ボルト／ビス
  6
CONTINUOUS
 10
45.342518
 20
14.269108
 11
39.473532
 21
20.138095
  0
LINE
  8
ボルト／ビス
  6
CONTINUOUS
 10
43.221195
 20
12.14779
 11
37.35221
 21
18.016772
  0
ENDBLK
  0
BLOCK
  2
*GRP_0047
 70
    65
 10
0.0
 20
0.0
  0
LINE
  8
ボルト／ビス
  6
CONTINUOUS
 10
39.045285
 20
15.042952
 11
38.828903
 21
14.57892
  0
ARC
  8
ボルト／ビス
  6
CONTINUOUS
 10
40.328852
 20
14.099589
 40
1.574676
 50
107.721967
 51
135.0
  0
ARC
  8
ボルト／ビス
  6
CONTINUOUS
 10
45.014439
 20
12.475864
 40
6.036034
 50
121.165002
 51
148.834985
  0
LINE
  8
ボルト／ビス
  6
CONTINUOUS
 10
42.447357
 20
18.445023
 11
42.91139
 21
18.661403
  0
ARC
  8
ボルト／ビス
  6
CONTINUOUS
 10
43.390714
 20
17.161452
 40
1.574676
 50
135.0
 51
162.278033
  0
LINE
  8
ボルト／ビス
  6
CONTINUOUS
 10
39.045285
 20
15.042952
 11
42.447357
 21
18.445023
  0
LINE
  8
ボルト／ビス
  6
CONTINUOUS
 10
42.91139
 20
18.661403
 11
44.201775
 21
17.371012
  0
LINE
  8
ボルト／ビス
  6
CONTINUOUS
 10
41.890768
 20
17.640783
 11
43.181157
 21
16.350393
  0
LINE
  8
ボルト／ビス
  6
CONTINUOUS
 10
38.828903
 20
14.57892
 11
40.119292
 21
13.28853
  0
LINE
  8
ボルト／ビス
  6
CONTINUOUS
 10
39.849525
 20
15.599538
 11
41.139912
 21
14.309147
  0
LINE
  8
ボルト／ビス
  6
CONTINUOUS
 10
44.201775
 20
17.371012
 11
40.119292
 21
13.28853
  0
ENDBLK
  0
BLOCK
  2
*GRP_0048
 70
    65
 10
0.0
 20
0.0
  0
LINE
  8
ボルト／ビス
  6
CONTINUOUS
 10
44.843563
 20
-16.06179
 11
44.37953
 21
-15.84541
  0
ARC
  8
ボルト／ビス
  6
CONTINUOUS
 10
43.9002
 20
-17.345358
 40
1.574676
 50
17.721967
 51
45.0
  0
ARC
  8
ボルト／ビス
  6
CONTINUOUS
 10
42.276475
 20
-22.030945
 40
6.036034
 50
31.165002
 51
58.834985
  0
LINE
  8
ボルト／ビス
  6
CONTINUOUS
 10
48.24563
 20
-19.463862
 11
48.462012
 21
-19.927892
  0
ARC
  8
ボルト／ビス
  6
CONTINUOUS
 10
46.962062
 20
-20.40722
 40
1.574676
 50
45.0
 51
72.278033
  0
LINE
  8
ボルト／ビス
  6
CONTINUOUS
 10
44.843563
 20
-16.06179
 11
48.24563
 21
-19.463862
  0
LINE
  8
ボルト／ビス
  6
CONTINUOUS
 10
48.462012
 20
-19.927892
 11
47.171625
 21
-21.218282
  0
LINE
  8
ボルト／ビス
  6
CONTINUOUS
 10
47.441393
 20
-18.907272
 11
46.151002
 21
-20.197663
  0
LINE
  8
ボルト／ビス
  6
CONTINUOUS
 10
44.37953
 20
-15.84541
 11
43.089142
 21
-17.1358
  0
LINE
  8
ボルト／ビス
  6
CONTINUOUS
 10
45.400152
 20
-16.866028
 11
44.109763
 21
-18.156418
  0
LINE
  8
ボルト／ビス
  6
CONTINUOUS
 10
46.782718
 20
-21.89003
 11
47.313045
 21
-21.359703
  0
LINE
  8
ボルト／ビス
  6
CONTINUOUS
 10
46.75673
 20
-22.50044
 11
47.074928
 21
-22.182245
  0
LINE
  8
ボルト／ビス
  6
CONTINUOUS
 10
42.41739
 20
-17.524708
 11
42.94772
 21
-16.99438
  0
LINE
  8
ボルト／ビス
  6
CONTINUOUS
 10
41.80698
 20
-17.550695
 11
42.12518
 21
-17.232498
  0
LINE
  8
ボルト／ビス
  6
CONTINUOUS
 10
47.074928
 20
-22.182245
 11
42.12518
 21
-17.232498
  0
LINE
  8
ボルト／ビス
  6
CONTINUOUS
 10
46.75673
 20
-22.50044
 11
41.80698
 21
-17.550695
  0
LINE
  8
ボルト／ビス
  6
CONTINUOUS
 10
47.313045
 20
-21.359703
 11
42.94772
 21
-16.99438
  0
LINE
  8
ボルト／ビス
  6
CONTINUOUS
 10
44.600055
 20
-19.707373
 11
45.130385
 21
-19.17704
  0
LINE
  8
ボルト／ビス
  6
CONTINUOUS
 10
48.312365
 20
-15.99506
 11
36.291553
 21
-28.015877
  0
LINE
  8
ボルト／ビス
  6
CONTINUOUS
 10
39.473532
 20
-26.955215
 11
38.872485
 21
-27.06128
  0
LINE
  8
ボルト／ビス
  6
CONTINUOUS
 10
37.35221
 20
-24.833893
 11
37.24614
 21
-25.434935
  0
LINE
  8
ボルト／ビス
  6
CONTINUOUS
 10
37.35221
 20
-24.833893
 11
39.473532
 21
-26.955215
  0
LINE
  8
ボルト／ビス
  6
CONTINUOUS
 10
37.24614
 20
-25.434935
 11
38.872485
 21
-27.06128
  0
LINE
  8
ボルト／ビス
  6
CONTINUOUS
 10
45.095025
 20
-20.83874
 11
38.872485
 21
-27.06128
  0
LINE
  8
ボルト／ビス
  6
CONTINUOUS
 10
43.468685
 20
-19.212395
 11
37.24614
 21
-25.434935
  0
LINE
  8
ボルト／ビス
  6
CONTINUOUS
 10
45.342518
 20
-21.086228
 11
39.473532
 21
-26.955215
  0
LINE
  8
ボルト／ビス
  6
CONTINUOUS
 10
43.221195
 20
-18.96491
 11
37.35221
 21
-24.833893
  0
ENDBLK
  0
BLOCK
  2
*GRP_0049
 70
    65
 10
0.0
 20
0.0
  0
LINE
  8
ボルト／ビス
  6
CONTINUOUS
 10
39.045285
 20
-21.860073
 11
38.828903
 21
-21.39604
  0
ARC
  8
ボルト／ビス
  6
CONTINUOUS
 10
40.328852
 20
-20.916709
 40
1.574676
 50
225.0
 51
252.278033
  0
ARC
  8
ボルト／ビス
  6
CONTINUOUS
 10
45.014439
 20
-19.292984
 40
6.036034
 50
211.165015
 51
238.834998
  0
LINE
  8
ボルト／ビス
  6
CONTINUOUS
 10
42.447357
 20
-25.262143
 11
42.91139
 21
-25.478522
  0
ARC
  8
ボルト／ビス
  6
CONTINUOUS
 10
43.390714
 20
-23.978572
 40
1.574676
 50
197.721967
 51
225.0
  0
LINE
  8
ボルト／ビス
  6
CONTINUOUS
 10
39.045285
 20
-21.860073
 11
42.447357
 21
-25.262143
  0
LINE
  8
ボルト／ビス
  6
CONTINUOUS
 10
42.91139
 20
-25.478522
 11
44.201775
 21
-24.188133
  0
LINE
  8
ボルト／ビス
  6
CONTINUOUS
 10
41.890768
 20
-24.457902
 11
43.181157
 21
-23.167512
  0
LINE
  8
ボルト／ビス
  6
CONTINUOUS
 10
38.828903
 20
-21.39604
 11
40.119292
 21
-20.10565
  0
LINE
  8
ボルト／ビス
  6
CONTINUOUS
 10
39.849525
 20
-22.416658
 11
41.139912
 21
-21.126267
  0
LINE
  8
ボルト／ビス
  6
CONTINUOUS
 10
44.201775
 20
-24.188133
 11
40.119292
 21
-20.10565
  0
ENDBLK
  0
BLOCK
  2
*GRP_0050
 70
    65
 10
0.0
 20
0.0
  0
LINE
  8
ボルト／ビス
  6
CONTINUOUS
 10
76.954172
 20
-16.06179
 11
77.418205
 21
-15.84541
  0
ARC
  8
ボルト／ビス
  6
CONTINUOUS
 10
77.897535
 20
-17.345358
 40
1.574676
 50
135.0
 51
162.278033
  0
ARC
  8
ボルト／ビス
  6
CONTINUOUS
 10
79.52126
 20
-22.030945
 40
6.036034
 50
121.165015
 51
148.834998
  0
LINE
  8
ボルト／ビス
  6
CONTINUOUS
 10
73.552105
 20
-19.463862
 11
73.335722
 21
-19.927892
  0
ARC
  8
ボルト／ビス
  6
CONTINUOUS
 10
74.835673
 20
-20.40722
 40
1.574676
 50
107.721967
 51
135.0
  0
LINE
  8
ボルト／ビス
  6
CONTINUOUS
 10
76.954172
 20
-16.06179
 11
73.552105
 21
-19.463862
  0
LINE
  8
ボルト／ビス
  6
CONTINUOUS
 10
73.335722
 20
-19.927892
 11
74.62611
 21
-21.218282
  0
LINE
  8
ボルト／ビス
  6
CONTINUOUS
 10
74.356343
 20
-18.907272
 11
75.646732
 21
-20.197663
  0
LINE
  8
ボルト／ビス
  6
CONTINUOUS
 10
77.418205
 20
-15.84541
 11
78.708592
 21
-17.1358
  0
LINE
  8
ボルト／ビス
  6
CONTINUOUS
 10
76.397582
 20
-16.866028
 11
77.687973
 21
-18.156418
  0
LINE
  8
ボルト／ビス
  6
CONTINUOUS
 10
75.015018
 20
-21.89003
 11
74.48469
 21
-21.359703
  0
LINE
  8
ボルト／ビス
  6
CONTINUOUS
 10
75.041005
 20
-22.50044
 11
74.722808
 21
-22.182245
  0
LINE
  8
ボルト／ビス
  6
CONTINUOUS
 10
79.380345
 20
-17.524708
 11
78.850015
 21
-16.99438
  0
LINE
  8
ボルト／ビス
  6
CONTINUOUS
 10
79.990755
 20
-17.550695
 11
79.672555
 21
-17.232498
  0
LINE
  8
ボルト／ビス
  6
CONTINUOUS
 10
74.722808
 20
-22.182245
 11
79.672555
 21
-17.232498
  0
LINE
  8
ボルト／ビス
  6
CONTINUOUS
 10
75.041005
 20
-22.50044
 11
79.990755
 21
-17.550695
  0
LINE
  8
ボルト／ビス
  6
CONTINUOUS
 10
74.48469
 20
-21.359703
 11
78.850015
 21
-16.99438
  0
LINE
  8
ボルト／ビス
  6
CONTINUOUS
 10
77.19768
 20
-19.707373
 11
76.66735
 21
-19.17704
  0
LINE
  8
ボルト／ビス
  6
CONTINUOUS
 10
73.48537
 20
-15.99506
 11
85.506183
 21
-28.015877
  0
LINE
  8
ボルト／ビス
  6
CONTINUOUS
 10
82.324202
 20
-26.955215
 11
82.92525
 21
-27.06128
  0
LINE
  8
ボルト／ビス
  6
CONTINUOUS
 10
84.445525
 20
-24.833893
 11
84.551595
 21
-25.434935
  0
LINE
  8
ボルト／ビス
  6
CONTINUOUS
 10
84.445525
 20
-24.833893
 11
82.324202
 21
-26.955215
  0
LINE
  8
ボルト／ビス
  6
CONTINUOUS
 10
84.551595
 20
-25.434935
 11
82.92525
 21
-27.06128
  0
LINE
  8
ボルト／ビス
  6
CONTINUOUS
 10
76.70271
 20
-20.83874
 11
82.92525
 21
-27.06128
  0
LINE
  8
ボルト／ビス
  6
CONTINUOUS
 10
78.32905
 20
-19.212395
 11
84.551595
 21
-25.434935
  0
LINE
  8
ボルト／ビス
  6
CONTINUOUS
 10
76.455218
 20
-21.086228
 11
82.324202
 21
-26.955215
  0
LINE
  8
ボルト／ビス
  6
CONTINUOUS
 10
78.57654
 20
-18.96491
 11
84.445525
 21
-24.833893
  0
ENDBLK
  0
BLOCK
  2
*GRP_0051
 70
    65
 10
0.0
 20
0.0
  0
LINE
  8
ボルト／ビス
  6
CONTINUOUS
 10
82.75245
 20
-21.860073
 11
82.968832
 21
-21.39604
  0
ARC
  8
ボルト／ビス
  6
CONTINUOUS
 10
81.468883
 20
-20.916709
 40
1.574676
 50
287.721967
 51
315.0
  0
ARC
  8
ボルト／ビス
  6
CONTINUOUS
 10
76.783296
 20
-19.292984
 40
6.036034
 50
301.165002
 51
328.834985
  0
LINE
  8
ボルト／ビス
  6
CONTINUOUS
 10
79.350377
 20
-25.262143
 11
78.886345
 21
-25.478522
  0
ARC
  8
ボルト／ビス
  6
CONTINUOUS
 10
78.407021
 20
-23.978572
 40
1.574676
 50
315.0
 51
342.278033
  0
LINE
  8
ボルト／ビス
  6
CONTINUOUS
 10
82.75245
 20
-21.860073
 11
79.350377
 21
-25.262143
  0
LINE
  8
ボルト／ビス
  6
CONTINUOUS
 10
78.886345
 20
-25.478522
 11
77.59596
 21
-24.188133
  0
LINE
  8
ボルト／ビス
  6
CONTINUOUS
 10
79.906968
 20
-24.457902
 11
78.616577
 21
-23.167512
  0
LINE
  8
ボルト／ビス
  6
CONTINUOUS
 10
82.968832
 20
-21.39604
 11
81.678442
 21
-20.10565
  0
LINE
  8
ボルト／ビス
  6
CONTINUOUS
 10
81.94821
 20
-22.416658
 11
80.657822
 21
-21.126267
  0
LINE
  8
ボルト／ビス
  6
CONTINUOUS
 10
77.59596
 20
-24.188133
 11
81.678442
 21
-20.10565
  0
ENDBLK
  0
BLOCK
  2
*GRP_0052
 70
    65
 10
0.0
 20
0.0
  0
LINE
  8
型材断面
  6
CONTINUOUS
 62
    47
 10
-25.37698
 20
108.482225
 11
-21.271797
 21
109.582205
  0
LINE
  8
型材断面
  6
CONTINUOUS
 62
    47
 10
-25.37698
 20
108.482225
 11
-29.482165
 21
107.382243
  0
LINE
  8
型材断面
  6
CONTINUOUS
 62
    47
 10
-25.571095
 20
109.20667
 11
-30.400725
 21
107.912572
  0
LINE
  8
型材断面
  6
CONTINUOUS
 62
    47
 10
-25.571095
 20
109.20667
 11
-20.74147
 21
110.500763
  0
LINE
  8
型材断面
  6
CONTINUOUS
 62
    47
 10
-26.41628
 20
108.980203
 11
-26.222165
 21
108.255758
  0
LINE
  8
型材断面
  6
CONTINUOUS
 62
    47
 10
-24.725912
 20
109.433135
 11
-24.531797
 21
108.70869
  0
LINE
  8
型材断面
  6
CONTINUOUS
 62
    47
 10
-24.677385
 20
109.252025
 11
-26.36775
 21
108.79909
  0
LINE
  8
型材断面
  6
CONTINUOUS
 62
    47
 10
-24.628855
 20
109.070912
 11
-26.319222
 21
108.61798
  0
LINE
  8
型材断面
  6
CONTINUOUS
 62
    47
 10
-24.580328
 20
108.889803
 11
-26.270693
 21
108.436867
  0
LINE
  8
型材断面
  6
CONTINUOUS
 62
    47
 10
-20.58883
 20
90.612595
 11
-16.483648
 21
91.712572
  0
LINE
  8
型材断面
  6
CONTINUOUS
 62
    47
 10
-20.58883
 20
90.612595
 11
-24.694013
 21
89.512615
  0
LINE
  8
型材断面
  6
CONTINUOUS
 62
    47
 10
-20.394715
 20
89.88815
 11
-25.224342
 21
88.594055
  0
LINE
  8
型材断面
  6
CONTINUOUS
 62
    47
 10
-29.482165
 20
107.382243
 11
-24.694013
 21
89.512615
  0
LINE
  8
型材断面
  6
CONTINUOUS
 62
    47
 10
-21.271797
 20
109.582205
 11
-16.483648
 21
91.712572
  0
LINE
  8
型材断面
  6
CONTINUOUS
 62
    47
 10
-30.400725
 20
107.912572
 11
-25.224342
 21
88.594055
  0
LINE
  8
型材断面
  6
CONTINUOUS
 62
    47
 10
-20.74147
 20
110.500763
 11
-15.565088
 21
91.182243
  0
LINE
  8
型材断面
  6
CONTINUOUS
 62
    47
 10
-16.580705
 20
92.0748
 11
-15.85626
 21
92.268913
  0
LINE
  8
型材断面
  6
CONTINUOUS
 62
    47
 10
-17.033637
 20
93.76517
 11
-16.309195
 21
93.959282
  0
LINE
  8
型材断面
  6
CONTINUOUS
 62
    47
 10
-16.852527
 20
93.8137
 11
-16.399593
 21
92.123328
  0
LINE
  8
型材断面
  6
CONTINUOUS
 62
    47
 10
-16.671415
 20
93.862227
 11
-16.218483
 21
92.171858
  0
LINE
  8
型材断面
  6
CONTINUOUS
 62
    47
 10
-16.490305
 20
93.910758
 11
-16.03737
 21
92.220385
  0
LINE
  8
型材断面
  6
CONTINUOUS
 62
    47
 10
-24.79107
 20
89.874837
 11
-25.515515
 21
89.680723
  0
LINE
  8
型材断面
  6
CONTINUOUS
 62
    47
 10
-25.244005
 20
91.565208
 11
-25.968448
 21
91.371095
  0
LINE
  8
型材断面
  6
CONTINUOUS
 62
    47
 10
-25.425115
 20
91.516677
 11
-24.972182
 21
89.826308
  0
LINE
  8
型材断面
  6
CONTINUOUS
 62
    47
 10
-25.606225
 20
91.468153
 11
-25.153293
 21
89.77778
  0
LINE
  8
型材断面
  6
CONTINUOUS
 62
    47
 10
-25.787338
 20
91.419622
 11
-25.334403
 21
89.729253
  0
LINE
  8
型材断面
  6
CONTINUOUS
 62
    47
 10
-20.394715
 20
89.88815
 11
-15.565088
 21
91.182243
  0
ENDBLK
  0
BLOCK
  2
*GRP_0053
 70
    65
 10
0.0
 20
0.0
  0
LINE
  8
型材断面
  6
CONTINUOUS
 62
    47
 10
-120.18769
 20
15.50653
 11
-120.18769
 21
13.73875
  0
LINE
  8
型材断面
  6
CONTINUOUS
 62
    47
 10
-120.18769
 20
15.50653
 11
-120.18769
 21
17.27431
  0
POLYLINE
  8
型材断面
  6
CONTINUOUS
 62
    47
 66
     1
  0
VERTEX
  8
型材断面
 10
-125.025
 20
13.725
  0
VERTEX
  8
型材断面
 10
-125.05
 20
13.725
  0
VERTEX
  8
型材断面
 10
-125.075
 20
13.725
  0
VERTEX
  8
型材断面
 10
-125.1
 20
13.725
  0
VERTEX
  8
型材断面
 10
-125.15
 20
13.725
  0
VERTEX
  8
型材断面
 10
-125.175
 20
13.725
  0
VERTEX
  8
型材断面
 10
-125.2
 20
13.725
  0
VERTEX
  8
型材断面
 10
-125.225
 20
13.725
  0
VERTEX
  8
型材断面
 10
-125.25
 20
13.7
  0
VERTEX
  8
型材断面
 10
-125.275
 20
13.7
  0
VERTEX
  8
型材断面
 10
-125.3
 20
13.7
  0
VERTEX
  8
型材断面
 10
-125.35
 20
13.7
  0
VERTEX
  8
型材断面
 10
-125.375
 20
13.675
  0
VERTEX
  8
型材断面
 10
-125.4
 20
13.675
  0
VERTEX
  8
型材断面
 10
-125.425
 20
13.675
  0
VERTEX
  8
型材断面
 10
-125.45
 20
13.675
  0
VERTEX
  8
型材断面
 10
-125.475
 20
13.65
  0
VERTEX
  8
型材断面
 10
-125.5
 20
13.65
  0
VERTEX
  8
型材断面
 10
-125.525
 20
13.65
  0
VERTEX
  8
型材断面
 10
-125.55
 20
13.625
  0
VERTEX
  8
型材断面
 10
-125.575
 20
13.625
  0
VERTEX
  8
型材断面
 10
-125.6
 20
13.6
  0
VERTEX
  8
型材断面
 10
-125.625
 20
13.6
  0
VERTEX
  8
型材断面
 10
-125.65
 20
13.575
  0
VERTEX
  8
型材断面
 10
-125.65
 20
13.575
  0
VERTEX
  8
型材断面
 10
-125.675
 20
13.575
  0
VERTEX
  8
型材断面
 10
-125.7
 20
13.55
  0
VERTEX
  8
型材断面
 10
-125.725
 20
13.55
  0
VERTEX
  8
型材断面
 10
-125.75
 20
13.525
  0
VERTEX
  8
型材断面
 10
-125.75
 20
13.5
  0
VERTEX
  8
型材断面
 10
-125.775
 20
13.5
  0
VERTEX
  8
型材断面
 10
-125.8
 20
13.475
  0
VERTEX
  8
型材断面
 10
-125.8
 20
13.475
  0
VERTEX
  8
型材断面
 10
-125.825
 20
13.45
  0
VERTEX
  8
型材断面
 10
-125.825
 20
13.45
  0
VERTEX
  8
型材断面
 10
-125.85
 20
13.425
  0
VERTEX
  8
型材断面
 10
-125.85
 20
13.4
  0
VERTEX
  8
型材断面
 10
-125.875
 20
13.4
  0
VERTEX
  8
型材断面
 10
-125.875
 20
13.375
  0
VERTEX
  8
型材断面
 10
-125.9
 20
13.35
  0
VERTEX
  8
型材断面
 10
-125.9
 20
13.35
  0
VERTEX
  8
型材断面
 10
-125.9
 20
13.325
  0
VERTEX
  8
型材断面
 10
-125.925
 20
13.3
  0
VERTEX
  8
型材断面
 10
-125.925
 20
13.3
  0
VERTEX
  8
型材断面
 10
-125.925
 20
13.275
  0
VERTEX
  8
型材断面
 10
-125.925
 20
13.25
  0
VERTEX
  8
型材断面
 10
-125.925
 20
13.25
  0
VERTEX
  8
型材断面
 10
-125.925
 20
13.225
  0
VERTEX
  8
型材断面
 10
-125.95
 20
13.2
  0
VERTEX
  8
型材断面
 10
-125.95
 20
13.2
  0
VERTEX
  8
型材断面
 10
-125.925
 20
13.175
  0
VERTEX
  8
型材断面
 10
-125.925
 20
13.15
  0
VERTEX
  8
型材断面
 10
-125.925
 20
13.15
  0
VERTEX
  8
型材断面
 10
-125.925
 20
13.125
  0
VERTEX
  8
型材断面
 10
-125.925
 20
13.1
  0
VERTEX
  8
型材断面
 10
-125.925
 20
13.1
  0
VERTEX
  8
型材断面
 10
-125.925
 20
13.075
  0
VERTEX
  8
型材断面
 10
-125.9
 20
13.05
  0
VERTEX
  8
型材断面
 10
-125.9
 20
13.05
  0
VERTEX
  8
型材断面
 10
-125.9
 20
13.025
  0
VERTEX
  8
型材断面
 10
-125.875
 20
13.0
  0
VERTEX
  8
型材断面
 10
-125.875
 20
13.0
  0
VERTEX
  8
型材断面
 10
-125.85
 20
12.975
  0
VERTEX
  8
型材断面
 10
-125.85
 20
12.95
  0
VERTEX
  8
型材断面
 10
-125.825
 20
12.95
  0
VERTEX
  8
型材断面
 10
-125.825
 20
12.925
  0
SEQEND
  0
LINE
  8
型材断面
  6
CONTINUOUS
 62
    47
 10
-115.851728
 20
4.052782
 11
-112.40471
 21
5.201843
  0
POLYLINE
  8
型材断面
  6
CONTINUOUS
 62
    47
 66
     1
  0
VERTEX
  8
型材断面
 10
-115.4
 20
3.575
  0
VERTEX
  8
型材断面
 10
-115.425
 20
3.575
  0
VERTEX
  8
型材断面
 10
-115.45
 20
3.575
  0
VERTEX
  8
型材断面
 10
-115.475
 20
3.55
  0
VERTEX
  8
型材断面
 10
-115.5
 20
3.55
  0
VERTEX
  8
型材断面
 10
-115.55
 20
3.55
  0
VERTEX
  8
型材断面
 10
-115.575
 20
3.55
  0
VERTEX
  8
型材断面
 10
-115.6
 20
3.525
  0
VERTEX
  8
型材断面
 10
-115.625
 20
3.525
  0
VERTEX
  8
型材断面
 10
-115.65
 20
3.525
  0
VERTEX
  8
型材断面
 10
-115.675
 20
3.525
  0
VERTEX
  8
型材断面
 10
-115.7
 20
3.525
  0
VERTEX
  8
型材断面
 10
-115.725
 20
3.525
  0
VERTEX
  8
型材断面
 10
-115.775
 20
3.525
  0
VERTEX
  8
型材断面
 10
-115.8
 20
3.5
  0
VERTEX
  8
型材断面
 10
-115.825
 20
3.5
  0
VERTEX
  8
型材断面
 10
-115.85
 20
3.5
  0
VERTEX
  8
型材断面
 10
-115.875
 20
3.5
  0
VERTEX
  8
型材断面
 10
-115.925
 20
3.5
  0
VERTEX
  8
型材断面
 10
-115.95
 20
3.5
  0
VERTEX
  8
型材断面
 10
-115.975
 20
3.525
  0
VERTEX
  8
型材断面
 10
-116.0
 20
3.525
  0
VERTEX
  8
型材断面
 10
-116.025
 20
3.525
  0
VERTEX
  8
型材断面
 10
-116.05
 20
3.525
  0
VERTEX
  8
型材断面
 10
-116.1
 20
3.525
  0
VERTEX
  8
型材断面
 10
-116.125
 20
3.525
  0
VERTEX
  8
型材断面
 10
-116.15
 20
3.525
  0
VERTEX
  8
型材断面
 10
-116.175
 20
3.55
  0
VERTEX
  8
型材断面
 10
-116.2
 20
3.55
  0
VERTEX
  8
型材断面
 10
-116.225
 20
3.55
  0
VERTEX
  8
型材断面
 10
-116.25
 20
3.55
  0
VERTEX
  8
型材断面
 10
-116.275
 20
3.575
  0
VERTEX
  8
型材断面
 10
-116.3
 20
3.575
  0
VERTEX
  8
型材断面
 10
-116.325
 20
3.575
  0
VERTEX
  8
型材断面
 10
-116.35
 20
3.6
  0
VERTEX
  8
型材断面
 10
-116.375
 20
3.6
  0
VERTEX
  8
型材断面
 10
-116.4
 20
3.6
  0
VERTEX
  8
型材断面
 10
-116.425
 20
3.625
  0
VERTEX
  8
型材断面
 10
-116.45
 20
3.625
  0
VERTEX
  8
型材断面
 10
-116.475
 20
3.65
  0
VERTEX
  8
型材断面
 10
-116.5
 20
3.65
  0
VERTEX
  8
型材断面
 10
-116.525
 20
3.675
  0
VERTEX
  8
型材断面
 10
-116.55
 20
3.675
  0
VERTEX
  8
型材断面
 10
-116.55
 20
3.7
  0
VERTEX
  8
型材断面
 10
-116.575
 20
3.7
  0
VERTEX
  8
型材断面
 10
-116.6
 20
3.725
  0
VERTEX
  8
型材断面
 10
-116.6
 20
3.725
  0
VERTEX
  8
型材断面
 10
-116.625
 20
3.75
  0
VERTEX
  8
型材断面
 10
-116.65
 20
3.75
  0
VERTEX
  8
型材断面
 10
-116.65
 20
3.775
  0
SEQEND
  0
LINE
  8
型材断面
  6
CONTINUOUS
 62
    47
 10
-111.945447
 20
4.742557
 11
-116.18793
 21
3.328335
  0
LINE
  8
型材断面
  6
CONTINUOUS
 62
    47
 10
-112.40471
 20
5.201843
 11
-111.945447
 21
4.742557
  0
LINE
  8
型材断面
  6
CONTINUOUS
 62
    47
 10
-120.18769
 20
13.73875
 11
-126.597885
 21
13.73875
  0
LINE
  8
型材断面
  6
CONTINUOUS
 62
    47
 10
-116.18793
 20
3.328335
 11
-126.597885
 21
13.73875
  0
LINE
  8
型材断面
  6
CONTINUOUS
 62
    47
 10
-115.851728
 20
4.052782
 11
-125.006955
 21
13.208415
  0
POLYLINE
  8
型材断面
  6
CONTINUOUS
 62
    47
 66
     1
  0
VERTEX
  8
型材断面
 10
-125.825
 20
18.05
  0
VERTEX
  8
型材断面
 10
-125.825
 20
18.05
  0
VERTEX
  8
型材断面
 10
-125.85
 20
18.025
  0
VERTEX
  8
型材断面
 10
-125.85
 20
18.0
  0
VERTEX
  8
型材断面
 10
-125.875
 20
18.0
  0
VERTEX
  8
型材断面
 10
-125.875
 20
17.975
  0
VERTEX
  8
型材断面
 10
-125.9
 20
17.975
  0
VERTEX
  8
型材断面
 10
-125.9
 20
17.95
  0
VERTEX
  8
型材断面
 10
-125.9
 20
17.925
  0
VERTEX
  8
型材断面
 10
-125.925
 20
17.925
  0
VERTEX
  8
型材断面
 10
-125.925
 20
17.9
  0
VERTEX
  8
型材断面
 10
-125.925
 20
17.875
  0
VERTEX
  8
型材断面
 10
-125.925
 20
17.875
  0
VERTEX
  8
型材断面
 10
-125.925
 20
17.85
  0
VERTEX
  8
型材断面
 10
-125.925
 20
17.825
  0
VERTEX
  8
型材断面
 10
-125.925
 20
17.825
  0
VERTEX
  8
型材断面
 10
-125.95
 20
17.8
  0
VERTEX
  8
型材断面
 10
-125.95
 20
17.775
  0
VERTEX
  8
型材断面
 10
-125.925
 20
17.75
  0
VERTEX
  8
型材断面
 10
-125.925
 20
17.75
  0
VERTEX
  8
型材断面
 10
-125.925
 20
17.725
  0
VERTEX
  8
型材断面
 10
-125.925
 20
17.7
  0
VERTEX
  8
型材断面
 10
-125.925
 20
17.7
  0
VERTEX
  8
型材断面
 10
-125.925
 20
17.675
  0
VERTEX
  8
型材断面
 10
-125.9
 20
17.65
  0
VERTEX
  8
型材断面
 10
-125.9
 20
17.65
  0
VERTEX
  8
型材断面
 10
-125.9
 20
17.625
  0
VERTEX
  8
型材断面
 10
-125.875
 20
17.6
  0
VERTEX
  8
型材断面
 10
-125.875
 20
17.6
  0
VERTEX
  8
型材断面
 10
-125.85
 20
17.575
  0
VERTEX
  8
型材断面
 10
-125.85
 20
17.575
  0
VERTEX
  8
型材断面
 10
-125.825
 20
17.55
  0
VERTEX
  8
型材断面
 10
-125.825
 20
17.525
  0
VERTEX
  8
型材断面
 10
-125.8
 20
17.525
  0
VERTEX
  8
型材断面
 10
-125.8
 20
17.5
  0
VERTEX
  8
型材断面
 10
-125.775
 20
17.5
  0
VERTEX
  8
型材断面
 10
-125.75
 20
17.475
  0
VERTEX
  8
型材断面
 10
-125.75
 20
17.475
  0
VERTEX
  8
型材断面
 10
-125.725
 20
17.45
  0
VERTEX
  8
型材断面
 10
-125.7
 20
17.425
  0
VERTEX
  8
型材断面
 10
-125.675
 20
17.425
  0
VERTEX
  8
型材断面
 10
-125.65
 20
17.425
  0
VERTEX
  8
型材断面
 10
-125.65
 20
17.4
  0
VERTEX
  8
型材断面
 10
-125.625
 20
17.4
  0
VERTEX
  8
型材断面
 10
-125.6
 20
17.375
  0
VERTEX
  8
型材断面
 10
-125.575
 20
17.375
  0
VERTEX
  8
型材断面
 10
-125.55
 20
17.35
  0
VERTEX
  8
型材断面
 10
-125.525
 20
17.35
  0
VERTEX
  8
型材断面
 10
-125.5
 20
17.35
  0
VERTEX
  8
型材断面
 10
-125.475
 20
17.325
  0
VERTEX
  8
型材断面
 10
-125.45
 20
17.325
  0
VERTEX
  8
型材断面
 10
-125.425
 20
17.325
  0
VERTEX
  8
型材断面
 10
-125.4
 20
17.3
  0
VERTEX
  8
型材断面
 10
-125.375
 20
17.3
  0
VERTEX
  8
型材断面
 10
-125.35
 20
17.3
  0
VERTEX
  8
型材断面
 10
-125.3
 20
17.3
  0
VERTEX
  8
型材断面
 10
-125.275
 20
17.275
  0
VERTEX
  8
型材断面
 10
-125.25
 20
17.275
  0
VERTEX
  8
型材断面
 10
-125.225
 20
17.275
  0
VERTEX
  8
型材断面
 10
-125.2
 20
17.275
  0
VERTEX
  8
型材断面
 10
-125.175
 20
17.275
  0
VERTEX
  8
型材断面
 10
-125.15
 20
17.275
  0
VERTEX
  8
型材断面
 10
-125.1
 20
17.275
  0
VERTEX
  8
型材断面
 10
-125.075
 20
17.275
  0
VERTEX
  8
型材断面
 10
-125.05
 20
17.25
  0
VERTEX
  8
型材断面
 10
-125.025
 20
17.25
  0
SEQEND
  0
LINE
  8
型材断面
  6
CONTINUOUS
 62
    47
 10
-115.851728
 20
26.960275
 11
-112.40471
 21
25.81122
  0
POLYLINE
  8
型材断面
  6
CONTINUOUS
 62
    47
 66
     1
  0
VERTEX
  8
型材断面
 10
-116.65
 20
27.225
  0
VERTEX
  8
型材断面
 10
-116.65
 20
27.225
  0
VERTEX
  8
型材断面
 10
-116.625
 20
27.25
  0
VERTEX
  8
型材断面
 10
-116.6
 20
27.25
  0
VERTEX
  8
型材断面
 10
-116.6
 20
27.275
  0
VERTEX
  8
型材断面
 10
-116.575
 20
27.275
  0
VERTEX
  8
型材断面
 10
-116.55
 20
27.3
  0
VERTEX
  8
型材断面
 10
-116.55
 20
27.3
  0
VERTEX
  8
型材断面
 10
-116.525
 20
27.325
  0
VERTEX
  8
型材断面
 10
-116.5
 20
27.325
  0
VERTEX
  8
型材断面
 10
-116.475
 20
27.35
  0
VERTEX
  8
型材断面
 10
-116.45
 20
27.35
  0
VERTEX
  8
型材断面
 10
-116.425
 20
27.375
  0
VERTEX
  8
型材断面
 10
-116.4
 20
27.375
  0
VERTEX
  8
型材断面
 10
-116.375
 20
27.375
  0
VERTEX
  8
型材断面
 10
-116.35
 20
27.4
  0
VERTEX
  8
型材断面
 10
-116.325
 20
27.4
  0
VERTEX
  8
型材断面
 10
-116.3
 20
27.425
  0
VERTEX
  8
型材断面
 10
-116.275
 20
27.425
  0
VERTEX
  8
型材断面
 10
-116.25
 20
27.425
  0
VERTEX
  8
型材断面
 10
-116.225
 20
27.425
  0
VERTEX
  8
型材断面
 10
-116.2
 20
27.45
  0
VERTEX
  8
型材断面
 10
-116.175
 20
27.45
  0
VERTEX
  8
型材断面
 10
-116.15
 20
27.45
  0
VERTEX
  8
型材断面
 10
-116.125
 20
27.45
  0
VERTEX
  8
型材断面
 10
-116.1
 20
27.45
  0
VERTEX
  8
型材断面
 10
-116.05
 20
27.475
  0
VERTEX
  8
型材断面
 10
-116.025
 20
27.475
  0
VERTEX
  8
型材断面
 10
-116.0
 20
27.475
  0
VERTEX
  8
型材断面
 10
-115.975
 20
27.475
  0
VERTEX
  8
型材断面
 10
-115.95
 20
27.475
  0
VERTEX
  8
型材断面
 10
-115.925
 20
27.475
  0
VERTEX
  8
型材断面
 10
-115.875
 20
27.475
  0
VERTEX
  8
型材断面
 10
-115.85
 20
27.475
  0
VERTEX
  8
型材断面
 10
-115.825
 20
27.475
  0
VERTEX
  8
型材断面
 10
-115.8
 20
27.475
  0
VERTEX
  8
型材断面
 10
-115.775
 20
27.475
  0
VERTEX
  8
型材断面
 10
-115.725
 20
27.475
  0
VERTEX
  8
型材断面
 10
-115.7
 20
27.475
  0
VERTEX
  8
型材断面
 10
-115.675
 20
27.475
  0
VERTEX
  8
型材断面
 10
-115.65
 20
27.475
  0
VERTEX
  8
型材断面
 10
-115.625
 20
27.45
  0
VERTEX
  8
型材断面
 10
-115.6
 20
27.45
  0
VERTEX
  8
型材断面
 10
-115.575
 20
27.45
  0
VERTEX
  8
型材断面
 10
-115.55
 20
27.45
  0
VERTEX
  8
型材断面
 10
-115.5
 20
27.425
  0
VERTEX
  8
型材断面
 10
-115.475
 20
27.425
  0
VERTEX
  8
型材断面
 10
-115.45
 20
27.425
  0
VERTEX
  8
型材断面
 10
-115.425
 20
27.425
  0
VERTEX
  8
型材断面
 10
-115.4
 20
27.4
  0
SEQEND
  0
LINE
  8
型材断面
  6
CONTINUOUS
 62
    47
 10
-111.945447
 20
26.270505
 11
-116.18793
 21
27.684728
  0
LINE
  8
型材断面
  6
CONTINUOUS
 62
    47
 10
-112.40471
 20
25.81122
 11
-111.945447
 21
26.270505
  0
LINE
  8
型材断面
  6
CONTINUOUS
 62
    47
 10
-116.18793
 20
27.684728
 11
-126.597885
 21
17.27431
  0
LINE
  8
型材断面
  6
CONTINUOUS
 62
    47
 10
-120.18769
 20
17.27431
 11
-126.597885
 21
17.27431
  0
LINE
  8
型材断面
  6
CONTINUOUS
 62
    47
 10
-115.851728
 20
26.96028
 11
-125.006955
 21
17.804647
  0
LINE
  8
型材断面
  6
CONTINUOUS
 10
-120.18769
 20
14.622638
 11
-119.269163
 21
14.622638
  0
LINE
  8
型材断面
  6
CONTINUOUS
 10
-120.18769
 20
16.39042
 11
-119.269163
 21
16.39042
  0
POLYLINE
  8
型材断面
  6
CONTINUOUS
 66
     1
  0
VERTEX
  8
型材断面
 10
-119.275
 20
17.25
  0
VERTEX
  8
型材断面
 10
-119.275
 20
17.275
  0
VERTEX
  8
型材断面
 10
-119.275
 20
17.3
  0
VERTEX
  8
型材断面
 10
-119.275
 20
17.325
  0
VERTEX
  8
型材断面
 10
-119.3
 20
17.325
  0
VERTEX
  8
型材断面
 10
-119.3
 20
17.35
  0
VERTEX
  8
型材断面
 10
-119.3
 20
17.375
  0
VERTEX
  8
型材断面
 10
-119.3
 20
17.375
  0
VERTEX
  8
型材断面
 10
-119.3
 20
17.4
  0
VERTEX
  8
型材断面
 10
-119.325
 20
17.425
  0
VERTEX
  8
型材断面
 10
-119.325
 20
17.425
  0
VERTEX
  8
型材断面
 10
-119.35
 20
17.45
  0
VERTEX
  8
型材断面
 10
-119.35
 20
17.45
  0
VERTEX
  8
型材断面
 10
-119.35
 20
17.475
  0
VERTEX
  8
型材断面
 10
-119.375
 20
17.5
  0
VERTEX
  8
型材断面
 10
-119.375
 20
17.5
  0
VERTEX
  8
型材断面
 10
-119.4
 20
17.525
  0
VERTEX
  8
型材断面
 10
-119.425
 20
17.525
  0
VERTEX
  8
型材断面
 10
-119.425
 20
17.55
  0
VERTEX
  8
型材断面
 10
-119.45
 20
17.575
  0
VERTEX
  8
型材断面
 10
-119.475
 20
17.575
  0
VERTEX
  8
型材断面
 10
-119.475
 20
17.6
  0
VERTEX
  8
型材断面
 10
-119.5
 20
17.6
  0
VERTEX
  8
型材断面
 10
-119.525
 20
17.625
  0
VERTEX
  8
型材断面
 10
-119.55
 20
17.625
  0
VERTEX
  8
型材断面
 10
-119.55
 20
17.65
  0
VERTEX
  8
型材断面
 10
-119.575
 20
17.65
  0
VERTEX
  8
型材断面
 10
-119.6
 20
17.675
  0
VERTEX
  8
型材断面
 10
-119.625
 20
17.675
  0
VERTEX
  8
型材断面
 10
-119.65
 20
17.675
  0
VERTEX
  8
型材断面
 10
-119.675
 20
17.7
  0
VERTEX
  8
型材断面
 10
-119.7
 20
17.7
  0
VERTEX
  8
型材断面
 10
-119.725
 20
17.725
  0
VERTEX
  8
型材断面
 10
-119.75
 20
17.725
  0
VERTEX
  8
型材断面
 10
-119.775
 20
17.725
  0
VERTEX
  8
型材断面
 10
-119.8
 20
17.75
  0
VERTEX
  8
型材断面
 10
-119.825
 20
17.75
  0
VERTEX
  8
型材断面
 10
-119.85
 20
17.75
  0
VERTEX
  8
型材断面
 10
-119.875
 20
17.75
  0
VERTEX
  8
型材断面
 10
-119.9
 20
17.775
  0
VERTEX
  8
型材断面
 10
-119.95
 20
17.775
  0
VERTEX
  8
型材断面
 10
-119.975
 20
17.775
  0
VERTEX
  8
型材断面
 10
-120.0
 20
17.775
  0
VERTEX
  8
型材断面
 10
-120.025
 20
17.775
  0
VERTEX
  8
型材断面
 10
-120.05
 20
17.775
  0
VERTEX
  8
型材断面
 10
-120.075
 20
17.8
  0
VERTEX
  8
型材断面
 10
-120.1
 20
17.8
  0
VERTEX
  8
型材断面
 10
-120.15
 20
17.8
  0
VERTEX
  8
型材断面
 10
-120.175
 20
17.8
  0
VERTEX
  8
型材断面
 10
-120.2
 20
17.8
  0
SEQEND
  0
POLYLINE
  8
型材断面
  6
CONTINUOUS
 66
     1
  0
VERTEX
  8
型材断面
 10
-120.2
 20
13.2
  0
VERTEX
  8
型材断面
 10
-120.175
 20
13.2
  0
VERTEX
  8
型材断面
 10
-120.15
 20
13.2
  0
VERTEX
  8
型材断面
 10
-120.1
 20
13.2
  0
VERTEX
  8
型材断面
 10
-120.075
 20
13.2
  0
VERTEX
  8
型材断面
 10
-120.05
 20
13.2
  0
VERTEX
  8
型材断面
 10
-120.025
 20
13.2
  0
VERTEX
  8
型材断面
 10
-120.0
 20
13.2
  0
VERTEX
  8
型材断面
 10
-119.975
 20
13.225
  0
VERTEX
  8
型材断面
 10
-119.95
 20
13.225
  0
VERTEX
  8
型材断面
 10
-119.9
 20
13.225
  0
VERTEX
  8
型材断面
 10
-119.875
 20
13.225
  0
VERTEX
  8
型材断面
 10
-119.85
 20
13.225
  0
VERTEX
  8
型材断面
 10
-119.825
 20
13.25
  0
VERTEX
  8
型材断面
 10
-119.8
 20
13.25
  0
VERTEX
  8
型材断面
 10
-119.775
 20
13.25
  0
VERTEX
  8
型材断面
 10
-119.75
 20
13.275
  0
VERTEX
  8
型材断面
 10
-119.725
 20
13.275
  0
VERTEX
  8
型材断面
 10
-119.7
 20
13.275
  0
VERTEX
  8
型材断面
 10
-119.675
 20
13.3
  0
VERTEX
  8
型材断面
 10
-119.65
 20
13.3
  0
VERTEX
  8
型材断面
 10
-119.625
 20
13.3
  0
VERTEX
  8
型材断面
 10
-119.6
 20
13.325
  0
VERTEX
  8
型材断面
 10
-119.575
 20
13.325
  0
VERTEX
  8
型材断面
 10
-119.55
 20
13.35
  0
VERTEX
  8
型材断面
 10
-119.55
 20
13.35
  0
VERTEX
  8
型材断面
 10
-119.525
 20
13.375
  0
VERTEX
  8
型材断面
 10
-119.5
 20
13.375
  0
VERTEX
  8
型材断面
 10
-119.475
 20
13.4
  0
VERTEX
  8
型材断面
 10
-119.475
 20
13.4
  0
VERTEX
  8
型材断面
 10
-119.45
 20
13.425
  0
VERTEX
  8
型材断面
 10
-119.425
 20
13.425
  0
VERTEX
  8
型材断面
 10
-119.425
 20
13.45
  0
VERTEX
  8
型材断面
 10
-119.4
 20
13.475
  0
VERTEX
  8
型材断面
 10
-119.375
 20
13.475
  0
VERTEX
  8
型材断面
 10
-119.375
 20
13.5
  0
VERTEX
  8
型材断面
 10
-119.35
 20
13.5
  0
VERTEX
  8
型材断面
 10
-119.35
 20
13.525
  0
VERTEX
  8
型材断面
 10
-119.35
 20
13.55
  0
VERTEX
  8
型材断面
 10
-119.325
 20
13.55
  0
VERTEX
  8
型材断面
 10
-119.325
 20
13.575
  0
VERTEX
  8
型材断面
 10
-119.3
 20
13.6
  0
VERTEX
  8
型材断面
 10
-119.3
 20
13.6
  0
VERTEX
  8
型材断面
 10
-119.3
 20
13.625
  0
VERTEX
  8
型材断面
 10
-119.3
 20
13.65
  0
VERTEX
  8
型材断面
 10
-119.3
 20
13.65
  0
VERTEX
  8
型材断面
 10
-119.275
 20
13.675
  0
VERTEX
  8
型材断面
 10
-119.275
 20
13.7
  0
VERTEX
  8
型材断面
 10
-119.275
 20
13.7
  0
VERTEX
  8
型材断面
 10
-119.275
 20
13.725
  0
SEQEND
  0
LINE
  8
型材断面
  6
CONTINUOUS
 62
    47
 10
-125.006955
 20
13.208415
 11
-119.269163
 21
13.208415
  0
LINE
  8
型材断面
  6
CONTINUOUS
 10
-119.269163
 20
13.208415
 11
-119.269163
 21
17.804647
  0
LINE
  8
型材断面
  6
CONTINUOUS
 62
    47
 10
-125.006955
 20
17.804647
 11
-119.269163
 21
17.804647
  0
LINE
  8
St
  6
CONTINUOUS
 62
    47
 10
-119.958062
 20
16.39042
 11
-119.958062
 21
14.622638
  0
LINE
  8
St
  6
CONTINUOUS
 62
    47
 10
-119.728428
 20
16.39042
 11
-119.728428
 21
14.622638
  0
LINE
  8
St
  6
CONTINUOUS
 62
    47
 10
-119.498797
 20
16.39042
 11
-119.498797
 21
14.622638
  0
ENDBLK
  0
BLOCK
  2
*GRP_0054
 70
    65
 10
0.0
 20
0.0
  0
POLYLINE
  8
型材断面
  6
CONTINUOUS
 66
     1
  0
VERTEX
  8
型材断面
 10
-102.625
 20
11.175
  0
VERTEX
  8
型材断面
 10
-102.625
 20
11.175
  0
VERTEX
  8
型材断面
 10
-102.65
 20
11.2
  0
VERTEX
  8
型材断面
 10
-102.675
 20
11.2
  0
VERTEX
  8
型材断面
 10
-102.675
 20
11.225
  0
VERTEX
  8
型材断面
 10
-102.675
 20
11.25
  0
VERTEX
  8
型材断面
 10
-102.7
 20
11.25
  0
VERTEX
  8
型材断面
 10
-102.7
 20
11.275
  0
VERTEX
  8
型材断面
 10
-102.725
 20
11.3
  0
VERTEX
  8
型材断面
 10
-102.725
 20
11.3
  0
VERTEX
  8
型材断面
 10
-102.725
 20
11.325
  0
VERTEX
  8
型材断面
 10
-102.725
 20
11.35
  0
VERTEX
  8
型材断面
 10
-102.725
 20
11.35
  0
VERTEX
  8
型材断面
 10
-102.75
 20
11.375
  0
VERTEX
  8
型材断面
 10
-102.75
 20
11.4
  0
VERTEX
  8
型材断面
 10
-102.75
 20
11.4
  0
VERTEX
  8
型材断面
 10
-102.75
 20
11.425
  0
VERTEX
  8
型材断面
 10
-102.75
 20
11.45
  0
VERTEX
  8
型材断面
 10
-102.75
 20
11.45
  0
VERTEX
  8
型材断面
 10
-102.75
 20
11.475
  0
VERTEX
  8
型材断面
 10
-102.75
 20
11.5
  0
VERTEX
  8
型材断面
 10
-102.725
 20
11.5
  0
VERTEX
  8
型材断面
 10
-102.725
 20
11.525
  0
VERTEX
  8
型材断面
 10
-102.725
 20
11.55
  0
VERTEX
  8
型材断面
 10
-102.725
 20
11.55
  0
VERTEX
  8
型材断面
 10
-102.7
 20
11.575
  0
VERTEX
  8
型材断面
 10
-102.7
 20
11.6
  0
VERTEX
  8
型材断面
 10
-102.7
 20
11.6
  0
VERTEX
  8
型材断面
 10
-102.675
 20
11.625
  0
VERTEX
  8
型材断面
 10
-102.675
 20
11.65
  0
VERTEX
  8
型材断面
 10
-102.65
 20
11.65
  0
VERTEX
  8
型材断面
 10
-102.65
 20
11.675
  0
VERTEX
  8
型材断面
 10
-102.625
 20
11.675
  0
VERTEX
  8
型材断面
 10
-102.625
 20
11.7
  0
VERTEX
  8
型材断面
 10
-102.6
 20
11.725
  0
VERTEX
  8
型材断面
 10
-102.575
 20
11.725
  0
VERTEX
  8
型材断面
 10
-102.575
 20
11.75
  0
VERTEX
  8
型材断面
 10
-102.55
 20
11.75
  0
VERTEX
  8
型材断面
 10
-102.525
 20
11.775
  0
VERTEX
  8
型材断面
 10
-102.5
 20
11.775
  0
VERTEX
  8
型材断面
 10
-102.5
 20
11.8
  0
VERTEX
  8
型材断面
 10
-102.475
 20
11.8
  0
VERTEX
  8
型材断面
 10
-102.45
 20
11.825
  0
VERTEX
  8
型材断面
 10
-102.425
 20
11.825
  0
VERTEX
  8
型材断面
 10
-102.4
 20
11.85
  0
VERTEX
  8
型材断面
 10
-102.375
 20
11.85
  0
VERTEX
  8
型材断面
 10
-102.35
 20
11.85
  0
VERTEX
  8
型材断面
 10
-102.325
 20
11.875
  0
VERTEX
  8
型材断面
 10
-102.3
 20
11.875
  0
VERTEX
  8
型材断面
 10
-102.275
 20
11.9
  0
VERTEX
  8
型材断面
 10
-102.25
 20
11.9
  0
VERTEX
  8
型材断面
 10
-102.225
 20
11.9
  0
VERTEX
  8
型材断面
 10
-102.2
 20
11.925
  0
VERTEX
  8
型材断面
 10
-102.175
 20
11.925
  0
VERTEX
  8
型材断面
 10
-102.15
 20
11.925
  0
VERTEX
  8
型材断面
 10
-102.125
 20
11.925
  0
VERTEX
  8
型材断面
 10
-102.1
 20
11.925
  0
VERTEX
  8
型材断面
 10
-102.05
 20
11.95
  0
VERTEX
  8
型材断面
 10
-102.025
 20
11.95
  0
VERTEX
  8
型材断面
 10
-102.0
 20
11.95
  0
VERTEX
  8
型材断面
 10
-101.975
 20
11.95
  0
VERTEX
  8
型材断面
 10
-101.95
 20
11.95
  0
VERTEX
  8
型材断面
 10
-101.925
 20
11.95
  0
VERTEX
  8
型材断面
 10
-101.875
 20
11.95
  0
VERTEX
  8
型材断面
 10
-101.85
 20
11.95
  0
VERTEX
  8
型材断面
 10
-101.825
 20
11.95
  0
SEQEND
  0
LINE
  8
型材断面
  6
CONTINUOUS
 10
-104.025798
 20
7.994935
 11
-103.56653
 21
7.535655
  0
POLYLINE
  8
型材断面
  6
CONTINUOUS
 66
     1
  0
VERTEX
  8
型材断面
 10
-100.125
 20
8.675
  0
VERTEX
  8
型材断面
 10
-100.1
 20
8.675
  0
VERTEX
  8
型材断面
 10
-100.075
 20
8.7
  0
VERTEX
  8
型材断面
 10
-100.05
 20
8.7
  0
VERTEX
  8
型材断面
 10
-100.025
 20
8.7
  0
VERTEX
  8
型材断面
 10
-100.0
 20
8.725
  0
VERTEX
  8
型材断面
 10
-99.975
 20
8.725
  0
VERTEX
  8
型材断面
 10
-99.975
 20
8.75
  0
VERTEX
  8
型材断面
 10
-99.95
 20
8.75
  0
VERTEX
  8
型材断面
 10
-99.925
 20
8.775
  0
VERTEX
  8
型材断面
 10
-99.9
 20
8.775
  0
VERTEX
  8
型材断面
 10
-99.875
 20
8.8
  0
VERTEX
  8
型材断面
 10
-99.875
 20
8.8
  0
VERTEX
  8
型材断面
 10
-99.85
 20
8.825
  0
VERTEX
  8
型材断面
 10
-99.825
 20
8.825
  0
VERTEX
  8
型材断面
 10
-99.8
 20
8.85
  0
VERTEX
  8
型材断面
 10
-99.8
 20
8.875
  0
VERTEX
  8
型材断面
 10
-99.775
 20
8.875
  0
VERTEX
  8
型材断面
 10
-99.775
 20
8.9
  0
VERTEX
  8
型材断面
 10
-99.75
 20
8.925
  0
VERTEX
  8
型材断面
 10
-99.75
 20
8.925
  0
VERTEX
  8
型材断面
 10
-99.725
 20
8.95
  0
VERTEX
  8
型材断面
 10
-99.725
 20
8.95
  0
VERTEX
  8
型材断面
 10
-99.7
 20
8.975
  0
VERTEX
  8
型材断面
 10
-99.7
 20
9.0
  0
VERTEX
  8
型材断面
 10
-99.7
 20
9.0
  0
VERTEX
  8
型材断面
 10
-99.7
 20
9.025
  0
VERTEX
  8
型材断面
 10
-99.675
 20
9.05
  0
VERTEX
  8
型材断面
 10
-99.675
 20
9.05
  0
VERTEX
  8
型材断面
 10
-99.675
 20
9.075
  0
VERTEX
  8
型材断面
 10
-99.675
 20
9.1
  0
VERTEX
  8
型材断面
 10
-99.675
 20
9.125
  0
VERTEX
  8
型材断面
 10
-99.675
 20
9.125
  0
VERTEX
  8
型材断面
 10
-99.675
 20
9.15
  0
VERTEX
  8
型材断面
 10
-99.675
 20
9.175
  0
VERTEX
  8
型材断面
 10
-99.675
 20
9.175
  0
VERTEX
  8
型材断面
 10
-99.675
 20
9.2
  0
VERTEX
  8
型材断面
 10
-99.675
 20
9.225
  0
VERTEX
  8
型材断面
 10
-99.7
 20
9.225
  0
VERTEX
  8
型材断面
 10
-99.7
 20
9.25
  0
VERTEX
  8
型材断面
 10
-99.7
 20
9.275
  0
VERTEX
  8
型材断面
 10
-99.7
 20
9.275
  0
VERTEX
  8
型材断面
 10
-99.725
 20
9.3
  0
VERTEX
  8
型材断面
 10
-99.725
 20
9.325
  0
VERTEX
  8
型材断面
 10
-99.75
 20
9.325
  0
VERTEX
  8
型材断面
 10
-99.75
 20
9.35
  0
VERTEX
  8
型材断面
 10
-99.775
 20
9.375
  0
VERTEX
  8
型材断面
 10
-99.775
 20
9.375
  0
VERTEX
  8
型材断面
 10
-99.8
 20
9.4
  0
SEQEND
  0
LINE
  8
型材断面
  6
CONTINUOUS
 10
-103.405615
 20
11.970968
 11
-100.578773
 21
9.143993
  0
LINE
  8
型材断面
  6
CONTINUOUS
 10
-104.025798
 20
7.994935
 11
-100.578773
 21
9.143993
  0
LINE
  8
型材断面
  6
CONTINUOUS
 10
-101.814682
 20
11.440635
 11
-99.324047
 21
8.949878
  0
LINE
  8
型材断面
  6
CONTINUOUS
 10
-103.56653
 20
7.535655
 11
-99.324047
 21
8.949878
  0
LINE
  8
型材断面
  6
CONTINUOUS
 10
-98.510483
 20
11.440635
 11
-98.510483
 21
11.970968
  0
LINE
  8
型材断面
  6
CONTINUOUS
 10
-95.938615
 20
11.970968
 11
-95.938615
 21
11.440635
  0
LINE
  8
型材断面
  6
CONTINUOUS
 10
-95.938615
 20
11.838385
 11
-98.510483
 21
11.838385
  0
LINE
  8
型材断面
  6
CONTINUOUS
 10
-95.938615
 20
11.7058
 11
-98.510483
 21
11.7058
  0
LINE
  8
型材断面
  6
CONTINUOUS
 10
-95.938615
 20
11.57322
 11
-98.510483
 21
11.57322
  0
LINE
  8
型材断面
  6
CONTINUOUS
 10
-94.77515
 20
11.970968
 11
-103.405615
 21
11.970968
  0
LINE
  8
型材断面
  6
CONTINUOUS
 10
-94.77515
 20
11.440635
 11
-94.77515
 21
11.970968
  0
LINE
  8
型材断面
  6
CONTINUOUS
 10
-101.814682
 20
11.440635
 11
-94.77515
 21
11.440635
  0
ENDBLK
  0
BLOCK
  2
*GRP_0055
 70
    65
 10
0.0
 20
0.0
  0
POLYLINE
  8
型材断面
  6
CONTINUOUS
 66
     1
  0
VERTEX
  8
型材断面
 10
-101.825
 20
19.025
  0
VERTEX
  8
型材断面
 10
-101.85
 20
19.025
  0
VERTEX
  8
型材断面
 10
-101.875
 20
19.025
  0
VERTEX
  8
型材断面
 10
-101.925
 20
19.025
  0
VERTEX
  8
型材断面
 10
-101.95
 20
19.025
  0
VERTEX
  8
型材断面
 10
-101.975
 20
19.025
  0
VERTEX
  8
型材断面
 10
-102.0
 20
19.05
  0
VERTEX
  8
型材断面
 10
-102.025
 20
19.05
  0
VERTEX
  8
型材断面
 10
-102.05
 20
19.05
  0
VERTEX
  8
型材断面
 10
-102.1
 20
19.05
  0
VERTEX
  8
型材断面
 10
-102.125
 20
19.05
  0
VERTEX
  8
型材断面
 10
-102.15
 20
19.075
  0
VERTEX
  8
型材断面
 10
-102.175
 20
19.075
  0
VERTEX
  8
型材断面
 10
-102.2
 20
19.075
  0
VERTEX
  8
型材断面
 10
-102.225
 20
19.075
  0
VERTEX
  8
型材断面
 10
-102.25
 20
19.1
  0
VERTEX
  8
型材断面
 10
-102.275
 20
19.1
  0
VERTEX
  8
型材断面
 10
-102.3
 20
19.1
  0
VERTEX
  8
型材断面
 10
-102.325
 20
19.125
  0
VERTEX
  8
型材断面
 10
-102.35
 20
19.125
  0
VERTEX
  8
型材断面
 10
-102.375
 20
19.125
  0
VERTEX
  8
型材断面
 10
-102.4
 20
19.15
  0
VERTEX
  8
型材断面
 10
-102.425
 20
19.15
  0
VERTEX
  8
型材断面
 10
-102.45
 20
19.175
  0
VERTEX
  8
型材断面
 10
-102.475
 20
19.175
  0
VERTEX
  8
型材断面
 10
-102.5
 20
19.2
  0
VERTEX
  8
型材断面
 10
-102.5
 20
19.2
  0
VERTEX
  8
型材断面
 10
-102.525
 20
19.225
  0
VERTEX
  8
型材断面
 10
-102.55
 20
19.225
  0
VERTEX
  8
型材断面
 10
-102.575
 20
19.25
  0
VERTEX
  8
型材断面
 10
-102.575
 20
19.25
  0
VERTEX
  8
型材断面
 10
-102.6
 20
19.275
  0
VERTEX
  8
型材断面
 10
-102.625
 20
19.275
  0
VERTEX
  8
型材断面
 10
-102.625
 20
19.3
  0
VERTEX
  8
型材断面
 10
-102.65
 20
19.325
  0
VERTEX
  8
型材断面
 10
-102.65
 20
19.325
  0
VERTEX
  8
型材断面
 10
-102.675
 20
19.35
  0
VERTEX
  8
型材断面
 10
-102.675
 20
19.375
  0
VERTEX
  8
型材断面
 10
-102.7
 20
19.375
  0
VERTEX
  8
型材断面
 10
-102.7
 20
19.4
  0
VERTEX
  8
型材断面
 10
-102.7
 20
19.4
  0
VERTEX
  8
型材断面
 10
-102.725
 20
19.425
  0
VERTEX
  8
型材断面
 10
-102.725
 20
19.45
  0
VERTEX
  8
型材断面
 10
-102.725
 20
19.45
  0
VERTEX
  8
型材断面
 10
-102.725
 20
19.475
  0
VERTEX
  8
型材断面
 10
-102.75
 20
19.5
  0
VERTEX
  8
型材断面
 10
-102.75
 20
19.525
  0
VERTEX
  8
型材断面
 10
-102.75
 20
19.525
  0
VERTEX
  8
型材断面
 10
-102.75
 20
19.55
  0
VERTEX
  8
型材断面
 10
-102.75
 20
19.575
  0
VERTEX
  8
型材断面
 10
-102.75
 20
19.575
  0
VERTEX
  8
型材断面
 10
-102.75
 20
19.6
  0
VERTEX
  8
型材断面
 10
-102.75
 20
19.625
  0
VERTEX
  8
型材断面
 10
-102.725
 20
19.625
  0
VERTEX
  8
型材断面
 10
-102.725
 20
19.65
  0
VERTEX
  8
型材断面
 10
-102.725
 20
19.675
  0
VERTEX
  8
型材断面
 10
-102.725
 20
19.675
  0
VERTEX
  8
型材断面
 10
-102.725
 20
19.7
  0
VERTEX
  8
型材断面
 10
-102.7
 20
19.725
  0
VERTEX
  8
型材断面
 10
-102.7
 20
19.725
  0
VERTEX
  8
型材断面
 10
-102.675
 20
19.75
  0
VERTEX
  8
型材断面
 10
-102.675
 20
19.775
  0
VERTEX
  8
型材断面
 10
-102.675
 20
19.775
  0
VERTEX
  8
型材断面
 10
-102.65
 20
19.8
  0
VERTEX
  8
型材断面
 10
-102.625
 20
19.8
  0
VERTEX
  8
型材断面
 10
-102.625
 20
19.825
  0
SEQEND
  0
LINE
  8
型材断面
  6
CONTINUOUS
 10
-104.025798
 20
23.018123
 11
-103.56653
 21
23.477407
  0
POLYLINE
  8
型材断面
  6
CONTINUOUS
 66
     1
  0
VERTEX
  8
型材断面
 10
-99.8
 20
21.6
  0
VERTEX
  8
型材断面
 10
-99.775
 20
21.6
  0
VERTEX
  8
型材断面
 10
-99.775
 20
21.625
  0
VERTEX
  8
型材断面
 10
-99.75
 20
21.65
  0
VERTEX
  8
型材断面
 10
-99.75
 20
21.65
  0
VERTEX
  8
型材断面
 10
-99.725
 20
21.675
  0
VERTEX
  8
型材断面
 10
-99.725
 20
21.675
  0
VERTEX
  8
型材断面
 10
-99.7
 20
21.7
  0
VERTEX
  8
型材断面
 10
-99.7
 20
21.725
  0
VERTEX
  8
型材断面
 10
-99.7
 20
21.725
  0
VERTEX
  8
型材断面
 10
-99.7
 20
21.75
  0
VERTEX
  8
型材断面
 10
-99.675
 20
21.775
  0
VERTEX
  8
型材断面
 10
-99.675
 20
21.775
  0
VERTEX
  8
型材断面
 10
-99.675
 20
21.8
  0
VERTEX
  8
型材断面
 10
-99.675
 20
21.825
  0
VERTEX
  8
型材断面
 10
-99.675
 20
21.85
  0
VERTEX
  8
型材断面
 10
-99.675
 20
21.85
  0
VERTEX
  8
型材断面
 10
-99.675
 20
21.875
  0
VERTEX
  8
型材断面
 10
-99.675
 20
21.9
  0
VERTEX
  8
型材断面
 10
-99.675
 20
21.9
  0
VERTEX
  8
型材断面
 10
-99.675
 20
21.925
  0
VERTEX
  8
型材断面
 10
-99.675
 20
21.95
  0
VERTEX
  8
型材断面
 10
-99.7
 20
21.95
  0
VERTEX
  8
型材断面
 10
-99.7
 20
21.975
  0
VERTEX
  8
型材断面
 10
-99.7
 20
22.0
  0
VERTEX
  8
型材断面
 10
-99.7
 20
22.0
  0
VERTEX
  8
型材断面
 10
-99.725
 20
22.025
  0
VERTEX
  8
型材断面
 10
-99.725
 20
22.05
  0
VERTEX
  8
型材断面
 10
-99.75
 20
22.05
  0
VERTEX
  8
型材断面
 10
-99.75
 20
22.075
  0
VERTEX
  8
型材断面
 10
-99.775
 20
22.1
  0
VERTEX
  8
型材断面
 10
-99.775
 20
22.1
  0
VERTEX
  8
型材断面
 10
-99.8
 20
22.125
  0
VERTEX
  8
型材断面
 10
-99.8
 20
22.125
  0
VERTEX
  8
型材断面
 10
-99.825
 20
22.15
  0
VERTEX
  8
型材断面
 10
-99.85
 20
22.175
  0
VERTEX
  8
型材断面
 10
-99.875
 20
22.175
  0
VERTEX
  8
型材断面
 10
-99.875
 20
22.2
  0
VERTEX
  8
型材断面
 10
-99.9
 20
22.2
  0
VERTEX
  8
型材断面
 10
-99.925
 20
22.225
  0
VERTEX
  8
型材断面
 10
-99.95
 20
22.225
  0
VERTEX
  8
型材断面
 10
-99.975
 20
22.25
  0
VERTEX
  8
型材断面
 10
-99.975
 20
22.25
  0
VERTEX
  8
型材断面
 10
-100.0
 20
22.275
  0
VERTEX
  8
型材断面
 10
-100.025
 20
22.275
  0
VERTEX
  8
型材断面
 10
-100.05
 20
22.3
  0
VERTEX
  8
型材断面
 10
-100.075
 20
22.3
  0
VERTEX
  8
型材断面
 10
-100.1
 20
22.3
  0
VERTEX
  8
型材断面
 10
-100.125
 20
22.325
  0
SEQEND
  0
LINE
  8
型材断面
  6
CONTINUOUS
 10
-103.405615
 20
19.042095
 11
-100.578773
 21
21.869065
  0
LINE
  8
型材断面
  6
CONTINUOUS
 10
-104.025798
 20
23.018123
 11
-100.578773
 21
21.869065
  0
LINE
  8
型材断面
  6
CONTINUOUS
 10
-101.814682
 20
19.572428
 11
-99.324047
 21
22.063185
  0
LINE
  8
型材断面
  6
CONTINUOUS
 10
-103.56653
 20
23.477407
 11
-99.324047
 21
22.063185
  0
LINE
  8
型材断面
  6
CONTINUOUS
 10
-98.510483
 20
19.572428
 11
-98.510483
 21
19.042095
  0
LINE
  8
型材断面
  6
CONTINUOUS
 10
-95.938615
 20
19.042095
 11
-95.938615
 21
19.572428
  0
LINE
  8
型材断面
  6
CONTINUOUS
 10
-95.938615
 20
19.174675
 11
-98.510483
 21
19.174675
  0
LINE
  8
型材断面
  6
CONTINUOUS
 10
-95.938615
 20
19.30726
 11
-98.510483
 21
19.30726
  0
LINE
  8
型材断面
  6
CONTINUOUS
 10
-95.938615
 20
19.439842
 11
-98.510483
 21
19.439842
  0
LINE
  8
型材断面
  6
CONTINUOUS
 10
-94.77515
 20
19.042095
 11
-103.405615
 21
19.042095
  0
LINE
  8
型材断面
  6
CONTINUOUS
 10
-94.77515
 20
19.572428
 11
-94.77515
 21
19.042095
  0
LINE
  8
型材断面
  6
CONTINUOUS
 10
-101.814682
 20
19.572428
 11
-94.77515
 21
19.572428
  0
ENDBLK
  0
BLOCK
  2
*GRP_0056
 70
    65
 10
0.0
 20
0.0
  0
POLYLINE
  8
型材断面
  6
CONTINUOUS
 66
     1
  0
VERTEX
  8
型材断面
 10
-93.875
 20
11.425
  0
VERTEX
  8
型材断面
 10
-93.9
 20
11.425
  0
VERTEX
  8
型材断面
 10
-93.925
 20
11.425
  0
VERTEX
  8
型材断面
 10
-93.95
 20
11.425
  0
VERTEX
  8
型材断面
 10
-93.975
 20
11.425
  0
VERTEX
  8
型材断面
 10
-94.025
 20
11.425
  0
VERTEX
  8
型材断面
 10
-94.05
 20
11.45
  0
VERTEX
  8
型材断面
 10
-94.075
 20
11.45
  0
VERTEX
  8
型材断面
 10
-94.1
 20
11.45
  0
VERTEX
  8
型材断面
 10
-94.125
 20
11.45
  0
VERTEX
  8
型材断面
 10
-94.15
 20
11.45
  0
VERTEX
  8
型材断面
 10
-94.175
 20
11.45
  0
VERTEX
  8
型材断面
 10
-94.225
 20
11.475
  0
VERTEX
  8
型材断面
 10
-94.25
 20
11.475
  0
VERTEX
  8
型材断面
 10
-94.275
 20
11.475
  0
VERTEX
  8
型材断面
 10
-94.3
 20
11.5
  0
VERTEX
  8
型材断面
 10
-94.325
 20
11.5
  0
VERTEX
  8
型材断面
 10
-94.35
 20
11.5
  0
VERTEX
  8
型材断面
 10
-94.375
 20
11.525
  0
VERTEX
  8
型材断面
 10
-94.4
 20
11.525
  0
VERTEX
  8
型材断面
 10
-94.425
 20
11.525
  0
VERTEX
  8
型材断面
 10
-94.45
 20
11.55
  0
VERTEX
  8
型材断面
 10
-94.475
 20
11.55
  0
VERTEX
  8
型材断面
 10
-94.475
 20
11.575
  0
VERTEX
  8
型材断面
 10
-94.5
 20
11.575
  0
VERTEX
  8
型材断面
 10
-94.525
 20
11.6
  0
VERTEX
  8
型材断面
 10
-94.55
 20
11.6
  0
VERTEX
  8
型材断面
 10
-94.575
 20
11.625
  0
VERTEX
  8
型材断面
 10
-94.575
 20
11.625
  0
VERTEX
  8
型材断面
 10
-94.6
 20
11.65
  0
VERTEX
  8
型材断面
 10
-94.625
 20
11.65
  0
VERTEX
  8
型材断面
 10
-94.65
 20
11.675
  0
VERTEX
  8
型材断面
 10
-94.65
 20
11.675
  0
VERTEX
  8
型材断面
 10
-94.675
 20
11.7
  0
VERTEX
  8
型材断面
 10
-94.675
 20
11.725
  0
VERTEX
  8
型材断面
 10
-94.7
 20
11.725
  0
VERTEX
  8
型材断面
 10
-94.7
 20
11.75
  0
VERTEX
  8
型材断面
 10
-94.725
 20
11.75
  0
VERTEX
  8
型材断面
 10
-94.725
 20
11.775
  0
VERTEX
  8
型材断面
 10
-94.75
 20
11.8
  0
VERTEX
  8
型材断面
 10
-94.75
 20
11.8
  0
VERTEX
  8
型材断面
 10
-94.75
 20
11.825
  0
VERTEX
  8
型材断面
 10
-94.775
 20
11.85
  0
VERTEX
  8
型材断面
 10
-94.775
 20
11.85
  0
VERTEX
  8
型材断面
 10
-94.775
 20
11.875
  0
VERTEX
  8
型材断面
 10
-94.775
 20
11.9
  0
VERTEX
  8
型材断面
 10
-94.775
 20
11.9
  0
VERTEX
  8
型材断面
 10
-94.775
 20
11.925
  0
VERTEX
  8
型材断面
 10
-94.775
 20
11.95
  0
VERTEX
  8
型材断面
 10
-94.8
 20
11.95
  0
SEQEND
  0
LINE
  8
型材断面
  6
CONTINUOUS
 10
-94.77515
 20
15.50653
 11
-94.77515
 21
11.440635
  0
LINE
  8
型材断面
  6
CONTINUOUS
 10
-93.856622
 20
15.50653
 11
-93.856622
 21
11.970968
  0
POLYLINE
  8
型材断面
  6
CONTINUOUS
 66
     1
  0
VERTEX
  8
型材断面
 10
-89.275
 20
11.425
  0
VERTEX
  8
型材断面
 10
-89.275
 20
11.45
  0
VERTEX
  8
型材断面
 10
-89.275
 20
11.45
  0
VERTEX
  8
型材断面
 10
-89.275
 20
11.475
  0
VERTEX
  8
型材断面
 10
-89.275
 20
11.5
  0
VERTEX
  8
型材断面
 10
-89.3
 20
11.525
  0
VERTEX
  8
型材断面
 10
-89.3
 20
11.525
  0
VERTEX
  8
型材断面
 10
-89.3
 20
11.55
  0
VERTEX
  8
型材断面
 10
-89.3
 20
11.575
  0
VERTEX
  8
型材断面
 10
-89.325
 20
11.575
  0
VERTEX
  8
型材断面
 10
-89.325
 20
11.6
  0
VERTEX
  8
型材断面
 10
-89.325
 20
11.6
  0
VERTEX
  8
型材断面
 10
-89.35
 20
11.625
  0
VERTEX
  8
型材断面
 10
-89.35
 20
11.65
  0
VERTEX
  8
型材断面
 10
-89.375
 20
11.65
  0
VERTEX
  8
型材断面
 10
-89.375
 20
11.675
  0
VERTEX
  8
型材断面
 10
-89.4
 20
11.7
  0
VERTEX
  8
型材断面
 10
-89.4
 20
11.7
  0
VERTEX
  8
型材断面
 10
-89.425
 20
11.725
  0
VERTEX
  8
型材断面
 10
-89.45
 20
11.725
  0
VERTEX
  8
型材断面
 10
-89.45
 20
11.75
  0
VERTEX
  8
型材断面
 10
-89.475
 20
11.75
  0
VERTEX
  8
型材断面
 10
-89.5
 20
11.775
  0
VERTEX
  8
型材断面
 10
-89.525
 20
11.775
  0
VERTEX
  8
型材断面
 10
-89.525
 20
11.8
  0
VERTEX
  8
型材断面
 10
-89.55
 20
11.8
  0
VERTEX
  8
型材断面
 10
-89.575
 20
11.825
  0
VERTEX
  8
型材断面
 10
-89.6
 20
11.825
  0
VERTEX
  8
型材断面
 10
-89.625
 20
11.85
  0
VERTEX
  8
型材断面
 10
-89.65
 20
11.85
  0
VERTEX
  8
型材断面
 10
-89.675
 20
11.875
  0
VERTEX
  8
型材断面
 10
-89.7
 20
11.875
  0
VERTEX
  8
型材断面
 10
-89.725
 20
11.875
  0
VERTEX
  8
型材断面
 10
-89.75
 20
11.9
  0
VERTEX
  8
型材断面
 10
-89.775
 20
11.9
  0
VERTEX
  8
型材断面
 10
-89.8
 20
11.9
  0
VERTEX
  8
型材断面
 10
-89.825
 20
11.925
  0
VERTEX
  8
型材断面
 10
-89.85
 20
11.925
  0
VERTEX
  8
型材断面
 10
-89.875
 20
11.925
  0
VERTEX
  8
型材断面
 10
-89.9
 20
11.925
  0
VERTEX
  8
型材断面
 10
-89.925
 20
11.925
  0
VERTEX
  8
型材断面
 10
-89.95
 20
11.95
  0
VERTEX
  8
型材断面
 10
-90.0
 20
11.95
  0
VERTEX
  8
型材断面
 10
-90.025
 20
11.95
  0
VERTEX
  8
型材断面
 10
-90.05
 20
11.95
  0
VERTEX
  8
型材断面
 10
-90.075
 20
11.95
  0
VERTEX
  8
型材断面
 10
-90.1
 20
11.95
  0
VERTEX
  8
型材断面
 10
-90.125
 20
11.95
  0
VERTEX
  8
型材断面
 10
-90.175
 20
11.95
  0
VERTEX
  8
型材断面
 10
-90.2
 20
11.95
  0
SEQEND
  0
POLYLINE
  8
型材断面
  6
CONTINUOUS
 66
     1
  0
VERTEX
  8
型材断面
 10
-90.2
 20
11.25
  0
VERTEX
  8
型材断面
 10
-90.2
 20
11.25
  0
VERTEX
  8
型材断面
 10
-90.2
 20
11.275
  0
VERTEX
  8
型材断面
 10
-90.2
 20
11.275
  0
VERTEX
  8
型材断面
 10
-90.2
 20
11.275
  0
VERTEX
  8
型材断面
 10
-90.2
 20
11.275
  0
VERTEX
  8
型材断面
 10
-90.2
 20
11.275
  0
VERTEX
  8
型材断面
 10
-90.2
 20
11.3
  0
VERTEX
  8
型材断面
 10
-90.2
 20
11.3
  0
VERTEX
  8
型材断面
 10
-90.2
 20
11.3
  0
VERTEX
  8
型材断面
 10
-90.2
 20
11.3
  0
VERTEX
  8
型材断面
 10
-90.225
 20
11.3
  0
VERTEX
  8
型材断面
 10
-90.225
 20
11.325
  0
VERTEX
  8
型材断面
 10
-90.225
 20
11.325
  0
VERTEX
  8
型材断面
 10
-90.225
 20
11.325
  0
VERTEX
  8
型材断面
 10
-90.225
 20
11.325
  0
VERTEX
  8
型材断面
 10
-90.225
 20
11.35
  0
VERTEX
  8
型材断面
 10
-90.25
 20
11.35
  0
VERTEX
  8
型材断面
 10
-90.25
 20
11.35
  0
VERTEX
  8
型材断面
 10
-90.25
 20
11.35
  0
VERTEX
  8
型材断面
 10
-90.25
 20
11.35
  0
VERTEX
  8
型材断面
 10
-90.25
 20
11.35
  0
VERTEX
  8
型材断面
 10
-90.275
 20
11.375
  0
VERTEX
  8
型材断面
 10
-90.275
 20
11.375
  0
VERTEX
  8
型材断面
 10
-90.275
 20
11.375
  0
VERTEX
  8
型材断面
 10
-90.3
 20
11.375
  0
VERTEX
  8
型材断面
 10
-90.3
 20
11.375
  0
VERTEX
  8
型材断面
 10
-90.3
 20
11.375
  0
VERTEX
  8
型材断面
 10
-90.3
 20
11.4
  0
VERTEX
  8
型材断面
 10
-90.325
 20
11.4
  0
VERTEX
  8
型材断面
 10
-90.325
 20
11.4
  0
VERTEX
  8
型材断面
 10
-90.325
 20
11.4
  0
VERTEX
  8
型材断面
 10
-90.35
 20
11.4
  0
VERTEX
  8
型材断面
 10
-90.35
 20
11.4
  0
VERTEX
  8
型材断面
 10
-90.35
 20
11.4
  0
VERTEX
  8
型材断面
 10
-90.375
 20
11.4
  0
VERTEX
  8
型材断面
 10
-90.375
 20
11.425
  0
VERTEX
  8
型材断面
 10
-90.375
 20
11.425
  0
VERTEX
  8
型材断面
 10
-90.4
 20
11.425
  0
VERTEX
  8
型材断面
 10
-90.4
 20
11.425
  0
VERTEX
  8
型材断面
 10
-90.425
 20
11.425
  0
VERTEX
  8
型材断面
 10
-90.425
 20
11.425
  0
VERTEX
  8
型材断面
 10
-90.425
 20
11.425
  0
VERTEX
  8
型材断面
 10
-90.45
 20
11.425
  0
VERTEX
  8
型材断面
 10
-90.45
 20
11.425
  0
VERTEX
  8
型材断面
 10
-90.45
 20
11.425
  0
VERTEX
  8
型材断面
 10
-90.475
 20
11.425
  0
VERTEX
  8
型材断面
 10
-90.475
 20
11.425
  0
VERTEX
  8
型材断面
 10
-90.5
 20
11.425
  0
VERTEX
  8
型材断面
 10
-90.5
 20
11.425
  0
SEQEND
  0
LINE
  8
型材断面
  6
CONTINUOUS
 10
-93.965747
 20
7.480463
 11
-93.506485
 21
7.021177
  0
LINE
  8
型材断面
  6
CONTINUOUS
 10
-93.965747
 20
7.480463
 11
-90.182522
 21
8.741595
  0
LINE
  8
型材断面
  6
CONTINUOUS
 10
-90.182522
 20
11.263853
 11
-90.182522
 21
8.741595
  0
LINE
  8
型材断面
  6
CONTINUOUS
 10
-94.77515
 20
11.440635
 11
-90.488698
 21
11.440635
  0
LINE
  8
型材断面
  6
CONTINUOUS
 10
-93.856622
 20
11.970968
 11
-89.263998
 21
11.970968
  0
POLYLINE
  8
型材断面
  6
CONTINUOUS
 66
     1
  0
VERTEX
  8
型材断面
 10
-89.725
 20
8.275
  0
VERTEX
  8
型材断面
 10
-89.7
 20
8.275
  0
VERTEX
  8
型材断面
 10
-89.675
 20
8.3
  0
VERTEX
  8
型材断面
 10
-89.65
 20
8.3
  0
VERTEX
  8
型材断面
 10
-89.625
 20
8.3
  0
VERTEX
  8
型材断面
 10
-89.6
 20
8.325
  0
VERTEX
  8
型材断面
 10
-89.6
 20
8.325
  0
VERTEX
  8
型材断面
 10
-89.575
 20
8.35
  0
VERTEX
  8
型材断面
 10
-89.55
 20
8.35
  0
VERTEX
  8
型材断面
 10
-89.525
 20
8.375
  0
VERTEX
  8
型材断面
 10
-89.5
 20
8.375
  0
VERTEX
  8
型材断面
 10
-89.475
 20
8.4
  0
VERTEX
  8
型材断面
 10
-89.475
 20
8.4
  0
VERTEX
  8
型材断面
 10
-89.45
 20
8.425
  0
VERTEX
  8
型材断面
 10
-89.425
 20
8.425
  0
VERTEX
  8
型材断面
 10
-89.425
 20
8.45
  0
VERTEX
  8
型材断面
 10
-89.4
 20
8.475
  0
VERTEX
  8
型材断面
 10
-89.375
 20
8.475
  0
VERTEX
  8
型材断面
 10
-89.375
 20
8.5
  0
VERTEX
  8
型材断面
 10
-89.35
 20
8.5
  0
VERTEX
  8
型材断面
 10
-89.35
 20
8.525
  0
VERTEX
  8
型材断面
 10
-89.325
 20
8.55
  0
VERTEX
  8
型材断面
 10
-89.325
 20
8.55
  0
VERTEX
  8
型材断面
 10
-89.325
 20
8.575
  0
VERTEX
  8
型材断面
 10
-89.3
 20
8.6
  0
VERTEX
  8
型材断面
 10
-89.3
 20
8.6
  0
VERTEX
  8
型材断面
 10
-89.3
 20
8.625
  0
VERTEX
  8
型材断面
 10
-89.3
 20
8.65
  0
VERTEX
  8
型材断面
 10
-89.275
 20
8.65
  0
VERTEX
  8
型材断面
 10
-89.275
 20
8.675
  0
VERTEX
  8
型材断面
 10
-89.275
 20
8.7
  0
VERTEX
  8
型材断面
 10
-89.275
 20
8.7
  0
VERTEX
  8
型材断面
 10
-89.275
 20
8.725
  0
SEQEND
  0
LINE
  8
型材断面
  6
CONTINUOUS
 10
-93.506485
 20
7.021177
 11
-89.263998
 21
8.435407
  0
LINE
  8
型材断面
  6
CONTINUOUS
 10
-89.263998
 20
11.970968
 11
-89.263998
 21
8.435407
  0
POLYLINE
  8
型材断面
  6
CONTINUOUS
 66
     1
  0
VERTEX
  8
型材断面
 10
-94.8
 20
19.025
  0
VERTEX
  8
型材断面
 10
-94.775
 20
19.05
  0
VERTEX
  8
型材断面
 10
-94.775
 20
19.075
  0
VERTEX
  8
型材断面
 10
-94.775
 20
19.075
  0
VERTEX
  8
型材断面
 10
-94.775
 20
19.1
  0
VERTEX
  8
型材断面
 10
-94.775
 20
19.125
  0
VERTEX
  8
型材断面
 10
-94.775
 20
19.125
  0
VERTEX
  8
型材断面
 10
-94.775
 20
19.15
  0
VERTEX
  8
型材断面
 10
-94.75
 20
19.175
  0
VERTEX
  8
型材断面
 10
-94.75
 20
19.175
  0
VERTEX
  8
型材断面
 10
-94.75
 20
19.2
  0
VERTEX
  8
型材断面
 10
-94.725
 20
19.225
  0
VERTEX
  8
型材断面
 10
-94.725
 20
19.225
  0
VERTEX
  8
型材断面
 10
-94.7
 20
19.25
  0
VERTEX
  8
型材断面
 10
-94.7
 20
19.25
  0
VERTEX
  8
型材断面
 10
-94.675
 20
19.275
  0
VERTEX
  8
型材断面
 10
-94.675
 20
19.3
  0
VERTEX
  8
型材断面
 10
-94.65
 20
19.3
  0
VERTEX
  8
型材断面
 10
-94.65
 20
19.325
  0
VERTEX
  8
型材断面
 10
-94.625
 20
19.325
  0
VERTEX
  8
型材断面
 10
-94.6
 20
19.35
  0
VERTEX
  8
型材断面
 10
-94.575
 20
19.35
  0
VERTEX
  8
型材断面
 10
-94.575
 20
19.375
  0
VERTEX
  8
型材断面
 10
-94.55
 20
19.375
  0
VERTEX
  8
型材断面
 10
-94.525
 20
19.4
  0
VERTEX
  8
型材断面
 10
-94.5
 20
19.4
  0
VERTEX
  8
型材断面
 10
-94.475
 20
19.425
  0
VERTEX
  8
型材断面
 10
-94.475
 20
19.425
  0
VERTEX
  8
型材断面
 10
-94.45
 20
19.45
  0
VERTEX
  8
型材断面
 10
-94.425
 20
19.45
  0
VERTEX
  8
型材断面
 10
-94.4
 20
19.475
  0
VERTEX
  8
型材断面
 10
-94.375
 20
19.475
  0
VERTEX
  8
型材断面
 10
-94.35
 20
19.475
  0
VERTEX
  8
型材断面
 10
-94.325
 20
19.5
  0
VERTEX
  8
型材断面
 10
-94.3
 20
19.5
  0
VERTEX
  8
型材断面
 10
-94.275
 20
19.5
  0
VERTEX
  8
型材断面
 10
-94.25
 20
19.525
  0
VERTEX
  8
型材断面
 10
-94.225
 20
19.525
  0
VERTEX
  8
型材断面
 10
-94.175
 20
19.525
  0
VERTEX
  8
型材断面
 10
-94.15
 20
19.525
  0
VERTEX
  8
型材断面
 10
-94.125
 20
19.55
  0
VERTEX
  8
型材断面
 10
-94.1
 20
19.55
  0
VERTEX
  8
型材断面
 10
-94.075
 20
19.55
  0
VERTEX
  8
型材断面
 10
-94.05
 20
19.55
  0
VERTEX
  8
型材断面
 10
-94.025
 20
19.55
  0
VERTEX
  8
型材断面
 10
-93.975
 20
19.55
  0
VERTEX
  8
型材断面
 10
-93.95
 20
19.55
  0
VERTEX
  8
型材断面
 10
-93.925
 20
19.55
  0
VERTEX
  8
型材断面
 10
-93.9
 20
19.55
  0
VERTEX
  8
型材断面
 10
-93.875
 20
19.55
  0
SEQEND
  0
LINE
  8
型材断面
  6
CONTINUOUS
 10
-94.77515
 20
15.50653
 11
-94.77515
 21
19.572428
  0
LINE
  8
型材断面
  6
CONTINUOUS
 10
-93.856622
 20
15.50653
 11
-93.856622
 21
19.042095
  0
POLYLINE
  8
型材断面
  6
CONTINUOUS
 66
     1
  0
VERTEX
  8
型材断面
 10
-90.2
 20
19.025
  0
VERTEX
  8
型材断面
 10
-90.175
 20
19.025
  0
VERTEX
  8
型材断面
 10
-90.125
 20
19.025
  0
VERTEX
  8
型材断面
 10
-90.1
 20
19.025
  0
VERTEX
  8
型材断面
 10
-90.075
 20
19.025
  0
VERTEX
  8
型材断面
 10
-90.05
 20
19.025
  0
VERTEX
  8
型材断面
 10
-90.025
 20
19.05
  0
VERTEX
  8
型材断面
 10
-90.0
 20
19.05
  0
VERTEX
  8
型材断面
 10
-89.95
 20
19.05
  0
VERTEX
  8
型材断面
 10
-89.925
 20
19.05
  0
VERTEX
  8
型材断面
 10
-89.9
 20
19.05
  0
VERTEX
  8
型材断面
 10
-89.875
 20
19.05
  0
VERTEX
  8
型材断面
 10
-89.85
 20
19.075
  0
VERTEX
  8
型材断面
 10
-89.825
 20
19.075
  0
VERTEX
  8
型材断面
 10
-89.8
 20
19.075
  0
VERTEX
  8
型材断面
 10
-89.775
 20
19.1
  0
VERTEX
  8
型材断面
 10
-89.75
 20
19.1
  0
VERTEX
  8
型材断面
 10
-89.725
 20
19.1
  0
VERTEX
  8
型材断面
 10
-89.7
 20
19.125
  0
VERTEX
  8
型材断面
 10
-89.675
 20
19.125
  0
VERTEX
  8
型材断面
 10
-89.65
 20
19.125
  0
VERTEX
  8
型材断面
 10
-89.625
 20
19.15
  0
VERTEX
  8
型材断面
 10
-89.6
 20
19.15
  0
VERTEX
  8
型材断面
 10
-89.575
 20
19.175
  0
VERTEX
  8
型材断面
 10
-89.55
 20
19.175
  0
VERTEX
  8
型材断面
 10
-89.525
 20
19.2
  0
VERTEX
  8
型材断面
 10
-89.525
 20
19.2
  0
VERTEX
  8
型材断面
 10
-89.5
 20
19.225
  0
VERTEX
  8
型材断面
 10
-89.475
 20
19.225
  0
VERTEX
  8
型材断面
 10
-89.45
 20
19.25
  0
VERTEX
  8
型材断面
 10
-89.45
 20
19.25
  0
VERTEX
  8
型材断面
 10
-89.425
 20
19.275
  0
VERTEX
  8
型材断面
 10
-89.4
 20
19.275
  0
VERTEX
  8
型材断面
 10
-89.4
 20
19.3
  0
VERTEX
  8
型材断面
 10
-89.375
 20
19.325
  0
VERTEX
  8
型材断面
 10
-89.375
 20
19.325
  0
VERTEX
  8
型材断面
 10
-89.35
 20
19.35
  0
VERTEX
  8
型材断面
 10
-89.35
 20
19.35
  0
VERTEX
  8
型材断面
 10
-89.325
 20
19.375
  0
VERTEX
  8
型材断面
 10
-89.325
 20
19.4
  0
VERTEX
  8
型材断面
 10
-89.325
 20
19.4
  0
VERTEX
  8
型材断面
 10
-89.3
 20
19.425
  0
VERTEX
  8
型材断面
 10
-89.3
 20
19.45
  0
VERTEX
  8
型材断面
 10
-89.3
 20
19.45
  0
VERTEX
  8
型材断面
 10
-89.3
 20
19.475
  0
VERTEX
  8
型材断面
 10
-89.275
 20
19.5
  0
VERTEX
  8
型材断面
 10
-89.275
 20
19.5
  0
VERTEX
  8
型材断面
 10
-89.275
 20
19.525
  0
VERTEX
  8
型材断面
 10
-89.275
 20
19.55
  0
VERTEX
  8
型材断面
 10
-89.275
 20
19.55
  0
SEQEND
  0
POLYLINE
  8
型材断面
  6
CONTINUOUS
 66
     1
  0
VERTEX
  8
型材断面
 10
-90.5
 20
19.55
  0
VERTEX
  8
型材断面
 10
-90.5
 20
19.55
  0
VERTEX
  8
型材断面
 10
-90.475
 20
19.55
  0
VERTEX
  8
型材断面
 10
-90.475
 20
19.55
  0
VERTEX
  8
型材断面
 10
-90.45
 20
19.55
  0
VERTEX
  8
型材断面
 10
-90.45
 20
19.55
  0
VERTEX
  8
型材断面
 10
-90.45
 20
19.575
  0
VERTEX
  8
型材断面
 10
-90.425
 20
19.575
  0
VERTEX
  8
型材断面
 10
-90.425
 20
19.575
  0
VERTEX
  8
型材断面
 10
-90.425
 20
19.575
  0
VERTEX
  8
型材断面
 10
-90.4
 20
19.575
  0
VERTEX
  8
型材断面
 10
-90.4
 20
19.575
  0
VERTEX
  8
型材断面
 10
-90.375
 20
19.575
  0
VERTEX
  8
型材断面
 10
-90.375
 20
19.575
  0
VERTEX
  8
型材断面
 10
-90.375
 20
19.575
  0
VERTEX
  8
型材断面
 10
-90.35
 20
19.575
  0
VERTEX
  8
型材断面
 10
-90.35
 20
19.575
  0
VERTEX
  8
型材断面
 10
-90.35
 20
19.575
  0
VERTEX
  8
型材断面
 10
-90.325
 20
19.6
  0
VERTEX
  8
型材断面
 10
-90.325
 20
19.6
  0
VERTEX
  8
型材断面
 10
-90.325
 20
19.6
  0
VERTEX
  8
型材断面
 10
-90.3
 20
19.6
  0
VERTEX
  8
型材断面
 10
-90.3
 20
19.6
  0
VERTEX
  8
型材断面
 10
-90.3
 20
19.6
  0
VERTEX
  8
型材断面
 10
-90.3
 20
19.6
  0
VERTEX
  8
型材断面
 10
-90.275
 20
19.625
  0
VERTEX
  8
型材断面
 10
-90.275
 20
19.625
  0
VERTEX
  8
型材断面
 10
-90.275
 20
19.625
  0
VERTEX
  8
型材断面
 10
-90.25
 20
19.625
  0
VERTEX
  8
型材断面
 10
-90.25
 20
19.625
  0
VERTEX
  8
型材断面
 10
-90.25
 20
19.625
  0
VERTEX
  8
型材断面
 10
-90.25
 20
19.65
  0
VERTEX
  8
型材断面
 10
-90.25
 20
19.65
  0
VERTEX
  8
型材断面
 10
-90.225
 20
19.65
  0
VERTEX
  8
型材断面
 10
-90.225
 20
19.65
  0
VERTEX
  8
型材断面
 10
-90.225
 20
19.65
  0
VERTEX
  8
型材断面
 10
-90.225
 20
19.675
  0
VERTEX
  8
型材断面
 10
-90.225
 20
19.675
  0
VERTEX
  8
型材断面
 10
-90.225
 20
19.675
  0
VERTEX
  8
型材断面
 10
-90.2
 20
19.675
  0
VERTEX
  8
型材断面
 10
-90.2
 20
19.675
  0
VERTEX
  8
型材断面
 10
-90.2
 20
19.7
  0
VERTEX
  8
型材断面
 10
-90.2
 20
19.7
  0
VERTEX
  8
型材断面
 10
-90.2
 20
19.7
  0
VERTEX
  8
型材断面
 10
-90.2
 20
19.7
  0
VERTEX
  8
型材断面
 10
-90.2
 20
19.725
  0
VERTEX
  8
型材断面
 10
-90.2
 20
19.725
  0
VERTEX
  8
型材断面
 10
-90.2
 20
19.725
  0
VERTEX
  8
型材断面
 10
-90.2
 20
19.725
  0
VERTEX
  8
型材断面
 10
-90.2
 20
19.725
  0
SEQEND
  0
LINE
  8
型材断面
  6
CONTINUOUS
 10
-93.965747
 20
23.5326
 11
-93.506485
 21
23.991885
  0
LINE
  8
型材断面
  6
CONTINUOUS
 10
-93.965747
 20
23.5326
 11
-90.182522
 21
22.271467
  0
LINE
  8
型材断面
  6
CONTINUOUS
 10
-90.182522
 20
19.749205
 11
-90.182522
 21
22.271467
  0
LINE
  8
型材断面
  6
CONTINUOUS
 10
-94.77515
 20
19.572428
 11
-90.488698
 21
19.572428
  0
LINE
  8
型材断面
  6
CONTINUOUS
 10
-93.856622
 20
19.042095
 11
-89.263998
 21
19.042095
  0
POLYLINE
  8
型材断面
  6
CONTINUOUS
 66
     1
  0
VERTEX
  8
型材断面
 10
-89.275
 20
22.25
  0
VERTEX
  8
型材断面
 10
-89.275
 20
22.275
  0
VERTEX
  8
型材断面
 10
-89.275
 20
22.3
  0
VERTEX
  8
型材断面
 10
-89.275
 20
22.3
  0
VERTEX
  8
型材断面
 10
-89.275
 20
22.325
  0
VERTEX
  8
型材断面
 10
-89.3
 20
22.35
  0
VERTEX
  8
型材断面
 10
-89.3
 20
22.35
  0
VERTEX
  8
型材断面
 10
-89.3
 20
22.375
  0
VERTEX
  8
型材断面
 10
-89.3
 20
22.4
  0
VERTEX
  8
型材断面
 10
-89.325
 20
22.425
  0
VERTEX
  8
型材断面
 10
-89.325
 20
22.425
  0
VERTEX
  8
型材断面
 10
-89.325
 20
22.45
  0
VERTEX
  8
型材断面
 10
-89.35
 20
22.45
  0
VERTEX
  8
型材断面
 10
-89.35
 20
22.475
  0
VERTEX
  8
型材断面
 10
-89.375
 20
22.5
  0
VERTEX
  8
型材断面
 10
-89.375
 20
22.5
  0
VERTEX
  8
型材断面
 10
-89.4
 20
22.525
  0
VERTEX
  8
型材断面
 10
-89.425
 20
22.55
  0
VERTEX
  8
型材断面
 10
-89.425
 20
22.55
  0
VERTEX
  8
型材断面
 10
-89.45
 20
22.575
  0
VERTEX
  8
型材断面
 10
-89.475
 20
22.575
  0
VERTEX
  8
型材断面
 10
-89.475
 20
22.6
  0
VERTEX
  8
型材断面
 10
-89.5
 20
22.6
  0
VERTEX
  8
型材断面
 10
-89.525
 20
22.625
  0
VERTEX
  8
型材断面
 10
-89.55
 20
22.625
  0
VERTEX
  8
型材断面
 10
-89.575
 20
22.65
  0
VERTEX
  8
型材断面
 10
-89.6
 20
22.65
  0
VERTEX
  8
型材断面
 10
-89.6
 20
22.675
  0
VERTEX
  8
型材断面
 10
-89.625
 20
22.675
  0
VERTEX
  8
型材断面
 10
-89.65
 20
22.7
  0
VERTEX
  8
型材断面
 10
-89.675
 20
22.7
  0
VERTEX
  8
型材断面
 10
-89.7
 20
22.7
  0
VERTEX
  8
型材断面
 10
-89.725
 20
22.725
  0
SEQEND
  0
LINE
  8
型材断面
  6
CONTINUOUS
 10
-93.506485
 20
23.991885
 11
-89.263998
 21
22.577655
  0
LINE
  8
型材断面
  6
CONTINUOUS
 10
-89.263998
 20
19.042095
 11
-89.263998
 21
22.577655
  0
ENDBLK
  0
BLOCK
  2
*GRP_0057
 70
    65
 10
0.0
 20
0.0
  0
LINE
  8
型材断面
  6
CONTINUOUS
 62
    47
 10
-120.18769
 20
-22.32365
 11
-120.18769
 21
-20.55587
  0
LINE
  8
型材断面
  6
CONTINUOUS
 62
    47
 10
-120.18769
 20
-22.32365
 11
-120.18769
 21
-24.09143
  0
POLYLINE
  8
型材断面
  6
CONTINUOUS
 62
    47
 66
     1
  0
VERTEX
  8
型材断面
 10
-125.825
 20
-19.775
  0
VERTEX
  8
型材断面
 10
-125.825
 20
-19.8
  0
VERTEX
  8
型材断面
 10
-125.85
 20
-19.8
  0
VERTEX
  8
型材断面
 10
-125.85
 20
-19.825
  0
VERTEX
  8
型材断面
 10
-125.875
 20
-19.825
  0
VERTEX
  8
型材断面
 10
-125.875
 20
-19.85
  0
VERTEX
  8
型材断面
 10
-125.9
 20
-19.875
  0
VERTEX
  8
型材断面
 10
-125.9
 20
-19.875
  0
VERTEX
  8
型材断面
 10
-125.9
 20
-19.9
  0
VERTEX
  8
型材断面
 10
-125.925
 20
-19.925
  0
VERTEX
  8
型材断面
 10
-125.925
 20
-19.925
  0
VERTEX
  8
型材断面
 10
-125.925
 20
-19.95
  0
VERTEX
  8
型材断面
 10
-125.925
 20
-19.975
  0
VERTEX
  8
型材断面
 10
-125.925
 20
-19.975
  0
VERTEX
  8
型材断面
 10
-125.925
 20
-20.0
  0
VERTEX
  8
型材断面
 10
-125.925
 20
-20.025
  0
VERTEX
  8
型材断面
 10
-125.95
 20
-20.025
  0
VERTEX
  8
型材断面
 10
-125.95
 20
-20.05
  0
VERTEX
  8
型材断面
 10
-125.925
 20
-20.075
  0
VERTEX
  8
型材断面
 10
-125.925
 20
-20.075
  0
VERTEX
  8
型材断面
 10
-125.925
 20
-20.1
  0
VERTEX
  8
型材断面
 10
-125.925
 20
-20.125
  0
VERTEX
  8
型材断面
 10
-125.925
 20
-20.125
  0
VERTEX
  8
型材断面
 10
-125.925
 20
-20.15
  0
VERTEX
  8
型材断面
 10
-125.9
 20
-20.175
  0
VERTEX
  8
型材断面
 10
-125.9
 20
-20.175
  0
VERTEX
  8
型材断面
 10
-125.9
 20
-20.2
  0
VERTEX
  8
型材断面
 10
-125.875
 20
-20.225
  0
VERTEX
  8
型材断面
 10
-125.875
 20
-20.225
  0
VERTEX
  8
型材断面
 10
-125.85
 20
-20.25
  0
VERTEX
  8
型材断面
 10
-125.85
 20
-20.275
  0
VERTEX
  8
型材断面
 10
-125.825
 20
-20.275
  0
VERTEX
  8
型材断面
 10
-125.825
 20
-20.3
  0
VERTEX
  8
型材断面
 10
-125.8
 20
-20.3
  0
VERTEX
  8
型材断面
 10
-125.8
 20
-20.325
  0
VERTEX
  8
型材断面
 10
-125.775
 20
-20.35
  0
VERTEX
  8
型材断面
 10
-125.75
 20
-20.35
  0
VERTEX
  8
型材断面
 10
-125.75
 20
-20.375
  0
VERTEX
  8
型材断面
 10
-125.725
 20
-20.375
  0
VERTEX
  8
型材断面
 10
-125.7
 20
-20.4
  0
VERTEX
  8
型材断面
 10
-125.675
 20
-20.4
  0
VERTEX
  8
型材断面
 10
-125.65
 20
-20.425
  0
VERTEX
  8
型材断面
 10
-125.65
 20
-20.425
  0
VERTEX
  8
型材断面
 10
-125.625
 20
-20.45
  0
VERTEX
  8
型材断面
 10
-125.6
 20
-20.45
  0
VERTEX
  8
型材断面
 10
-125.575
 20
-20.45
  0
VERTEX
  8
型材断面
 10
-125.55
 20
-20.475
  0
VERTEX
  8
型材断面
 10
-125.525
 20
-20.475
  0
VERTEX
  8
型材断面
 10
-125.5
 20
-20.5
  0
VERTEX
  8
型材断面
 10
-125.475
 20
-20.5
  0
VERTEX
  8
型材断面
 10
-125.45
 20
-20.5
  0
VERTEX
  8
型材断面
 10
-125.425
 20
-20.525
  0
VERTEX
  8
型材断面
 10
-125.4
 20
-20.525
  0
VERTEX
  8
型材断面
 10
-125.375
 20
-20.525
  0
VERTEX
  8
型材断面
 10
-125.35
 20
-20.525
  0
VERTEX
  8
型材断面
 10
-125.3
 20
-20.55
  0
VERTEX
  8
型材断面
 10
-125.275
 20
-20.55
  0
VERTEX
  8
型材断面
 10
-125.25
 20
-20.55
  0
VERTEX
  8
型材断面
 10
-125.225
 20
-20.55
  0
VERTEX
  8
型材断面
 10
-125.2
 20
-20.55
  0
VERTEX
  8
型材断面
 10
-125.175
 20
-20.55
  0
VERTEX
  8
型材断面
 10
-125.15
 20
-20.575
  0
VERTEX
  8
型材断面
 10
-125.1
 20
-20.575
  0
VERTEX
  8
型材断面
 10
-125.075
 20
-20.575
  0
VERTEX
  8
型材断面
 10
-125.05
 20
-20.575
  0
VERTEX
  8
型材断面
 10
-125.025
 20
-20.575
  0
SEQEND
  0
LINE
  8
型材断面
  6
CONTINUOUS
 62
    47
 10
-115.851728
 20
-10.869902
 11
-112.40471
 21
-12.018962
  0
POLYLINE
  8
型材断面
  6
CONTINUOUS
 62
    47
 66
     1
  0
VERTEX
  8
型材断面
 10
-116.65
 20
-10.625
  0
VERTEX
  8
型材断面
 10
-116.65
 20
-10.6
  0
VERTEX
  8
型材断面
 10
-116.625
 20
-10.6
  0
VERTEX
  8
型材断面
 10
-116.6
 20
-10.575
  0
VERTEX
  8
型材断面
 10
-116.6
 20
-10.55
  0
VERTEX
  8
型材断面
 10
-116.575
 20
-10.55
  0
VERTEX
  8
型材断面
 10
-116.55
 20
-10.525
  0
VERTEX
  8
型材断面
 10
-116.55
 20
-10.525
  0
VERTEX
  8
型材断面
 10
-116.525
 20
-10.5
  0
VERTEX
  8
型材断面
 10
-116.5
 20
-10.5
  0
VERTEX
  8
型材断面
 10
-116.475
 20
-10.475
  0
VERTEX
  8
型材断面
 10
-116.45
 20
-10.475
  0
VERTEX
  8
型材断面
 10
-116.425
 20
-10.475
  0
VERTEX
  8
型材断面
 10
-116.4
 20
-10.45
  0
VERTEX
  8
型材断面
 10
-116.375
 20
-10.45
  0
VERTEX
  8
型材断面
 10
-116.35
 20
-10.425
  0
VERTEX
  8
型材断面
 10
-116.325
 20
-10.425
  0
VERTEX
  8
型材断面
 10
-116.3
 20
-10.425
  0
VERTEX
  8
型材断面
 10
-116.275
 20
-10.4
  0
VERTEX
  8
型材断面
 10
-116.25
 20
-10.4
  0
VERTEX
  8
型材断面
 10
-116.225
 20
-10.4
  0
VERTEX
  8
型材断面
 10
-116.2
 20
-10.4
  0
VERTEX
  8
型材断面
 10
-116.175
 20
-10.375
  0
VERTEX
  8
型材断面
 10
-116.15
 20
-10.375
  0
VERTEX
  8
型材断面
 10
-116.125
 20
-10.375
  0
VERTEX
  8
型材断面
 10
-116.1
 20
-10.375
  0
VERTEX
  8
型材断面
 10
-116.05
 20
-10.375
  0
VERTEX
  8
型材断面
 10
-116.025
 20
-10.35
  0
VERTEX
  8
型材断面
 10
-116.0
 20
-10.35
  0
VERTEX
  8
型材断面
 10
-115.975
 20
-10.35
  0
VERTEX
  8
型材断面
 10
-115.95
 20
-10.35
  0
VERTEX
  8
型材断面
 10
-115.925
 20
-10.35
  0
VERTEX
  8
型材断面
 10
-115.875
 20
-10.35
  0
VERTEX
  8
型材断面
 10
-115.85
 20
-10.35
  0
VERTEX
  8
型材断面
 10
-115.825
 20
-10.35
  0
VERTEX
  8
型材断面
 10
-115.8
 20
-10.35
  0
VERTEX
  8
型材断面
 10
-115.775
 20
-10.35
  0
VERTEX
  8
型材断面
 10
-115.725
 20
-10.35
  0
VERTEX
  8
型材断面
 10
-115.7
 20
-10.35
  0
VERTEX
  8
型材断面
 10
-115.675
 20
-10.375
  0
VERTEX
  8
型材断面
 10
-115.65
 20
-10.375
  0
VERTEX
  8
型材断面
 10
-115.625
 20
-10.375
  0
VERTEX
  8
型材断面
 10
-115.6
 20
-10.375
  0
VERTEX
  8
型材断面
 10
-115.575
 20
-10.375
  0
VERTEX
  8
型材断面
 10
-115.55
 20
-10.375
  0
VERTEX
  8
型材断面
 10
-115.5
 20
-10.4
  0
VERTEX
  8
型材断面
 10
-115.475
 20
-10.4
  0
VERTEX
  8
型材断面
 10
-115.45
 20
-10.4
  0
VERTEX
  8
型材断面
 10
-115.425
 20
-10.425
  0
VERTEX
  8
型材断面
 10
-115.4
 20
-10.425
  0
SEQEND
  0
LINE
  8
型材断面
  6
CONTINUOUS
 62
    47
 10
-111.945447
 20
-11.559677
 11
-116.18793
 21
-10.145455
  0
LINE
  8
型材断面
  6
CONTINUOUS
 62
    47
 10
-112.40471
 20
-12.018962
 11
-111.945447
 21
-11.559677
  0
LINE
  8
型材断面
  6
CONTINUOUS
 62
    47
 10
-120.18769
 20
-20.55587
 11
-126.597885
 21
-20.55587
  0
LINE
  8
型材断面
  6
CONTINUOUS
 62
    47
 10
-116.18793
 20
-10.145455
 11
-126.597885
 21
-20.55587
  0
LINE
  8
型材断面
  6
CONTINUOUS
 62
    47
 10
-115.851728
 20
-10.869902
 11
-125.006955
 21
-20.025535
  0
POLYLINE
  8
型材断面
  6
CONTINUOUS
 62
    47
 66
     1
  0
VERTEX
  8
型材断面
 10
-125.025
 20
-24.1
  0
VERTEX
  8
型材断面
 10
-125.05
 20
-24.1
  0
VERTEX
  8
型材断面
 10
-125.075
 20
-24.1
  0
VERTEX
  8
型材断面
 10
-125.1
 20
-24.1
  0
VERTEX
  8
型材断面
 10
-125.15
 20
-24.1
  0
VERTEX
  8
型材断面
 10
-125.175
 20
-24.1
  0
VERTEX
  8
型材断面
 10
-125.2
 20
-24.125
  0
VERTEX
  8
型材断面
 10
-125.225
 20
-24.125
  0
VERTEX
  8
型材断面
 10
-125.25
 20
-24.125
  0
VERTEX
  8
型材断面
 10
-125.275
 20
-24.125
  0
VERTEX
  8
型材断面
 10
-125.3
 20
-24.125
  0
VERTEX
  8
型材断面
 10
-125.35
 20
-24.125
  0
VERTEX
  8
型材断面
 10
-125.375
 20
-24.15
  0
VERTEX
  8
型材断面
 10
-125.4
 20
-24.15
  0
VERTEX
  8
型材断面
 10
-125.425
 20
-24.15
  0
VERTEX
  8
型材断面
 10
-125.45
 20
-24.175
  0
VERTEX
  8
型材断面
 10
-125.475
 20
-24.175
  0
VERTEX
  8
型材断面
 10
-125.5
 20
-24.175
  0
VERTEX
  8
型材断面
 10
-125.525
 20
-24.2
  0
VERTEX
  8
型材断面
 10
-125.55
 20
-24.2
  0
VERTEX
  8
型材断面
 10
-125.575
 20
-24.2
  0
VERTEX
  8
型材断面
 10
-125.6
 20
-24.225
  0
VERTEX
  8
型材断面
 10
-125.625
 20
-24.225
  0
VERTEX
  8
型材断面
 10
-125.65
 20
-24.25
  0
VERTEX
  8
型材断面
 10
-125.65
 20
-24.25
  0
VERTEX
  8
型材断面
 10
-125.675
 20
-24.275
  0
VERTEX
  8
型材断面
 10
-125.7
 20
-24.275
  0
VERTEX
  8
型材断面
 10
-125.725
 20
-24.3
  0
VERTEX
  8
型材断面
 10
-125.75
 20
-24.3
  0
VERTEX
  8
型材断面
 10
-125.75
 20
-24.325
  0
VERTEX
  8
型材断面
 10
-125.775
 20
-24.325
  0
VERTEX
  8
型材断面
 10
-125.8
 20
-24.35
  0
VERTEX
  8
型材断面
 10
-125.8
 20
-24.35
  0
VERTEX
  8
型材断面
 10
-125.825
 20
-24.375
  0
VERTEX
  8
型材断面
 10
-125.825
 20
-24.4
  0
VERTEX
  8
型材断面
 10
-125.85
 20
-24.4
  0
VERTEX
  8
型材断面
 10
-125.85
 20
-24.425
  0
VERTEX
  8
型材断面
 10
-125.875
 20
-24.45
  0
VERTEX
  8
型材断面
 10
-125.875
 20
-24.45
  0
VERTEX
  8
型材断面
 10
-125.9
 20
-24.475
  0
VERTEX
  8
型材断面
 10
-125.9
 20
-24.475
  0
VERTEX
  8
型材断面
 10
-125.9
 20
-24.5
  0
VERTEX
  8
型材断面
 10
-125.925
 20
-24.525
  0
VERTEX
  8
型材断面
 10
-125.925
 20
-24.525
  0
VERTEX
  8
型材断面
 10
-125.925
 20
-24.55
  0
VERTEX
  8
型材断面
 10
-125.925
 20
-24.575
  0
VERTEX
  8
型材断面
 10
-125.925
 20
-24.575
  0
VERTEX
  8
型材断面
 10
-125.925
 20
-24.6
  0
VERTEX
  8
型材断面
 10
-125.95
 20
-24.625
  0
VERTEX
  8
型材断面
 10
-125.95
 20
-24.65
  0
VERTEX
  8
型材断面
 10
-125.925
 20
-24.65
  0
VERTEX
  8
型材断面
 10
-125.925
 20
-24.675
  0
VERTEX
  8
型材断面
 10
-125.925
 20
-24.7
  0
VERTEX
  8
型材断面
 10
-125.925
 20
-24.7
  0
VERTEX
  8
型材断面
 10
-125.925
 20
-24.725
  0
VERTEX
  8
型材断面
 10
-125.925
 20
-24.75
  0
VERTEX
  8
型材断面
 10
-125.925
 20
-24.75
  0
VERTEX
  8
型材断面
 10
-125.9
 20
-24.775
  0
VERTEX
  8
型材断面
 10
-125.9
 20
-24.8
  0
VERTEX
  8
型材断面
 10
-125.9
 20
-24.8
  0
VERTEX
  8
型材断面
 10
-125.875
 20
-24.825
  0
VERTEX
  8
型材断面
 10
-125.875
 20
-24.85
  0
VERTEX
  8
型材断面
 10
-125.85
 20
-24.85
  0
VERTEX
  8
型材断面
 10
-125.85
 20
-24.875
  0
VERTEX
  8
型材断面
 10
-125.825
 20
-24.875
  0
VERTEX
  8
型材断面
 10
-125.825
 20
-24.9
  0
SEQEND
  0
LINE
  8
型材断面
  6
CONTINUOUS
 62
    47
 10
-115.851728
 20
-33.777395
 11
-112.40471
 21
-32.62834
  0
POLYLINE
  8
型材断面
  6
CONTINUOUS
 62
    47
 66
     1
  0
VERTEX
  8
型材断面
 10
-115.4
 20
-34.25
  0
VERTEX
  8
型材断面
 10
-115.425
 20
-34.25
  0
VERTEX
  8
型材断面
 10
-115.45
 20
-34.275
  0
VERTEX
  8
型材断面
 10
-115.475
 20
-34.275
  0
VERTEX
  8
型材断面
 10
-115.5
 20
-34.275
  0
VERTEX
  8
型材断面
 10
-115.55
 20
-34.275
  0
VERTEX
  8
型材断面
 10
-115.575
 20
-34.3
  0
VERTEX
  8
型材断面
 10
-115.6
 20
-34.3
  0
VERTEX
  8
型材断面
 10
-115.625
 20
-34.3
  0
VERTEX
  8
型材断面
 10
-115.65
 20
-34.3
  0
VERTEX
  8
型材断面
 10
-115.675
 20
-34.3
  0
VERTEX
  8
型材断面
 10
-115.7
 20
-34.3
  0
VERTEX
  8
型材断面
 10
-115.725
 20
-34.325
  0
VERTEX
  8
型材断面
 10
-115.775
 20
-34.325
  0
VERTEX
  8
型材断面
 10
-115.8
 20
-34.325
  0
VERTEX
  8
型材断面
 10
-115.825
 20
-34.325
  0
VERTEX
  8
型材断面
 10
-115.85
 20
-34.325
  0
VERTEX
  8
型材断面
 10
-115.875
 20
-34.325
  0
VERTEX
  8
型材断面
 10
-115.925
 20
-34.325
  0
VERTEX
  8
型材断面
 10
-115.95
 20
-34.325
  0
VERTEX
  8
型材断面
 10
-115.975
 20
-34.325
  0
VERTEX
  8
型材断面
 10
-116.0
 20
-34.325
  0
VERTEX
  8
型材断面
 10
-116.025
 20
-34.3
  0
VERTEX
  8
型材断面
 10
-116.05
 20
-34.3
  0
VERTEX
  8
型材断面
 10
-116.1
 20
-34.3
  0
VERTEX
  8
型材断面
 10
-116.125
 20
-34.3
  0
VERTEX
  8
型材断面
 10
-116.15
 20
-34.3
  0
VERTEX
  8
型材断面
 10
-116.175
 20
-34.3
  0
VERTEX
  8
型材断面
 10
-116.2
 20
-34.275
  0
VERTEX
  8
型材断面
 10
-116.225
 20
-34.275
  0
VERTEX
  8
型材断面
 10
-116.25
 20
-34.275
  0
VERTEX
  8
型材断面
 10
-116.275
 20
-34.275
  0
VERTEX
  8
型材断面
 10
-116.3
 20
-34.25
  0
VERTEX
  8
型材断面
 10
-116.325
 20
-34.25
  0
VERTEX
  8
型材断面
 10
-116.35
 20
-34.225
  0
VERTEX
  8
型材断面
 10
-116.375
 20
-34.225
  0
VERTEX
  8
型材断面
 10
-116.4
 20
-34.225
  0
VERTEX
  8
型材断面
 10
-116.425
 20
-34.2
  0
VERTEX
  8
型材断面
 10
-116.45
 20
-34.2
  0
VERTEX
  8
型材断面
 10
-116.475
 20
-34.175
  0
VERTEX
  8
型材断面
 10
-116.5
 20
-34.175
  0
VERTEX
  8
型材断面
 10
-116.525
 20
-34.175
  0
VERTEX
  8
型材断面
 10
-116.55
 20
-34.15
  0
VERTEX
  8
型材断面
 10
-116.55
 20
-34.15
  0
VERTEX
  8
型材断面
 10
-116.575
 20
-34.125
  0
VERTEX
  8
型材断面
 10
-116.6
 20
-34.1
  0
VERTEX
  8
型材断面
 10
-116.6
 20
-34.1
  0
VERTEX
  8
型材断面
 10
-116.625
 20
-34.075
  0
VERTEX
  8
型材断面
 10
-116.65
 20
-34.075
  0
VERTEX
  8
型材断面
 10
-116.65
 20
-34.05
  0
SEQEND
  0
LINE
  8
型材断面
  6
CONTINUOUS
 62
    47
 10
-111.945447
 20
-33.087625
 11
-116.18793
 21
-34.501847
  0
LINE
  8
型材断面
  6
CONTINUOUS
 62
    47
 10
-112.40471
 20
-32.62834
 11
-111.945447
 21
-33.087625
  0
LINE
  8
型材断面
  6
CONTINUOUS
 62
    47
 10
-116.18793
 20
-34.501847
 11
-126.597885
 21
-24.09143
  0
LINE
  8
型材断面
  6
CONTINUOUS
 62
    47
 10
-120.18769
 20
-24.09143
 11
-126.597885
 21
-24.09143
  0
LINE
  8
型材断面
  6
CONTINUOUS
 62
    47
 10
-115.851728
 20
-33.7774
 11
-125.006955
 21
-24.621767
  0
LINE
  8
型材断面
  6
CONTINUOUS
 10
-120.18769
 20
-21.439757
 11
-119.269163
 21
-21.439757
  0
LINE
  8
型材断面
  6
CONTINUOUS
 10
-120.18769
 20
-23.20754
 11
-119.269163
 21
-23.20754
  0
POLYLINE
  8
型材断面
  6
CONTINUOUS
 66
     1
  0
VERTEX
  8
型材断面
 10
-120.2
 20
-24.625
  0
VERTEX
  8
型材断面
 10
-120.175
 20
-24.625
  0
VERTEX
  8
型材断面
 10
-120.15
 20
-24.625
  0
VERTEX
  8
型材断面
 10
-120.1
 20
-24.625
  0
VERTEX
  8
型材断面
 10
-120.075
 20
-24.625
  0
VERTEX
  8
型材断面
 10
-120.05
 20
-24.625
  0
VERTEX
  8
型材断面
 10
-120.025
 20
-24.625
  0
VERTEX
  8
型材断面
 10
-120.0
 20
-24.625
  0
VERTEX
  8
型材断面
 10
-119.975
 20
-24.625
  0
VERTEX
  8
型材断面
 10
-119.95
 20
-24.6
  0
VERTEX
  8
型材断面
 10
-119.9
 20
-24.6
  0
VERTEX
  8
型材断面
 10
-119.875
 20
-24.6
  0
VERTEX
  8
型材断面
 10
-119.85
 20
-24.6
  0
VERTEX
  8
型材断面
 10
-119.825
 20
-24.6
  0
VERTEX
  8
型材断面
 10
-119.8
 20
-24.575
  0
VERTEX
  8
型材断面
 10
-119.775
 20
-24.575
  0
VERTEX
  8
型材断面
 10
-119.75
 20
-24.575
  0
VERTEX
  8
型材断面
 10
-119.725
 20
-24.55
  0
VERTEX
  8
型材断面
 10
-119.7
 20
-24.55
  0
VERTEX
  8
型材断面
 10
-119.675
 20
-24.55
  0
VERTEX
  8
型材断面
 10
-119.65
 20
-24.525
  0
VERTEX
  8
型材断面
 10
-119.625
 20
-24.525
  0
VERTEX
  8
型材断面
 10
-119.6
 20
-24.5
  0
VERTEX
  8
型材断面
 10
-119.575
 20
-24.5
  0
VERTEX
  8
型材断面
 10
-119.55
 20
-24.475
  0
VERTEX
  8
型材断面
 10
-119.55
 20
-24.475
  0
VERTEX
  8
型材断面
 10
-119.525
 20
-24.45
  0
VERTEX
  8
型材断面
 10
-119.5
 20
-24.45
  0
VERTEX
  8
型材断面
 10
-119.475
 20
-24.425
  0
VERTEX
  8
型材断面
 10
-119.475
 20
-24.425
  0
VERTEX
  8
型材断面
 10
-119.45
 20
-24.4
  0
VERTEX
  8
型材断面
 10
-119.425
 20
-24.4
  0
VERTEX
  8
型材断面
 10
-119.425
 20
-24.375
  0
VERTEX
  8
型材断面
 10
-119.4
 20
-24.375
  0
VERTEX
  8
型材断面
 10
-119.375
 20
-24.35
  0
VERTEX
  8
型材断面
 10
-119.375
 20
-24.325
  0
VERTEX
  8
型材断面
 10
-119.35
 20
-24.325
  0
VERTEX
  8
型材断面
 10
-119.35
 20
-24.3
  0
VERTEX
  8
型材断面
 10
-119.35
 20
-24.275
  0
VERTEX
  8
型材断面
 10
-119.325
 20
-24.275
  0
VERTEX
  8
型材断面
 10
-119.325
 20
-24.25
  0
VERTEX
  8
型材断面
 10
-119.3
 20
-24.25
  0
VERTEX
  8
型材断面
 10
-119.3
 20
-24.225
  0
VERTEX
  8
型材断面
 10
-119.3
 20
-24.2
  0
VERTEX
  8
型材断面
 10
-119.3
 20
-24.2
  0
VERTEX
  8
型材断面
 10
-119.3
 20
-24.175
  0
VERTEX
  8
型材断面
 10
-119.275
 20
-24.15
  0
VERTEX
  8
型材断面
 10
-119.275
 20
-24.15
  0
VERTEX
  8
型材断面
 10
-119.275
 20
-24.125
  0
VERTEX
  8
型材断面
 10
-119.275
 20
-24.1
  0
SEQEND
  0
POLYLINE
  8
型材断面
  6
CONTINUOUS
 66
     1
  0
VERTEX
  8
型材断面
 10
-119.275
 20
-20.575
  0
VERTEX
  8
型材断面
 10
-119.275
 20
-20.55
  0
VERTEX
  8
型材断面
 10
-119.275
 20
-20.525
  0
VERTEX
  8
型材断面
 10
-119.275
 20
-20.525
  0
VERTEX
  8
型材断面
 10
-119.3
 20
-20.5
  0
VERTEX
  8
型材断面
 10
-119.3
 20
-20.475
  0
VERTEX
  8
型材断面
 10
-119.3
 20
-20.475
  0
VERTEX
  8
型材断面
 10
-119.3
 20
-20.45
  0
VERTEX
  8
型材断面
 10
-119.3
 20
-20.425
  0
VERTEX
  8
型材断面
 10
-119.325
 20
-20.425
  0
VERTEX
  8
型材断面
 10
-119.325
 20
-20.4
  0
VERTEX
  8
型材断面
 10
-119.35
 20
-20.375
  0
VERTEX
  8
型材断面
 10
-119.35
 20
-20.375
  0
VERTEX
  8
型材断面
 10
-119.35
 20
-20.35
  0
VERTEX
  8
型材断面
 10
-119.375
 20
-20.35
  0
VERTEX
  8
型材断面
 10
-119.375
 20
-20.325
  0
VERTEX
  8
型材断面
 10
-119.4
 20
-20.3
  0
VERTEX
  8
型材断面
 10
-119.425
 20
-20.3
  0
VERTEX
  8
型材断面
 10
-119.425
 20
-20.275
  0
VERTEX
  8
型材断面
 10
-119.45
 20
-20.275
  0
VERTEX
  8
型材断面
 10
-119.475
 20
-20.25
  0
VERTEX
  8
型材断面
 10
-119.475
 20
-20.25
  0
VERTEX
  8
型材断面
 10
-119.5
 20
-20.225
  0
VERTEX
  8
型材断面
 10
-119.525
 20
-20.2
  0
VERTEX
  8
型材断面
 10
-119.55
 20
-20.2
  0
VERTEX
  8
型材断面
 10
-119.55
 20
-20.175
  0
VERTEX
  8
型材断面
 10
-119.575
 20
-20.175
  0
VERTEX
  8
型材断面
 10
-119.6
 20
-20.175
  0
VERTEX
  8
型材断面
 10
-119.625
 20
-20.15
  0
VERTEX
  8
型材断面
 10
-119.65
 20
-20.15
  0
VERTEX
  8
型材断面
 10
-119.675
 20
-20.125
  0
VERTEX
  8
型材断面
 10
-119.7
 20
-20.125
  0
VERTEX
  8
型材断面
 10
-119.725
 20
-20.125
  0
VERTEX
  8
型材断面
 10
-119.75
 20
-20.1
  0
VERTEX
  8
型材断面
 10
-119.775
 20
-20.1
  0
VERTEX
  8
型材断面
 10
-119.8
 20
-20.1
  0
VERTEX
  8
型材断面
 10
-119.825
 20
-20.075
  0
VERTEX
  8
型材断面
 10
-119.85
 20
-20.075
  0
VERTEX
  8
型材断面
 10
-119.875
 20
-20.075
  0
VERTEX
  8
型材断面
 10
-119.9
 20
-20.075
  0
VERTEX
  8
型材断面
 10
-119.95
 20
-20.05
  0
VERTEX
  8
型材断面
 10
-119.975
 20
-20.05
  0
VERTEX
  8
型材断面
 10
-120.0
 20
-20.05
  0
VERTEX
  8
型材断面
 10
-120.025
 20
-20.05
  0
VERTEX
  8
型材断面
 10
-120.05
 20
-20.05
  0
VERTEX
  8
型材断面
 10
-120.075
 20
-20.05
  0
VERTEX
  8
型材断面
 10
-120.1
 20
-20.05
  0
VERTEX
  8
型材断面
 10
-120.15
 20
-20.05
  0
VERTEX
  8
型材断面
 10
-120.175
 20
-20.05
  0
VERTEX
  8
型材断面
 10
-120.2
 20
-20.05
  0
SEQEND
  0
LINE
  8
型材断面
  6
CONTINUOUS
 62
    47
 10
-125.006955
 20
-20.025535
 11
-119.269163
 21
-20.025535
  0
LINE
  8
型材断面
  6
CONTINUOUS
 10
-119.269163
 20
-20.025535
 11
-119.269163
 21
-24.621767
  0
LINE
  8
型材断面
  6
CONTINUOUS
 62
    47
 10
-125.006955
 20
-24.621767
 11
-119.269163
 21
-24.621767
  0
LINE
  8
St
  6
CONTINUOUS
 62
    47
 10
-119.958062
 20
-23.20754
 11
-119.958062
 21
-21.439757
  0
LINE
  8
St
  6
CONTINUOUS
 62
    47
 10
-119.728428
 20
-23.20754
 11
-119.728428
 21
-21.439757
  0
LINE
  8
St
  6
CONTINUOUS
 62
    47
 10
-119.498797
 20
-23.20754
 11
-119.498797
 21
-21.439757
  0
ENDBLK
  0
BLOCK
  2
*GRP_0058
 70
    65
 10
0.0
 20
0.0
  0
POLYLINE
  8
型材断面
  6
CONTINUOUS
 66
     1
  0
VERTEX
  8
型材断面
 10
-101.825
 20
-18.8
  0
VERTEX
  8
型材断面
 10
-101.85
 20
-18.8
  0
VERTEX
  8
型材断面
 10
-101.875
 20
-18.8
  0
VERTEX
  8
型材断面
 10
-101.925
 20
-18.8
  0
VERTEX
  8
型材断面
 10
-101.95
 20
-18.8
  0
VERTEX
  8
型材断面
 10
-101.975
 20
-18.8
  0
VERTEX
  8
型材断面
 10
-102.0
 20
-18.8
  0
VERTEX
  8
型材断面
 10
-102.025
 20
-18.775
  0
VERTEX
  8
型材断面
 10
-102.05
 20
-18.775
  0
VERTEX
  8
型材断面
 10
-102.1
 20
-18.775
  0
VERTEX
  8
型材断面
 10
-102.125
 20
-18.775
  0
VERTEX
  8
型材断面
 10
-102.15
 20
-18.775
  0
VERTEX
  8
型材断面
 10
-102.175
 20
-18.75
  0
VERTEX
  8
型材断面
 10
-102.2
 20
-18.75
  0
VERTEX
  8
型材断面
 10
-102.225
 20
-18.75
  0
VERTEX
  8
型材断面
 10
-102.25
 20
-18.75
  0
VERTEX
  8
型材断面
 10
-102.275
 20
-18.725
  0
VERTEX
  8
型材断面
 10
-102.3
 20
-18.725
  0
VERTEX
  8
型材断面
 10
-102.325
 20
-18.725
  0
VERTEX
  8
型材断面
 10
-102.35
 20
-18.7
  0
VERTEX
  8
型材断面
 10
-102.375
 20
-18.7
  0
VERTEX
  8
型材断面
 10
-102.4
 20
-18.675
  0
VERTEX
  8
型材断面
 10
-102.425
 20
-18.675
  0
VERTEX
  8
型材断面
 10
-102.45
 20
-18.65
  0
VERTEX
  8
型材断面
 10
-102.475
 20
-18.65
  0
VERTEX
  8
型材断面
 10
-102.5
 20
-18.65
  0
VERTEX
  8
型材断面
 10
-102.5
 20
-18.625
  0
VERTEX
  8
型材断面
 10
-102.525
 20
-18.6
  0
VERTEX
  8
型材断面
 10
-102.55
 20
-18.6
  0
VERTEX
  8
型材断面
 10
-102.575
 20
-18.575
  0
VERTEX
  8
型材断面
 10
-102.575
 20
-18.575
  0
VERTEX
  8
型材断面
 10
-102.6
 20
-18.55
  0
VERTEX
  8
型材断面
 10
-102.625
 20
-18.55
  0
VERTEX
  8
型材断面
 10
-102.625
 20
-18.525
  0
VERTEX
  8
型材断面
 10
-102.65
 20
-18.525
  0
VERTEX
  8
型材断面
 10
-102.65
 20
-18.5
  0
VERTEX
  8
型材断面
 10
-102.675
 20
-18.475
  0
VERTEX
  8
型材断面
 10
-102.675
 20
-18.475
  0
VERTEX
  8
型材断面
 10
-102.7
 20
-18.45
  0
VERTEX
  8
型材断面
 10
-102.7
 20
-18.425
  0
VERTEX
  8
型材断面
 10
-102.7
 20
-18.425
  0
VERTEX
  8
型材断面
 10
-102.725
 20
-18.4
  0
VERTEX
  8
型材断面
 10
-102.725
 20
-18.375
  0
VERTEX
  8
型材断面
 10
-102.725
 20
-18.375
  0
VERTEX
  8
型材断面
 10
-102.725
 20
-18.35
  0
VERTEX
  8
型材断面
 10
-102.75
 20
-18.325
  0
VERTEX
  8
型材断面
 10
-102.75
 20
-18.325
  0
VERTEX
  8
型材断面
 10
-102.75
 20
-18.3
  0
VERTEX
  8
型材断面
 10
-102.75
 20
-18.275
  0
VERTEX
  8
型材断面
 10
-102.75
 20
-18.275
  0
VERTEX
  8
型材断面
 10
-102.75
 20
-18.25
  0
VERTEX
  8
型材断面
 10
-102.75
 20
-18.225
  0
VERTEX
  8
型材断面
 10
-102.75
 20
-18.225
  0
VERTEX
  8
型材断面
 10
-102.725
 20
-18.2
  0
VERTEX
  8
型材断面
 10
-102.725
 20
-18.175
  0
VERTEX
  8
型材断面
 10
-102.725
 20
-18.175
  0
VERTEX
  8
型材断面
 10
-102.725
 20
-18.15
  0
VERTEX
  8
型材断面
 10
-102.725
 20
-18.125
  0
VERTEX
  8
型材断面
 10
-102.7
 20
-18.125
  0
VERTEX
  8
型材断面
 10
-102.7
 20
-18.1
  0
VERTEX
  8
型材断面
 10
-102.675
 20
-18.075
  0
VERTEX
  8
型材断面
 10
-102.675
 20
-18.075
  0
VERTEX
  8
型材断面
 10
-102.675
 20
-18.05
  0
VERTEX
  8
型材断面
 10
-102.65
 20
-18.025
  0
VERTEX
  8
型材断面
 10
-102.625
 20
-18.025
  0
VERTEX
  8
型材断面
 10
-102.625
 20
-18.0
  0
SEQEND
  0
LINE
  8
型材断面
  6
CONTINUOUS
 10
-104.025798
 20
-14.812055
 11
-103.56653
 21
-14.352775
  0
POLYLINE
  8
型材断面
  6
CONTINUOUS
 66
     1
  0
VERTEX
  8
型材断面
 10
-99.8
 20
-16.25
  0
VERTEX
  8
型材断面
 10
-99.775
 20
-16.225
  0
VERTEX
  8
型材断面
 10
-99.775
 20
-16.2
  0
VERTEX
  8
型材断面
 10
-99.75
 20
-16.2
  0
VERTEX
  8
型材断面
 10
-99.75
 20
-16.175
  0
VERTEX
  8
型材断面
 10
-99.725
 20
-16.15
  0
VERTEX
  8
型材断面
 10
-99.725
 20
-16.15
  0
VERTEX
  8
型材断面
 10
-99.7
 20
-16.125
  0
VERTEX
  8
型材断面
 10
-99.7
 20
-16.1
  0
VERTEX
  8
型材断面
 10
-99.7
 20
-16.1
  0
VERTEX
  8
型材断面
 10
-99.7
 20
-16.075
  0
VERTEX
  8
型材断面
 10
-99.675
 20
-16.05
  0
VERTEX
  8
型材断面
 10
-99.675
 20
-16.05
  0
VERTEX
  8
型材断面
 10
-99.675
 20
-16.025
  0
VERTEX
  8
型材断面
 10
-99.675
 20
-16.0
  0
VERTEX
  8
型材断面
 10
-99.675
 20
-16.0
  0
VERTEX
  8
型材断面
 10
-99.675
 20
-15.975
  0
VERTEX
  8
型材断面
 10
-99.675
 20
-15.95
  0
VERTEX
  8
型材断面
 10
-99.675
 20
-15.95
  0
VERTEX
  8
型材断面
 10
-99.675
 20
-15.925
  0
VERTEX
  8
型材断面
 10
-99.675
 20
-15.9
  0
VERTEX
  8
型材断面
 10
-99.675
 20
-15.875
  0
VERTEX
  8
型材断面
 10
-99.7
 20
-15.875
  0
VERTEX
  8
型材断面
 10
-99.7
 20
-15.85
  0
VERTEX
  8
型材断面
 10
-99.7
 20
-15.825
  0
VERTEX
  8
型材断面
 10
-99.7
 20
-15.825
  0
VERTEX
  8
型材断面
 10
-99.725
 20
-15.8
  0
VERTEX
  8
型材断面
 10
-99.725
 20
-15.775
  0
VERTEX
  8
型材断面
 10
-99.75
 20
-15.775
  0
VERTEX
  8
型材断面
 10
-99.75
 20
-15.75
  0
VERTEX
  8
型材断面
 10
-99.775
 20
-15.75
  0
VERTEX
  8
型材断面
 10
-99.775
 20
-15.725
  0
VERTEX
  8
型材断面
 10
-99.8
 20
-15.7
  0
VERTEX
  8
型材断面
 10
-99.8
 20
-15.7
  0
VERTEX
  8
型材断面
 10
-99.825
 20
-15.675
  0
VERTEX
  8
型材断面
 10
-99.85
 20
-15.675
  0
VERTEX
  8
型材断面
 10
-99.875
 20
-15.65
  0
VERTEX
  8
型材断面
 10
-99.875
 20
-15.625
  0
VERTEX
  8
型材断面
 10
-99.9
 20
-15.625
  0
VERTEX
  8
型材断面
 10
-99.925
 20
-15.6
  0
VERTEX
  8
型材断面
 10
-99.95
 20
-15.6
  0
VERTEX
  8
型材断面
 10
-99.975
 20
-15.575
  0
VERTEX
  8
型材断面
 10
-99.975
 20
-15.575
  0
VERTEX
  8
型材断面
 10
-100.0
 20
-15.575
  0
VERTEX
  8
型材断面
 10
-100.025
 20
-15.55
  0
VERTEX
  8
型材断面
 10
-100.05
 20
-15.55
  0
VERTEX
  8
型材断面
 10
-100.075
 20
-15.525
  0
VERTEX
  8
型材断面
 10
-100.1
 20
-15.525
  0
VERTEX
  8
型材断面
 10
-100.125
 20
-15.525
  0
SEQEND
  0
LINE
  8
型材断面
  6
CONTINUOUS
 10
-103.405615
 20
-18.788087
 11
-100.578773
 21
-15.961113
  0
LINE
  8
型材断面
  6
CONTINUOUS
 10
-104.025798
 20
-14.812055
 11
-100.578773
 21
-15.961113
  0
LINE
  8
型材断面
  6
CONTINUOUS
 10
-101.814682
 20
-18.257755
 11
-99.324047
 21
-15.766997
  0
LINE
  8
型材断面
  6
CONTINUOUS
 10
-103.56653
 20
-14.352775
 11
-99.324047
 21
-15.766997
  0
LINE
  8
型材断面
  6
CONTINUOUS
 10
-98.510483
 20
-18.257755
 11
-98.510483
 21
-18.788087
  0
LINE
  8
型材断面
  6
CONTINUOUS
 10
-95.938615
 20
-18.788087
 11
-95.938615
 21
-18.257755
  0
LINE
  8
型材断面
  6
CONTINUOUS
 10
-95.938615
 20
-18.655505
 11
-98.510483
 21
-18.655505
  0
LINE
  8
型材断面
  6
CONTINUOUS
 10
-95.938615
 20
-18.52292
 11
-98.510483
 21
-18.52292
  0
LINE
  8
型材断面
  6
CONTINUOUS
 10
-95.938615
 20
-18.39034
 11
-98.510483
 21
-18.39034
  0
LINE
  8
型材断面
  6
CONTINUOUS
 10
-94.77515
 20
-18.788087
 11
-103.405615
 21
-18.788087
  0
LINE
  8
型材断面
  6
CONTINUOUS
 10
-94.77515
 20
-18.257755
 11
-94.77515
 21
-18.788087
  0
LINE
  8
型材断面
  6
CONTINUOUS
 10
-101.814682
 20
-18.257755
 11
-94.77515
 21
-18.257755
  0
ENDBLK
  0
BLOCK
  2
*GRP_0059
 70
    65
 10
0.0
 20
0.0
  0
POLYLINE
  8
型材断面
  6
CONTINUOUS
 66
     1
  0
VERTEX
  8
型材断面
 10
-102.625
 20
-26.675
  0
VERTEX
  8
型材断面
 10
-102.625
 20
-26.65
  0
VERTEX
  8
型材断面
 10
-102.65
 20
-26.625
  0
VERTEX
  8
型材断面
 10
-102.675
 20
-26.625
  0
VERTEX
  8
型材断面
 10
-102.675
 20
-26.6
  0
VERTEX
  8
型材断面
 10
-102.675
 20
-26.6
  0
VERTEX
  8
型材断面
 10
-102.7
 20
-26.575
  0
VERTEX
  8
型材断面
 10
-102.7
 20
-26.55
  0
VERTEX
  8
型材断面
 10
-102.725
 20
-26.55
  0
VERTEX
  8
型材断面
 10
-102.725
 20
-26.525
  0
VERTEX
  8
型材断面
 10
-102.725
 20
-26.5
  0
VERTEX
  8
型材断面
 10
-102.725
 20
-26.5
  0
VERTEX
  8
型材断面
 10
-102.725
 20
-26.475
  0
VERTEX
  8
型材断面
 10
-102.75
 20
-26.45
  0
VERTEX
  8
型材断面
 10
-102.75
 20
-26.45
  0
VERTEX
  8
型材断面
 10
-102.75
 20
-26.425
  0
VERTEX
  8
型材断面
 10
-102.75
 20
-26.4
  0
VERTEX
  8
型材断面
 10
-102.75
 20
-26.4
  0
VERTEX
  8
型材断面
 10
-102.75
 20
-26.375
  0
VERTEX
  8
型材断面
 10
-102.75
 20
-26.35
  0
VERTEX
  8
型材断面
 10
-102.75
 20
-26.35
  0
VERTEX
  8
型材断面
 10
-102.725
 20
-26.325
  0
VERTEX
  8
型材断面
 10
-102.725
 20
-26.3
  0
VERTEX
  8
型材断面
 10
-102.725
 20
-26.3
  0
VERTEX
  8
型材断面
 10
-102.725
 20
-26.275
  0
VERTEX
  8
型材断面
 10
-102.7
 20
-26.25
  0
VERTEX
  8
型材断面
 10
-102.7
 20
-26.25
  0
VERTEX
  8
型材断面
 10
-102.7
 20
-26.225
  0
VERTEX
  8
型材断面
 10
-102.675
 20
-26.2
  0
VERTEX
  8
型材断面
 10
-102.675
 20
-26.2
  0
VERTEX
  8
型材断面
 10
-102.65
 20
-26.175
  0
VERTEX
  8
型材断面
 10
-102.65
 20
-26.15
  0
VERTEX
  8
型材断面
 10
-102.625
 20
-26.15
  0
VERTEX
  8
型材断面
 10
-102.625
 20
-26.125
  0
VERTEX
  8
型材断面
 10
-102.6
 20
-26.125
  0
VERTEX
  8
型材断面
 10
-102.575
 20
-26.1
  0
VERTEX
  8
型材断面
 10
-102.575
 20
-26.075
  0
VERTEX
  8
型材断面
 10
-102.55
 20
-26.075
  0
VERTEX
  8
型材断面
 10
-102.525
 20
-26.05
  0
VERTEX
  8
型材断面
 10
-102.5
 20
-26.05
  0
VERTEX
  8
型材断面
 10
-102.5
 20
-26.025
  0
VERTEX
  8
型材断面
 10
-102.475
 20
-26.025
  0
VERTEX
  8
型材断面
 10
-102.45
 20
-26.0
  0
VERTEX
  8
型材断面
 10
-102.425
 20
-26.0
  0
VERTEX
  8
型材断面
 10
-102.4
 20
-26.0
  0
VERTEX
  8
型材断面
 10
-102.375
 20
-25.975
  0
VERTEX
  8
型材断面
 10
-102.35
 20
-25.975
  0
VERTEX
  8
型材断面
 10
-102.325
 20
-25.95
  0
VERTEX
  8
型材断面
 10
-102.3
 20
-25.95
  0
VERTEX
  8
型材断面
 10
-102.275
 20
-25.95
  0
VERTEX
  8
型材断面
 10
-102.25
 20
-25.925
  0
VERTEX
  8
型材断面
 10
-102.225
 20
-25.925
  0
VERTEX
  8
型材断面
 10
-102.2
 20
-25.925
  0
VERTEX
  8
型材断面
 10
-102.175
 20
-25.9
  0
VERTEX
  8
型材断面
 10
-102.15
 20
-25.9
  0
VERTEX
  8
型材断面
 10
-102.125
 20
-25.9
  0
VERTEX
  8
型材断面
 10
-102.1
 20
-25.9
  0
VERTEX
  8
型材断面
 10
-102.05
 20
-25.9
  0
VERTEX
  8
型材断面
 10
-102.025
 20
-25.875
  0
VERTEX
  8
型材断面
 10
-102.0
 20
-25.875
  0
VERTEX
  8
型材断面
 10
-101.975
 20
-25.875
  0
VERTEX
  8
型材断面
 10
-101.95
 20
-25.875
  0
VERTEX
  8
型材断面
 10
-101.925
 20
-25.875
  0
VERTEX
  8
型材断面
 10
-101.875
 20
-25.875
  0
VERTEX
  8
型材断面
 10
-101.85
 20
-25.875
  0
VERTEX
  8
型材断面
 10
-101.825
 20
-25.875
  0
SEQEND
  0
LINE
  8
型材断面
  6
CONTINUOUS
 10
-104.025798
 20
-29.835243
 11
-103.56653
 21
-30.294528
  0
POLYLINE
  8
型材断面
  6
CONTINUOUS
 66
     1
  0
VERTEX
  8
型材断面
 10
-100.125
 20
-29.15
  0
VERTEX
  8
型材断面
 10
-100.1
 20
-29.15
  0
VERTEX
  8
型材断面
 10
-100.075
 20
-29.15
  0
VERTEX
  8
型材断面
 10
-100.05
 20
-29.125
  0
VERTEX
  8
型材断面
 10
-100.025
 20
-29.125
  0
VERTEX
  8
型材断面
 10
-100.0
 20
-29.1
  0
VERTEX
  8
型材断面
 10
-99.975
 20
-29.1
  0
VERTEX
  8
型材断面
 10
-99.975
 20
-29.075
  0
VERTEX
  8
型材断面
 10
-99.95
 20
-29.075
  0
VERTEX
  8
型材断面
 10
-99.925
 20
-29.05
  0
VERTEX
  8
型材断面
 10
-99.9
 20
-29.05
  0
VERTEX
  8
型材断面
 10
-99.875
 20
-29.025
  0
VERTEX
  8
型材断面
 10
-99.875
 20
-29.025
  0
VERTEX
  8
型材断面
 10
-99.85
 20
-29.0
  0
VERTEX
  8
型材断面
 10
-99.825
 20
-29.0
  0
VERTEX
  8
型材断面
 10
-99.8
 20
-28.975
  0
VERTEX
  8
型材断面
 10
-99.8
 20
-28.975
  0
VERTEX
  8
型材断面
 10
-99.775
 20
-28.95
  0
VERTEX
  8
型材断面
 10
-99.775
 20
-28.925
  0
VERTEX
  8
型材断面
 10
-99.75
 20
-28.925
  0
VERTEX
  8
型材断面
 10
-99.75
 20
-28.9
  0
VERTEX
  8
型材断面
 10
-99.725
 20
-28.875
  0
VERTEX
  8
型材断面
 10
-99.725
 20
-28.875
  0
VERTEX
  8
型材断面
 10
-99.7
 20
-28.85
  0
VERTEX
  8
型材断面
 10
-99.7
 20
-28.825
  0
VERTEX
  8
型材断面
 10
-99.7
 20
-28.825
  0
VERTEX
  8
型材断面
 10
-99.7
 20
-28.8
  0
VERTEX
  8
型材断面
 10
-99.675
 20
-28.775
  0
VERTEX
  8
型材断面
 10
-99.675
 20
-28.775
  0
VERTEX
  8
型材断面
 10
-99.675
 20
-28.75
  0
VERTEX
  8
型材断面
 10
-99.675
 20
-28.725
  0
VERTEX
  8
型材断面
 10
-99.675
 20
-28.725
  0
VERTEX
  8
型材断面
 10
-99.675
 20
-28.7
  0
VERTEX
  8
型材断面
 10
-99.675
 20
-28.675
  0
VERTEX
  8
型材断面
 10
-99.675
 20
-28.675
  0
VERTEX
  8
型材断面
 10
-99.675
 20
-28.65
  0
VERTEX
  8
型材断面
 10
-99.675
 20
-28.625
  0
VERTEX
  8
型材断面
 10
-99.675
 20
-28.6
  0
VERTEX
  8
型材断面
 10
-99.7
 20
-28.6
  0
VERTEX
  8
型材断面
 10
-99.7
 20
-28.575
  0
VERTEX
  8
型材断面
 10
-99.7
 20
-28.55
  0
VERTEX
  8
型材断面
 10
-99.7
 20
-28.55
  0
VERTEX
  8
型材断面
 10
-99.725
 20
-28.525
  0
VERTEX
  8
型材断面
 10
-99.725
 20
-28.5
  0
VERTEX
  8
型材断面
 10
-99.75
 20
-28.5
  0
VERTEX
  8
型材断面
 10
-99.75
 20
-28.475
  0
VERTEX
  8
型材断面
 10
-99.775
 20
-28.475
  0
VERTEX
  8
型材断面
 10
-99.775
 20
-28.45
  0
VERTEX
  8
型材断面
 10
-99.8
 20
-28.425
  0
SEQEND
  0
LINE
  8
型材断面
  6
CONTINUOUS
 10
-103.405615
 20
-25.859215
 11
-100.578773
 21
-28.686185
  0
LINE
  8
型材断面
  6
CONTINUOUS
 10
-104.025798
 20
-29.835243
 11
-100.578773
 21
-28.686185
  0
LINE
  8
型材断面
  6
CONTINUOUS
 10
-101.814682
 20
-26.389548
 11
-99.324047
 21
-28.880305
  0
LINE
  8
型材断面
  6
CONTINUOUS
 10
-103.56653
 20
-30.294528
 11
-99.324047
 21
-28.880305
  0
LINE
  8
型材断面
  6
CONTINUOUS
 10
-98.510483
 20
-26.389548
 11
-98.510483
 21
-25.859215
  0
LINE
  8
型材断面
  6
CONTINUOUS
 10
-95.938615
 20
-25.859215
 11
-95.938615
 21
-26.389548
  0
LINE
  8
型材断面
  6
CONTINUOUS
 10
-95.938615
 20
-25.991795
 11
-98.510483
 21
-25.991795
  0
LINE
  8
型材断面
  6
CONTINUOUS
 10
-95.938615
 20
-26.12438
 11
-98.510483
 21
-26.12438
  0
LINE
  8
型材断面
  6
CONTINUOUS
 10
-95.938615
 20
-26.256963
 11
-98.510483
 21
-26.256963
  0
LINE
  8
型材断面
  6
CONTINUOUS
 10
-94.77515
 20
-25.859215
 11
-103.405615
 21
-25.859215
  0
LINE
  8
型材断面
  6
CONTINUOUS
 10
-94.77515
 20
-26.389548
 11
-94.77515
 21
-25.859215
  0
LINE
  8
型材断面
  6
CONTINUOUS
 10
-101.814682
 20
-26.389548
 11
-94.77515
 21
-26.389548
  0
ENDBLK
  0
BLOCK
  2
*GRP_0060
 70
    65
 10
0.0
 20
0.0
  0
POLYLINE
  8
型材断面
  6
CONTINUOUS
 66
     1
  0
VERTEX
  8
型材断面
 10
-94.8
 20
-18.8
  0
VERTEX
  8
型材断面
 10
-94.775
 20
-18.775
  0
VERTEX
  8
型材断面
 10
-94.775
 20
-18.775
  0
VERTEX
  8
型材断面
 10
-94.775
 20
-18.75
  0
VERTEX
  8
型材断面
 10
-94.775
 20
-18.725
  0
VERTEX
  8
型材断面
 10
-94.775
 20
-18.725
  0
VERTEX
  8
型材断面
 10
-94.775
 20
-18.7
  0
VERTEX
  8
型材断面
 10
-94.775
 20
-18.675
  0
VERTEX
  8
型材断面
 10
-94.75
 20
-18.675
  0
VERTEX
  8
型材断面
 10
-94.75
 20
-18.65
  0
VERTEX
  8
型材断面
 10
-94.75
 20
-18.625
  0
VERTEX
  8
型材断面
 10
-94.725
 20
-18.625
  0
VERTEX
  8
型材断面
 10
-94.725
 20
-18.6
  0
VERTEX
  8
型材断面
 10
-94.7
 20
-18.575
  0
VERTEX
  8
型材断面
 10
-94.7
 20
-18.575
  0
VERTEX
  8
型材断面
 10
-94.675
 20
-18.55
  0
VERTEX
  8
型材断面
 10
-94.675
 20
-18.55
  0
VERTEX
  8
型材断面
 10
-94.65
 20
-18.525
  0
VERTEX
  8
型材断面
 10
-94.65
 20
-18.5
  0
VERTEX
  8
型材断面
 10
-94.625
 20
-18.5
  0
VERTEX
  8
型材断面
 10
-94.6
 20
-18.475
  0
VERTEX
  8
型材断面
 10
-94.575
 20
-18.475
  0
VERTEX
  8
型材断面
 10
-94.575
 20
-18.45
  0
VERTEX
  8
型材断面
 10
-94.55
 20
-18.45
  0
VERTEX
  8
型材断面
 10
-94.525
 20
-18.425
  0
VERTEX
  8
型材断面
 10
-94.5
 20
-18.425
  0
VERTEX
  8
型材断面
 10
-94.475
 20
-18.4
  0
VERTEX
  8
型材断面
 10
-94.475
 20
-18.4
  0
VERTEX
  8
型材断面
 10
-94.45
 20
-18.375
  0
VERTEX
  8
型材断面
 10
-94.425
 20
-18.375
  0
VERTEX
  8
型材断面
 10
-94.4
 20
-18.375
  0
VERTEX
  8
型材断面
 10
-94.375
 20
-18.35
  0
VERTEX
  8
型材断面
 10
-94.35
 20
-18.35
  0
VERTEX
  8
型材断面
 10
-94.325
 20
-18.35
  0
VERTEX
  8
型材断面
 10
-94.3
 20
-18.325
  0
VERTEX
  8
型材断面
 10
-94.275
 20
-18.325
  0
VERTEX
  8
型材断面
 10
-94.25
 20
-18.325
  0
VERTEX
  8
型材断面
 10
-94.225
 20
-18.3
  0
VERTEX
  8
型材断面
 10
-94.175
 20
-18.3
  0
VERTEX
  8
型材断面
 10
-94.15
 20
-18.3
  0
VERTEX
  8
型材断面
 10
-94.125
 20
-18.3
  0
VERTEX
  8
型材断面
 10
-94.1
 20
-18.3
  0
VERTEX
  8
型材断面
 10
-94.075
 20
-18.275
  0
VERTEX
  8
型材断面
 10
-94.05
 20
-18.275
  0
VERTEX
  8
型材断面
 10
-94.025
 20
-18.275
  0
VERTEX
  8
型材断面
 10
-93.975
 20
-18.275
  0
VERTEX
  8
型材断面
 10
-93.95
 20
-18.275
  0
VERTEX
  8
型材断面
 10
-93.925
 20
-18.275
  0
VERTEX
  8
型材断面
 10
-93.9
 20
-18.275
  0
VERTEX
  8
型材断面
 10
-93.875
 20
-18.275
  0
SEQEND
  0
LINE
  8
型材断面
  6
CONTINUOUS
 10
-94.77515
 20
-22.32365
 11
-94.77515
 21
-18.257755
  0
LINE
  8
型材断面
  6
CONTINUOUS
 10
-93.856622
 20
-22.32365
 11
-93.856622
 21
-18.788087
  0
POLYLINE
  8
型材断面
  6
CONTINUOUS
 66
     1
  0
VERTEX
  8
型材断面
 10
-90.2
 20
-18.8
  0
VERTEX
  8
型材断面
 10
-90.175
 20
-18.8
  0
VERTEX
  8
型材断面
 10
-90.125
 20
-18.8
  0
VERTEX
  8
型材断面
 10
-90.1
 20
-18.8
  0
VERTEX
  8
型材断面
 10
-90.075
 20
-18.8
  0
VERTEX
  8
型材断面
 10
-90.05
 20
-18.8
  0
VERTEX
  8
型材断面
 10
-90.025
 20
-18.8
  0
VERTEX
  8
型材断面
 10
-90.0
 20
-18.775
  0
VERTEX
  8
型材断面
 10
-89.95
 20
-18.775
  0
VERTEX
  8
型材断面
 10
-89.925
 20
-18.775
  0
VERTEX
  8
型材断面
 10
-89.9
 20
-18.775
  0
VERTEX
  8
型材断面
 10
-89.875
 20
-18.775
  0
VERTEX
  8
型材断面
 10
-89.85
 20
-18.75
  0
VERTEX
  8
型材断面
 10
-89.825
 20
-18.75
  0
VERTEX
  8
型材断面
 10
-89.8
 20
-18.75
  0
VERTEX
  8
型材断面
 10
-89.775
 20
-18.75
  0
VERTEX
  8
型材断面
 10
-89.75
 20
-18.725
  0
VERTEX
  8
型材断面
 10
-89.725
 20
-18.725
  0
VERTEX
  8
型材断面
 10
-89.7
 20
-18.725
  0
VERTEX
  8
型材断面
 10
-89.675
 20
-18.7
  0
VERTEX
  8
型材断面
 10
-89.65
 20
-18.7
  0
VERTEX
  8
型材断面
 10
-89.625
 20
-18.675
  0
VERTEX
  8
型材断面
 10
-89.6
 20
-18.675
  0
VERTEX
  8
型材断面
 10
-89.575
 20
-18.675
  0
VERTEX
  8
型材断面
 10
-89.55
 20
-18.65
  0
VERTEX
  8
型材断面
 10
-89.525
 20
-18.65
  0
VERTEX
  8
型材断面
 10
-89.525
 20
-18.625
  0
VERTEX
  8
型材断面
 10
-89.5
 20
-18.625
  0
VERTEX
  8
型材断面
 10
-89.475
 20
-18.6
  0
VERTEX
  8
型材断面
 10
-89.45
 20
-18.575
  0
VERTEX
  8
型材断面
 10
-89.45
 20
-18.575
  0
VERTEX
  8
型材断面
 10
-89.425
 20
-18.55
  0
VERTEX
  8
型材断面
 10
-89.4
 20
-18.55
  0
VERTEX
  8
型材断面
 10
-89.4
 20
-18.525
  0
VERTEX
  8
型材断面
 10
-89.375
 20
-18.525
  0
VERTEX
  8
型材断面
 10
-89.375
 20
-18.5
  0
VERTEX
  8
型材断面
 10
-89.35
 20
-18.475
  0
VERTEX
  8
型材断面
 10
-89.35
 20
-18.475
  0
VERTEX
  8
型材断面
 10
-89.325
 20
-18.45
  0
VERTEX
  8
型材断面
 10
-89.325
 20
-18.425
  0
VERTEX
  8
型材断面
 10
-89.325
 20
-18.425
  0
VERTEX
  8
型材断面
 10
-89.3
 20
-18.4
  0
VERTEX
  8
型材断面
 10
-89.3
 20
-18.4
  0
VERTEX
  8
型材断面
 10
-89.3
 20
-18.375
  0
VERTEX
  8
型材断面
 10
-89.3
 20
-18.35
  0
VERTEX
  8
型材断面
 10
-89.275
 20
-18.35
  0
VERTEX
  8
型材断面
 10
-89.275
 20
-18.325
  0
VERTEX
  8
型材断面
 10
-89.275
 20
-18.3
  0
VERTEX
  8
型材断面
 10
-89.275
 20
-18.275
  0
VERTEX
  8
型材断面
 10
-89.275
 20
-18.275
  0
SEQEND
  0
POLYLINE
  8
型材断面
  6
CONTINUOUS
 66
     1
  0
VERTEX
  8
型材断面
 10
-90.5
 20
-18.275
  0
VERTEX
  8
型材断面
 10
-90.5
 20
-18.275
  0
VERTEX
  8
型材断面
 10
-90.475
 20
-18.275
  0
VERTEX
  8
型材断面
 10
-90.475
 20
-18.275
  0
VERTEX
  8
型材断面
 10
-90.45
 20
-18.275
  0
VERTEX
  8
型材断面
 10
-90.45
 20
-18.275
  0
VERTEX
  8
型材断面
 10
-90.45
 20
-18.275
  0
VERTEX
  8
型材断面
 10
-90.425
 20
-18.275
  0
VERTEX
  8
型材断面
 10
-90.425
 20
-18.275
  0
VERTEX
  8
型材断面
 10
-90.425
 20
-18.275
  0
VERTEX
  8
型材断面
 10
-90.4
 20
-18.25
  0
VERTEX
  8
型材断面
 10
-90.4
 20
-18.25
  0
VERTEX
  8
型材断面
 10
-90.375
 20
-18.25
  0
VERTEX
  8
型材断面
 10
-90.375
 20
-18.25
  0
VERTEX
  8
型材断面
 10
-90.375
 20
-18.25
  0
VERTEX
  8
型材断面
 10
-90.35
 20
-18.25
  0
VERTEX
  8
型材断面
 10
-90.35
 20
-18.25
  0
VERTEX
  8
型材断面
 10
-90.35
 20
-18.25
  0
VERTEX
  8
型材断面
 10
-90.325
 20
-18.25
  0
VERTEX
  8
型材断面
 10
-90.325
 20
-18.25
  0
VERTEX
  8
型材断面
 10
-90.325
 20
-18.225
  0
VERTEX
  8
型材断面
 10
-90.3
 20
-18.225
  0
VERTEX
  8
型材断面
 10
-90.3
 20
-18.225
  0
VERTEX
  8
型材断面
 10
-90.3
 20
-18.225
  0
VERTEX
  8
型材断面
 10
-90.3
 20
-18.225
  0
VERTEX
  8
型材断面
 10
-90.275
 20
-18.225
  0
VERTEX
  8
型材断面
 10
-90.275
 20
-18.2
  0
VERTEX
  8
型材断面
 10
-90.275
 20
-18.2
  0
VERTEX
  8
型材断面
 10
-90.25
 20
-18.2
  0
VERTEX
  8
型材断面
 10
-90.25
 20
-18.2
  0
VERTEX
  8
型材断面
 10
-90.25
 20
-18.2
  0
VERTEX
  8
型材断面
 10
-90.25
 20
-18.2
  0
VERTEX
  8
型材断面
 10
-90.25
 20
-18.175
  0
VERTEX
  8
型材断面
 10
-90.225
 20
-18.175
  0
VERTEX
  8
型材断面
 10
-90.225
 20
-18.175
  0
VERTEX
  8
型材断面
 10
-90.225
 20
-18.175
  0
VERTEX
  8
型材断面
 10
-90.225
 20
-18.175
  0
VERTEX
  8
型材断面
 10
-90.225
 20
-18.15
  0
VERTEX
  8
型材断面
 10
-90.225
 20
-18.15
  0
VERTEX
  8
型材断面
 10
-90.2
 20
-18.15
  0
VERTEX
  8
型材断面
 10
-90.2
 20
-18.15
  0
VERTEX
  8
型材断面
 10
-90.2
 20
-18.15
  0
VERTEX
  8
型材断面
 10
-90.2
 20
-18.125
  0
VERTEX
  8
型材断面
 10
-90.2
 20
-18.125
  0
VERTEX
  8
型材断面
 10
-90.2
 20
-18.125
  0
VERTEX
  8
型材断面
 10
-90.2
 20
-18.125
  0
VERTEX
  8
型材断面
 10
-90.2
 20
-18.1
  0
VERTEX
  8
型材断面
 10
-90.2
 20
-18.1
  0
VERTEX
  8
型材断面
 10
-90.2
 20
-18.1
  0
VERTEX
  8
型材断面
 10
-90.2
 20
-18.1
  0
SEQEND
  0
LINE
  8
型材断面
  6
CONTINUOUS
 10
-93.965747
 20
-14.297583
 11
-93.506485
 21
-13.838298
  0
LINE
  8
型材断面
  6
CONTINUOUS
 10
-93.965747
 20
-14.297583
 11
-90.182522
 21
-15.558715
  0
LINE
  8
型材断面
  6
CONTINUOUS
 10
-90.182522
 20
-18.080973
 11
-90.182522
 21
-15.558715
  0
LINE
  8
型材断面
  6
CONTINUOUS
 10
-94.77515
 20
-18.257755
 11
-90.488698
 21
-18.257755
  0
LINE
  8
型材断面
  6
CONTINUOUS
 10
-93.856622
 20
-18.788087
 11
-89.263998
 21
-18.788087
  0
POLYLINE
  8
型材断面
  6
CONTINUOUS
 66
     1
  0
VERTEX
  8
型材断面
 10
-89.275
 20
-15.575
  0
VERTEX
  8
型材断面
 10
-89.275
 20
-15.55
  0
VERTEX
  8
型材断面
 10
-89.275
 20
-15.525
  0
VERTEX
  8
型材断面
 10
-89.275
 20
-15.525
  0
VERTEX
  8
型材断面
 10
-89.275
 20
-15.5
  0
VERTEX
  8
型材断面
 10
-89.3
 20
-15.475
  0
VERTEX
  8
型材断面
 10
-89.3
 20
-15.475
  0
VERTEX
  8
型材断面
 10
-89.3
 20
-15.45
  0
VERTEX
  8
型材断面
 10
-89.3
 20
-15.425
  0
VERTEX
  8
型材断面
 10
-89.325
 20
-15.425
  0
VERTEX
  8
型材断面
 10
-89.325
 20
-15.4
  0
VERTEX
  8
型材断面
 10
-89.325
 20
-15.375
  0
VERTEX
  8
型材断面
 10
-89.35
 20
-15.375
  0
VERTEX
  8
型材断面
 10
-89.35
 20
-15.35
  0
VERTEX
  8
型材断面
 10
-89.375
 20
-15.325
  0
VERTEX
  8
型材断面
 10
-89.375
 20
-15.325
  0
VERTEX
  8
型材断面
 10
-89.4
 20
-15.3
  0
VERTEX
  8
型材断面
 10
-89.425
 20
-15.3
  0
VERTEX
  8
型材断面
 10
-89.425
 20
-15.275
  0
VERTEX
  8
型材断面
 10
-89.45
 20
-15.25
  0
VERTEX
  8
型材断面
 10
-89.475
 20
-15.25
  0
VERTEX
  8
型材断面
 10
-89.475
 20
-15.225
  0
VERTEX
  8
型材断面
 10
-89.5
 20
-15.225
  0
VERTEX
  8
型材断面
 10
-89.525
 20
-15.2
  0
VERTEX
  8
型材断面
 10
-89.55
 20
-15.2
  0
VERTEX
  8
型材断面
 10
-89.575
 20
-15.175
  0
VERTEX
  8
型材断面
 10
-89.6
 20
-15.175
  0
VERTEX
  8
型材断面
 10
-89.6
 20
-15.15
  0
VERTEX
  8
型材断面
 10
-89.625
 20
-15.15
  0
VERTEX
  8
型材断面
 10
-89.65
 20
-15.15
  0
VERTEX
  8
型材断面
 10
-89.675
 20
-15.125
  0
VERTEX
  8
型材断面
 10
-89.7
 20
-15.125
  0
VERTEX
  8
型材断面
 10
-89.725
 20
-15.1
  0
SEQEND
  0
LINE
  8
型材断面
  6
CONTINUOUS
 10
-93.506485
 20
-13.838298
 11
-89.263998
 21
-15.252527
  0
LINE
  8
型材断面
  6
CONTINUOUS
 10
-89.263998
 20
-18.788087
 11
-89.263998
 21
-15.252527
  0
POLYLINE
  8
型材断面
  6
CONTINUOUS
 66
     1
  0
VERTEX
  8
型材断面
 10
-93.875
 20
-26.4
  0
VERTEX
  8
型材断面
 10
-93.9
 20
-26.4
  0
VERTEX
  8
型材断面
 10
-93.925
 20
-26.4
  0
VERTEX
  8
型材断面
 10
-93.95
 20
-26.4
  0
VERTEX
  8
型材断面
 10
-93.975
 20
-26.4
  0
VERTEX
  8
型材断面
 10
-94.025
 20
-26.4
  0
VERTEX
  8
型材断面
 10
-94.05
 20
-26.4
  0
VERTEX
  8
型材断面
 10
-94.075
 20
-26.4
  0
VERTEX
  8
型材断面
 10
-94.1
 20
-26.375
  0
VERTEX
  8
型材断面
 10
-94.125
 20
-26.375
  0
VERTEX
  8
型材断面
 10
-94.15
 20
-26.375
  0
VERTEX
  8
型材断面
 10
-94.175
 20
-26.375
  0
VERTEX
  8
型材断面
 10
-94.225
 20
-26.375
  0
VERTEX
  8
型材断面
 10
-94.25
 20
-26.35
  0
VERTEX
  8
型材断面
 10
-94.275
 20
-26.35
  0
VERTEX
  8
型材断面
 10
-94.3
 20
-26.35
  0
VERTEX
  8
型材断面
 10
-94.325
 20
-26.325
  0
VERTEX
  8
型材断面
 10
-94.35
 20
-26.325
  0
VERTEX
  8
型材断面
 10
-94.375
 20
-26.325
  0
VERTEX
  8
型材断面
 10
-94.4
 20
-26.3
  0
VERTEX
  8
型材断面
 10
-94.425
 20
-26.3
  0
VERTEX
  8
型材断面
 10
-94.45
 20
-26.275
  0
VERTEX
  8
型材断面
 10
-94.475
 20
-26.275
  0
VERTEX
  8
型材断面
 10
-94.475
 20
-26.275
  0
VERTEX
  8
型材断面
 10
-94.5
 20
-26.25
  0
VERTEX
  8
型材断面
 10
-94.525
 20
-26.25
  0
VERTEX
  8
型材断面
 10
-94.55
 20
-26.225
  0
VERTEX
  8
型材断面
 10
-94.575
 20
-26.225
  0
VERTEX
  8
型材断面
 10
-94.575
 20
-26.2
  0
VERTEX
  8
型材断面
 10
-94.6
 20
-26.2
  0
VERTEX
  8
型材断面
 10
-94.625
 20
-26.175
  0
VERTEX
  8
型材断面
 10
-94.65
 20
-26.15
  0
VERTEX
  8
型材断面
 10
-94.65
 20
-26.15
  0
VERTEX
  8
型材断面
 10
-94.675
 20
-26.125
  0
VERTEX
  8
型材断面
 10
-94.675
 20
-26.125
  0
VERTEX
  8
型材断面
 10
-94.7
 20
-26.1
  0
VERTEX
  8
型材断面
 10
-94.7
 20
-26.075
  0
VERTEX
  8
型材断面
 10
-94.725
 20
-26.075
  0
VERTEX
  8
型材断面
 10
-94.725
 20
-26.05
  0
VERTEX
  8
型材断面
 10
-94.75
 20
-26.05
  0
VERTEX
  8
型材断面
 10
-94.75
 20
-26.025
  0
VERTEX
  8
型材断面
 10
-94.75
 20
-26.0
  0
VERTEX
  8
型材断面
 10
-94.775
 20
-26.0
  0
VERTEX
  8
型材断面
 10
-94.775
 20
-25.975
  0
VERTEX
  8
型材断面
 10
-94.775
 20
-25.95
  0
VERTEX
  8
型材断面
 10
-94.775
 20
-25.95
  0
VERTEX
  8
型材断面
 10
-94.775
 20
-25.925
  0
VERTEX
  8
型材断面
 10
-94.775
 20
-25.9
  0
VERTEX
  8
型材断面
 10
-94.775
 20
-25.9
  0
VERTEX
  8
型材断面
 10
-94.8
 20
-25.875
  0
SEQEND
  0
LINE
  8
型材断面
  6
CONTINUOUS
 10
-94.77515
 20
-22.32365
 11
-94.77515
 21
-26.389548
  0
LINE
  8
型材断面
  6
CONTINUOUS
 10
-93.856622
 20
-22.32365
 11
-93.856622
 21
-25.859215
  0
POLYLINE
  8
型材断面
  6
CONTINUOUS
 66
     1
  0
VERTEX
  8
型材断面
 10
-89.275
 20
-26.4
  0
VERTEX
  8
型材断面
 10
-89.275
 20
-26.375
  0
VERTEX
  8
型材断面
 10
-89.275
 20
-26.375
  0
VERTEX
  8
型材断面
 10
-89.275
 20
-26.35
  0
VERTEX
  8
型材断面
 10
-89.275
 20
-26.325
  0
VERTEX
  8
型材断面
 10
-89.3
 20
-26.325
  0
VERTEX
  8
型材断面
 10
-89.3
 20
-26.3
  0
VERTEX
  8
型材断面
 10
-89.3
 20
-26.275
  0
VERTEX
  8
型材断面
 10
-89.3
 20
-26.275
  0
VERTEX
  8
型材断面
 10
-89.325
 20
-26.25
  0
VERTEX
  8
型材断面
 10
-89.325
 20
-26.225
  0
VERTEX
  8
型材断面
 10
-89.325
 20
-26.225
  0
VERTEX
  8
型材断面
 10
-89.35
 20
-26.2
  0
VERTEX
  8
型材断面
 10
-89.35
 20
-26.175
  0
VERTEX
  8
型材断面
 10
-89.375
 20
-26.175
  0
VERTEX
  8
型材断面
 10
-89.375
 20
-26.15
  0
VERTEX
  8
型材断面
 10
-89.4
 20
-26.15
  0
VERTEX
  8
型材断面
 10
-89.4
 20
-26.125
  0
VERTEX
  8
型材断面
 10
-89.425
 20
-26.125
  0
VERTEX
  8
型材断面
 10
-89.45
 20
-26.1
  0
VERTEX
  8
型材断面
 10
-89.45
 20
-26.075
  0
VERTEX
  8
型材断面
 10
-89.475
 20
-26.075
  0
VERTEX
  8
型材断面
 10
-89.5
 20
-26.05
  0
VERTEX
  8
型材断面
 10
-89.525
 20
-26.05
  0
VERTEX
  8
型材断面
 10
-89.525
 20
-26.025
  0
VERTEX
  8
型材断面
 10
-89.55
 20
-26.025
  0
VERTEX
  8
型材断面
 10
-89.575
 20
-26.0
  0
VERTEX
  8
型材断面
 10
-89.6
 20
-26.0
  0
VERTEX
  8
型材断面
 10
-89.625
 20
-25.975
  0
VERTEX
  8
型材断面
 10
-89.65
 20
-25.975
  0
VERTEX
  8
型材断面
 10
-89.675
 20
-25.975
  0
VERTEX
  8
型材断面
 10
-89.7
 20
-25.95
  0
VERTEX
  8
型材断面
 10
-89.725
 20
-25.95
  0
VERTEX
  8
型材断面
 10
-89.75
 20
-25.95
  0
VERTEX
  8
型材断面
 10
-89.775
 20
-25.925
  0
VERTEX
  8
型材断面
 10
-89.8
 20
-25.925
  0
VERTEX
  8
型材断面
 10
-89.825
 20
-25.925
  0
VERTEX
  8
型材断面
 10
-89.85
 20
-25.9
  0
VERTEX
  8
型材断面
 10
-89.875
 20
-25.9
  0
VERTEX
  8
型材断面
 10
-89.9
 20
-25.9
  0
VERTEX
  8
型材断面
 10
-89.925
 20
-25.9
  0
VERTEX
  8
型材断面
 10
-89.95
 20
-25.9
  0
VERTEX
  8
型材断面
 10
-90.0
 20
-25.875
  0
VERTEX
  8
型材断面
 10
-90.025
 20
-25.875
  0
VERTEX
  8
型材断面
 10
-90.05
 20
-25.875
  0
VERTEX
  8
型材断面
 10
-90.075
 20
-25.875
  0
VERTEX
  8
型材断面
 10
-90.1
 20
-25.875
  0
VERTEX
  8
型材断面
 10
-90.125
 20
-25.875
  0
VERTEX
  8
型材断面
 10
-90.175
 20
-25.875
  0
VERTEX
  8
型材断面
 10
-90.2
 20
-25.875
  0
SEQEND
  0
POLYLINE
  8
型材断面
  6
CONTINUOUS
 66
     1
  0
VERTEX
  8
型材断面
 10
-90.2
 20
-26.575
  0
VERTEX
  8
型材断面
 10
-90.2
 20
-26.575
  0
VERTEX
  8
型材断面
 10
-90.2
 20
-26.575
  0
VERTEX
  8
型材断面
 10
-90.2
 20
-26.55
  0
VERTEX
  8
型材断面
 10
-90.2
 20
-26.55
  0
VERTEX
  8
型材断面
 10
-90.2
 20
-26.55
  0
VERTEX
  8
型材断面
 10
-90.2
 20
-26.55
  0
VERTEX
  8
型材断面
 10
-90.2
 20
-26.55
  0
VERTEX
  8
型材断面
 10
-90.2
 20
-26.525
  0
VERTEX
  8
型材断面
 10
-90.2
 20
-26.525
  0
VERTEX
  8
型材断面
 10
-90.2
 20
-26.525
  0
VERTEX
  8
型材断面
 10
-90.225
 20
-26.525
  0
VERTEX
  8
型材断面
 10
-90.225
 20
-26.5
  0
VERTEX
  8
型材断面
 10
-90.225
 20
-26.5
  0
VERTEX
  8
型材断面
 10
-90.225
 20
-26.5
  0
VERTEX
  8
型材断面
 10
-90.225
 20
-26.5
  0
VERTEX
  8
型材断面
 10
-90.225
 20
-26.5
  0
VERTEX
  8
型材断面
 10
-90.25
 20
-26.475
  0
VERTEX
  8
型材断面
 10
-90.25
 20
-26.475
  0
VERTEX
  8
型材断面
 10
-90.25
 20
-26.475
  0
VERTEX
  8
型材断面
 10
-90.25
 20
-26.475
  0
VERTEX
  8
型材断面
 10
-90.25
 20
-26.475
  0
VERTEX
  8
型材断面
 10
-90.275
 20
-26.475
  0
VERTEX
  8
型材断面
 10
-90.275
 20
-26.45
  0
VERTEX
  8
型材断面
 10
-90.275
 20
-26.45
  0
VERTEX
  8
型材断面
 10
-90.3
 20
-26.45
  0
VERTEX
  8
型材断面
 10
-90.3
 20
-26.45
  0
VERTEX
  8
型材断面
 10
-90.3
 20
-26.45
  0
VERTEX
  8
型材断面
 10
-90.3
 20
-26.45
  0
VERTEX
  8
型材断面
 10
-90.325
 20
-26.425
  0
VERTEX
  8
型材断面
 10
-90.325
 20
-26.425
  0
VERTEX
  8
型材断面
 10
-90.325
 20
-26.425
  0
VERTEX
  8
型材断面
 10
-90.35
 20
-26.425
  0
VERTEX
  8
型材断面
 10
-90.35
 20
-26.425
  0
VERTEX
  8
型材断面
 10
-90.35
 20
-26.425
  0
VERTEX
  8
型材断面
 10
-90.375
 20
-26.425
  0
VERTEX
  8
型材断面
 10
-90.375
 20
-26.425
  0
VERTEX
  8
型材断面
 10
-90.375
 20
-26.425
  0
VERTEX
  8
型材断面
 10
-90.4
 20
-26.425
  0
VERTEX
  8
型材断面
 10
-90.4
 20
-26.4
  0
VERTEX
  8
型材断面
 10
-90.425
 20
-26.4
  0
VERTEX
  8
型材断面
 10
-90.425
 20
-26.4
  0
VERTEX
  8
型材断面
 10
-90.425
 20
-26.4
  0
VERTEX
  8
型材断面
 10
-90.45
 20
-26.4
  0
VERTEX
  8
型材断面
 10
-90.45
 20
-26.4
  0
VERTEX
  8
型材断面
 10
-90.45
 20
-26.4
  0
VERTEX
  8
型材断面
 10
-90.475
 20
-26.4
  0
VERTEX
  8
型材断面
 10
-90.475
 20
-26.4
  0
VERTEX
  8
型材断面
 10
-90.5
 20
-26.4
  0
VERTEX
  8
型材断面
 10
-90.5
 20
-26.4
  0
SEQEND
  0
LINE
  8
型材断面
  6
CONTINUOUS
 10
-93.965747
 20
-30.34972
 11
-93.506485
 21
-30.809005
  0
LINE
  8
型材断面
  6
CONTINUOUS
 10
-93.965747
 20
-30.34972
 11
-90.182522
 21
-29.088587
  0
LINE
  8
型材断面
  6
CONTINUOUS
 10
-90.182522
 20
-26.566325
 11
-90.182522
 21
-29.088587
  0
LINE
  8
型材断面
  6
CONTINUOUS
 10
-94.77515
 20
-26.389548
 11
-90.488698
 21
-26.389548
  0
LINE
  8
型材断面
  6
CONTINUOUS
 10
-93.856622
 20
-25.859215
 11
-89.263998
 21
-25.859215
  0
POLYLINE
  8
型材断面
  6
CONTINUOUS
 66
     1
  0
VERTEX
  8
型材断面
 10
-89.725
 20
-29.55
  0
VERTEX
  8
型材断面
 10
-89.7
 20
-29.55
  0
VERTEX
  8
型材断面
 10
-89.675
 20
-29.55
  0
VERTEX
  8
型材断面
 10
-89.65
 20
-29.525
  0
VERTEX
  8
型材断面
 10
-89.625
 20
-29.525
  0
VERTEX
  8
型材断面
 10
-89.6
 20
-29.5
  0
VERTEX
  8
型材断面
 10
-89.6
 20
-29.5
  0
VERTEX
  8
型材断面
 10
-89.575
 20
-29.5
  0
VERTEX
  8
型材断面
 10
-89.55
 20
-29.475
  0
VERTEX
  8
型材断面
 10
-89.525
 20
-29.475
  0
VERTEX
  8
型材断面
 10
-89.5
 20
-29.45
  0
VERTEX
  8
型材断面
 10
-89.475
 20
-29.45
  0
VERTEX
  8
型材断面
 10
-89.475
 20
-29.425
  0
VERTEX
  8
型材断面
 10
-89.45
 20
-29.4
  0
VERTEX
  8
型材断面
 10
-89.425
 20
-29.4
  0
VERTEX
  8
型材断面
 10
-89.425
 20
-29.375
  0
VERTEX
  8
型材断面
 10
-89.4
 20
-29.375
  0
VERTEX
  8
型材断面
 10
-89.375
 20
-29.35
  0
VERTEX
  8
型材断面
 10
-89.375
 20
-29.325
  0
VERTEX
  8
型材断面
 10
-89.35
 20
-29.325
  0
VERTEX
  8
型材断面
 10
-89.35
 20
-29.3
  0
VERTEX
  8
型材断面
 10
-89.325
 20
-29.3
  0
VERTEX
  8
型材断面
 10
-89.325
 20
-29.275
  0
VERTEX
  8
型材断面
 10
-89.325
 20
-29.25
  0
VERTEX
  8
型材断面
 10
-89.3
 20
-29.25
  0
VERTEX
  8
型材断面
 10
-89.3
 20
-29.225
  0
VERTEX
  8
型材断面
 10
-89.3
 20
-29.2
  0
VERTEX
  8
型材断面
 10
-89.3
 20
-29.175
  0
VERTEX
  8
型材断面
 10
-89.275
 20
-29.175
  0
VERTEX
  8
型材断面
 10
-89.275
 20
-29.15
  0
VERTEX
  8
型材断面
 10
-89.275
 20
-29.125
  0
VERTEX
  8
型材断面
 10
-89.275
 20
-29.125
  0
VERTEX
  8
型材断面
 10
-89.275
 20
-29.1
  0
SEQEND
  0
LINE
  8
型材断面
  6
CONTINUOUS
 10
-93.506485
 20
-30.809005
 11
-89.263998
 21
-29.394775
  0
LINE
  8
型材断面
  6
CONTINUOUS
 10
-89.263998
 20
-25.859215
 11
-89.263998
 21
-29.394775
  0
ENDBLK
  0
BLOCK
  2
*GRP_0061
 70
    65
 10
0.0
 20
0.0
  0
LINE
  8
ゴム等
  6
CONTINUOUS
 10
-11.364285
 20
99.739465
 11
-12.088725
 21
99.93358
  0
LINE
  8
ゴム等
  6
CONTINUOUS
 10
-12.800478
 20
97.277285
 11
-12.088725
 21
99.93358
  0
LINE
  8
ゴム等
  6
CONTINUOUS
 10
-17.035073
 20
97.894303
 11
-13.41285
 21
96.923733
  0
LINE
  8
ゴム等
  6
CONTINUOUS
 10
-12.800478
 20
97.277285
 11
-13.41285
 21
96.923733
  0
LINE
  8
ゴム等
  6
CONTINUOUS
 10
-11.364285
 20
99.739465
 11
-11.170168
 21
100.46391
  0
LINE
  8
ゴム等
  6
CONTINUOUS
 10
-11.170168
 20
100.46391
 11
-15.999798
 21
101.758005
  0
LINE
  8
ゴム等
  6
CONTINUOUS
 10
-17.035073
 20
97.894303
 11
-15.999798
 21
101.758005
  0
LINE
  8
ゴム等
  6
CONTINUOUS
 10
-11.643592
 20
100.590765
 11
-11.297023
 21
99.99049
  0
LINE
  8
ゴム等
  6
CONTINUOUS
 10
-12.326602
 20
100.773777
 11
-11.796273
 21
99.855218
  0
LINE
  8
ゴム等
  6
CONTINUOUS
 10
-13.009617
 20
100.95679
 11
-12.193378
 21
99.543017
  0
LINE
  8
ゴム等
  6
CONTINUOUS
 10
-13.692627
 20
101.1398
 11
-12.37639
 21
98.860008
  0
LINE
  8
ゴム等
  6
CONTINUOUS
 10
-14.375637
 20
101.322812
 11
-12.559403
 21
98.176997
  0
LINE
  8
ゴム等
  6
CONTINUOUS
 10
-15.058655
 20
101.505825
 11
-12.742415
 21
97.49398
  0
LINE
  8
ゴム等
  6
CONTINUOUS
 10
-15.741665
 20
101.688838
 11
-13.09611
 21
97.106603
  0
LINE
  8
ゴム等
  6
CONTINUOUS
 10
-16.113642
 20
101.333125
 11
-13.596252
 21
96.972875
  0
LINE
  8
ゴム等
  6
CONTINUOUS
 10
-16.296658
 20
100.65011
 11
-14.279267
 21
97.155888
  0
LINE
  8
ゴム等
  6
CONTINUOUS
 10
-16.47967
 20
99.967098
 11
-14.962277
 21
97.3389
  0
LINE
  8
ゴム等
  6
CONTINUOUS
 10
-16.662683
 20
99.284082
 11
-15.645292
 21
97.52191
  0
LINE
  8
ゴム等
  6
CONTINUOUS
 10
-16.845695
 20
98.601073
 11
-16.328302
 21
97.704923
  0
ENDBLK
  0
BLOCK
  2
*GRP_0062
 70
    65
 10
0.0
 20
0.0
  0
LINE
  8
ゴム等
  6
CONTINUOUS
 10
-33.140953
 20
93.904425
 11
-32.610625
 21
94.434755
  0
LINE
  8
ゴム等
  6
CONTINUOUS
 10
-30.666082
 20
92.490213
 11
-32.610625
 21
94.434755
  0
LINE
  8
ゴム等
  6
CONTINUOUS
 10
-27.307325
 20
95.141863
 11
-29.958975
 21
92.490213
  0
LINE
  8
ゴム等
  6
CONTINUOUS
 10
-30.666082
 20
92.490213
 11
-29.958975
 21
92.490213
  0
LINE
  8
ゴム等
  6
CONTINUOUS
 10
-33.140953
 20
93.904425
 11
-33.671285
 21
94.434755
  0
LINE
  8
ゴム等
  6
CONTINUOUS
 10
-33.671285
 20
94.434755
 11
-30.13575
 21
97.97029
  0
LINE
  8
ゴム等
  6
CONTINUOUS
 10
-27.307325
 20
95.141863
 11
-30.13575
 21
97.97029
  0
LINE
  8
ゴム等
  6
CONTINUOUS
 10
-33.324715
 20
94.781328
 11
-33.324715
 21
94.08819
  0
LINE
  8
ゴム等
  6
CONTINUOUS
 10
-32.824718
 20
95.281325
 11
-32.824715
 21
94.220665
  0
LINE
  8
ゴム等
  6
CONTINUOUS
 10
-32.324715
 20
95.781328
 11
-32.324712
 21
94.148842
  0
LINE
  8
ゴム等
  6
CONTINUOUS
 10
-31.824715
 20
96.281322
 11
-31.824715
 21
93.648845
  0
LINE
  8
ゴム等
  6
CONTINUOUS
 10
-31.324718
 20
96.78132
 11
-31.324715
 21
93.148848
  0
LINE
  8
ゴム等
  6
CONTINUOUS
 10
-30.824712
 20
97.281322
 11
-30.824712
 21
92.648842
  0
LINE
  8
ゴム等
  6
CONTINUOUS
 10
-30.324715
 20
97.781322
 11
-30.324715
 21
92.490213
  0
LINE
  8
ゴム等
  6
CONTINUOUS
 10
-29.824718
 20
97.659255
 11
-29.824715
 21
92.624473
  0
LINE
  8
ゴム等
  6
CONTINUOUS
 10
-29.324715
 20
97.159253
 11
-29.324715
 21
93.124473
  0
LINE
  8
ゴム等
  6
CONTINUOUS
 10
-28.824715
 20
96.659253
 11
-28.824718
 21
93.624473
  0
LINE
  8
ゴム等
  6
CONTINUOUS
 10
-28.324712
 20
96.159253
 11
-28.324712
 21
94.12447
  0
LINE
  8
ゴム等
  6
CONTINUOUS
 10
-27.824715
 20
95.659253
 11
-27.824715
 21
94.624467
  0
ENDBLK
  0
BLOCK
  2
*GRP_0063
 70
    65
 10
0.0
 20
0.0
  0
POLYLINE
  8
寸法
  6
BYBLOCK
 62
     0
 66
     1
  0
VERTEX
  8
寸法
 10
-11.226925
 20
97.9375
  0
VERTEX
  8
寸法
 10
-13.825
 20
99.4375
  0
VERTEX
  8
寸法
 10
-12.325
 20
96.839425
  0
SEQEND
  0
POLYLINE
  8
寸法
  6
BYBLOCK
 62
     0
 66
     1
  0
VERTEX
  8
寸法
 10
-13.825
 20
99.4375
  0
VERTEX
  8
寸法
 10
-8.623502
 20
94.236002
  0
VERTEX
  8
寸法
 10
-4.21006
 20
94.236002
  0
SEQEND
  0
ENDBLK
  0
BLOCK
  2
M6頭
 70
    64
 10
-180.218008
 20
149.01779
  0
POLYLINE
  8
ボルト／ビス
 66
     1
  0
VERTEX
  8
ボルト／ビス
 10
-182.718008
 20
153.347918
  0
VERTEX
  8
ボルト／ビス
 10
-177.718008
 20
153.347918
  0
VERTEX
  8
ボルト／ビス
 10
-175.218008
 20
149.01779
  0
VERTEX
  8
ボルト／ビス
 10
-177.718008
 20
144.687663
  0
VERTEX
  8
ボルト／ビス
 10
-182.718008
 20
144.687663
  0
VERTEX
  8
ボルト／ビス
 10
-185.218008
 20
149.01779
  0
VERTEX
  8
ボルト／ビス
 10
-182.718008
 20
153.347918
  0
SEQEND
  0
CIRCLE
  8
ボルト／ビス
 10
-180.218008
 20
149.01779
 40
4.330127
  0
ENDBLK
  0
ENDSEC
  0
SECTION
  2
ENTITIES
  0
POLYLINE
  8
通り芯
  6
CONTINUOUS
 66
     1
 70
     1
  0
VERTEX
  8
通り芯
 10
-210.0
 20
-148.5
  0
VERTEX
  8
通り芯
 10
210.0
 20
-148.5
  0
VERTEX
  8
通り芯
 10
210.0
 20
148.5
  0
VERTEX
  8
通り芯
 10
-210.0
 20
148.5
  0
SEQEND
  0
INSERT
  2
*GRP_0002
  8
補助線
  6
CONTINUOUS
 10
0.0
 20
0.0
  0
INSERT
  2
*GRP_0003
  8
補助線
  6
CONTINUOUS
 10
0.0
 20
0.0
  0
INSERT
  2
*GRP_0001
  8
型材断面
  6
CONTINUOUS
 10
0.0
 20
0.0
  0
INSERT
  2
M6頭
  8
型材断面
  6
CONTINUOUS
 10
-100.038998
 20
-22.32365
 50
90.0
 41
0.5
 42
0.5
  0
INSERT
  2
M6頭
  8
型材断面
  6
CONTINUOUS
 10
-100.038998
 20
15.50653
 50
270.0
 41
0.5
 42
-0.5
  0
ARC
  8
型材断面
  6
CONTINUOUS
 10
60.898869
 20
29.825461
 40
1.5
 50
45.0
 51
135.0
  0
LINE
  8
型材断面
  6
DASHDOT
 10
75.371877
 20
11.06445
 11
80.060592
 21
15.753165
  0
LINE
  8
型材断面
  6
CONTINUOUS
 10
97.744275
 20
-47.32503
 11
76.101668
 21
-25.682423
  0
LINE
  8
型材断面
  6
CONTINUOUS
 10
104.815343
 20
-40.253968
 11
83.172732
 21
-18.61136
  0
LINE
  8
型材断面
  6
DOT
 10
98.274605
 20
-46.794703
 11
76.631998
 21
-25.152095
  0
LINE
  8
型材断面
  6
DOT
 10
104.285015
 20
-40.784295
 11
82.642403
 21
-19.141687
  0
LINE
  8
型材断面
  6
CONTINUOUS
 10
97.744275
 20
40.507913
 11
76.101668
 21
18.865305
  0
LINE
  8
型材断面
  6
CONTINUOUS
 10
104.815343
 20
33.436847
 11
83.172732
 21
11.79424
  0
LINE
  8
型材断面
  6
DOT
 10
98.274605
 20
39.977583
 11
76.631998
 21
18.334975
  0
LINE
  8
型材断面
  6
DOT
 10
104.285015
 20
33.967178
 11
82.642403
 21
12.32457
  0
LINE
  8
型材断面
  6
CONTINUOUS
 10
24.05346
 20
40.507913
 11
45.696068
 21
18.865305
  0
LINE
  8
型材断面
  6
CONTINUOUS
 10
16.982393
 20
33.436847
 11
38.625005
 21
11.79424
  0
LINE
  8
型材断面
  6
DOT
 10
23.523133
 20
39.977583
 11
45.16574
 21
18.334975
  0
LINE
  8
型材断面
  6
DOT
 10
17.512723
 20
33.967178
 11
39.155333
 21
12.32457
  0
LINE
  8
型材断面
  6
CONTINUOUS
 10
24.05346
 20
-47.32503
 11
45.696068
 21
-25.682423
  0
LINE
  8
型材断面
  6
CONTINUOUS
 10
16.982393
 20
-40.253968
 11
38.625005
 21
-18.61136
  0
LINE
  8
型材断面
  6
DOT
 10
23.523133
 20
-46.794703
 11
45.16574
 21
-25.152095
  0
LINE
  8
型材断面
  6
DOT
 10
17.512723
 20
-40.784295
 11
39.155333
 21
-19.141687
  0
LINE
  8
型材断面
  6
CONTINUOUS
 10
87.148733
 20
-14.635358
 11
108.791343
 21
-36.277965
  0
LINE
  8
型材断面
  6
CONTINUOUS
 10
87.608015
 20
-14.176077
 11
109.250622
 21
-35.818685
  0
LINE
  8
型材断面
  6
CONTINUOUS
 10
88.122485
 20
-13.661607
 11
109.765092
 21
-35.304215
  0
LINE
  8
型材断面
  6
CONTINUOUS
 10
71.66639
 20
-30.117702
 11
93.308998
 21
-51.76031
  0
LINE
  8
型材断面
  6
CONTINUOUS
 10
72.12567
 20
-29.65842
 11
93.768277
 21
-51.301027
  0
LINE
  8
型材断面
  6
CONTINUOUS
 10
71.15192
 20
-30.632172
 11
92.794528
 21
-52.27478
  0
LINE
  8
型材断面
  6
CONTINUOUS
 10
88.122485
 20
-13.661607
 11
71.15192
 21
-30.632172
  0
LINE
  8
型材断面
  6
CONTINUOUS
 10
87.148733
 20
7.81824
 11
108.791343
 21
29.460848
  0
LINE
  8
型材断面
  6
CONTINUOUS
 10
87.608015
 20
7.358957
 11
109.250622
 21
29.001565
  0
LINE
  8
型材断面
  6
CONTINUOUS
 10
88.122485
 20
6.844487
 11
109.765092
 21
28.487095
  0
LINE
  8
型材断面
  6
CONTINUOUS
 10
71.66639
 20
23.300583
 11
93.308998
 21
44.94319
  0
LINE
  8
型材断面
  6
CONTINUOUS
 10
72.12567
 20
22.841302
 11
93.768277
 21
44.48391
  0
LINE
  8
型材断面
  6
CONTINUOUS
 10
71.15192
 20
23.815052
 11
92.794528
 21
45.45766
  0
LINE
  8
型材断面
  6
CONTINUOUS
 10
88.122485
 20
6.844487
 11
71.15192
 21
23.815052
  0
LINE
  8
型材断面
  6
CONTINUOUS
 10
34.649002
 20
7.81824
 11
13.006397
 21
29.460848
  0
LINE
  8
型材断面
  6
CONTINUOUS
 10
34.189723
 20
7.358957
 11
12.547115
 21
29.001565
  0
LINE
  8
型材断面
  6
CONTINUOUS
 10
33.675252
 20
6.844487
 11
12.032645
 21
28.487095
  0
LINE
  8
型材断面
  6
CONTINUOUS
 10
50.131348
 20
23.300583
 11
28.48874
 21
44.94319
  0
LINE
  8
型材断面
  6
CONTINUOUS
 10
49.672065
 20
22.841302
 11
28.029457
 21
44.48391
  0
LINE
  8
型材断面
  6
CONTINUOUS
 10
50.645817
 20
23.815052
 11
29.00321
 21
45.45766
  0
LINE
  8
型材断面
  6
CONTINUOUS
 10
33.675252
 20
6.844487
 11
50.645817
 21
23.815052
  0
LINE
  8
型材断面
  6
CONTINUOUS
 10
34.649002
 20
-14.635358
 11
13.006397
 21
-36.277965
  0
LINE
  8
型材断面
  6
CONTINUOUS
 10
34.189723
 20
-14.176077
 11
12.547115
 21
-35.818685
  0
LINE
  8
型材断面
  6
CONTINUOUS
 10
33.675252
 20
-13.661607
 11
12.032645
 21
-35.304215
  0
LINE
  8
型材断面
  6
CONTINUOUS
 10
50.131348
 20
-30.117702
 11
28.48874
 21
-51.76031
  0
LINE
  8
型材断面
  6
CONTINUOUS
 10
49.672065
 20
-29.65842
 11
28.029457
 21
-51.301027
  0
LINE
  8
型材断面
  6
CONTINUOUS
 10
50.645817
 20
-30.632172
 11
29.00321
 21
-52.27478
  0
LINE
  8
型材断面
  6
CONTINUOUS
 10
33.675252
 20
-13.661607
 11
50.645817
 21
-30.632172
  0
LINE
  8
型材断面
  6
CONTINUOUS
 10
-81.790693
 20
-22.727578
 11
-18.468837
 21
-86.049432
  0
LINE
  8
型材断面
  6
CONTINUOUS
 10
-81.790693
 20
-26.26311
 11
-20.236605
 21
-87.8172
  0
LINE
  8
型材断面
  6
CONTINUOUS
 10
-81.790693
 20
-30.855905
 11
-22.533
 21
-90.113595
  0
LINE
  8
型材断面
  6
CONTINUOUS
 10
-81.790693
 20
-33.334177
 11
-23.772138
 21
-91.352733
  0
LINE
  8
型材断面
  6
CONTINUOUS
 10
-81.790693
 20
-36.869708
 11
-25.539902
 21
-93.120497
  0
LINE
  8
型材断面
  6
CONTINUOUS
 10
-81.790693
 20
-42.526565
 11
-28.36833
 21
-95.948925
  0
LINE
  8
型材断面
  6
CONTINUOUS
 10
-82.371388
 20
-45.83496
 11
-30.312878
 21
-97.893473
  0
LINE
  8
型材断面
  6
CONTINUOUS
 10
-103.568843
 20
-30.294728
 11
-33.141488
 21
-100.722083
  0
LINE
  8
型材断面
  6
CONTINUOUS
 10
-111.94784
 20
-33.087848
 11
-38.727545
 21
-106.30814
  0
INSERT
  2
*GRP_0012
  8
型材断面
  6
CONTINUOUS
 10
0.0
 20
0.0
  0
INSERT
  2
*GRP_0013
  8
型材断面
  6
CONTINUOUS
 10
0.0
 20
0.0
  0
INSERT
  2
*GRP_0014
  8
型材断面
  6
CONTINUOUS
 10
0.0
 20
0.0
  0
INSERT
  2
*GRP_0015
  8
型材断面
  6
CONTINUOUS
 10
0.0
 20
0.0
  0
LINE
  8
型材断面
  6
DASHDOT
 10
-18.230108
 20
81.809728
 11
-27.530695
 21
116.52
  0
LINE
  8
型材断面
  6
DASHDOT
 10
-17.643435
 20
92.695905
 11
-14.466398
 21
93.54719
  0
LINE
  8
型材断面
  6
DASHDOT
 10
-24.18127
 20
90.944097
 11
-27.358307
 21
90.092813
  0
LINE
  8
型材断面
  6
CONTINUOUS
 10
-81.788998
 20
15.912153
 11
-9.571732
 21
88.129418
  0
LINE
  8
型材断面
  6
CONTINUOUS
 10
-81.788998
 20
19.447688
 11
-14.401365
 21
86.83532
  0
LINE
  8
型材断面
  6
CONTINUOUS
 10
-81.790693
 20
24.038785
 11
-15.371123
 21
90.458358
  0
LINE
  8
型材断面
  6
CONTINUOUS
 10
-81.790693
 20
26.51706
 11
-24.06062
 21
84.24713
  0
LINE
  8
型材断面
  6
CONTINUOUS
 10
-81.790693
 20
30.05259
 11
-28.88964
 21
82.953643
  0
LINE
  8
型材断面
  6
CONTINUOUS
 10
-81.790693
 20
35.709445
 11
-31.718067
 21
85.78207
  0
LINE
  8
型材断面
  6
CONTINUOUS
 10
-82.371388
 20
39.017843
 11
-30.312878
 21
91.076353
  0
LINE
  8
型材断面
  6
CONTINUOUS
 10
-103.568843
 20
23.47761
 11
-33.141493
 21
93.904962
  0
LINE
  8
型材断面
  6
CONTINUOUS
 10
-111.94784
 20
26.27073
 11
-38.727548
 21
99.491022
  0
POLYLINE
  8
型材断面
  6
CONTINUOUS
 66
     1
 70
     1
  0
VERTEX
  8
型材断面
 10
15.616408
 20
82.500247
  0
VERTEX
  8
型材断面
 10
-12.801485
 20
82.500247
  0
VERTEX
  8
型材断面
 10
-12.801485
 20
76.705228
  0
VERTEX
  8
型材断面
 10
15.616408
 20
76.705228
  0
SEQEND
  0
LINE
  8
型材断面
  6
CONTINUOUS
 10
-41.55552
 20
102.318995
 11
-105.312915
 21
38.5616
  0
LINE
  8
型材断面
  6
CONTINUOUS
 10
-41.555518
 20
-109.136113
 11
-105.312913
 21
-45.378718
  0
INSERT
  2
*GRP_0052
  8
型材断面
  6
CONTINUOUS
 10
0.0
 20
0.0
  0
INSERT
  2
*GRP_0053
  8
型材断面
  6
CONTINUOUS
 10
0.0
 20
0.0
  0
INSERT
  2
*GRP_0054
  8
型材断面
  6
CONTINUOUS
 10
0.0
 20
0.0
  0
INSERT
  2
*GRP_0055
  8
型材断面
  6
CONTINUOUS
 10
0.0
 20
0.0
  0
INSERT
  2
*GRP_0056
  8
型材断面
  6
CONTINUOUS
 10
0.0
 20
0.0
  0
LINE
  8
型材断面
  6
CONTINUOUS
 10
-118.35064
 20
15.50653
 11
-118.35064
 21
12.501303
  0
LINE
  8
型材断面
  6
CONTINUOUS
 10
-118.35064
 20
15.50653
 11
-118.35064
 21
18.511758
  0
LINE
  8
型材断面
  6
CONTINUOUS
 10
-119.269163
 20
15.50653
 11
-119.269163
 21
19.042095
  0
LINE
  8
型材断面
  6
CONTINUOUS
 10
-119.269163
 20
15.50653
 11
-119.269163
 21
11.970968
  0
LINE
  8
型材断面
  6
CONTINUOUS
 10
-119.269163
 20
16.125255
 11
-118.35064
 21
16.125255
  0
LINE
  8
型材断面
  6
CONTINUOUS
 10
-119.269163
 20
14.887808
 11
-118.35064
 21
14.887808
  0
LINE
  8
型材断面
  6
CONTINUOUS
 10
-119.039538
 20
14.887808
 11
-119.039538
 21
16.125255
  0
LINE
  8
型材断面
  6
CONTINUOUS
 10
-118.809903
 20
14.887808
 11
-118.809903
 21
16.125255
  0
LINE
  8
型材断面
  6
CONTINUOUS
 10
-118.580275
 20
14.887808
 11
-118.580275
 21
16.125255
  0
LINE
  8
型材断面
  6
CONTINUOUS
 10
-95.693675
 20
15.50653
 11
-95.693675
 21
12.501303
  0
LINE
  8
型材断面
  6
CONTINUOUS
 10
-95.693675
 20
15.50653
 11
-95.693675
 21
18.511758
  0
LINE
  8
型材断面
  6
CONTINUOUS
 10
-94.77515
 20
15.50653
 11
-94.77515
 21
19.042095
  0
LINE
  8
型材断面
  6
CONTINUOUS
 10
-118.35064
 20
18.511758
 11
-95.693675
 21
18.511758
  0
LINE
  8
型材断面
  6
CONTINUOUS
 10
-118.35064
 20
12.501303
 11
-95.693675
 21
12.501303
  0
LINE
  8
型材断面
  6
CONTINUOUS
 10
-119.269163
 20
19.042095
 11
-94.77515
 21
19.042095
  0
LINE
  8
型材断面
  6
CONTINUOUS
 10
-119.269163
 20
11.970968
 11
-94.77515
 21
11.970968
  0
LINE
  8
型材断面
  6
CONTINUOUS
 10
-96.15294
 20
12.501303
 11
-96.15294
 21
11.970968
  0
LINE
  8
型材断面
  6
CONTINUOUS
 10
-98.296167
 20
12.501303
 11
-98.296167
 21
11.970968
  0
LINE
  8
型材断面
  6
CONTINUOUS
 10
-98.296167
 20
12.368722
 11
-96.15294
 21
12.368722
  0
LINE
  8
型材断面
  6
CONTINUOUS
 10
-98.296167
 20
12.236138
 11
-96.15294
 21
12.236138
  0
LINE
  8
型材断面
  6
CONTINUOUS
 10
-98.296167
 20
12.103552
 11
-96.15294
 21
12.103552
  0
LINE
  8
型材断面
  6
CONTINUOUS
 10
-96.15294
 20
18.511758
 11
-96.15294
 21
19.042095
  0
LINE
  8
型材断面
  6
CONTINUOUS
 10
-98.296167
 20
18.511758
 11
-98.296167
 21
19.042095
  0
LINE
  8
型材断面
  6
CONTINUOUS
 10
-98.296167
 20
18.644342
 11
-96.15294
 21
18.644342
  0
LINE
  8
型材断面
  6
CONTINUOUS
 10
-98.296167
 20
18.776925
 11
-96.15294
 21
18.776925
  0
LINE
  8
型材断面
  6
CONTINUOUS
 10
-98.296167
 20
18.90951
 11
-96.15294
 21
18.90951
  0
LINE
  8
型材断面
  6
CONTINUOUS
 10
-94.77515
 20
15.50653
 11
-94.77515
 21
11.970968
  0
INSERT
  2
*GRP_0057
  8
型材断面
  6
CONTINUOUS
 10
0.0
 20
0.0
  0
INSERT
  2
*GRP_0058
  8
型材断面
  6
CONTINUOUS
 10
0.0
 20
0.0
  0
INSERT
  2
*GRP_0059
  8
型材断面
  6
CONTINUOUS
 10
0.0
 20
0.0
  0
INSERT
  2
*GRP_0060
  8
型材断面
  6
CONTINUOUS
 10
0.0
 20
0.0
  0
LINE
  8
型材断面
  6
CONTINUOUS
 10
-118.35064
 20
-22.32365
 11
-118.35064
 21
-19.318422
  0
LINE
  8
型材断面
  6
CONTINUOUS
 10
-118.35064
 20
-22.32365
 11
-118.35064
 21
-25.328877
  0
LINE
  8
型材断面
  6
CONTINUOUS
 10
-119.269163
 20
-22.32365
 11
-119.269163
 21
-25.859215
  0
LINE
  8
型材断面
  6
CONTINUOUS
 10
-119.269163
 20
-22.32365
 11
-119.269163
 21
-18.788087
  0
LINE
  8
型材断面
  6
CONTINUOUS
 10
-119.269163
 20
-22.942375
 11
-118.35064
 21
-22.942375
  0
LINE
  8
型材断面
  6
CONTINUOUS
 10
-119.269163
 20
-21.704928
 11
-118.35064
 21
-21.704928
  0
LINE
  8
型材断面
  6
CONTINUOUS
 10
-119.039538
 20
-21.704928
 11
-119.039538
 21
-22.942375
  0
LINE
  8
型材断面
  6
CONTINUOUS
 10
-118.809903
 20
-21.704928
 11
-118.809903
 21
-22.942375
  0
LINE
  8
型材断面
  6
CONTINUOUS
 10
-118.580275
 20
-21.704928
 11
-118.580275
 21
-22.942375
  0
LINE
  8
型材断面
  6
CONTINUOUS
 10
-95.693675
 20
-22.32365
 11
-95.693675
 21
-19.318422
  0
LINE
  8
型材断面
  6
CONTINUOUS
 10
-95.693675
 20
-22.32365
 11
-95.693675
 21
-25.328877
  0
LINE
  8
型材断面
  6
CONTINUOUS
 10
-94.77515
 20
-22.32365
 11
-94.77515
 21
-25.859215
  0
LINE
  8
型材断面
  6
CONTINUOUS
 10
-118.35064
 20
-25.328877
 11
-95.693675
 21
-25.328877
  0
LINE
  8
型材断面
  6
CONTINUOUS
 10
-118.35064
 20
-19.318422
 11
-95.693675
 21
-19.318422
  0
LINE
  8
型材断面
  6
CONTINUOUS
 10
-119.269163
 20
-25.859215
 11
-94.77515
 21
-25.859215
  0
LINE
  8
型材断面
  6
CONTINUOUS
 10
-119.269163
 20
-18.788087
 11
-94.77515
 21
-18.788087
  0
LINE
  8
型材断面
  6
CONTINUOUS
 10
-96.15294
 20
-19.318422
 11
-96.15294
 21
-18.788087
  0
LINE
  8
型材断面
  6
CONTINUOUS
 10
-98.296167
 20
-19.318422
 11
-98.296167
 21
-18.788087
  0
LINE
  8
型材断面
  6
CONTINUOUS
 10
-98.296167
 20
-19.185843
 11
-96.15294
 21
-19.185843
  0
LINE
  8
型材断面
  6
CONTINUOUS
 10
-98.296167
 20
-19.053258
 11
-96.15294
 21
-19.053258
  0
LINE
  8
型材断面
  6
CONTINUOUS
 10
-98.296167
 20
-18.920673
 11
-96.15294
 21
-18.920673
  0
LINE
  8
型材断面
  6
CONTINUOUS
 10
-96.15294
 20
-25.328877
 11
-96.15294
 21
-25.859215
  0
LINE
  8
型材断面
  6
CONTINUOUS
 10
-98.296167
 20
-25.328877
 11
-98.296167
 21
-25.859215
  0
LINE
  8
型材断面
  6
CONTINUOUS
 10
-98.296167
 20
-25.461463
 11
-96.15294
 21
-25.461463
  0
LINE
  8
型材断面
  6
CONTINUOUS
 10
-98.296167
 20
-25.594045
 11
-96.15294
 21
-25.594045
  0
LINE
  8
型材断面
  6
CONTINUOUS
 10
-98.296167
 20
-25.72663
 11
-96.15294
 21
-25.72663
  0
LINE
  8
型材断面
  6
CONTINUOUS
 10
-94.77515
 20
-22.32365
 11
-94.77515
 21
-18.788087
  0
LINE
  8
型材断面
  6
CONTINUOUS
 10
-14.032525
 20
111.997747
 11
-14.87369
 21
108.858488
  0
LINE
  8
型材断面
  6
CONTINUOUS
 10
-10.04406
 20
107.564393
 11
-14.87369
 21
108.858488
  0
LINE
  8
型材断面
  6
CONTINUOUS
 10
-14.87369
 20
108.858488
 11
-9.202898
 21
110.70365
  0
LINE
  8
型材断面
  6
CONTINUOUS
 10
-36.959328
 20
105.85453
 11
-34.661228
 21
103.556435
  0
LINE
  8
型材断面
  6
CONTINUOUS
 10
-38.196763
 20
100.0209
 11
-34.661228
 21
103.556435
  0
LINE
  8
型材断面
  6
CONTINUOUS
 10
-34.661228
 20
103.556435
 11
-40.49486
 21
102.318995
  0
LINE
  8
ガラス
  6
CONTINUOUS
 10
-98.064085
 20
-42.728767
 11
-36.606127
 21
-104.186723
  0
LINE
  8
ガラス
  6
CONTINUOUS
 10
-110.448618
 20
-29.990683
 11
-36.429353
 21
-104.009948
  0
LINE
  8
ガラス
  6
CONTINUOUS
 10
-95.65992
 20
-40.324605
 11
-34.201965
 21
-101.78256
  0
LINE
  8
ガラス
  6
CONTINUOUS
 10
-108.398015
 20
-27.94008
 11
-34.378745
 21
-101.95934
  0
LINE
  8
ガラス
  6
CONTINUOUS
 10
-95.958685
 20
-44.831967
 11
-110.623445
 21
-30.167208
  0
LINE
  8
ガラス
  6
CONTINUOUS
 10
-93.55452
 20
-42.427805
 11
-108.219278
 21
-27.763045
  0
LINE
  8
ガラス
  6
CONTINUOUS
 10
-108.21921
 20
-27.762978
 11
-110.623445
 21
-30.16721
  0
LINE
  8
ガラス
  6
CONTINUOUS
 10
-15.516838
 20
101.628598
 11
-14.636852
 21
104.912747
  0
LINE
  8
ガラス
  6
CONTINUOUS
 10
-4.93392
 20
102.054032
 11
-14.701558
 21
104.671265
  0
LINE
  8
ガラス
  6
CONTINUOUS
 10
-4.869215
 20
102.295515
 11
-14.636852
 21
104.912747
  0
LINE
  8
ガラス
  6
CONTINUOUS
 10
-5.7492
 20
99.011365
 11
-15.516838
 21
101.628598
  0
LINE
  8
ガラス
  6
CONTINUOUS
 10
-5.684495
 20
99.252847
 11
-15.452132
 21
101.87008
  0
LINE
  8
ガラス
  6
CONTINUOUS
 10
-30.4893
 20
97.616742
 11
-32.893465
 21
100.020905
  0
LINE
  8
ガラス
  6
CONTINUOUS
 10
-32.893465
 20
100.020905
 11
-110.093862
 21
22.820507
  0
LINE
  8
ガラス
  6
CONTINUOUS
 10
-32.716687
 20
99.844127
 11
-109.917085
 21
22.64373
  0
LINE
  8
ガラス
  6
CONTINUOUS
 10
-30.4893
 20
97.616742
 11
-107.689697
 21
20.416345
  0
LINE
  8
ガラス
  6
CONTINUOUS
 10
-30.666078
 20
97.79352
 11
-107.866475
 21
20.593123
  0
LINE
  8
ガラス
  6
CONTINUOUS
 10
-107.689697
 20
20.416345
 11
-110.093862
 21
22.820507
  0
INSERT
  2
*GRP_0061
  8
ゴム等
  6
CONTINUOUS
 10
0.0
 20
0.0
  0
INSERT
  2
*GRP_0062
  8
ゴム等
  6
CONTINUOUS
 10
0.0
 20
0.0
  0
CIRCLE
  8
ボルト／ビス
  6
CONTINUOUS
 10
85.647608
 20
-3.40856
 40
2.88675
  0
CIRCLE
  8
ボルト／ビス
  6
CONTINUOUS
 10
85.647608
 20
-3.40856
 40
3.516905
  0
CIRCLE
  8
ボルト／ビス
  6
CONTINUOUS
 10
60.898868
 20
21.34018
 40
2.88675
  0
CIRCLE
  8
ボルト／ビス
  6
CONTINUOUS
 10
60.898868
 20
21.34018
 40
3.516905
  0
CIRCLE
  8
ボルト／ビス
  6
CONTINUOUS
 10
36.150128
 20
-3.40856
 40
2.88675
  0
CIRCLE
  8
ボルト／ビス
  6
CONTINUOUS
 10
36.150128
 20
-3.40856
 40
3.516905
  0
CIRCLE
  8
ボルト／ビス
  6
CONTINUOUS
 10
60.898868
 20
-28.1573
 40
2.88675
  0
CIRCLE
  8
ボルト／ビス
  6
CONTINUOUS
 10
60.898868
 20
-28.1573
 40
3.516905
  0
INSERT
  2
*GRP_0016
  8
ボルト／ビス
  6
CONTINUOUS
 10
0.0
 20
0.0
  0
INSERT
  2
*GRP_0017
  8
ボルト／ビス
  6
CONTINUOUS
 10
0.0
 20
0.0
  0
INSERT
  2
*GRP_0018
  8
ボルト／ビス
  6
CONTINUOUS
 10
0.0
 20
0.0
  0
INSERT
  2
*GRP_0044
  8
ボルト／ビス
  6
CONTINUOUS
 10
0.0
 20
0.0
  0
INSERT
  2
*GRP_0045
  8
ボルト／ビス
  6
CONTINUOUS
 10
0.0
 20
0.0
  0
INSERT
  2
*GRP_0046
  8
ボルト／ビス
  6
CONTINUOUS
 10
0.0
 20
0.0
  0
INSERT
  2
*GRP_0047
  8
ボルト／ビス
  6
CONTINUOUS
 10
0.0
 20
0.0
  0
INSERT
  2
*GRP_0048
  8
ボルト／ビス
  6
CONTINUOUS
 10
0.0
 20
0.0
  0
INSERT
  2
*GRP_0049
  8
ボルト／ビス
  6
CONTINUOUS
 10
0.0
 20
0.0
  0
INSERT
  2
*GRP_0050
  8
ボルト／ビス
  6
CONTINUOUS
 10
0.0
 20
0.0
  0
INSERT
  2
*GRP_0051
  8
ボルト／ビス
  6
CONTINUOUS
 10
0.0
 20
0.0
  0
INSERT
  2
*GRP_0004
  8
文字
  6
CONTINUOUS
 10
0.0
 20
0.0
  0
INSERT
  2
*GRP_0005
  8
文字
  6
CONTINUOUS
 10
0.0
 20
0.0
  0
INSERT
  2
*GRP_0006
  8
文字
  6
CONTINUOUS
 10
0.0
 20
0.0
  0
INSERT
  2
*GRP_0007
  8
文字
  6
CONTINUOUS
 10
0.0
 20
0.0
  0
TEXT
  7
TextStyle03
  8
文字
  6
CONTINUOUS
 10
-11.3
 20
77.875
  1
稜線フレーム
 40
4.0
 72
     5
 11
15.2
 21
77.875
  0
TEXT
  7
TextStyle03
  8
文字
  6
CONTINUOUS
 10
-15.85
 20
8.25
  1
M6×10ｽﾀｯﾄﾞﾎﾞﾙﾄ
 40
4.0
 72
     5
 11
17.65
 21
8.25
  0
TEXT
  7
TextStyle03
  8
文字
  6
CONTINUOUS
 10
-38.325
 20
20.3
  1
M6ﾎﾞﾙﾄ．ﾅｯﾄ.ﾜｯｼｬ.Ｓﾜｯｼｬ
 40
4.0
 72
     5
 11
13.175
 21
20.3
  0
TEXT
  7
TextStyle03
  8
文字
  6
CONTINUOUS
 10
-11.025
 20
-14.575
  1
SUS-1.5t　H.L
 40
3.5
 72
     5
 11
14.425
 21
-14.575
  0
TEXT
  7
TextStyle03
  8
文字
  6
CONTINUOUS
 10
-16.375
 20
-21.4
  1
FB-50×3.0t
 40
4.0
 72
     5
 11
8.125
 21
-21.4
  0
TEXT
  7
TextStyle03
  8
文字
  6
CONTINUOUS
 10
-16.375
 20
-25.9
  1
加工組み合わせ
 40
4.0
 72
     5
 11
14.625
 21
-25.9
  0
TEXT
  7
TextStyle03
  8
文字
  6
CONTINUOUS
 10
-134.4
 20
23.05
  1
SUS-1.5t　H.L
 40
4.0
 50
90.0
 72
     5
 11
-134.4
 21
52.05
  0
TEXT
  7
TextStyle03
  8
文字
  6
CONTINUOUS
 10
-3.5
 20
91.8
  1
TKR-1204S
 40
4.0
 72
     5
 11
16.5
 21
91.8
  0
TEXT
  7
TextStyle03
  8
文字
  6
CONTINUOUS
 10
14.975
 20
100.325
  1
ＮＳコード：ＮＳ４ＣＳ　ＮＳ４ＣＫＳ
 40
5.0
 72
     5
 11
115.6
 21
100.325
  0
TEXT
  7
TextStyle03
  8
文字
  6
CONTINUOUS
 10
14.825
 20
121.7
  1
シリーズ：ＳＴＦ４・ＳＴＦ４Ｋ
 40
5.0
 72
     5
 11
98.575
 21
121.7
  0
TEXT
  7
TextStyle03
  8
文字
  6
CONTINUOUS
 10
14.825
 20
116.075
  1
　　　　　四角錘シングルガラス（上下可動・固定）600～1600タイプ
 40
5.0
 72
     5
 11
191.3875
 21
116.075
  0
TEXT
  7
TextStyle03
  8
文字
  6
CONTINUOUS
 10
14.825
 20
110.45
  1
図面名　：頂部～稜線フレーム詳細図
 40
5.0
 72
     5
 11
109.825
 21
110.45
  0
INSERT
  2
*DIM_0019
  8
寸法
  6
CONTINUOUS
 10
0.0
 20
0.0
  0
INSERT
  2
*DIM_0020
  8
寸法
  6
CONTINUOUS
 10
0.0
 20
0.0
  0
INSERT
  2
*DIM_0021
  8
寸法
  6
CONTINUOUS
 10
0.0
 20
0.0
  0
INSERT
  2
*DIM_0022
  8
寸法
  6
CONTINUOUS
 10
0.0
 20
0.0
  0
INSERT
  2
*DIM_0023
  8
寸法
  6
CONTINUOUS
 10
0.0
 20
0.0
  0
INSERT
  2
*DIM_0024
  8
寸法
  6
CONTINUOUS
 10
0.0
 20
0.0
  0
INSERT
  2
*DIM_0025
  8
寸法
  6
CONTINUOUS
 10
0.0
 20
0.0
  0
INSERT
  2
*DIM_0026
  8
寸法
  6
CONTINUOUS
 10
0.0
 20
0.0
  0
INSERT
  2
*DIM_0027
  8
寸法
  6
CONTINUOUS
 10
0.0
 20
0.0
  0
INSERT
  2
*DIM_0028
  8
寸法
  6
CONTINUOUS
 10
0.0
 20
0.0
  0
INSERT
  2
*DIM_0029
  8
寸法
  6
CONTINUOUS
 10
0.0
 20
0.0
  0
INSERT
  2
*GRP_0030
  8
寸法
  6
CONTINUOUS
 10
0.0
 20
0.0
  0
INSERT
  2
*GRP_0031
  8
寸法
  6
CONTINUOUS
 10
0.0
 20
0.0
  0
INSERT
  2
*GRP_0032
  8
寸法
  6
CONTINUOUS
 10
0.0
 20
0.0
  0
INSERT
  2
*GRP_0033
  8
寸法
  6
CONTINUOUS
 10
0.0
 20
0.0
  0
INSERT
  2
*DIM_0034
  8
寸法
  6
CONTINUOUS
 10
0.0
 20
0.0
  0
INSERT
  2
*DIM_0035
  8
寸法
  6
CONTINUOUS
 10
0.0
 20
0.0
  0
INSERT
  2
*DIM_0036
  8
寸法
  6
CONTINUOUS
 10
0.0
 20
0.0
  0
INSERT
  2
*DIM_0037
  8
寸法
  6
CONTINUOUS
 10
0.0
 20
0.0
  0
INSERT
  2
*GRP_0038
  8
寸法
  6
CONTINUOUS
 10
0.0
 20
0.0
  0
INSERT
  2
*DIM_0039
  8
寸法
  6
CONTINUOUS
 10
0.0
 20
0.0
  0
INSERT
  2
*DIM_0040
  8
寸法
  6
CONTINUOUS
 10
0.0
 20
0.0
  0
INSERT
  2
*DIM_0041
  8
寸法
  6
CONTINUOUS
 10
0.0
 20
0.0
  0
INSERT
  2
*DIM_0042
  8
寸法
  6
CONTINUOUS
 10
0.0
 20
0.0
  0
INSERT
  2
*DIM_0043
  8
寸法
  6
CONTINUOUS
 10
0.0
 20
0.0
  0
INSERT
  2
*GRP_0063
  8
寸法
  6
CONTINUOUS
 10
0.0
 20
0.0
  0
LINE
  8
曲げ物
  6
CONTINUOUS
 10
-86.788998
 20
-44.774308
 11
-82.538998
 21
-44.774308
  0
LINE
  8
曲げ物
  6
CONTINUOUS
 10
-86.788998
 20
-45.834965
 11
-81.788998
 21
-45.834965
  0
LINE
  8
曲げ物
  6
CONTINUOUS
 10
-86.788998
 20
-45.834965
 11
-86.788998
 21
-38.763897
  0
LINE
  8
曲げ物
  6
CONTINUOUS
 10
-81.788998
 20
-45.834965
 11
-81.788998
 21
-3.40856
  0
LINE
  8
曲げ物
  6
CONTINUOUS
 10
-82.538998
 20
-44.774308
 11
-82.538998
 21
-3.40856
  0
LINE
  8
曲げ物
  6
DOT
 10
-86.788998
 20
-38.763897
 11
-86.788998
 21
-3.40856
  0
LINE
  8
曲げ物
  6
CONTINUOUS
 10
-86.788998
 20
37.957187
 11
-82.538998
 21
37.957187
  0
LINE
  8
曲げ物
  6
CONTINUOUS
 10
-86.788998
 20
39.017845
 11
-81.788998
 21
39.017845
  0
LINE
  8
曲げ物
  6
CONTINUOUS
 10
-86.788998
 20
39.017845
 11
-86.788998
 21
31.946777
  0
LINE
  8
曲げ物
  6
CONTINUOUS
 10
-81.788998
 20
39.017845
 11
-81.788998
 21
-3.40856
  0
LINE
  8
曲げ物
  6
CONTINUOUS
 10
-82.538998
 20
37.957187
 11
-82.538998
 21
-3.40856
  0
LINE
  8
曲げ物
  6
DOT
 10
-86.788998
 20
31.946777
 11
-86.788998
 21
-3.40856
  0
LINE
  8
曲げ物
  6
CONTINUOUS
 10
-81.788998
 20
-3.40856
 11
-107.538998
 21
-3.40856
  0
LINE
  8
曲げ物
  6
CONTINUOUS
 10
-107.538998
 20
-25.4639
 11
-94.238998
 21
-38.763897
  0
LINE
  8
曲げ物
  6
CONTINUOUS
 10
-82.538998
 20
-38.763897
 11
-94.238998
 21
-38.763897
  0
LINE
  8
曲げ物
  6
CONTINUOUS
 10
-82.538998
 20
-36.642575
 11
-96.36032
 21
-36.642575
  0
LINE
  8
曲げ物
  6
CONTINUOUS
 10
-107.538998
 20
18.64678
 11
-94.238998
 21
31.946777
  0
LINE
  8
曲げ物
  6
CONTINUOUS
 10
-107.538998
 20
-25.4639
 11
-107.538998
 21
18.64678
  0
LINE
  8
曲げ物
  6
CONTINUOUS
 10
-82.538998
 20
29.825455
 11
-96.36032
 21
29.825455
  0
LINE
  8
曲げ物
  6
CONTINUOUS
 10
-82.538998
 20
31.946777
 11
-94.238998
 21
31.946777
  0
LINE
  8
曲げ物
  6
DOT
 10
-82.538998
 20
-36.392573
 11
-83.288998
 21
-36.392573
  0
LINE
  8
曲げ物
  6
DOT
 10
-83.288998
 20
-36.392573
 11
-83.288998
 21
29.575455
  0
LINE
  8
曲げ物
  6
DOT
 10
-82.538998
 20
29.575455
 11
-83.288998
 21
29.575455
  0
LINE
  8
曲げ物
  6
CONTINUOUS
 10
60.898868
 20
-36.642583
 11
27.66485
 21
-3.40856
  0
LINE
  8
曲げ物
  6
CONTINUOUS
 10
60.898868
 20
29.82546
 11
94.13289
 21
-3.40856
  0
LINE
  8
曲げ物
  6
CONTINUOUS
 10
60.898868
 20
-36.642583
 11
95.193548
 21
-2.347897
  0
LINE
  8
曲げ物
  6
CONTINUOUS
 10
60.898868
 20
29.82546
 11
26.604188
 21
-4.46922
  0
ARC
  8
曲げ物
  6
CONTINUOUS
 10
60.898869
 20
-36.642577
 40
1.5
 50
225.0
 51
315.0
  0
ARC
  8
曲げ物
  6
CONTINUOUS
 10
60.898869
 20
29.825461
 40
1.5
 50
45.0
 51
135.0
  0
LINE
  8
曲げ物
  6
CONTINUOUS
 10
61.95953
 20
30.88612
 11
95.547103
 21
-2.701452
  0
ARC
  8
曲げ物
  6
CONTINUOUS
 10
94.839994
 20
-3.408558
 40
1.0
 50
315.0
 51
405.0
  0
LINE
  8
曲げ物
  6
CONTINUOUS
 10
26.250635
 20
-2.701452
 11
59.83821
 21
30.88612
  0
ARC
  8
曲げ物
  6
CONTINUOUS
 10
26.957743
 20
-3.408558
 40
1.0
 50
135.0
 51
225.0
  0
LINE
  8
曲げ物
  6
CONTINUOUS
 10
103.325278
 20
-3.40856
 11
102.264615
 21
-3.40856
  0
LINE
  8
曲げ物
  6
CONTINUOUS
 10
60.898868
 20
37.957187
 11
60.898868
 21
39.017845
  0
LINE
  8
曲げ物
  6
CONTINUOUS
 10
19.53312
 20
-3.40856
 11
18.472463
 21
-3.40856
  0
LINE
  8
曲げ物
  6
CONTINUOUS
 10
60.898868
 20
-45.834968
 11
60.898868
 21
-44.774308
  0
LINE
  8
曲げ物
  6
CONTINUOUS
 10
26.250635
 20
-4.115668
 11
60.898868
 21
-38.7639
  0
LINE
  8
曲げ物
  6
CONTINUOUS
 10
95.547103
 20
-4.115668
 11
60.898868
 21
-38.7639
  0
LINE
  8
曲げ物
  6
CONTINUOUS
 10
47.59887
 20
-25.4639
 11
48.659527
 21
-24.403243
  0
LINE
  8
曲げ物
  6
CONTINUOUS
 10
74.19887
 20
-25.4639
 11
73.138207
 21
-24.403243
  0
INSERT
  2
*HAT_0001
  8
曲げ物
 10
0.0
 20
0.0
  0
ARC
  8
曲げ物
  6
CONTINUOUS
 10
94.132888
 20
-3.408558
 40
1.5
 50
315.0
 51
405.0
  0
LINE
  8
曲げ物
  6
CONTINUOUS
 10
82.954212
 20
9.891438
 11
81.89355
 21
8.83078
  0
LINE
  8
曲げ物
  6
CONTINUOUS
 10
82.954212
 20
-16.70856
 11
81.89355
 21
-15.6479
  0
INSERT
  2
*HAT_0002
  8
曲げ物
 10
0.0
 20
0.0
  0
LINE
  8
曲げ物
  6
CONTINUOUS
 10
74.19887
 20
18.64678
 11
73.138207
 21
17.58612
  0
LINE
  8
曲げ物
  6
CONTINUOUS
 10
47.59887
 20
18.64678
 11
48.659527
 21
17.58612
  0
INSERT
  2
*HAT_0003
  8
曲げ物
 10
0.0
 20
0.0
  0
ARC
  8
曲げ物
  6
CONTINUOUS
 10
27.66485
 20
-3.408558
 40
1.5
 50
135.0
 51
225.0
  0
LINE
  8
曲げ物
  6
CONTINUOUS
 10
38.843527
 20
-16.70856
 11
39.90419
 21
-15.6479
  0
LINE
  8
曲げ物
  6
CONTINUOUS
 10
38.843527
 20
9.891438
 11
39.90419
 21
8.83078
  0
INSERT
  2
*HAT_0004
  8
曲げ物
 10
0.0
 20
0.0
  0
LINE
  8
曲げ物
  6
CONTINUOUS
 10
27.87698
 20
-3.40856
 11
60.898868
 21
-36.430447
  0
LINE
  8
曲げ物
  6
CONTINUOUS
 10
60.898868
 20
-36.430447
 11
93.920758
 21
-3.40856
  0
LINE
  8
曲げ物
  6
CONTINUOUS
 10
27.87698
 20
-3.40856
 11
60.898868
 21
29.61333
  0
LINE
  8
曲げ物
  6
CONTINUOUS
 10
93.920758
 20
-3.40856
 11
60.898868
 21
29.61333
  0
LINE
  8
曲げ物
  6
CONTINUOUS
 10
19.53312
 20
-3.40856
 11
31.730708
 21
8.789033
  0
LINE
  8
曲げ物
  6
CONTINUOUS
 10
18.472463
 20
-3.40856
 11
31.200382
 21
9.31936
  0
LINE
  8
曲げ物
  6
CONTINUOUS
 10
60.898868
 20
37.957187
 11
48.701273
 21
25.759598
  0
LINE
  8
曲げ物
  6
CONTINUOUS
 10
60.898868
 20
39.017845
 11
48.170945
 21
26.289925
  0
LINE
  8
曲げ物
  6
CONTINUOUS
 10
19.53312
 20
-3.40856
 11
31.730708
 21
-15.606148
  0
LINE
  8
曲げ物
  6
CONTINUOUS
 10
48.701277
 20
-32.576715
 11
60.898868
 21
-44.774308
  0
LINE
  8
曲げ物
  6
CONTINUOUS
 10
18.472463
 20
-3.40856
 11
31.20038
 21
-16.13648
  0
LINE
  8
曲げ物
  6
CONTINUOUS
 10
48.170945
 20
-33.107045
 11
60.898868
 21
-45.834968
  0
LINE
  8
曲げ物
  6
CONTINUOUS
 10
103.325278
 20
-3.40856
 11
90.597358
 21
-16.13648
  0
LINE
  8
曲げ物
  6
CONTINUOUS
 10
73.626793
 20
-33.107045
 11
60.898868
 21
-45.834968
  0
LINE
  8
曲げ物
  6
CONTINUOUS
 10
102.264615
 20
-3.40856
 11
90.067025
 21
-15.606148
  0
LINE
  8
曲げ物
  6
CONTINUOUS
 10
73.096463
 20
-32.576715
 11
60.898868
 21
-44.774308
  0
LINE
  8
曲げ物
  6
CONTINUOUS
 10
102.264615
 20
-3.40856
 11
90.067025
 21
8.789033
  0
LINE
  8
曲げ物
  6
CONTINUOUS
 10
73.09646
 20
25.759598
 11
60.898868
 21
37.957187
  0
LINE
  8
曲げ物
  6
CONTINUOUS
 10
103.325278
 20
-3.40856
 11
90.597358
 21
9.31936
  0
LINE
  8
曲げ物
  6
CONTINUOUS
 10
73.626793
 20
26.289925
 11
60.898868
 21
39.017845
  0
LINE
  8
曲げ物
  6
DOT
 10
79.813977
 20
13.031673
 11
78.753315
 21
11.971012
  0
LINE
  8
曲げ物
  6
DOT
 10
77.3391
 20
15.50655
 11
76.278442
 21
14.445888
  0
LINE
  8
曲げ物
  6
DOT
 10
77.073937
 20
15.241382
 11
79.54881
 21
12.766508
  0
LINE
  8
曲げ物
  6
DOT
 10
76.808772
 20
14.976217
 11
79.283648
 21
12.501345
  0
LINE
  8
曲げ物
  6
DOT
 10
76.543605
 20
14.711055
 11
79.018483
 21
12.236177
  0
LINE
  8
曲げ物
  6
DOT
 10
41.983757
 20
13.031673
 11
43.04442
 21
11.971012
  0
LINE
  8
曲げ物
  6
DOT
 10
44.458635
 20
15.50655
 11
45.519292
 21
14.445888
  0
LINE
  8
曲げ物
  6
DOT
 10
44.723798
 20
15.241382
 11
42.248925
 21
12.766508
  0
LINE
  8
曲げ物
  6
DOT
 10
44.988962
 20
14.976217
 11
42.514087
 21
12.501345
  0
LINE
  8
曲げ物
  6
DOT
 10
45.25413
 20
14.711055
 11
42.779253
 21
12.236177
  0
LINE
  8
曲げ物
  6
DOT
 10
41.983757
 20
-19.848793
 11
43.04442
 21
-18.788133
  0
LINE
  8
曲げ物
  6
DOT
 10
44.458635
 20
-22.32367
 11
45.519292
 21
-21.263008
  0
LINE
  8
曲げ物
  6
DOT
 10
44.723798
 20
-22.058503
 11
42.248925
 21
-19.583627
  0
LINE
  8
曲げ物
  6
DOT
 10
44.988962
 20
-21.793337
 11
42.514087
 21
-19.318465
  0
LINE
  8
曲げ物
  6
DOT
 10
45.25413
 20
-21.528175
 11
42.779253
 21
-19.053298
  0
LINE
  8
曲げ物
  6
DOT
 10
79.813977
 20
-19.848793
 11
78.753315
 21
-18.788133
  0
LINE
  8
曲げ物
  6
DOT
 10
77.3391
 20
-22.32367
 11
76.278442
 21
-21.263008
  0
LINE
  8
曲げ物
  6
DOT
 10
77.073937
 20
-22.058503
 11
79.54881
 21
-19.583627
  0
LINE
  8
曲げ物
  6
DOT
 10
76.808772
 20
-21.793337
 11
79.283648
 21
-19.318465
  0
LINE
  8
曲げ物
  6
DOT
 10
76.543605
 20
-21.528175
 11
79.018483
 21
-19.053298
  0
LINE
  8
St
  6
CONTINUOUS
 10
-97.092753
 20
47.841443
 11
-96.562422
 21
47.311112
  0
ARC
  8
St
  6
CONTINUOUS
 10
26.60419
 20
-4.469218
 40
0.186892
 50
45.0
 51
45.0
  0
ARC
  8
St
  6
CONTINUOUS
 10
26.60419
 20
-4.469218
 40
0.186892
 50
135.0
 51
315.0
  0
ARC
  8
St
  6
CONTINUOUS
 10
26.60419
 20
-4.469218
 40
0.320455
 50
45.0
 51
45.0
  0
ARC
  8
St
  6
CONTINUOUS
 10
26.60419
 20
-4.469218
 40
0.320455
 50
135.0
 51
315.0
  0
ARC
  8
St
  6
CONTINUOUS
 10
95.193548
 20
-2.347898
 40
0.186892
 50
225.0
 51
225.0
  0
ARC
  8
St
  6
CONTINUOUS
 10
95.193548
 20
-2.347898
 40
0.186892
 50
315.0
 51
495.0
  0
ARC
  8
St
  6
CONTINUOUS
 10
95.193548
 20
-2.347898
 40
0.320455
 50
225.0
 51
225.0
  0
ARC
  8
St
  6
CONTINUOUS
 10
95.193548
 20
-2.347898
 40
0.320455
 50
315.0
 51
495.0
  0
LINE
  8
St
  6
CONTINUOUS
 10
76.101668
 20
-25.682423
 11
75.041007
 21
-24.621763
  0
LINE
  8
St
  6
CONTINUOUS
 10
83.172732
 20
-18.61136
 11
82.112073
 21
-17.5507
  0
LINE
  8
St
  6
CONTINUOUS
 10
45.696068
 20
-25.682423
 11
46.756727
 21
-24.621763
  0
LINE
  8
St
  6
CONTINUOUS
 10
38.625002
 20
-18.61136
 11
39.685663
 21
-17.5507
  0
LINE
  8
St
  6
CONTINUOUS
 10
45.696068
 20
18.865302
 11
46.756727
 21
17.804643
  0
LINE
  8
St
  6
CONTINUOUS
 10
38.625002
 20
11.79424
 11
39.685663
 21
10.73358
  0
LINE
  8
St
  6
CONTINUOUS
 10
76.101668
 20
18.865302
 11
75.041007
 21
17.804643
  0
LINE
  8
St
  6
CONTINUOUS
 10
83.172732
 20
11.79424
 11
82.112073
 21
10.73358
  0
LINE
  8
St
  6
CONTINUOUS
 10
103.39887
 20
-45.90856
 11
18.39887
 21
-45.90856
  0
LINE
  8
St
  6
CONTINUOUS
 10
18.39887
 20
-45.90856
 11
18.39887
 21
39.09144
  0
LINE
  8
St
  6
CONTINUOUS
 10
18.39887
 20
39.09144
 11
103.39887
 21
39.09144
  0
LINE
  8
St
  6
CONTINUOUS
 10
103.39887
 20
-45.90856
 11
103.39887
 21
39.09144
  0
LINE
  8
St
  6
CONTINUOUS
 10
103.39887
 20
39.09144
 11
18.39887
 21
-45.90856
  0
LINE
  8
St
  6
CONTINUOUS
 10
18.39887
 20
39.09144
 11
103.39887
 21
-45.90856
  0
LINE
  8
St
  6
CONTINUOUS
 10
-113.184177
 20
31.750017
 11
-112.654338
 21
31.220177
  0
LINE
  8
St
  6
CONTINUOUS
 10
-148.342753
 20
-3.40856
 11
-105.842755
 21
39.09144
  0
LINE
  8
St
  6
CONTINUOUS
 10
-105.842755
 20
-3.40856
 11
-105.842755
 21
39.09144
  0
LINE
  8
St
  6
CONTINUOUS
 10
-105.842755
 20
39.09144
 11
-105.312915
 21
38.5616
  0
LINE
  8
St
  6
CONTINUOUS
 10
-105.312915
 20
-3.40856
 11
-105.312915
 21
38.5616
  0
LINE
  8
St
  6
CONTINUOUS
 10
-147.283075
 20
-3.40856
 11
-105.312915
 21
38.5616
  0
LINE
  8
St
  6
CONTINUOUS
 10
-105.842755
 20
-3.40856
 11
-105.842755
 21
-45.90856
  0
LINE
  8
St
  6
CONTINUOUS
 10
-105.842755
 20
-45.90856
 11
-105.312915
 21
-45.37872
  0
LINE
  8
St
  6
CONTINUOUS
 10
-105.312915
 20
-3.40856
 11
-105.312915
 21
-45.37872
  0
LINE
  8
St
  6
CONTINUOUS
 10
-148.342753
 20
-3.40856
 11
-105.842753
 21
-45.908558
  0
LINE
  8
St
  6
CONTINUOUS
 10
-147.283075
 20
-3.40856
 11
-105.312913
 21
-45.378718
  0
ARC
  8
St
  6
CONTINUOUS
 10
77.59596
 20
17.371011
 40
0.209479
 50
45.000083
 51
135.0
  0
ARC
  8
St
  6
CONTINUOUS
 10
77.59596
 20
17.371011
 40
0.352133
 50
45.000083
 51
135.0
  0
ARC
  8
St
  6
CONTINUOUS
 10
81.678441
 20
13.288532
 40
0.209479
 50
315.000018
 51
404.999935
  0
ARC
  8
St
  6
CONTINUOUS
 10
81.678441
 20
13.288532
 40
0.352133
 50
315.000018
 51
404.999935
  0
LINE
  8
St
  6
DOT
 10
78.399762
 20
16.56721
 11
77.339103
 21
15.506547
  0
LINE
  8
St
  6
DOT
 10
80.874638
 20
14.092335
 11
79.813977
 21
13.031673
  0
LINE
  8
St
  6
DOT
 10
78.134598
 20
16.302045
 11
80.609473
 21
13.82717
  0
LINE
  8
St
  6
DOT
 10
77.869433
 20
16.036878
 11
80.344307
 21
13.562003
  0
LINE
  8
St
  6
DOT
 10
77.604268
 20
15.771712
 11
80.079142
 21
13.296838
  0
ARC
  8
St
  6
CONTINUOUS
 10
44.201775
 20
17.371011
 40
0.209479
 50
45.0
 51
134.999917
  0
ARC
  8
St
  6
CONTINUOUS
 10
44.201775
 20
17.371011
 40
0.352133
 50
45.0
 51
134.999917
  0
ARC
  8
St
  6
CONTINUOUS
 10
40.119294
 20
13.288532
 40
0.209479
 50
135.000065
 51
224.999982
  0
ARC
  8
St
  6
CONTINUOUS
 10
40.119294
 20
13.288532
 40
0.352133
 50
135.000065
 51
224.999982
  0
LINE
  8
St
  6
DOT
 10
43.397972
 20
16.56721
 11
44.458633
 21
15.506547
  0
LINE
  8
St
  6
DOT
 10
40.923098
 20
14.092335
 11
41.983757
 21
13.031673
  0
LINE
  8
St
  6
DOT
 10
43.663138
 20
16.302045
 11
41.188263
 21
13.82717
  0
LINE
  8
St
  6
DOT
 10
43.928303
 20
16.036878
 11
41.453427
 21
13.562003
  0
LINE
  8
St
  6
DOT
 10
44.193468
 20
15.771712
 11
41.718592
 21
13.296838
  0
ARC
  8
St
  6
CONTINUOUS
 10
44.201775
 20
-24.188131
 40
0.209479
 50
225.000083
 51
315.0
  0
ARC
  8
St
  6
CONTINUOUS
 10
44.201775
 20
-24.188131
 40
0.352133
 50
225.000083
 51
315.0
  0
ARC
  8
St
  6
CONTINUOUS
 10
40.119294
 20
-20.105652
 40
0.209479
 50
135.000018
 51
224.999935
  0
ARC
  8
St
  6
CONTINUOUS
 10
40.119294
 20
-20.105652
 40
0.352133
 50
135.000018
 51
224.999935
  0
LINE
  8
St
  6
DOT
 10
43.397972
 20
-23.38433
 11
44.458633
 21
-22.323668
  0
LINE
  8
St
  6
DOT
 10
40.923098
 20
-20.909455
 11
41.983757
 21
-19.848793
  0
LINE
  8
St
  6
DOT
 10
43.663138
 20
-23.119165
 11
41.188263
 21
-20.64429
  0
LINE
  8
St
  6
DOT
 10
43.928303
 20
-22.853997
 11
41.453427
 21
-20.379122
  0
LINE
  8
St
  6
DOT
 10
44.193468
 20
-22.588832
 11
41.718592
 21
-20.113958
  0
ARC
  8
St
  6
CONTINUOUS
 10
77.59596
 20
-24.188131
 40
0.209479
 50
225.0
 51
314.999917
  0
ARC
  8
St
  6
CONTINUOUS
 10
77.59596
 20
-24.188131
 40
0.352133
 50
225.0
 51
314.999917
  0
ARC
  8
St
  6
CONTINUOUS
 10
81.678441
 20
-20.105652
 40
0.209479
 50
315.000065
 51
404.999982
  0
ARC
  8
St
  6
CONTINUOUS
 10
81.678441
 20
-20.105652
 40
0.352133
 50
315.000065
 51
404.999982
  0
LINE
  8
St
  6
DOT
 10
78.399762
 20
-23.38433
 11
77.339103
 21
-22.323668
  0
LINE
  8
St
  6
DOT
 10
80.874638
 20
-20.909455
 11
79.813977
 21
-19.848793
  0
LINE
  8
St
  6
DOT
 10
78.134598
 20
-23.119165
 11
80.609473
 21
-20.64429
  0
LINE
  8
St
  6
DOT
 10
77.869433
 20
-22.853997
 11
80.344307
 21
-20.379122
  0
LINE
  8
St
  6
DOT
 10
77.604268
 20
-22.588832
 11
80.079142
 21
-20.113958
  0
LINE
  8
その他部品等
  6
CONTINUOUS
 10
-29.534707
 20
114.339807
 11
-24.70508
 21
115.633905
  0
LINE
  8
その他部品等
  6
CONTINUOUS
 10
-28.711783
 20
111.268615
 11
-23.882155
 21
112.562713
  0
LINE
  8
その他部品等
  6
CONTINUOUS
 10
-28.180025
 20
109.284065
 11
-23.882155
 21
112.562713
  0
INSERT
  2
*HAT_0005
  8
その他部品等
 10
0.0
 20
0.0
  0
LINE
  8
その他部品等
  6
CONTINUOUS
 10
-9.319615
 20
107.37028
 11
-10.290185
 21
103.74806
  0
LINE
  8
その他部品等
  6
CONTINUOUS
 10
-13.666283
 20
108.534965
 11
-14.636852
 21
104.912745
  0
LINE
  8
その他部品等
  6
CONTINUOUS
 10
-12.54236
 20
108.23381
 11
-13.51293
 21
104.61159
  0
LINE
  8
その他部品等
  6
CONTINUOUS
 10
-14.636852
 20
104.912747
 11
-12.54236
 21
108.23381
  0
INSERT
  2
*HAT_0006
  8
その他部品等
 10
0.0
 20
0.0
  0
LINE
  8
その他部品等
  6
CONTINUOUS
 10
-38.727095
 20
99.49057
 11
-36.075447
 21
96.838923
  0
LINE
  8
その他部品等
  6
CONTINUOUS
 10
-35.545112
 20
102.672552
 11
-32.893465
 21
100.020903
  0
LINE
  8
その他部品等
  6
CONTINUOUS
 10
-36.36788
 20
101.849783
 11
-33.716233
 21
99.198133
  0
LINE
  8
その他部品等
  6
CONTINUOUS
 10
-32.893465
 20
100.020905
 11
-36.36788
 21
101.849783
  0
INSERT
  2
*HAT_0007
  8
その他部品等
 10
0.0
 20
0.0
  0
ENDSEC
  0
EOF
