  0
SECTION
  2
HEADER
  9
$EXTMIN
 10
-210.0
 20
-148.5
  9
$EXTMAX
 10
210.0
 20
148.5
  9
$PDMODE
 70
    32
  9
$PDSIZE
 40
1.5
  9
$LTSCALE
 40
10.0
  0
ENDSEC
  0
SECTION
  2
TABLES
  0
TABLE
  2
LTYPE
 70
    15
  0
LTYPE
  2
CONTINUOUS
 70
    64
  3
実線
 72
    65
 73
     0
 40
0.0
  0
LTYPE
  2
DASHED
 70
    64
  3
破線A
 72
    65
 73
     2
 40
0.6
 49
0.4
 49
-0.2
  0
LTYPE
  2
DASHEDX2
 70
    64
  3
破線B
 72
    65
 73
     2
 40
1.3
 49
0.9
 49
-0.4
  0
LTYPE
  2
DASHDOT
 70
    64
  3
１点鎖線A
 72
    65
 73
     4
 40
0.5375
 49
0.375
 49
-0.05
 49
0.0625
 49
-0.05
  0
LTYPE
  2
DASHDOTX2
 70
    64
  3
１点鎖線B
 72
    65
 73
     4
 40
1.075
 49
0.75
 49
-0.1
 49
0.125
 49
-0.1
  0
LTYPE
  2
DIVIDE2
 70
    64
  3
２点鎖線A
 72
    65
 73
     6
 40
0.5125
 49
0.3
 49
-0.0375
 49
0.05
 49
-0.0375
 49
0.05
 49
-0.0375
  0
LTYPE
  2
DIVIDE
 70
    64
  3
２点鎖線B
 72
    65
 73
     6
 40
1.05
 49
0.55
 49
-0.1
 49
0.1
 49
-0.1
 49
0.1
 49
-0.1
  0
LTYPE
  2
DOT
 70
    64
  3
点線A
 72
    65
 73
     2
 40
0.1125
 49
0.0625
 49
-0.05
  0
LTYPE
  2
DOTX2
 70
    64
  3
点線B
 72
    65
 73
     2
 40
0.275
 49
0.15
 49
-0.125
  0
LTYPE
  2
CONTINUOUS
 70
    64
  3
実線
 72
    65
 73
     0
 40
0.0
  0
LTYPE
  2
CONTINUOUS
 70
    64
  3
実線
 72
    65
 73
     0
 40
0.0
  0
LTYPE
  2
CONTINUOUS
 70
    64
  3
実線
 72
    65
 73
     0
 40
0.0
  0
LTYPE
  2
CONTINUOUS
 70
    64
  3
実線
 72
    65
 73
     0
 40
0.0
  0
LTYPE
  2
CONTINUOUS
 70
    64
  3
実線
 72
    65
 73
     0
 40
0.0
  0
LTYPE
  2
CONTINUOUS
 70
    64
  3
実線
 72
    65
 73
     0
 40
0.0
  0
ENDTAB
  0
TABLE
  2
LAYER
 70
    34
  0
LAYER
  2
通り芯
 70
     0
 62
    15
  6
CONTINUOUS
  0
LAYER
  2
補助線
 70
     0
 62
    16
  6
DOT
  0
LAYER
  2
躯体
 70
     0
 62
    31
  6
CONTINUOUS
  0
LAYER
  2
型材
 70
     0
 62
    32
  6
CONTINUOUS
  0
LAYER
  2
型材断面
 70
     0
 62
    47
  6
CONTINUOUS
  0
LAYER
  2
ガラス
 70
     0
 62
    48
  6
CONTINUOUS
  0
LAYER
  2
ゴム等
 70
     0
 62
    63
  6
CONTINUOUS
  0
LAYER
  2
ボルト／ビス
 70
     0
 62
    64
  6
CONTINUOUS
  0
LAYER
  2
文字
 70
     0
 62
    79
  6
CONTINUOUS
  0
LAYER
  2
寸法
 70
     0
 62
    80
  6
CONTINUOUS
  0
LAYER
  2
ﾊｯﾁﾝｸﾞ
 70
     0
 62
    95
  6
CONTINUOUS
  0
LAYER
  2
別途部材
 70
     0
 62
    96
  6
CONTINUOUS
  0
LAYER
  2
曲げ物
 70
     0
 62
   111
  6
CONTINUOUS
  0
LAYER
  2
鉄骨等
 70
     0
 62
   112
  6
CONTINUOUS
  0
LAYER
  2
St
 70
     0
 62
   127
  6
CONTINUOUS
  0
LAYER
  2
その他部品等
 70
     0
 62
   128
  6
CONTINUOUS
  0
LAYER
  2
ｶﾞｽｹｯﾄ
 70
     0
 62
   143
  6
CONTINUOUS
  0
LAYER
  2
ｽｹｯﾁ
 70
     0
 62
    14
  6
CONTINUOUS
  0
LAYER
  2
0
 70
     0
 62
    17
  6
CONTINUOUS
  0
LAYER
  2
1
 70
     0
 62
    30
  6
CONTINUOUS
  0
LAYER
  2
4
 70
     0
 62
    33
  6
CONTINUOUS
  0
LAYER
  2
ﾚｲﾔ3
 70
     0
 62
    46
  6
CONTINUOUS
  0
LAYER
  2
外形線
 70
     0
 62
    49
  6
CONTINUOUS
  0
LAYER
  2
部品
 70
     0
 62
    14
  6
CONTINUOUS
  0
LAYER
  2
サッシ芯
 70
     0
 62
    17
  6
DASHDOTX2
  0
LAYER
  2
寸法線
 70
     0
 62
    62
  6
CONTINUOUS
  0
LAYER
  2
姿図外形線
 70
     0
 62
    65
  6
CONTINUOUS
  0
LAYER
  2
姿補助線
 70
     0
 62
    30
  6
CONTINUOUS
  0
LAYER
  2
透視線
 70
     0
 62
    78
  6
DOT
  0
LAYER
  2
用紙
 70
     0
 62
    81
  6
CONTINUOUS
  0
LAYER
  2
実線図枠
 70
     0
 62
    94
  6
CONTINUOUS
  0
LAYER
  2
補助図枠
 70
     0
 62
    97
  6
CONTINUOUS
  0
LAYER
  2
建具記号
 70
     0
 62
   110
  6
CONTINUOUS
  0
LAYER
  2
補助文字
 70
     0
 62
   113
  6
CONTINUOUS
  0
ENDTAB
  0
TABLE
  2
STYLE
 70
    10
  0
STYLE
  2
STANDARD
 70
     0
 40
1.0
 41
1.0
 42
1.0
 50
0.0
 71
     0
  3
TXT
  4
BIGFONT
  0
STYLE
  2
TATE
 70
     4
 40
1.0
 41
1.0
 42
1.0
 50
0.0
 71
     0
  3
TXT
  4
BIGFONT
  0
STYLE
  2
TextStyle03
 70
     0
 40
1.0
 41
1.0
 42
1.0
 50
0.0
 71
     0
  3
MONOTXT
  4
BIGFONT
  0
STYLE
  2
TextStyle04
 70
     0
 40
1.0
 41
1.0
 42
1.0
 50
0.0
 71
     0
  3
MONOTXT
  4
BIGFONT
  0
STYLE
  2
TextStyle05
 70
     0
 40
1.0
 41
1.0
 42
1.0
 50
0.0
 71
     0
  3
MONOTXT
  4
BIGFONT
  0
STYLE
  2
TextStyle06
 70
     0
 40
1.0
 41
1.0
 42
1.0
 50
0.0
 71
     0
  3
MONOTXT
  4
BIGFONT
  0
STYLE
  2
TextStyle07
 70
     0
 40
1.0
 41
1.0
 42
1.0
 50
0.0
 71
     0
  3
MONOTXT
  4
BIGFONT
  0
STYLE
  2
TextStyle08
 70
     0
 40
1.0
 41
1.0
 42
1.0
 50
0.0
 71
     0
  3
MONOTXT
  4
BIGFONT
  0
STYLE
  2
TextStyle09
 70
     0
 40
1.0
 41
1.0
 42
1.0
 50
0.0
 71
     0
  3
MONOTXT
  4
BIGFONT
  0
STYLE
  2
TextStyle10
 70
     0
 40
1.0
 41
1.0
 42
1.0
 50
0.0
 71
     0
  3
MONOTXT
  4
BIGFONT
  0
ENDTAB
  0
ENDSEC
  0
SECTION
  2
BLOCKS
  0
BLOCK
  2
*GRP_0001
 70
    65
 10
0.0
 20
0.0
  0
LINE
  8
型材断面
  6
CONTINUOUS
 10
195.0
 20
133.5
 11
195.0
 21
-133.5
  0
LINE
  8
型材断面
  6
CONTINUOUS
 10
195.0
 20
-133.5
 11
-185.0
 21
-133.5
  0
LINE
  8
型材断面
  6
CONTINUOUS
 10
-185.0
 20
-133.5
 11
-185.0
 21
133.5
  0
LINE
  8
型材断面
  6
CONTINUOUS
 10
195.0
 20
133.5
 11
-185.0
 21
133.5
  0
LINE
  8
型材断面
  6
CONTINUOUS
 10
145.0
 20
-133.5
 11
145.0
 21
-118.5
  0
LINE
  8
型材断面
  6
CONTINUOUS
 10
195.0
 20
-118.5
 11
145.0
 21
-118.5
  0
ENDBLK
  0
BLOCK
  2
*GRP_0002
 70
    65
 10
0.0
 20
0.0
  0
INSERT
  2
M8横
  8
ゴム等
  6
CONTINUOUS
 10
-23.398718
 20
-73.68637
 50
180.0
 41
0.05
 42
-0.05
  0
LINE
  8
ボルト／ビス
  6
CONTINUOUS
 10
-23.598718
 20
-73.371372
 11
-23.573718
 21
-73.346372
  0
LINE
  8
ボルト／ビス
  6
CONTINUOUS
 10
-23.223718
 20
-73.346372
 11
-23.198718
 21
-73.371372
  0
LINE
  8
ボルト／ビス
  6
CONTINUOUS
 10
-23.198718
 20
-73.371372
 11
-23.598718
 21
-73.371372
  0
LINE
  8
ボルト／ビス
  6
CONTINUOUS
 10
-23.223718
 20
-73.346372
 11
-23.573718
 21
-73.346372
  0
LINE
  8
ボルト／ビス
  6
CONTINUOUS
 10
-23.573718
 20
-73.346372
 11
-23.573718
 21
-73.41137
  0
LINE
  8
ボルト／ビス
  6
CONTINUOUS
 10
-23.598718
 20
-73.371372
 11
-23.598718
 21
-73.41137
  0
LINE
  8
ボルト／ビス
  6
CONTINUOUS
 10
-23.198718
 20
-73.371372
 11
-23.198718
 21
-73.41137
  0
LINE
  8
ボルト／ビス
  6
CONTINUOUS
 10
-23.223718
 20
-73.346372
 11
-23.223718
 21
-73.41137
  0
LINE
  8
ボルト／ビス
  6
CONTINUOUS
 10
-22.848718
 20
-73.68637
 11
-23.948718
 21
-73.68637
  0
LINE
  8
ボルト／ビス
  6
CONTINUOUS
 10
-24.023718
 20
-73.74637
 11
-24.023718
 21
-73.87137
  0
LINE
  8
ボルト／ビス
  6
CONTINUOUS
 10
-24.023718
 20
-73.87137
 11
-22.773718
 21
-73.87137
  0
LINE
  8
ボルト／ビス
  6
CONTINUOUS
 10
-22.773718
 20
-73.87137
 11
-22.773718
 21
-73.74637
  0
LINE
  8
ボルト／ビス
  6
CONTINUOUS
 10
-24.023718
 20
-73.74637
 11
-22.773718
 21
-73.74637
  0
LINE
  8
ボルト／ビス
  6
CONTINUOUS
 10
-22.848718
 20
-73.68637
 11
-22.848718
 21
-73.74637
  0
LINE
  8
ボルト／ビス
  6
CONTINUOUS
 10
-23.948718
 20
-73.68637
 11
-23.948718
 21
-73.74637
  0
LINE
  8
ボルト／ビス
  6
CONTINUOUS
 10
-23.398718
 20
-73.76137
 11
-23.398718
 21
-73.68637
  0
ENDBLK
  0
BLOCK
  2
*GRP_0003
 70
    65
 10
0.0
 20
0.0
  0
LINE
  8
ボルト／ビス
  6
CONTINUOUS
 10
-23.088715
 20
-72.39662
 11
-23.088715
 21
-72.29662
  0
LINE
  8
ボルト／ビス
  6
CONTINUOUS
 10
-23.088715
 20
-72.29662
 11
-24.188715
 21
-72.29662
  0
LINE
  8
ボルト／ビス
  6
CONTINUOUS
 10
-24.188715
 20
-72.29662
 11
-24.188715
 21
-72.39662
  0
LINE
  8
ボルト／ビス
  6
CONTINUOUS
 10
-23.088715
 20
-72.39662
 11
-24.188715
 21
-72.39662
  0
LINE
  8
ボルト／ビス
  6
CONTINUOUS
 10
-23.188715
 20
-72.24662
 11
-23.188715
 21
-72.29662
  0
LINE
  8
ボルト／ビス
  6
CONTINUOUS
 10
-23.188715
 20
-72.24662
 11
-24.088715
 21
-72.24662
  0
LINE
  8
ボルト／ビス
  6
CONTINUOUS
 10
-24.088715
 20
-72.24662
 11
-24.088715
 21
-72.29662
  0
LINE
  8
ボルト／ビス
  6
CONTINUOUS
 62
    64
 10
-23.398153
 20
-71.94662
 11
-23.35004
 21
-71.964132
  0
ARC
  8
ボルト／ビス
  6
CONTINUOUS
 62
    64
 10
-23.422208
 20
-72.104088
 40
0.157468
 50
90.0
 51
117.278033
  0
ARC
  8
ボルト／ビス
  6
CONTINUOUS
 62
    64
 10
-23.638715
 20
-72.550224
 40
0.603603
 50
76.165015
 51
103.834998
  0
LINE
  8
ボルト／ビス
  6
CONTINUOUS
 62
    64
 10
-23.879277
 20
-71.94662
 11
-23.92739
 21
-71.964132
  0
ARC
  8
ボルト／ビス
  6
CONTINUOUS
 62
    64
 10
-23.855221
 20
-72.104088
 40
0.157468
 50
62.721967
 51
90.0
  0
LINE
  8
ボルト／ビス
  6
CONTINUOUS
 62
    64
 10
-23.398153
 20
-71.94662
 11
-23.879277
 21
-71.94662
  0
LINE
  8
ボルト／ビス
  6
CONTINUOUS
 62
    64
 10
-23.92739
 20
-71.964132
 11
-23.92739
 21
-72.14662
  0
LINE
  8
ボルト／ビス
  6
CONTINUOUS
 62
    64
 10
-23.783053
 20
-71.964132
 11
-23.783053
 21
-72.14662
  0
LINE
  8
ボルト／ビス
  6
CONTINUOUS
 62
    64
 10
-23.35004
 20
-71.964132
 11
-23.35004
 21
-72.14662
  0
LINE
  8
ボルト／ビス
  6
CONTINUOUS
 62
    64
 10
-23.494377
 20
-71.964132
 11
-23.494377
 21
-72.14662
  0
LINE
  8
ボルト／ビス
  6
CONTINUOUS
 10
-23.35004
 20
-72.14662
 11
-23.92739
 21
-72.14662
  0
LINE
  8
ボルト／ビス
  6
CONTINUOUS
 10
-23.338715
 20
-72.14662
 11
-23.338715
 21
-72.24662
  0
LINE
  8
ボルト／ビス
  6
CONTINUOUS
 10
-23.338715
 20
-72.14662
 11
-23.938715
 21
-72.14662
  0
LINE
  8
ボルト／ビス
  6
CONTINUOUS
 10
-23.938715
 20
-72.14662
 11
-23.938715
 21
-72.24662
  0
ENDBLK
  0
BLOCK
  2
*DIM_0004
 70
    65
 10
0.0
 20
0.0
  0
LINE
  8
寸法
  6
CONTINUOUS
 10
-16.688715
 20
-82.49637
 11
-3.636863
 21
-82.49637
  0
LINE
  8
寸法
  6
CONTINUOUS
 10
-19.638257
 20
-71.29662
 11
-3.636863
 21
-71.29662
  0
LINE
  8
寸法
  6
CONTINUOUS
 10
-3.636863
 20
-82.49637
 11
-3.636863
 21
-71.29662
  0
POINT
  8
寸法
 10
-3.636863
 20
-82.49637
  0
POINT
  8
寸法
 10
-3.636863
 20
-71.29662
  0
TEXT
  7
TextStyle03
  8
寸法
  6
CONTINUOUS
 10
-4.025
 20
-79.3375
  1
224
 40
3.0
 50
90.0
 72
     5
 11
-4.025
 21
-74.4625
  0
ENDBLK
  0
BLOCK
  2
*DIM_0005
 70
    65
 10
0.0
 20
0.0
  0
LINE
  8
寸法
  6
CONTINUOUS
 10
-21.218715
 20
-73.055408
 11
-21.218715
 21
-41.89646
  0
LINE
  8
寸法
  6
CONTINUOUS
 10
-24.638257
 20
-41.89646
 11
-21.218715
 21
-41.89646
  0
POINT
  8
寸法
 10
-24.638257
 20
-41.89646
  0
POINT
  8
寸法
 10
-21.218715
 20
-41.89646
  0
TEXT
  7
TextStyle03
  8
寸法
  6
CONTINUOUS
 10
-19.48125
 20
-41.525
  1
68.4
 40
3.0
 72
     5
 11
-12.91875
 21
-41.525
  0
ENDBLK
  0
BLOCK
  2
*GRP_0006
 70
    65
 10
0.0
 20
0.0
  0
INSERT
  2
M8横
  8
ゴム等
  6
CONTINUOUS
 10
-90.877798
 20
-73.68637
 41
0.05
 42
0.05
  0
LINE
  8
ボルト／ビス
  6
CONTINUOUS
 10
-90.677797
 20
-73.371372
 11
-90.702798
 21
-73.346372
  0
LINE
  8
ボルト／ビス
  6
CONTINUOUS
 10
-91.052797
 20
-73.346372
 11
-91.077798
 21
-73.371372
  0
LINE
  8
ボルト／ビス
  6
CONTINUOUS
 10
-91.077798
 20
-73.371372
 11
-90.677797
 21
-73.371372
  0
LINE
  8
ボルト／ビス
  6
CONTINUOUS
 10
-91.052797
 20
-73.346372
 11
-90.702798
 21
-73.346372
  0
LINE
  8
ボルト／ビス
  6
CONTINUOUS
 10
-90.702798
 20
-73.346372
 11
-90.702798
 21
-73.41137
  0
LINE
  8
ボルト／ビス
  6
CONTINUOUS
 10
-90.677797
 20
-73.371372
 11
-90.677797
 21
-73.41137
  0
LINE
  8
ボルト／ビス
  6
CONTINUOUS
 10
-91.077798
 20
-73.371372
 11
-91.077798
 21
-73.41137
  0
LINE
  8
ボルト／ビス
  6
CONTINUOUS
 10
-91.052797
 20
-73.346372
 11
-91.052797
 21
-73.41137
  0
LINE
  8
ボルト／ビス
  6
CONTINUOUS
 10
-91.427797
 20
-73.68637
 11
-90.327798
 21
-73.68637
  0
LINE
  8
ボルト／ビス
  6
CONTINUOUS
 10
-90.252798
 20
-73.74637
 11
-90.252798
 21
-73.87137
  0
LINE
  8
ボルト／ビス
  6
CONTINUOUS
 10
-90.252798
 20
-73.87137
 11
-91.502798
 21
-73.87137
  0
LINE
  8
ボルト／ビス
  6
CONTINUOUS
 10
-91.502798
 20
-73.87137
 11
-91.502798
 21
-73.74637
  0
LINE
  8
ボルト／ビス
  6
CONTINUOUS
 10
-90.252798
 20
-73.74637
 11
-91.502798
 21
-73.74637
  0
LINE
  8
ボルト／ビス
  6
CONTINUOUS
 10
-91.427797
 20
-73.68637
 11
-91.427797
 21
-73.74637
  0
LINE
  8
ボルト／ビス
  6
CONTINUOUS
 10
-90.327798
 20
-73.68637
 11
-90.327798
 21
-73.74637
  0
LINE
  8
ボルト／ビス
  6
CONTINUOUS
 10
-90.877798
 20
-73.76137
 11
-90.877798
 21
-73.68637
  0
ENDBLK
  0
BLOCK
  2
*GRP_0007
 70
    65
 10
0.0
 20
0.0
  0
LINE
  8
ボルト／ビス
  6
CONTINUOUS
 10
-91.1878
 20
-72.39662
 11
-91.1878
 21
-72.29662
  0
LINE
  8
ボルト／ビス
  6
CONTINUOUS
 10
-91.1878
 20
-72.29662
 11
-90.0878
 21
-72.29662
  0
LINE
  8
ボルト／ビス
  6
CONTINUOUS
 10
-90.0878
 20
-72.29662
 11
-90.0878
 21
-72.39662
  0
LINE
  8
ボルト／ビス
  6
CONTINUOUS
 10
-91.1878
 20
-72.39662
 11
-90.0878
 21
-72.39662
  0
LINE
  8
ボルト／ビス
  6
CONTINUOUS
 10
-91.0878
 20
-72.24662
 11
-91.0878
 21
-72.29662
  0
LINE
  8
ボルト／ビス
  6
CONTINUOUS
 10
-91.0878
 20
-72.24662
 11
-90.1878
 21
-72.24662
  0
LINE
  8
ボルト／ビス
  6
CONTINUOUS
 10
-90.1878
 20
-72.24662
 11
-90.1878
 21
-72.29662
  0
LINE
  8
ボルト／ビス
  6
CONTINUOUS
 62
    64
 10
-90.878363
 20
-71.94662
 11
-90.926475
 21
-71.964132
  0
ARC
  8
ボルト／ビス
  6
CONTINUOUS
 62
    64
 10
-90.854307
 20
-72.104088
 40
0.157468
 50
62.721967
 51
90.0
  0
ARC
  8
ボルト／ビス
  6
CONTINUOUS
 62
    64
 10
-90.6378
 20
-72.550224
 40
0.603603
 50
76.165002
 51
103.834985
  0
LINE
  8
ボルト／ビス
  6
CONTINUOUS
 62
    64
 10
-90.397238
 20
-71.94662
 11
-90.349125
 21
-71.964132
  0
ARC
  8
ボルト／ビス
  6
CONTINUOUS
 62
    64
 10
-90.421294
 20
-72.104088
 40
0.157468
 50
90.0
 51
117.278033
  0
LINE
  8
ボルト／ビス
  6
CONTINUOUS
 62
    64
 10
-90.878363
 20
-71.94662
 11
-90.397238
 21
-71.94662
  0
LINE
  8
ボルト／ビス
  6
CONTINUOUS
 62
    64
 10
-90.349125
 20
-71.964132
 11
-90.349125
 21
-72.14662
  0
LINE
  8
ボルト／ビス
  6
CONTINUOUS
 62
    64
 10
-90.493462
 20
-71.964132
 11
-90.493462
 21
-72.14662
  0
LINE
  8
ボルト／ビス
  6
CONTINUOUS
 62
    64
 10
-90.926475
 20
-71.964132
 11
-90.926475
 21
-72.14662
  0
LINE
  8
ボルト／ビス
  6
CONTINUOUS
 62
    64
 10
-90.782138
 20
-71.964132
 11
-90.782138
 21
-72.14662
  0
LINE
  8
ボルト／ビス
  6
CONTINUOUS
 10
-90.926475
 20
-72.14662
 11
-90.349125
 21
-72.14662
  0
LINE
  8
ボルト／ビス
  6
CONTINUOUS
 10
-90.9378
 20
-72.14662
 11
-90.9378
 21
-72.24662
  0
LINE
  8
ボルト／ビス
  6
CONTINUOUS
 10
-90.9378
 20
-72.14662
 11
-90.3378
 21
-72.14662
  0
LINE
  8
ボルト／ビス
  6
CONTINUOUS
 10
-90.3378
 20
-72.14662
 11
-90.3378
 21
-72.24662
  0
ENDBLK
  0
BLOCK
  2
*DIM_0008
 70
    65
 10
0.0
 20
0.0
  0
LINE
  8
寸法
  6
CONTINUOUS
 10
-93.0578
 20
-73.055408
 11
-93.0578
 21
-41.89646
  0
LINE
  8
寸法
  6
CONTINUOUS
 10
-89.638257
 20
-41.89646
 11
-93.0578
 21
-41.89646
  0
POINT
  8
寸法
 10
-89.638257
 20
-41.89646
  0
POINT
  8
寸法
 10
-93.0578
 20
-41.89646
  0
TEXT
  7
TextStyle03
  8
寸法
  6
CONTINUOUS
 10
-101.38125
 20
-41.525
  1
68.4
 40
3.0
 72
     5
 11
-94.81875
 21
-41.525
  0
ENDBLK
  0
BLOCK
  2
*GRP_0009
 70
    65
 10
0.0
 20
0.0
  0
POLYLINE
  8
寸法
  6
BYBLOCK
 62
     0
 66
     1
  0
VERTEX
  8
寸法
 10
-28.851855
 20
52.394058
  0
VERTEX
  8
寸法
 10
-22.435353
 20
45.977555
  0
VERTEX
  8
寸法
 10
-16.528225
 20
45.977555
  0
SEQEND
  0
ENDBLK
  0
BLOCK
  2
*GRP_0010
 70
    65
 10
0.0
 20
0.0
  0
INSERT
  2
*GRP_0011
  8
補助線
  6
CONTINUOUS
 10
0.0
 20
0.0
  0
LINE
  8
ボルト／ビス
  6
CONTINUOUS
 10
-49.638257
 20
92.39876
 11
-49.888257
 21
92.254422
  0
LINE
  8
ボルト／ビス
  6
CONTINUOUS
 10
-49.638257
 20
92.39876
 11
-49.388257
 21
92.254422
  0
LINE
  8
ボルト／ビス
  6
CONTINUOUS
 10
-49.888257
 20
91.965747
 11
-49.638257
 21
91.82141
  0
LINE
  8
ボルト／ビス
  6
CONTINUOUS
 10
-49.388257
 20
91.965747
 11
-49.638257
 21
91.82141
  0
CIRCLE
  8
ボルト／ビス
  6
CONTINUOUS
 10
-49.638257
 20
92.110085
 40
0.25
  0
LINE
  8
ボルト／ビス
  6
CONTINUOUS
 10
-49.388257
 20
92.254422
 11
-49.388257
 21
91.965747
  0
LINE
  8
ボルト／ビス
  6
CONTINUOUS
 10
-49.888257
 20
91.965747
 11
-49.888257
 21
92.254422
  0
ENDBLK
  0
BLOCK
  2
*GRP_0011
 70
    65
 10
0.0
 20
0.0
  0
LINE
  8
補助線
  6
BYBLOCK
 62
     0
 10
-49.513257
 20
92.110085
 11
-49.763257
 21
92.110085
  0
LINE
  8
補助線
  6
BYBLOCK
 62
     0
 10
-49.638257
 20
92.235085
 11
-49.638257
 21
91.985085
  0
ENDBLK
  0
BLOCK
  2
*GRP_0012
 70
    65
 10
0.0
 20
0.0
  0
INSERT
  2
*GRP_0013
  8
補助線
  6
CONTINUOUS
 10
0.0
 20
0.0
  0
LINE
  8
ボルト／ビス
  6
CONTINUOUS
 10
-34.638257
 20
92.39876
 11
-34.888257
 21
92.254422
  0
LINE
  8
ボルト／ビス
  6
CONTINUOUS
 10
-34.638257
 20
92.39876
 11
-34.388257
 21
92.254422
  0
LINE
  8
ボルト／ビス
  6
CONTINUOUS
 10
-34.888257
 20
91.965747
 11
-34.638257
 21
91.82141
  0
LINE
  8
ボルト／ビス
  6
CONTINUOUS
 10
-34.388257
 20
91.965747
 11
-34.638257
 21
91.82141
  0
CIRCLE
  8
ボルト／ビス
  6
CONTINUOUS
 10
-34.638257
 20
92.110085
 40
0.25
  0
LINE
  8
ボルト／ビス
  6
CONTINUOUS
 10
-34.388257
 20
92.254422
 11
-34.388257
 21
91.965747
  0
LINE
  8
ボルト／ビス
  6
CONTINUOUS
 10
-34.888257
 20
91.965747
 11
-34.888257
 21
92.254422
  0
ENDBLK
  0
BLOCK
  2
*GRP_0013
 70
    65
 10
0.0
 20
0.0
  0
LINE
  8
補助線
  6
BYBLOCK
 62
     0
 10
-34.513257
 20
92.110085
 11
-34.763257
 21
92.110085
  0
LINE
  8
補助線
  6
BYBLOCK
 62
     0
 10
-34.638257
 20
92.235085
 11
-34.638257
 21
91.985085
  0
ENDBLK
  0
BLOCK
  2
*GRP_0014
 70
    65
 10
0.0
 20
0.0
  0
INSERT
  2
*GRP_0016
  8
補助線
  6
CONTINUOUS
 10
0.0
 20
0.0
  0
LINE
  8
ボルト／ビス
  6
CONTINUOUS
 10
-64.638257
 20
92.39876
 11
-64.388257
 21
92.254422
  0
LINE
  8
ボルト／ビス
  6
CONTINUOUS
 10
-64.638257
 20
92.39876
 11
-64.888257
 21
92.254422
  0
LINE
  8
ボルト／ビス
  6
CONTINUOUS
 10
-64.388257
 20
91.965747
 11
-64.638257
 21
91.82141
  0
LINE
  8
ボルト／ビス
  6
CONTINUOUS
 10
-64.888257
 20
91.965747
 11
-64.638257
 21
91.82141
  0
CIRCLE
  8
ボルト／ビス
  6
CONTINUOUS
 10
-64.638257
 20
92.110085
 40
0.25
  0
LINE
  8
ボルト／ビス
  6
CONTINUOUS
 10
-64.888257
 20
92.254422
 11
-64.888257
 21
91.965747
  0
LINE
  8
ボルト／ビス
  6
CONTINUOUS
 10
-64.388257
 20
91.965747
 11
-64.388257
 21
92.254422
  0
ENDBLK
  0
BLOCK
  2
*GRP_0015
 70
    65
 10
0.0
 20
0.0
  0
INSERT
  2
*GRP_0017
  8
補助線
  6
CONTINUOUS
 10
0.0
 20
0.0
  0
LINE
  8
ボルト／ビス
  6
CONTINUOUS
 10
-79.638257
 20
92.39876
 11
-79.388257
 21
92.254422
  0
LINE
  8
ボルト／ビス
  6
CONTINUOUS
 10
-79.638257
 20
92.39876
 11
-79.888257
 21
92.254422
  0
LINE
  8
ボルト／ビス
  6
CONTINUOUS
 10
-79.388257
 20
91.965747
 11
-79.638257
 21
91.82141
  0
LINE
  8
ボルト／ビス
  6
CONTINUOUS
 10
-79.888257
 20
91.965747
 11
-79.638257
 21
91.82141
  0
CIRCLE
  8
ボルト／ビス
  6
CONTINUOUS
 10
-79.638257
 20
92.110085
 40
0.25
  0
LINE
  8
ボルト／ビス
  6
CONTINUOUS
 10
-79.888257
 20
92.254422
 11
-79.888257
 21
91.965747
  0
LINE
  8
ボルト／ビス
  6
CONTINUOUS
 10
-79.388257
 20
91.965747
 11
-79.388257
 21
92.254422
  0
ENDBLK
  0
BLOCK
  2
*GRP_0016
 70
    65
 10
0.0
 20
0.0
  0
LINE
  8
補助線
  6
BYBLOCK
 62
     0
 10
-64.763257
 20
92.110085
 11
-64.513257
 21
92.110085
  0
LINE
  8
補助線
  6
BYBLOCK
 62
     0
 10
-64.638257
 20
92.235085
 11
-64.638257
 21
91.985085
  0
ENDBLK
  0
BLOCK
  2
*GRP_0017
 70
    65
 10
0.0
 20
0.0
  0
LINE
  8
補助線
  6
BYBLOCK
 62
     0
 10
-79.763257
 20
92.110085
 11
-79.513257
 21
92.110085
  0
LINE
  8
補助線
  6
BYBLOCK
 62
     0
 10
-79.638257
 20
92.235085
 11
-79.638257
 21
91.985085
  0
ENDBLK
  0
BLOCK
  2
*GRP_0018
 70
    65
 10
0.0
 20
0.0
  0
INSERT
  2
*GRP_0020
  8
補助線
  6
CONTINUOUS
 10
0.0
 20
0.0
  0
LINE
  8
ボルト／ビス
  6
CONTINUOUS
 10
-90.92693
 20
66.110088
 11
-90.782593
 21
65.860088
  0
LINE
  8
ボルト／ビス
  6
CONTINUOUS
 10
-90.92693
 20
66.110088
 11
-90.782593
 21
66.360088
  0
LINE
  8
ボルト／ビス
  6
CONTINUOUS
 10
-90.493918
 20
65.860088
 11
-90.34958
 21
66.110088
  0
LINE
  8
ボルト／ビス
  6
CONTINUOUS
 10
-90.493918
 20
66.360088
 11
-90.34958
 21
66.110088
  0
CIRCLE
  8
ボルト／ビス
  6
CONTINUOUS
 10
-90.638255
 20
66.110088
 40
0.25
  0
LINE
  8
ボルト／ビス
  6
CONTINUOUS
 10
-90.782593
 20
66.360088
 11
-90.493918
 21
66.360088
  0
LINE
  8
ボルト／ビス
  6
CONTINUOUS
 10
-90.493918
 20
65.860088
 11
-90.782593
 21
65.860088
  0
ENDBLK
  0
BLOCK
  2
*GRP_0019
 70
    65
 10
0.0
 20
0.0
  0
INSERT
  2
*GRP_0021
  8
補助線
  6
CONTINUOUS
 10
0.0
 20
0.0
  0
LINE
  8
ボルト／ビス
  6
CONTINUOUS
 10
-90.92693
 20
81.110088
 11
-90.782593
 21
80.860088
  0
LINE
  8
ボルト／ビス
  6
CONTINUOUS
 10
-90.92693
 20
81.110088
 11
-90.782593
 21
81.360088
  0
LINE
  8
ボルト／ビス
  6
CONTINUOUS
 10
-90.493918
 20
80.860088
 11
-90.34958
 21
81.110088
  0
LINE
  8
ボルト／ビス
  6
CONTINUOUS
 10
-90.493918
 20
81.360088
 11
-90.34958
 21
81.110088
  0
CIRCLE
  8
ボルト／ビス
  6
CONTINUOUS
 10
-90.638255
 20
81.110088
 40
0.25
  0
LINE
  8
ボルト／ビス
  6
CONTINUOUS
 10
-90.782593
 20
81.360088
 11
-90.493918
 21
81.360088
  0
LINE
  8
ボルト／ビス
  6
CONTINUOUS
 10
-90.493918
 20
80.860088
 11
-90.782593
 21
80.860088
  0
ENDBLK
  0
BLOCK
  2
*GRP_0020
 70
    65
 10
0.0
 20
0.0
  0
LINE
  8
補助線
  6
BYBLOCK
 62
     0
 10
-90.638255
 20
66.235088
 11
-90.638255
 21
65.985088
  0
LINE
  8
補助線
  6
BYBLOCK
 62
     0
 10
-90.763255
 20
66.110088
 11
-90.513255
 21
66.110088
  0
ENDBLK
  0
BLOCK
  2
*GRP_0021
 70
    65
 10
0.0
 20
0.0
  0
LINE
  8
補助線
  6
BYBLOCK
 62
     0
 10
-90.638255
 20
81.235088
 11
-90.638255
 21
80.985088
  0
LINE
  8
補助線
  6
BYBLOCK
 62
     0
 10
-90.763255
 20
81.110088
 11
-90.513255
 21
81.110088
  0
ENDBLK
  0
BLOCK
  2
*GRP_0022
 70
    65
 10
0.0
 20
0.0
  0
INSERT
  2
*GRP_0024
  8
補助線
  6
CONTINUOUS
 10
0.0
 20
0.0
  0
LINE
  8
ボルト／ビス
  6
CONTINUOUS
 10
-90.92693
 20
51.110082
 11
-90.782593
 21
51.360082
  0
LINE
  8
ボルト／ビス
  6
CONTINUOUS
 10
-90.92693
 20
51.110082
 11
-90.782593
 21
50.860082
  0
LINE
  8
ボルト／ビス
  6
CONTINUOUS
 10
-90.493918
 20
51.360082
 11
-90.34958
 21
51.110082
  0
LINE
  8
ボルト／ビス
  6
CONTINUOUS
 10
-90.493918
 20
50.860082
 11
-90.34958
 21
51.110082
  0
CIRCLE
  8
ボルト／ビス
  6
CONTINUOUS
 10
-90.638255
 20
51.110082
 40
0.25
  0
LINE
  8
ボルト／ビス
  6
CONTINUOUS
 10
-90.782593
 20
50.860082
 11
-90.493918
 21
50.860082
  0
LINE
  8
ボルト／ビス
  6
CONTINUOUS
 10
-90.493918
 20
51.360082
 11
-90.782593
 21
51.360082
  0
ENDBLK
  0
BLOCK
  2
*GRP_0023
 70
    65
 10
0.0
 20
0.0
  0
INSERT
  2
*GRP_0025
  8
補助線
  6
CONTINUOUS
 10
0.0
 20
0.0
  0
LINE
  8
ボルト／ビス
  6
CONTINUOUS
 10
-90.92693
 20
36.110082
 11
-90.782593
 21
36.360082
  0
LINE
  8
ボルト／ビス
  6
CONTINUOUS
 10
-90.92693
 20
36.110082
 11
-90.782593
 21
35.860082
  0
LINE
  8
ボルト／ビス
  6
CONTINUOUS
 10
-90.493918
 20
36.360082
 11
-90.34958
 21
36.110082
  0
LINE
  8
ボルト／ビス
  6
CONTINUOUS
 10
-90.493918
 20
35.860082
 11
-90.34958
 21
36.110082
  0
CIRCLE
  8
ボルト／ビス
  6
CONTINUOUS
 10
-90.638255
 20
36.110082
 40
0.25
  0
LINE
  8
ボルト／ビス
  6
CONTINUOUS
 10
-90.782593
 20
35.860082
 11
-90.493918
 21
35.860082
  0
LINE
  8
ボルト／ビス
  6
CONTINUOUS
 10
-90.493918
 20
36.360082
 11
-90.782593
 21
36.360082
  0
ENDBLK
  0
BLOCK
  2
*GRP_0024
 70
    65
 10
0.0
 20
0.0
  0
LINE
  8
補助線
  6
BYBLOCK
 62
     0
 10
-90.638255
 20
50.985082
 11
-90.638255
 21
51.235082
  0
LINE
  8
補助線
  6
BYBLOCK
 62
     0
 10
-90.763255
 20
51.110082
 11
-90.513255
 21
51.110082
  0
ENDBLK
  0
BLOCK
  2
*GRP_0025
 70
    65
 10
0.0
 20
0.0
  0
LINE
  8
補助線
  6
BYBLOCK
 62
     0
 10
-90.638255
 20
35.985082
 11
-90.638255
 21
36.235082
  0
LINE
  8
補助線
  6
BYBLOCK
 62
     0
 10
-90.763255
 20
36.110082
 11
-90.513255
 21
36.110082
  0
ENDBLK
  0
BLOCK
  2
*GRP_0026
 70
    65
 10
0.0
 20
0.0
  0
INSERT
  2
*GRP_0028
  8
補助線
  6
CONTINUOUS
 10
0.0
 20
0.0
  0
LINE
  8
ボルト／ビス
  6
CONTINUOUS
 10
-64.63826
 20
24.821413
 11
-64.38826
 21
24.96575
  0
LINE
  8
ボルト／ビス
  6
CONTINUOUS
 10
-64.63826
 20
24.821413
 11
-64.88826
 21
24.96575
  0
LINE
  8
ボルト／ビス
  6
CONTINUOUS
 10
-64.38826
 20
25.254425
 11
-64.63826
 21
25.398762
  0
LINE
  8
ボルト／ビス
  6
CONTINUOUS
 10
-64.88826
 20
25.254425
 11
-64.63826
 21
25.398762
  0
CIRCLE
  8
ボルト／ビス
  6
CONTINUOUS
 10
-64.63826
 20
25.110088
 40
0.25
  0
LINE
  8
ボルト／ビス
  6
CONTINUOUS
 10
-64.88826
 20
24.96575
 11
-64.88826
 21
25.254425
  0
LINE
  8
ボルト／ビス
  6
CONTINUOUS
 10
-64.38826
 20
25.254425
 11
-64.38826
 21
24.96575
  0
ENDBLK
  0
BLOCK
  2
*GRP_0027
 70
    65
 10
0.0
 20
0.0
  0
INSERT
  2
*GRP_0029
  8
補助線
  6
CONTINUOUS
 10
0.0
 20
0.0
  0
LINE
  8
ボルト／ビス
  6
CONTINUOUS
 10
-79.63826
 20
24.821413
 11
-79.38826
 21
24.96575
  0
LINE
  8
ボルト／ビス
  6
CONTINUOUS
 10
-79.63826
 20
24.821413
 11
-79.88826
 21
24.96575
  0
LINE
  8
ボルト／ビス
  6
CONTINUOUS
 10
-79.38826
 20
25.254425
 11
-79.63826
 21
25.398762
  0
LINE
  8
ボルト／ビス
  6
CONTINUOUS
 10
-79.88826
 20
25.254425
 11
-79.63826
 21
25.398762
  0
CIRCLE
  8
ボルト／ビス
  6
CONTINUOUS
 10
-79.63826
 20
25.110088
 40
0.25
  0
LINE
  8
ボルト／ビス
  6
CONTINUOUS
 10
-79.88826
 20
24.96575
 11
-79.88826
 21
25.254425
  0
LINE
  8
ボルト／ビス
  6
CONTINUOUS
 10
-79.38826
 20
25.254425
 11
-79.38826
 21
24.96575
  0
ENDBLK
  0
BLOCK
  2
*GRP_0028
 70
    65
 10
0.0
 20
0.0
  0
LINE
  8
補助線
  6
BYBLOCK
 62
     0
 10
-64.76326
 20
25.110088
 11
-64.51326
 21
25.110088
  0
LINE
  8
補助線
  6
BYBLOCK
 62
     0
 10
-64.63826
 20
24.985088
 11
-64.63826
 21
25.235088
  0
ENDBLK
  0
BLOCK
  2
*GRP_0029
 70
    65
 10
0.0
 20
0.0
  0
LINE
  8
補助線
  6
BYBLOCK
 62
     0
 10
-79.76326
 20
25.110088
 11
-79.51326
 21
25.110088
  0
LINE
  8
補助線
  6
BYBLOCK
 62
     0
 10
-79.63826
 20
24.985088
 11
-79.63826
 21
25.235088
  0
ENDBLK
  0
BLOCK
  2
*GRP_0030
 70
    65
 10
0.0
 20
0.0
  0
INSERT
  2
*GRP_0032
  8
補助線
  6
CONTINUOUS
 10
0.0
 20
0.0
  0
LINE
  8
ボルト／ビス
  6
CONTINUOUS
 10
-49.638255
 20
24.821413
 11
-49.888255
 21
24.96575
  0
LINE
  8
ボルト／ビス
  6
CONTINUOUS
 10
-49.638255
 20
24.821413
 11
-49.388255
 21
24.96575
  0
LINE
  8
ボルト／ビス
  6
CONTINUOUS
 10
-49.888255
 20
25.254425
 11
-49.638255
 21
25.398762
  0
LINE
  8
ボルト／ビス
  6
CONTINUOUS
 10
-49.388255
 20
25.254425
 11
-49.638255
 21
25.398762
  0
CIRCLE
  8
ボルト／ビス
  6
CONTINUOUS
 10
-49.638255
 20
25.110088
 40
0.25
  0
LINE
  8
ボルト／ビス
  6
CONTINUOUS
 10
-49.388255
 20
24.96575
 11
-49.388255
 21
25.254425
  0
LINE
  8
ボルト／ビス
  6
CONTINUOUS
 10
-49.888255
 20
25.254425
 11
-49.888255
 21
24.96575
  0
ENDBLK
  0
BLOCK
  2
*GRP_0031
 70
    65
 10
0.0
 20
0.0
  0
INSERT
  2
*GRP_0033
  8
補助線
  6
CONTINUOUS
 10
0.0
 20
0.0
  0
LINE
  8
ボルト／ビス
  6
CONTINUOUS
 10
-34.638255
 20
24.821413
 11
-34.888255
 21
24.96575
  0
LINE
  8
ボルト／ビス
  6
CONTINUOUS
 10
-34.638255
 20
24.821413
 11
-34.388255
 21
24.96575
  0
LINE
  8
ボルト／ビス
  6
CONTINUOUS
 10
-34.888255
 20
25.254425
 11
-34.638255
 21
25.398762
  0
LINE
  8
ボルト／ビス
  6
CONTINUOUS
 10
-34.388255
 20
25.254425
 11
-34.638255
 21
25.398762
  0
CIRCLE
  8
ボルト／ビス
  6
CONTINUOUS
 10
-34.638255
 20
25.110088
 40
0.25
  0
LINE
  8
ボルト／ビス
  6
CONTINUOUS
 10
-34.388255
 20
24.96575
 11
-34.388255
 21
25.254425
  0
LINE
  8
ボルト／ビス
  6
CONTINUOUS
 10
-34.888255
 20
25.254425
 11
-34.888255
 21
24.96575
  0
ENDBLK
  0
BLOCK
  2
*GRP_0032
 70
    65
 10
0.0
 20
0.0
  0
LINE
  8
補助線
  6
BYBLOCK
 62
     0
 10
-49.513255
 20
25.110088
 11
-49.763255
 21
25.110088
  0
LINE
  8
補助線
  6
BYBLOCK
 62
     0
 10
-49.638255
 20
24.985088
 11
-49.638255
 21
25.235088
  0
ENDBLK
  0
BLOCK
  2
*GRP_0033
 70
    65
 10
0.0
 20
0.0
  0
LINE
  8
補助線
  6
BYBLOCK
 62
     0
 10
-34.513255
 20
25.110088
 11
-34.763255
 21
25.110088
  0
LINE
  8
補助線
  6
BYBLOCK
 62
     0
 10
-34.638255
 20
24.985088
 11
-34.638255
 21
25.235088
  0
ENDBLK
  0
BLOCK
  2
*GRP_0034
 70
    65
 10
0.0
 20
0.0
  0
INSERT
  2
*GRP_0036
  8
補助線
  6
CONTINUOUS
 10
0.0
 20
0.0
  0
LINE
  8
ボルト／ビス
  6
CONTINUOUS
 10
-23.349582
 20
51.110085
 11
-23.49392
 21
51.360085
  0
LINE
  8
ボルト／ビス
  6
CONTINUOUS
 10
-23.349582
 20
51.110085
 11
-23.49392
 21
50.860085
  0
LINE
  8
ボルト／ビス
  6
CONTINUOUS
 10
-23.782595
 20
51.360085
 11
-23.926933
 21
51.110085
  0
LINE
  8
ボルト／ビス
  6
CONTINUOUS
 10
-23.782595
 20
50.860085
 11
-23.926933
 21
51.110085
  0
CIRCLE
  8
ボルト／ビス
  6
CONTINUOUS
 10
-23.638257
 20
51.110085
 40
0.25
  0
LINE
  8
ボルト／ビス
  6
CONTINUOUS
 10
-23.49392
 20
50.860085
 11
-23.782595
 21
50.860085
  0
LINE
  8
ボルト／ビス
  6
CONTINUOUS
 10
-23.782595
 20
51.360085
 11
-23.49392
 21
51.360085
  0
ENDBLK
  0
BLOCK
  2
*GRP_0035
 70
    65
 10
0.0
 20
0.0
  0
INSERT
  2
*GRP_0037
  8
補助線
  6
CONTINUOUS
 10
0.0
 20
0.0
  0
LINE
  8
ボルト／ビス
  6
CONTINUOUS
 10
-23.349582
 20
36.110085
 11
-23.49392
 21
36.360085
  0
LINE
  8
ボルト／ビス
  6
CONTINUOUS
 10
-23.349582
 20
36.110085
 11
-23.49392
 21
35.860085
  0
LINE
  8
ボルト／ビス
  6
CONTINUOUS
 10
-23.782595
 20
36.360085
 11
-23.926933
 21
36.110085
  0
LINE
  8
ボルト／ビス
  6
CONTINUOUS
 10
-23.782595
 20
35.860085
 11
-23.926933
 21
36.110085
  0
CIRCLE
  8
ボルト／ビス
  6
CONTINUOUS
 10
-23.638257
 20
36.110085
 40
0.25
  0
LINE
  8
ボルト／ビス
  6
CONTINUOUS
 10
-23.49392
 20
35.860085
 11
-23.782595
 21
35.860085
  0
LINE
  8
ボルト／ビス
  6
CONTINUOUS
 10
-23.782595
 20
36.360085
 11
-23.49392
 21
36.360085
  0
ENDBLK
  0
BLOCK
  2
*GRP_0036
 70
    65
 10
0.0
 20
0.0
  0
LINE
  8
補助線
  6
BYBLOCK
 62
     0
 10
-23.638257
 20
50.985085
 11
-23.638257
 21
51.235085
  0
LINE
  8
補助線
  6
BYBLOCK
 62
     0
 10
-23.513257
 20
51.110085
 11
-23.763257
 21
51.110085
  0
ENDBLK
  0
BLOCK
  2
*GRP_0037
 70
    65
 10
0.0
 20
0.0
  0
LINE
  8
補助線
  6
BYBLOCK
 62
     0
 10
-23.638257
 20
35.985085
 11
-23.638257
 21
36.235085
  0
LINE
  8
補助線
  6
BYBLOCK
 62
     0
 10
-23.513257
 20
36.110085
 11
-23.763257
 21
36.110085
  0
ENDBLK
  0
BLOCK
  2
*GRP_0038
 70
    65
 10
0.0
 20
0.0
  0
INSERT
  2
*GRP_0040
  8
補助線
  6
CONTINUOUS
 10
0.0
 20
0.0
  0
LINE
  8
ボルト／ビス
  6
CONTINUOUS
 10
-23.349582
 20
66.110085
 11
-23.49392
 21
65.860085
  0
LINE
  8
ボルト／ビス
  6
CONTINUOUS
 10
-23.349582
 20
66.110085
 11
-23.49392
 21
66.360085
  0
LINE
  8
ボルト／ビス
  6
CONTINUOUS
 10
-23.782595
 20
65.860085
 11
-23.926933
 21
66.110085
  0
LINE
  8
ボルト／ビス
  6
CONTINUOUS
 10
-23.782595
 20
66.360085
 11
-23.926933
 21
66.110085
  0
CIRCLE
  8
ボルト／ビス
  6
CONTINUOUS
 10
-23.638257
 20
66.110085
 40
0.25
  0
LINE
  8
ボルト／ビス
  6
CONTINUOUS
 10
-23.49392
 20
66.360085
 11
-23.782595
 21
66.360085
  0
LINE
  8
ボルト／ビス
  6
CONTINUOUS
 10
-23.782595
 20
65.860085
 11
-23.49392
 21
65.860085
  0
ENDBLK
  0
BLOCK
  2
*GRP_0039
 70
    65
 10
0.0
 20
0.0
  0
INSERT
  2
*GRP_0041
  8
補助線
  6
CONTINUOUS
 10
0.0
 20
0.0
  0
LINE
  8
ボルト／ビス
  6
CONTINUOUS
 10
-23.349582
 20
81.110085
 11
-23.49392
 21
80.860085
  0
LINE
  8
ボルト／ビス
  6
CONTINUOUS
 10
-23.349582
 20
81.110085
 11
-23.49392
 21
81.360085
  0
LINE
  8
ボルト／ビス
  6
CONTINUOUS
 10
-23.782595
 20
80.860085
 11
-23.926933
 21
81.110085
  0
LINE
  8
ボルト／ビス
  6
CONTINUOUS
 10
-23.782595
 20
81.360085
 11
-23.926933
 21
81.110085
  0
CIRCLE
  8
ボルト／ビス
  6
CONTINUOUS
 10
-23.638257
 20
81.110085
 40
0.25
  0
LINE
  8
ボルト／ビス
  6
CONTINUOUS
 10
-23.49392
 20
81.360085
 11
-23.782595
 21
81.360085
  0
LINE
  8
ボルト／ビス
  6
CONTINUOUS
 10
-23.782595
 20
80.860085
 11
-23.49392
 21
80.860085
  0
ENDBLK
  0
BLOCK
  2
*GRP_0040
 70
    65
 10
0.0
 20
0.0
  0
LINE
  8
補助線
  6
BYBLOCK
 62
     0
 10
-23.638257
 20
66.235085
 11
-23.638257
 21
65.985085
  0
LINE
  8
補助線
  6
BYBLOCK
 62
     0
 10
-23.513257
 20
66.110085
 11
-23.763257
 21
66.110085
  0
ENDBLK
  0
BLOCK
  2
*GRP_0041
 70
    65
 10
0.0
 20
0.0
  0
LINE
  8
補助線
  6
BYBLOCK
 62
     0
 10
-23.638257
 20
81.235085
 11
-23.638257
 21
80.985085
  0
LINE
  8
補助線
  6
BYBLOCK
 62
     0
 10
-23.513257
 20
81.110085
 11
-23.763257
 21
81.110085
  0
ENDBLK
  0
BLOCK
  2
*DIM_0042
 70
    65
 10
0.0
 20
0.0
  0
LINE
  8
寸法
  6
BYBLOCK
 62
     0
 10
-23.638255
 20
26.110085
 11
-7.548755
 21
26.110085
  0
LINE
  8
寸法
  6
BYBLOCK
 62
     0
 10
-15.614377
 20
31.960085
 11
-7.548755
 21
31.960085
  0
LINE
  8
寸法
  6
BYBLOCK
 62
     0
 10
-7.548755
 20
26.110085
 11
-7.548755
 21
31.960085
  0
POINT
  8
寸法
 62
     0
 10
-7.548755
 20
26.110085
  0
POINT
  8
寸法
 62
     0
 10
-7.548755
 20
31.960085
  0
TEXT
  7
TextStyle03
  8
寸法
  6
CONTINUOUS
 62
     0
 10
-7.95
 20
26.5875
  1
117
 40
3.0
 50
90.0
 72
     5
 11
-7.95
 21
31.4625
  0
ENDBLK
  0
BLOCK
  2
*DIM_0043
 70
    65
 10
0.0
 20
0.0
  0
LINE
  8
寸法
  6
BYBLOCK
 62
     0
 10
-23.638255
 20
91.110085
 11
-7.548755
 21
91.110085
  0
LINE
  8
寸法
  6
BYBLOCK
 62
     0
 10
-15.614377
 20
85.260085
 11
-7.548755
 21
85.260085
  0
LINE
  8
寸法
  6
BYBLOCK
 62
     0
 10
-7.548755
 20
91.110085
 11
-7.548755
 21
85.260085
  0
POINT
  8
寸法
 62
     0
 10
-7.548755
 20
91.110085
  0
POINT
  8
寸法
 62
     0
 10
-7.548755
 20
85.260085
  0
TEXT
  7
TextStyle03
  8
寸法
  6
CONTINUOUS
 62
     0
 10
-7.95
 20
85.7125
  1
117
 40
3.0
 50
90.0
 72
     5
 11
-7.95
 21
90.5875
  0
ENDBLK
  0
BLOCK
  2
*DIM_0044
 70
    65
 10
0.0
 20
0.0
  0
LINE
  8
寸法
  6
BYBLOCK
 62
     0
 10
-74.638257
 20
101.679975
 11
-74.638257
 21
112.035513
  0
LINE
  8
寸法
  6
BYBLOCK
 62
     0
 10
-39.638257
 20
101.679975
 11
-39.638257
 21
112.035513
  0
LINE
  8
寸法
  6
BYBLOCK
 62
     0
 10
-74.638257
 20
112.035513
 11
-39.638257
 21
112.035513
  0
POINT
  8
寸法
 62
     0
 10
-74.638257
 20
112.035513
  0
POINT
  8
寸法
 62
     0
 10
-39.638257
 20
112.035513
  0
TEXT
  7
TextStyle03
  8
寸法
  6
CONTINUOUS
 62
     0
 10
-59.6125
 20
112.4
  1
700
 40
3.0
 72
     5
 11
-54.7375
 21
112.4
  0
ENDBLK
  0
BLOCK
  2
*DIM_0045
 70
    65
 10
0.0
 20
0.0
  0
LINE
  8
寸法
  6
BYBLOCK
 62
     0
 10
-101.079235
 20
76.110088
 11
-111.434772
 21
76.110088
  0
LINE
  8
寸法
  6
BYBLOCK
 62
     0
 10
-101.079238
 20
41.110088
 11
-111.434775
 21
41.110088
  0
LINE
  8
寸法
  6
BYBLOCK
 62
     0
 10
-111.434772
 20
76.110088
 11
-111.434775
 21
41.110088
  0
POINT
  8
寸法
 62
     0
 10
-111.434772
 20
76.110088
  0
POINT
  8
寸法
 62
     0
 10
-111.434775
 20
41.110088
  0
TEXT
  7
TextStyle03
  8
寸法
  6
CONTINUOUS
 62
     0
 10
-111.85
 20
56.1625
  1
700
 40
3.0
 50
90.0
 72
     5
 11
-111.85
 21
61.0375
  0
ENDBLK
  0
BLOCK
  2
*GRP_0046
 70
    65
 10
0.0
 20
0.0
  0
INSERT
  2
M8横
  8
ゴム等
  6
CONTINUOUS
 10
143.675852
 20
-73.68637
 50
180.0
 41
0.05
 42
-0.05
  0
LINE
  8
ボルト／ビス
  6
CONTINUOUS
 10
143.475852
 20
-73.371372
 11
143.500852
 21
-73.346372
  0
LINE
  8
ボルト／ビス
  6
CONTINUOUS
 10
143.850852
 20
-73.346372
 11
143.875852
 21
-73.371372
  0
LINE
  8
ボルト／ビス
  6
CONTINUOUS
 10
143.875852
 20
-73.371372
 11
143.475852
 21
-73.371372
  0
LINE
  8
ボルト／ビス
  6
CONTINUOUS
 10
143.850852
 20
-73.346372
 11
143.500852
 21
-73.346372
  0
LINE
  8
ボルト／ビス
  6
CONTINUOUS
 10
143.500852
 20
-73.346372
 11
143.500852
 21
-73.41137
  0
LINE
  8
ボルト／ビス
  6
CONTINUOUS
 10
143.475852
 20
-73.371372
 11
143.475852
 21
-73.41137
  0
LINE
  8
ボルト／ビス
  6
CONTINUOUS
 10
143.875852
 20
-73.371372
 11
143.875852
 21
-73.41137
  0
LINE
  8
ボルト／ビス
  6
CONTINUOUS
 10
143.850852
 20
-73.346372
 11
143.850852
 21
-73.41137
  0
LINE
  8
ボルト／ビス
  6
CONTINUOUS
 10
144.225852
 20
-73.68637
 11
143.125852
 21
-73.68637
  0
LINE
  8
ボルト／ビス
  6
CONTINUOUS
 10
143.050852
 20
-73.74637
 11
143.050852
 21
-73.87137
  0
LINE
  8
ボルト／ビス
  6
CONTINUOUS
 10
143.050852
 20
-73.87137
 11
144.300852
 21
-73.87137
  0
LINE
  8
ボルト／ビス
  6
CONTINUOUS
 10
144.300852
 20
-73.87137
 11
144.300852
 21
-73.74637
  0
LINE
  8
ボルト／ビス
  6
CONTINUOUS
 10
143.050852
 20
-73.74637
 11
144.300852
 21
-73.74637
  0
LINE
  8
ボルト／ビス
  6
CONTINUOUS
 10
144.225852
 20
-73.68637
 11
144.225852
 21
-73.74637
  0
LINE
  8
ボルト／ビス
  6
CONTINUOUS
 10
143.125852
 20
-73.68637
 11
143.125852
 21
-73.74637
  0
LINE
  8
ボルト／ビス
  6
CONTINUOUS
 10
143.675852
 20
-73.76137
 11
143.675852
 21
-73.68637
  0
ENDBLK
  0
BLOCK
  2
*GRP_0047
 70
    65
 10
0.0
 20
0.0
  0
LINE
  8
ボルト／ビス
  6
CONTINUOUS
 10
143.985855
 20
-72.39662
 11
143.985855
 21
-72.29662
  0
LINE
  8
ボルト／ビス
  6
CONTINUOUS
 10
143.985855
 20
-72.29662
 11
142.885855
 21
-72.29662
  0
LINE
  8
ボルト／ビス
  6
CONTINUOUS
 10
142.885855
 20
-72.29662
 11
142.885855
 21
-72.39662
  0
LINE
  8
ボルト／ビス
  6
CONTINUOUS
 10
143.985855
 20
-72.39662
 11
142.885855
 21
-72.39662
  0
LINE
  8
ボルト／ビス
  6
CONTINUOUS
 10
143.885855
 20
-72.24662
 11
143.885855
 21
-72.29662
  0
LINE
  8
ボルト／ビス
  6
CONTINUOUS
 10
143.885855
 20
-72.24662
 11
142.985855
 21
-72.24662
  0
LINE
  8
ボルト／ビス
  6
CONTINUOUS
 10
142.985855
 20
-72.24662
 11
142.985855
 21
-72.29662
  0
LINE
  8
ボルト／ビス
  6
CONTINUOUS
 62
    64
 10
143.676418
 20
-71.94662
 11
143.72453
 21
-71.964132
  0
ARC
  8
ボルト／ビス
  6
CONTINUOUS
 62
    64
 10
143.652362
 20
-72.104088
 40
0.157468
 50
90.0
 51
117.278033
  0
ARC
  8
ボルト／ビス
  6
CONTINUOUS
 62
    64
 10
143.435855
 20
-72.550224
 40
0.603603
 50
76.165015
 51
103.834998
  0
LINE
  8
ボルト／ビス
  6
CONTINUOUS
 62
    64
 10
143.195292
 20
-71.94662
 11
143.14718
 21
-71.964132
  0
ARC
  8
ボルト／ビス
  6
CONTINUOUS
 62
    64
 10
143.219349
 20
-72.104088
 40
0.157468
 50
62.721967
 51
90.0
  0
LINE
  8
ボルト／ビス
  6
CONTINUOUS
 62
    64
 10
143.676418
 20
-71.94662
 11
143.195292
 21
-71.94662
  0
LINE
  8
ボルト／ビス
  6
CONTINUOUS
 62
    64
 10
143.14718
 20
-71.964132
 11
143.14718
 21
-72.14662
  0
LINE
  8
ボルト／ビス
  6
CONTINUOUS
 62
    64
 10
143.291518
 20
-71.964132
 11
143.291518
 21
-72.14662
  0
LINE
  8
ボルト／ビス
  6
CONTINUOUS
 62
    64
 10
143.72453
 20
-71.964132
 11
143.72453
 21
-72.14662
  0
LINE
  8
ボルト／ビス
  6
CONTINUOUS
 62
    64
 10
143.580192
 20
-71.964132
 11
143.580192
 21
-72.14662
  0
LINE
  8
ボルト／ビス
  6
CONTINUOUS
 10
143.72453
 20
-72.14662
 11
143.14718
 21
-72.14662
  0
LINE
  8
ボルト／ビス
  6
CONTINUOUS
 10
143.735855
 20
-72.14662
 11
143.735855
 21
-72.24662
  0
LINE
  8
ボルト／ビス
  6
CONTINUOUS
 10
143.735855
 20
-72.14662
 11
143.135855
 21
-72.14662
  0
LINE
  8
ボルト／ビス
  6
CONTINUOUS
 10
143.135855
 20
-72.14662
 11
143.135855
 21
-72.24662
  0
ENDBLK
  0
BLOCK
  2
*GRP_0048
 70
    65
 10
0.0
 20
0.0
  0
INSERT
  2
M8横
  8
ゴム等
  6
CONTINUOUS
 10
76.196773
 20
-73.68637
 41
0.05
 42
0.05
  0
LINE
  8
ボルト／ビス
  6
CONTINUOUS
 10
76.396773
 20
-73.371372
 11
76.371773
 21
-73.346372
  0
LINE
  8
ボルト／ビス
  6
CONTINUOUS
 10
76.021773
 20
-73.346372
 11
75.996773
 21
-73.371372
  0
LINE
  8
ボルト／ビス
  6
CONTINUOUS
 10
75.996773
 20
-73.371372
 11
76.396773
 21
-73.371372
  0
LINE
  8
ボルト／ビス
  6
CONTINUOUS
 10
76.021773
 20
-73.346372
 11
76.371773
 21
-73.346372
  0
LINE
  8
ボルト／ビス
  6
CONTINUOUS
 10
76.371773
 20
-73.346372
 11
76.371773
 21
-73.41137
  0
LINE
  8
ボルト／ビス
  6
CONTINUOUS
 10
76.396773
 20
-73.371372
 11
76.396773
 21
-73.41137
  0
LINE
  8
ボルト／ビス
  6
CONTINUOUS
 10
75.996773
 20
-73.371372
 11
75.996773
 21
-73.41137
  0
LINE
  8
ボルト／ビス
  6
CONTINUOUS
 10
76.021773
 20
-73.346372
 11
76.021773
 21
-73.41137
  0
LINE
  8
ボルト／ビス
  6
CONTINUOUS
 10
75.646773
 20
-73.68637
 11
76.746773
 21
-73.68637
  0
LINE
  8
ボルト／ビス
  6
CONTINUOUS
 10
76.821773
 20
-73.74637
 11
76.821773
 21
-73.87137
  0
LINE
  8
ボルト／ビス
  6
CONTINUOUS
 10
76.821773
 20
-73.87137
 11
75.571773
 21
-73.87137
  0
LINE
  8
ボルト／ビス
  6
CONTINUOUS
 10
75.571773
 20
-73.87137
 11
75.571773
 21
-73.74637
  0
LINE
  8
ボルト／ビス
  6
CONTINUOUS
 10
76.821773
 20
-73.74637
 11
75.571773
 21
-73.74637
  0
LINE
  8
ボルト／ビス
  6
CONTINUOUS
 10
75.646773
 20
-73.68637
 11
75.646773
 21
-73.74637
  0
LINE
  8
ボルト／ビス
  6
CONTINUOUS
 10
76.746773
 20
-73.68637
 11
76.746773
 21
-73.74637
  0
LINE
  8
ボルト／ビス
  6
CONTINUOUS
 10
76.196773
 20
-73.76137
 11
76.196773
 21
-73.68637
  0
ENDBLK
  0
BLOCK
  2
*GRP_0049
 70
    65
 10
0.0
 20
0.0
  0
LINE
  8
ボルト／ビス
  6
CONTINUOUS
 10
75.88677
 20
-72.39662
 11
75.88677
 21
-72.29662
  0
LINE
  8
ボルト／ビス
  6
CONTINUOUS
 10
75.88677
 20
-72.29662
 11
76.98677
 21
-72.29662
  0
LINE
  8
ボルト／ビス
  6
CONTINUOUS
 10
76.98677
 20
-72.29662
 11
76.98677
 21
-72.39662
  0
LINE
  8
ボルト／ビス
  6
CONTINUOUS
 10
75.88677
 20
-72.39662
 11
76.98677
 21
-72.39662
  0
LINE
  8
ボルト／ビス
  6
CONTINUOUS
 10
75.98677
 20
-72.24662
 11
75.98677
 21
-72.29662
  0
LINE
  8
ボルト／ビス
  6
CONTINUOUS
 10
75.98677
 20
-72.24662
 11
76.88677
 21
-72.24662
  0
LINE
  8
ボルト／ビス
  6
CONTINUOUS
 10
76.88677
 20
-72.24662
 11
76.88677
 21
-72.29662
  0
LINE
  8
ボルト／ビス
  6
CONTINUOUS
 62
    64
 10
76.196207
 20
-71.94662
 11
76.148095
 21
-71.964132
  0
ARC
  8
ボルト／ビス
  6
CONTINUOUS
 62
    64
 10
76.220263
 20
-72.104088
 40
0.157468
 50
62.721967
 51
90.0
  0
ARC
  8
ボルト／ビス
  6
CONTINUOUS
 62
    64
 10
76.436769
 20
-72.550224
 40
0.603603
 50
76.165002
 51
103.834985
  0
LINE
  8
ボルト／ビス
  6
CONTINUOUS
 62
    64
 10
76.677333
 20
-71.94662
 11
76.725445
 21
-71.964132
  0
ARC
  8
ボルト／ビス
  6
CONTINUOUS
 62
    64
 10
76.653276
 20
-72.104088
 40
0.157468
 50
90.0
 51
117.278033
  0
LINE
  8
ボルト／ビス
  6
CONTINUOUS
 62
    64
 10
76.196207
 20
-71.94662
 11
76.677333
 21
-71.94662
  0
LINE
  8
ボルト／ビス
  6
CONTINUOUS
 62
    64
 10
76.725445
 20
-71.964132
 11
76.725445
 21
-72.14662
  0
LINE
  8
ボルト／ビス
  6
CONTINUOUS
 62
    64
 10
76.581107
 20
-71.964132
 11
76.581107
 21
-72.14662
  0
LINE
  8
ボルト／ビス
  6
CONTINUOUS
 62
    64
 10
76.148095
 20
-71.964132
 11
76.148095
 21
-72.14662
  0
LINE
  8
ボルト／ビス
  6
CONTINUOUS
 62
    64
 10
76.292432
 20
-71.964132
 11
76.292432
 21
-72.14662
  0
LINE
  8
ボルト／ビス
  6
CONTINUOUS
 10
76.148095
 20
-72.14662
 11
76.725445
 21
-72.14662
  0
LINE
  8
ボルト／ビス
  6
CONTINUOUS
 10
76.13677
 20
-72.14662
 11
76.13677
 21
-72.24662
  0
LINE
  8
ボルト／ビス
  6
CONTINUOUS
 10
76.13677
 20
-72.14662
 11
76.73677
 21
-72.14662
  0
LINE
  8
ボルト／ビス
  6
CONTINUOUS
 10
76.73677
 20
-72.14662
 11
76.73677
 21
-72.24662
  0
ENDBLK
  0
BLOCK
  2
*GRP_0050
 70
    65
 10
0.0
 20
0.0
  0
LINE
  8
型材断面
  6
DOT
 10
144.936312
 20
-73.14662
 11
144.861313
 21
-73.14662
  0
LINE
  8
型材断面
  6
DOT
 10
142.436312
 20
-72.39662
 11
142.436312
 21
-71.29662
  0
LINE
  8
型材断面
  6
DOT
 10
142.510855
 20
-73.87137
 11
144.680855
 21
-73.87137
  0
LINE
  8
型材断面
  6
DOT
 10
144.680855
 20
-74.54637
 11
144.680855
 21
-73.87137
  0
LINE
  8
型材断面
  6
DOT
 62
    47
 10
145.780855
 20
-78.555408
 11
145.855855
 21
-78.555408
  0
LINE
  8
型材断面
  6
DOT
 62
    47
 10
145.855855
 20
-78.555408
 11
145.855855
 21
-78.055408
  0
LINE
  8
型材断面
  6
DOT
 62
    47
 10
145.855855
 20
-78.055408
 11
144.680855
 21
-77.905407
  0
LINE
  8
型材断面
  6
DOT
 62
    47
 10
144.680855
 20
-77.29637
 11
144.680855
 21
-77.905407
  0
LINE
  8
型材断面
  6
DOT
 62
    47
 10
145.385855
 20
-77.29637
 11
145.385855
 21
-74.54637
  0
LINE
  8
型材断面
  6
DOT
 10
144.936312
 20
-73.14662
 11
144.936312
 21
-72.39662
  0
LINE
  8
型材断面
  6
DOT
 10
142.510855
 20
-73.87137
 11
142.510855
 21
-73.14662
  0
INSERT
  2
*GRP_0051
  8
型材断面
  6
DOT
 10
0.0
 20
0.0
  0
INSERT
  2
*GRP_0052
  8
型材断面
  6
DOT
 10
0.0
 20
0.0
  0
LINE
  8
型材断面
  6
DOT
 10
145.855855
 20
-78.555408
 11
109.936312
 21
-78.555408
  0
LINE
  8
型材断面
  6
DOT
 10
145.855855
 20
-78.055408
 11
109.936312
 21
-78.055408
  0
LINE
  8
型材断面
  6
DOT
 10
144.680855
 20
-77.905407
 11
109.936312
 21
-77.905407
  0
LINE
  8
型材断面
  6
DOT
 10
145.385855
 20
-77.29637
 11
109.936312
 21
-77.29637
  0
LINE
  8
型材断面
  6
DOT
 10
144.936312
 20
-73.14662
 11
109.936312
 21
-73.14662
  0
LINE
  8
型材断面
  6
DOT
 10
142.436312
 20
-71.29662
 11
109.936312
 21
-71.29662
  0
LINE
  8
型材断面
  6
DOT
 10
144.936312
 20
-72.39662
 11
109.936312
 21
-72.39662
  0
LINE
  8
型材断面
  6
DOT
 10
144.680855
 20
-73.87137
 11
109.936312
 21
-73.87137
  0
LINE
  8
型材断面
  6
DOT
 10
145.385855
 20
-74.54637
 11
109.936312
 21
-74.54637
  0
LINE
  8
型材断面
  6
DOT
 10
74.936312
 20
-73.14662
 11
75.011312
 21
-73.14662
  0
LINE
  8
型材断面
  6
DOT
 10
77.436312
 20
-72.39662
 11
77.436312
 21
-71.29662
  0
LINE
  8
型材断面
  6
DOT
 10
77.36177
 20
-73.87137
 11
75.19177
 21
-73.87137
  0
LINE
  8
型材断面
  6
DOT
 10
75.19177
 20
-74.54637
 11
75.19177
 21
-73.87137
  0
LINE
  8
型材断面
  6
DOT
 62
    47
 10
74.09177
 20
-78.555408
 11
74.01677
 21
-78.555408
  0
LINE
  8
型材断面
  6
DOT
 62
    47
 10
74.01677
 20
-78.555408
 11
74.01677
 21
-78.055408
  0
LINE
  8
型材断面
  6
DOT
 62
    47
 10
74.01677
 20
-78.055408
 11
75.19177
 21
-77.905407
  0
LINE
  8
型材断面
  6
DOT
 62
    47
 10
75.19177
 20
-77.29637
 11
75.19177
 21
-77.905407
  0
LINE
  8
型材断面
  6
DOT
 62
    47
 10
74.48677
 20
-77.29637
 11
74.48677
 21
-74.54637
  0
LINE
  8
型材断面
  6
DOT
 10
74.936312
 20
-73.14662
 11
74.936312
 21
-72.39662
  0
LINE
  8
型材断面
  6
DOT
 10
77.36177
 20
-73.87137
 11
77.36177
 21
-73.14662
  0
INSERT
  2
*GRP_0053
  8
型材断面
  6
DOT
 10
0.0
 20
0.0
  0
INSERT
  2
*GRP_0054
  8
型材断面
  6
DOT
 10
0.0
 20
0.0
  0
LINE
  8
型材断面
  6
DOT
 10
74.01677
 20
-78.555408
 11
109.936312
 21
-78.555408
  0
LINE
  8
型材断面
  6
DOT
 10
74.01677
 20
-78.055408
 11
109.936312
 21
-78.055408
  0
LINE
  8
型材断面
  6
DOT
 10
75.19177
 20
-77.905407
 11
109.936312
 21
-77.905407
  0
LINE
  8
型材断面
  6
DOT
 10
74.48677
 20
-77.29637
 11
109.936312
 21
-77.29637
  0
LINE
  8
型材断面
  6
DOT
 10
74.936312
 20
-73.14662
 11
109.936312
 21
-73.14662
  0
LINE
  8
型材断面
  6
DOT
 10
77.436312
 20
-71.29662
 11
109.936312
 21
-71.29662
  0
LINE
  8
型材断面
  6
DOT
 10
74.936312
 20
-72.39662
 11
109.936312
 21
-72.39662
  0
LINE
  8
型材断面
  6
DOT
 10
75.19177
 20
-73.87137
 11
109.936312
 21
-73.87137
  0
LINE
  8
型材断面
  6
DOT
 10
74.48677
 20
-74.54637
 11
109.936312
 21
-74.54637
  0
ENDBLK
  0
BLOCK
  2
*GRP_0051
 70
    65
 10
0.0
 20
0.0
  0
INSERT
  2
M8横
  8
ゴム等
  6
DOT
 10
143.675852
 20
-73.68637
 50
180.0
 41
0.05
 42
-0.05
  0
LINE
  8
ボルト／ビス
  6
DOT
 10
143.475852
 20
-73.371372
 11
143.500852
 21
-73.346372
  0
LINE
  8
ボルト／ビス
  6
DOT
 10
143.850852
 20
-73.346372
 11
143.875852
 21
-73.371372
  0
LINE
  8
ボルト／ビス
  6
DOT
 10
143.875852
 20
-73.371372
 11
143.475852
 21
-73.371372
  0
LINE
  8
ボルト／ビス
  6
DOT
 10
143.850852
 20
-73.346372
 11
143.500852
 21
-73.346372
  0
LINE
  8
ボルト／ビス
  6
DOT
 10
143.500852
 20
-73.346372
 11
143.500852
 21
-73.41137
  0
LINE
  8
ボルト／ビス
  6
DOT
 10
143.475852
 20
-73.371372
 11
143.475852
 21
-73.41137
  0
LINE
  8
ボルト／ビス
  6
DOT
 10
143.875852
 20
-73.371372
 11
143.875852
 21
-73.41137
  0
LINE
  8
ボルト／ビス
  6
DOT
 10
143.850852
 20
-73.346372
 11
143.850852
 21
-73.41137
  0
LINE
  8
ボルト／ビス
  6
DOT
 10
144.225852
 20
-73.68637
 11
143.125852
 21
-73.68637
  0
LINE
  8
ボルト／ビス
  6
DOT
 10
143.050852
 20
-73.74637
 11
143.050852
 21
-73.87137
  0
LINE
  8
ボルト／ビス
  6
DOT
 10
143.050852
 20
-73.87137
 11
144.300852
 21
-73.87137
  0
LINE
  8
ボルト／ビス
  6
DOT
 10
144.300852
 20
-73.87137
 11
144.300852
 21
-73.74637
  0
LINE
  8
ボルト／ビス
  6
DOT
 10
143.050852
 20
-73.74637
 11
144.300852
 21
-73.74637
  0
LINE
  8
ボルト／ビス
  6
DOT
 10
144.225852
 20
-73.68637
 11
144.225852
 21
-73.74637
  0
LINE
  8
ボルト／ビス
  6
DOT
 10
143.125852
 20
-73.68637
 11
143.125852
 21
-73.74637
  0
LINE
  8
ボルト／ビス
  6
DOT
 10
143.675852
 20
-73.76137
 11
143.675852
 21
-73.68637
  0
ENDBLK
  0
BLOCK
  2
*GRP_0052
 70
    65
 10
0.0
 20
0.0
  0
LINE
  8
ボルト／ビス
  6
DOT
 10
143.985855
 20
-72.39662
 11
143.985855
 21
-72.29662
  0
LINE
  8
ボルト／ビス
  6
DOT
 10
143.985855
 20
-72.29662
 11
142.885855
 21
-72.29662
  0
LINE
  8
ボルト／ビス
  6
DOT
 10
142.885855
 20
-72.29662
 11
142.885855
 21
-72.39662
  0
LINE
  8
ボルト／ビス
  6
DOT
 10
143.985855
 20
-72.39662
 11
142.885855
 21
-72.39662
  0
LINE
  8
ボルト／ビス
  6
DOT
 10
143.885855
 20
-72.24662
 11
143.885855
 21
-72.29662
  0
LINE
  8
ボルト／ビス
  6
DOT
 10
143.885855
 20
-72.24662
 11
142.985855
 21
-72.24662
  0
LINE
  8
ボルト／ビス
  6
DOT
 10
142.985855
 20
-72.24662
 11
142.985855
 21
-72.29662
  0
LINE
  8
ボルト／ビス
  6
DOT
 62
    64
 10
143.676418
 20
-71.94662
 11
143.72453
 21
-71.964132
  0
ARC
  8
ボルト／ビス
  6
DOT
 62
    64
 10
143.652362
 20
-72.104088
 40
0.157468
 50
90.0
 51
117.278033
  0
ARC
  8
ボルト／ビス
  6
DOT
 62
    64
 10
143.435855
 20
-72.550223
 40
0.603603
 50
76.165015
 51
103.834998
  0
LINE
  8
ボルト／ビス
  6
DOT
 62
    64
 10
143.195292
 20
-71.94662
 11
143.14718
 21
-71.964132
  0
ARC
  8
ボルト／ビス
  6
DOT
 62
    64
 10
143.219349
 20
-72.104088
 40
0.157468
 50
62.721967
 51
90.0
  0
LINE
  8
ボルト／ビス
  6
DOT
 62
    64
 10
143.676418
 20
-71.94662
 11
143.195292
 21
-71.94662
  0
LINE
  8
ボルト／ビス
  6
DOT
 62
    64
 10
143.14718
 20
-71.964132
 11
143.14718
 21
-72.14662
  0
LINE
  8
ボルト／ビス
  6
DOT
 62
    64
 10
143.291518
 20
-71.964132
 11
143.291518
 21
-72.14662
  0
LINE
  8
ボルト／ビス
  6
DOT
 62
    64
 10
143.72453
 20
-71.964132
 11
143.72453
 21
-72.14662
  0
LINE
  8
ボルト／ビス
  6
DOT
 62
    64
 10
143.580192
 20
-71.964132
 11
143.580192
 21
-72.14662
  0
LINE
  8
ボルト／ビス
  6
DOT
 10
143.72453
 20
-72.14662
 11
143.14718
 21
-72.14662
  0
LINE
  8
ボルト／ビス
  6
DOT
 10
143.735855
 20
-72.14662
 11
143.735855
 21
-72.24662
  0
LINE
  8
ボルト／ビス
  6
DOT
 10
143.735855
 20
-72.14662
 11
143.135855
 21
-72.14662
  0
LINE
  8
ボルト／ビス
  6
DOT
 10
143.135855
 20
-72.14662
 11
143.135855
 21
-72.24662
  0
ENDBLK
  0
BLOCK
  2
*GRP_0053
 70
    65
 10
0.0
 20
0.0
  0
INSERT
  2
M8横
  8
ゴム等
  6
DOT
 10
76.196773
 20
-73.68637
 41
0.05
 42
0.05
  0
LINE
  8
ボルト／ビス
  6
DOT
 10
76.396773
 20
-73.371372
 11
76.371773
 21
-73.346372
  0
LINE
  8
ボルト／ビス
  6
DOT
 10
76.021773
 20
-73.346372
 11
75.996773
 21
-73.371372
  0
LINE
  8
ボルト／ビス
  6
DOT
 10
75.996773
 20
-73.371372
 11
76.396773
 21
-73.371372
  0
LINE
  8
ボルト／ビス
  6
DOT
 10
76.021773
 20
-73.346372
 11
76.371773
 21
-73.346372
  0
LINE
  8
ボルト／ビス
  6
DOT
 10
76.371773
 20
-73.346372
 11
76.371773
 21
-73.41137
  0
LINE
  8
ボルト／ビス
  6
DOT
 10
76.396773
 20
-73.371372
 11
76.396773
 21
-73.41137
  0
LINE
  8
ボルト／ビス
  6
DOT
 10
75.996773
 20
-73.371372
 11
75.996773
 21
-73.41137
  0
LINE
  8
ボルト／ビス
  6
DOT
 10
76.021773
 20
-73.346372
 11
76.021773
 21
-73.41137
  0
LINE
  8
ボルト／ビス
  6
DOT
 10
75.646773
 20
-73.68637
 11
76.746773
 21
-73.68637
  0
LINE
  8
ボルト／ビス
  6
DOT
 10
76.821773
 20
-73.74637
 11
76.821773
 21
-73.87137
  0
LINE
  8
ボルト／ビス
  6
DOT
 10
76.821773
 20
-73.87137
 11
75.571773
 21
-73.87137
  0
LINE
  8
ボルト／ビス
  6
DOT
 10
75.571773
 20
-73.87137
 11
75.571773
 21
-73.74637
  0
LINE
  8
ボルト／ビス
  6
DOT
 10
76.821773
 20
-73.74637
 11
75.571773
 21
-73.74637
  0
LINE
  8
ボルト／ビス
  6
DOT
 10
75.646773
 20
-73.68637
 11
75.646773
 21
-73.74637
  0
LINE
  8
ボルト／ビス
  6
DOT
 10
76.746773
 20
-73.68637
 11
76.746773
 21
-73.74637
  0
LINE
  8
ボルト／ビス
  6
DOT
 10
76.196773
 20
-73.76137
 11
76.196773
 21
-73.68637
  0
ENDBLK
  0
BLOCK
  2
*GRP_0054
 70
    65
 10
0.0
 20
0.0
  0
LINE
  8
ボルト／ビス
  6
DOT
 10
75.88677
 20
-72.39662
 11
75.88677
 21
-72.29662
  0
LINE
  8
ボルト／ビス
  6
DOT
 10
75.88677
 20
-72.29662
 11
76.98677
 21
-72.29662
  0
LINE
  8
ボルト／ビス
  6
DOT
 10
76.98677
 20
-72.29662
 11
76.98677
 21
-72.39662
  0
LINE
  8
ボルト／ビス
  6
DOT
 10
75.88677
 20
-72.39662
 11
76.98677
 21
-72.39662
  0
LINE
  8
ボルト／ビス
  6
DOT
 10
75.98677
 20
-72.24662
 11
75.98677
 21
-72.29662
  0
LINE
  8
ボルト／ビス
  6
DOT
 10
75.98677
 20
-72.24662
 11
76.88677
 21
-72.24662
  0
LINE
  8
ボルト／ビス
  6
DOT
 10
76.88677
 20
-72.24662
 11
76.88677
 21
-72.29662
  0
LINE
  8
ボルト／ビス
  6
DOT
 62
    64
 10
76.196207
 20
-71.94662
 11
76.148095
 21
-71.964132
  0
ARC
  8
ボルト／ビス
  6
DOT
 62
    64
 10
76.220263
 20
-72.104088
 40
0.157468
 50
62.721967
 51
90.0
  0
ARC
  8
ボルト／ビス
  6
DOT
 62
    64
 10
76.436769
 20
-72.550223
 40
0.603603
 50
76.165002
 51
103.834985
  0
LINE
  8
ボルト／ビス
  6
DOT
 62
    64
 10
76.677333
 20
-71.94662
 11
76.725445
 21
-71.964132
  0
ARC
  8
ボルト／ビス
  6
DOT
 62
    64
 10
76.653276
 20
-72.104088
 40
0.157468
 50
90.0
 51
117.278033
  0
LINE
  8
ボルト／ビス
  6
DOT
 62
    64
 10
76.196207
 20
-71.94662
 11
76.677333
 21
-71.94662
  0
LINE
  8
ボルト／ビス
  6
DOT
 62
    64
 10
76.725445
 20
-71.964132
 11
76.725445
 21
-72.14662
  0
LINE
  8
ボルト／ビス
  6
DOT
 62
    64
 10
76.581107
 20
-71.964132
 11
76.581107
 21
-72.14662
  0
LINE
  8
ボルト／ビス
  6
DOT
 62
    64
 10
76.148095
 20
-71.964132
 11
76.148095
 21
-72.14662
  0
LINE
  8
ボルト／ビス
  6
DOT
 62
    64
 10
76.292432
 20
-71.964132
 11
76.292432
 21
-72.14662
  0
LINE
  8
ボルト／ビス
  6
DOT
 10
76.148095
 20
-72.14662
 11
76.725445
 21
-72.14662
  0
LINE
  8
ボルト／ビス
  6
DOT
 10
76.13677
 20
-72.14662
 11
76.13677
 21
-72.24662
  0
LINE
  8
ボルト／ビス
  6
DOT
 10
76.13677
 20
-72.14662
 11
76.73677
 21
-72.14662
  0
LINE
  8
ボルト／ビス
  6
DOT
 10
76.73677
 20
-72.14662
 11
76.73677
 21
-72.24662
  0
ENDBLK
  0
BLOCK
  2
*GRP_0055
 70
    65
 10
0.0
 20
0.0
  0
LINE
  8
型材断面
  6
DOT
 10
144.936312
 20
-57.14662
 11
144.861313
 21
-57.14662
  0
LINE
  8
型材断面
  6
DOT
 10
142.436312
 20
-56.39662
 11
142.436312
 21
-55.29662
  0
LINE
  8
型材断面
  6
DOT
 10
142.510855
 20
-57.87137
 11
144.680855
 21
-57.87137
  0
LINE
  8
型材断面
  6
DOT
 10
144.680855
 20
-58.54637
 11
144.680855
 21
-57.87137
  0
LINE
  8
型材断面
  6
DOT
 62
    47
 10
145.780855
 20
-62.555408
 11
145.855855
 21
-62.555408
  0
LINE
  8
型材断面
  6
DOT
 62
    47
 10
145.855855
 20
-62.555408
 11
145.855855
 21
-62.055408
  0
LINE
  8
型材断面
  6
DOT
 62
    47
 10
145.855855
 20
-62.055408
 11
144.680855
 21
-61.905408
  0
LINE
  8
型材断面
  6
DOT
 62
    47
 10
144.680855
 20
-61.29637
 11
144.680855
 21
-61.905408
  0
LINE
  8
型材断面
  6
DOT
 62
    47
 10
145.385855
 20
-61.29637
 11
145.385855
 21
-58.54637
  0
LINE
  8
型材断面
  6
DOT
 10
144.936312
 20
-57.14662
 11
144.936312
 21
-56.39662
  0
LINE
  8
型材断面
  6
DOT
 10
142.510855
 20
-57.87137
 11
142.510855
 21
-57.14662
  0
INSERT
  2
*GRP_0056
  8
型材断面
  6
DOT
 10
0.0
 20
0.0
  0
INSERT
  2
*GRP_0057
  8
型材断面
  6
DOT
 10
0.0
 20
0.0
  0
LINE
  8
型材断面
  6
DOT
 10
145.855855
 20
-62.555408
 11
109.936312
 21
-62.555408
  0
LINE
  8
型材断面
  6
DOT
 10
145.855855
 20
-62.055408
 11
109.936312
 21
-62.055408
  0
LINE
  8
型材断面
  6
DOT
 10
144.680855
 20
-61.905408
 11
109.936312
 21
-61.905408
  0
LINE
  8
型材断面
  6
DOT
 10
145.385855
 20
-61.29637
 11
109.936312
 21
-61.29637
  0
LINE
  8
型材断面
  6
DOT
 10
144.936312
 20
-57.14662
 11
109.936312
 21
-57.14662
  0
LINE
  8
型材断面
  6
DOT
 10
142.436312
 20
-55.29662
 11
109.936312
 21
-55.29662
  0
LINE
  8
型材断面
  6
DOT
 10
144.936312
 20
-56.39662
 11
109.936312
 21
-56.39662
  0
LINE
  8
型材断面
  6
DOT
 10
144.680855
 20
-57.87137
 11
109.936312
 21
-57.87137
  0
LINE
  8
型材断面
  6
DOT
 10
145.385855
 20
-58.54637
 11
109.936312
 21
-58.54637
  0
LINE
  8
型材断面
  6
DOT
 10
74.936312
 20
-57.14662
 11
75.011312
 21
-57.14662
  0
LINE
  8
型材断面
  6
DOT
 10
77.436312
 20
-56.39662
 11
77.436312
 21
-55.29662
  0
LINE
  8
型材断面
  6
DOT
 10
77.36177
 20
-57.87137
 11
75.19177
 21
-57.87137
  0
LINE
  8
型材断面
  6
DOT
 10
75.19177
 20
-58.54637
 11
75.19177
 21
-57.87137
  0
LINE
  8
型材断面
  6
DOT
 62
    47
 10
74.09177
 20
-62.555408
 11
74.01677
 21
-62.555408
  0
LINE
  8
型材断面
  6
DOT
 62
    47
 10
74.01677
 20
-62.555408
 11
74.01677
 21
-62.055408
  0
LINE
  8
型材断面
  6
DOT
 62
    47
 10
74.01677
 20
-62.055408
 11
75.19177
 21
-61.905408
  0
LINE
  8
型材断面
  6
DOT
 62
    47
 10
75.19177
 20
-61.29637
 11
75.19177
 21
-61.905408
  0
LINE
  8
型材断面
  6
DOT
 62
    47
 10
74.48677
 20
-61.29637
 11
74.48677
 21
-58.54637
  0
LINE
  8
型材断面
  6
DOT
 10
74.936312
 20
-57.14662
 11
74.936312
 21
-56.39662
  0
LINE
  8
型材断面
  6
DOT
 10
77.36177
 20
-57.87137
 11
77.36177
 21
-57.14662
  0
INSERT
  2
*GRP_0058
  8
型材断面
  6
DOT
 10
0.0
 20
0.0
  0
INSERT
  2
*GRP_0059
  8
型材断面
  6
DOT
 10
0.0
 20
0.0
  0
LINE
  8
型材断面
  6
DOT
 10
74.01677
 20
-62.555408
 11
109.936312
 21
-62.555408
  0
LINE
  8
型材断面
  6
DOT
 10
74.01677
 20
-62.055408
 11
109.936312
 21
-62.055408
  0
LINE
  8
型材断面
  6
DOT
 10
75.19177
 20
-61.905408
 11
109.936312
 21
-61.905408
  0
LINE
  8
型材断面
  6
DOT
 10
74.48677
 20
-61.29637
 11
109.936312
 21
-61.29637
  0
LINE
  8
型材断面
  6
DOT
 10
74.936312
 20
-57.14662
 11
109.936312
 21
-57.14662
  0
LINE
  8
型材断面
  6
DOT
 10
77.436312
 20
-55.29662
 11
109.936312
 21
-55.29662
  0
LINE
  8
型材断面
  6
DOT
 10
74.936312
 20
-56.39662
 11
109.936312
 21
-56.39662
  0
LINE
  8
型材断面
  6
DOT
 10
75.19177
 20
-57.87137
 11
109.936312
 21
-57.87137
  0
LINE
  8
型材断面
  6
DOT
 10
74.48677
 20
-58.54637
 11
109.936312
 21
-58.54637
  0
INSERT
  2
*GRP_0060
  8
型材断面
  6
DOT
 10
0.0
 20
0.0
  0
ENDBLK
  0
BLOCK
  2
*GRP_0056
 70
    65
 10
0.0
 20
0.0
  0
INSERT
  2
M8横
  8
ゴム等
  6
DOT
 10
143.675852
 20
-57.68637
 50
180.0
 41
0.05
 42
-0.05
  0
LINE
  8
ボルト／ビス
  6
DOT
 10
143.475852
 20
-57.371372
 11
143.500852
 21
-57.346372
  0
LINE
  8
ボルト／ビス
  6
DOT
 10
143.850852
 20
-57.346372
 11
143.875852
 21
-57.371372
  0
LINE
  8
ボルト／ビス
  6
DOT
 10
143.875852
 20
-57.371372
 11
143.475852
 21
-57.371372
  0
LINE
  8
ボルト／ビス
  6
DOT
 10
143.850852
 20
-57.346372
 11
143.500852
 21
-57.346372
  0
LINE
  8
ボルト／ビス
  6
DOT
 10
143.500852
 20
-57.346372
 11
143.500852
 21
-57.41137
  0
LINE
  8
ボルト／ビス
  6
DOT
 10
143.475852
 20
-57.371372
 11
143.475852
 21
-57.41137
  0
LINE
  8
ボルト／ビス
  6
DOT
 10
143.875852
 20
-57.371372
 11
143.875852
 21
-57.41137
  0
LINE
  8
ボルト／ビス
  6
DOT
 10
143.850852
 20
-57.346372
 11
143.850852
 21
-57.41137
  0
LINE
  8
ボルト／ビス
  6
DOT
 10
144.225852
 20
-57.68637
 11
143.125852
 21
-57.68637
  0
LINE
  8
ボルト／ビス
  6
DOT
 10
143.050852
 20
-57.74637
 11
143.050852
 21
-57.87137
  0
LINE
  8
ボルト／ビス
  6
DOT
 10
143.050852
 20
-57.87137
 11
144.300852
 21
-57.87137
  0
LINE
  8
ボルト／ビス
  6
DOT
 10
144.300852
 20
-57.87137
 11
144.300852
 21
-57.74637
  0
LINE
  8
ボルト／ビス
  6
DOT
 10
143.050852
 20
-57.74637
 11
144.300852
 21
-57.74637
  0
LINE
  8
ボルト／ビス
  6
DOT
 10
144.225852
 20
-57.68637
 11
144.225852
 21
-57.74637
  0
LINE
  8
ボルト／ビス
  6
DOT
 10
143.125852
 20
-57.68637
 11
143.125852
 21
-57.74637
  0
LINE
  8
ボルト／ビス
  6
DOT
 10
143.675852
 20
-57.76137
 11
143.675852
 21
-57.68637
  0
ENDBLK
  0
BLOCK
  2
*GRP_0057
 70
    65
 10
0.0
 20
0.0
  0
LINE
  8
ボルト／ビス
  6
DOT
 10
143.985855
 20
-56.39662
 11
143.985855
 21
-56.29662
  0
LINE
  8
ボルト／ビス
  6
DOT
 10
143.985855
 20
-56.29662
 11
142.885855
 21
-56.29662
  0
LINE
  8
ボルト／ビス
  6
DOT
 10
142.885855
 20
-56.29662
 11
142.885855
 21
-56.39662
  0
LINE
  8
ボルト／ビス
  6
DOT
 10
143.985855
 20
-56.39662
 11
142.885855
 21
-56.39662
  0
LINE
  8
ボルト／ビス
  6
DOT
 10
143.885855
 20
-56.24662
 11
143.885855
 21
-56.29662
  0
LINE
  8
ボルト／ビス
  6
DOT
 10
143.885855
 20
-56.24662
 11
142.985855
 21
-56.24662
  0
LINE
  8
ボルト／ビス
  6
DOT
 10
142.985855
 20
-56.24662
 11
142.985855
 21
-56.29662
  0
LINE
  8
ボルト／ビス
  6
DOT
 62
    64
 10
143.676418
 20
-55.94662
 11
143.72453
 21
-55.964132
  0
ARC
  8
ボルト／ビス
  6
DOT
 62
    64
 10
143.652362
 20
-56.104089
 40
0.157468
 50
90.0
 51
117.278033
  0
ARC
  8
ボルト／ビス
  6
DOT
 62
    64
 10
143.435855
 20
-56.550225
 40
0.603603
 50
76.165015
 51
103.834998
  0
LINE
  8
ボルト／ビス
  6
DOT
 62
    64
 10
143.195292
 20
-55.94662
 11
143.14718
 21
-55.964132
  0
ARC
  8
ボルト／ビス
  6
DOT
 62
    64
 10
143.219349
 20
-56.104089
 40
0.157468
 50
62.721967
 51
90.0
  0
LINE
  8
ボルト／ビス
  6
DOT
 62
    64
 10
143.676418
 20
-55.94662
 11
143.195292
 21
-55.94662
  0
LINE
  8
ボルト／ビス
  6
DOT
 62
    64
 10
143.14718
 20
-55.964132
 11
143.14718
 21
-56.14662
  0
LINE
  8
ボルト／ビス
  6
DOT
 62
    64
 10
143.291518
 20
-55.964132
 11
143.291518
 21
-56.14662
  0
LINE
  8
ボルト／ビス
  6
DOT
 62
    64
 10
143.72453
 20
-55.964132
 11
143.72453
 21
-56.14662
  0
LINE
  8
ボルト／ビス
  6
DOT
 62
    64
 10
143.580192
 20
-55.964132
 11
143.580192
 21
-56.14662
  0
LINE
  8
ボルト／ビス
  6
DOT
 10
143.72453
 20
-56.14662
 11
143.14718
 21
-56.14662
  0
LINE
  8
ボルト／ビス
  6
DOT
 10
143.735855
 20
-56.14662
 11
143.735855
 21
-56.24662
  0
LINE
  8
ボルト／ビス
  6
DOT
 10
143.735855
 20
-56.14662
 11
143.135855
 21
-56.14662
  0
LINE
  8
ボルト／ビス
  6
DOT
 10
143.135855
 20
-56.14662
 11
143.135855
 21
-56.24662
  0
ENDBLK
  0
BLOCK
  2
*GRP_0058
 70
    65
 10
0.0
 20
0.0
  0
INSERT
  2
M8横
  8
ゴム等
  6
DOT
 10
76.196773
 20
-57.68637
 41
0.05
 42
0.05
  0
LINE
  8
ボルト／ビス
  6
DOT
 10
76.396773
 20
-57.371372
 11
76.371773
 21
-57.346372
  0
LINE
  8
ボルト／ビス
  6
DOT
 10
76.021773
 20
-57.346372
 11
75.996773
 21
-57.371372
  0
LINE
  8
ボルト／ビス
  6
DOT
 10
75.996773
 20
-57.371372
 11
76.396773
 21
-57.371372
  0
LINE
  8
ボルト／ビス
  6
DOT
 10
76.021773
 20
-57.346372
 11
76.371773
 21
-57.346372
  0
LINE
  8
ボルト／ビス
  6
DOT
 10
76.371773
 20
-57.346372
 11
76.371773
 21
-57.41137
  0
LINE
  8
ボルト／ビス
  6
DOT
 10
76.396773
 20
-57.371372
 11
76.396773
 21
-57.41137
  0
LINE
  8
ボルト／ビス
  6
DOT
 10
75.996773
 20
-57.371372
 11
75.996773
 21
-57.41137
  0
LINE
  8
ボルト／ビス
  6
DOT
 10
76.021773
 20
-57.346372
 11
76.021773
 21
-57.41137
  0
LINE
  8
ボルト／ビス
  6
DOT
 10
75.646773
 20
-57.68637
 11
76.746773
 21
-57.68637
  0
LINE
  8
ボルト／ビス
  6
DOT
 10
76.821773
 20
-57.74637
 11
76.821773
 21
-57.87137
  0
LINE
  8
ボルト／ビス
  6
DOT
 10
76.821773
 20
-57.87137
 11
75.571773
 21
-57.87137
  0
LINE
  8
ボルト／ビス
  6
DOT
 10
75.571773
 20
-57.87137
 11
75.571773
 21
-57.74637
  0
LINE
  8
ボルト／ビス
  6
DOT
 10
76.821773
 20
-57.74637
 11
75.571773
 21
-57.74637
  0
LINE
  8
ボルト／ビス
  6
DOT
 10
75.646773
 20
-57.68637
 11
75.646773
 21
-57.74637
  0
LINE
  8
ボルト／ビス
  6
DOT
 10
76.746773
 20
-57.68637
 11
76.746773
 21
-57.74637
  0
LINE
  8
ボルト／ビス
  6
DOT
 10
76.196773
 20
-57.76137
 11
76.196773
 21
-57.68637
  0
ENDBLK
  0
BLOCK
  2
*GRP_0059
 70
    65
 10
0.0
 20
0.0
  0
LINE
  8
ボルト／ビス
  6
DOT
 10
75.88677
 20
-56.39662
 11
75.88677
 21
-56.29662
  0
LINE
  8
ボルト／ビス
  6
DOT
 10
75.88677
 20
-56.29662
 11
76.98677
 21
-56.29662
  0
LINE
  8
ボルト／ビス
  6
DOT
 10
76.98677
 20
-56.29662
 11
76.98677
 21
-56.39662
  0
LINE
  8
ボルト／ビス
  6
DOT
 10
75.88677
 20
-56.39662
 11
76.98677
 21
-56.39662
  0
LINE
  8
ボルト／ビス
  6
DOT
 10
75.98677
 20
-56.24662
 11
75.98677
 21
-56.29662
  0
LINE
  8
ボルト／ビス
  6
DOT
 10
75.98677
 20
-56.24662
 11
76.88677
 21
-56.24662
  0
LINE
  8
ボルト／ビス
  6
DOT
 10
76.88677
 20
-56.24662
 11
76.88677
 21
-56.29662
  0
LINE
  8
ボルト／ビス
  6
DOT
 62
    64
 10
76.196207
 20
-55.94662
 11
76.148095
 21
-55.964132
  0
ARC
  8
ボルト／ビス
  6
DOT
 62
    64
 10
76.220263
 20
-56.104089
 40
0.157468
 50
62.721967
 51
90.0
  0
ARC
  8
ボルト／ビス
  6
DOT
 62
    64
 10
76.436769
 20
-56.550225
 40
0.603603
 50
76.165002
 51
103.834985
  0
LINE
  8
ボルト／ビス
  6
DOT
 62
    64
 10
76.677333
 20
-55.94662
 11
76.725445
 21
-55.964132
  0
ARC
  8
ボルト／ビス
  6
DOT
 62
    64
 10
76.653276
 20
-56.104089
 40
0.157468
 50
90.0
 51
117.278033
  0
LINE
  8
ボルト／ビス
  6
DOT
 62
    64
 10
76.196207
 20
-55.94662
 11
76.677333
 21
-55.94662
  0
LINE
  8
ボルト／ビス
  6
DOT
 62
    64
 10
76.725445
 20
-55.964132
 11
76.725445
 21
-56.14662
  0
LINE
  8
ボルト／ビス
  6
DOT
 62
    64
 10
76.581107
 20
-55.964132
 11
76.581107
 21
-56.14662
  0
LINE
  8
ボルト／ビス
  6
DOT
 62
    64
 10
76.148095
 20
-55.964132
 11
76.148095
 21
-56.14662
  0
LINE
  8
ボルト／ビス
  6
DOT
 62
    64
 10
76.292432
 20
-55.964132
 11
76.292432
 21
-56.14662
  0
LINE
  8
ボルト／ビス
  6
DOT
 10
76.148095
 20
-56.14662
 11
76.725445
 21
-56.14662
  0
LINE
  8
ボルト／ビス
  6
DOT
 10
76.13677
 20
-56.14662
 11
76.13677
 21
-56.24662
  0
LINE
  8
ボルト／ビス
  6
DOT
 10
76.13677
 20
-56.14662
 11
76.73677
 21
-56.14662
  0
LINE
  8
ボルト／ビス
  6
DOT
 10
76.73677
 20
-56.14662
 11
76.73677
 21
-56.24662
  0
ENDBLK
  0
BLOCK
  2
*GRP_0060
 70
    65
 10
0.0
 20
0.0
  0
LINE
  8
型材断面
  6
DOT
 10
144.936312
 20
-57.14662
 11
144.861313
 21
-57.14662
  0
LINE
  8
型材断面
  6
DOT
 10
142.436312
 20
-56.39662
 11
142.436312
 21
-55.29662
  0
LINE
  8
型材断面
  6
DOT
 10
142.510855
 20
-57.87137
 11
144.680855
 21
-57.87137
  0
LINE
  8
型材断面
  6
DOT
 10
144.680855
 20
-58.54637
 11
144.680855
 21
-57.87137
  0
LINE
  8
型材断面
  6
DOT
 62
    47
 10
145.780855
 20
-62.555408
 11
145.855855
 21
-62.555408
  0
LINE
  8
型材断面
  6
DOT
 62
    47
 10
145.855855
 20
-62.555408
 11
145.855855
 21
-62.055408
  0
LINE
  8
型材断面
  6
DOT
 62
    47
 10
145.855855
 20
-62.055408
 11
144.680855
 21
-61.905408
  0
LINE
  8
型材断面
  6
DOT
 62
    47
 10
144.680855
 20
-61.29637
 11
144.680855
 21
-61.905408
  0
LINE
  8
型材断面
  6
DOT
 62
    47
 10
145.385855
 20
-61.29637
 11
145.385855
 21
-58.54637
  0
LINE
  8
型材断面
  6
DOT
 10
144.936312
 20
-57.14662
 11
144.936312
 21
-56.39662
  0
LINE
  8
型材断面
  6
DOT
 10
142.510855
 20
-57.87137
 11
142.510855
 21
-57.14662
  0
INSERT
  2
*GRP_0061
  8
型材断面
  6
DOT
 10
0.0
 20
0.0
  0
INSERT
  2
*GRP_0062
  8
型材断面
  6
DOT
 10
0.0
 20
0.0
  0
LINE
  8
型材断面
  6
DOT
 10
145.855855
 20
-62.555408
 11
109.936312
 21
-62.555408
  0
LINE
  8
型材断面
  6
DOT
 10
145.855855
 20
-62.055408
 11
109.936312
 21
-62.055408
  0
LINE
  8
型材断面
  6
DOT
 10
144.680855
 20
-61.905408
 11
109.936312
 21
-61.905408
  0
LINE
  8
型材断面
  6
DOT
 10
145.385855
 20
-61.29637
 11
109.936312
 21
-61.29637
  0
LINE
  8
型材断面
  6
DOT
 10
144.936312
 20
-57.14662
 11
109.936312
 21
-57.14662
  0
LINE
  8
型材断面
  6
DOT
 10
142.436312
 20
-55.29662
 11
109.936312
 21
-55.29662
  0
LINE
  8
型材断面
  6
DOT
 10
144.936312
 20
-56.39662
 11
109.936312
 21
-56.39662
  0
LINE
  8
型材断面
  6
DOT
 10
144.680855
 20
-57.87137
 11
109.936312
 21
-57.87137
  0
LINE
  8
型材断面
  6
DOT
 10
145.385855
 20
-58.54637
 11
109.936312
 21
-58.54637
  0
LINE
  8
型材断面
  6
DOT
 10
74.936312
 20
-57.14662
 11
75.011312
 21
-57.14662
  0
LINE
  8
型材断面
  6
DOT
 10
77.436312
 20
-56.39662
 11
77.436312
 21
-55.29662
  0
LINE
  8
型材断面
  6
DOT
 10
77.36177
 20
-57.87137
 11
75.19177
 21
-57.87137
  0
LINE
  8
型材断面
  6
DOT
 10
75.19177
 20
-58.54637
 11
75.19177
 21
-57.87137
  0
LINE
  8
型材断面
  6
DOT
 62
    47
 10
74.09177
 20
-62.555408
 11
74.01677
 21
-62.555408
  0
LINE
  8
型材断面
  6
DOT
 62
    47
 10
74.01677
 20
-62.555408
 11
74.01677
 21
-62.055408
  0
LINE
  8
型材断面
  6
DOT
 62
    47
 10
74.01677
 20
-62.055408
 11
75.19177
 21
-61.905408
  0
LINE
  8
型材断面
  6
DOT
 62
    47
 10
75.19177
 20
-61.29637
 11
75.19177
 21
-61.905408
  0
LINE
  8
型材断面
  6
DOT
 62
    47
 10
74.48677
 20
-61.29637
 11
74.48677
 21
-58.54637
  0
LINE
  8
型材断面
  6
DOT
 10
74.936312
 20
-57.14662
 11
74.936312
 21
-56.39662
  0
LINE
  8
型材断面
  6
DOT
 10
77.36177
 20
-57.87137
 11
77.36177
 21
-57.14662
  0
INSERT
  2
*GRP_0063
  8
型材断面
  6
DOT
 10
0.0
 20
0.0
  0
INSERT
  2
*GRP_0064
  8
型材断面
  6
DOT
 10
0.0
 20
0.0
  0
LINE
  8
型材断面
  6
DOT
 10
74.01677
 20
-62.555408
 11
109.936312
 21
-62.555408
  0
LINE
  8
型材断面
  6
DOT
 10
74.01677
 20
-62.055408
 11
109.936312
 21
-62.055408
  0
LINE
  8
型材断面
  6
DOT
 10
75.19177
 20
-61.905408
 11
109.936312
 21
-61.905408
  0
LINE
  8
型材断面
  6
DOT
 10
74.48677
 20
-61.29637
 11
109.936312
 21
-61.29637
  0
LINE
  8
型材断面
  6
DOT
 10
74.936312
 20
-57.14662
 11
109.936312
 21
-57.14662
  0
LINE
  8
型材断面
  6
DOT
 10
77.436312
 20
-55.29662
 11
109.936312
 21
-55.29662
  0
LINE
  8
型材断面
  6
DOT
 10
74.936312
 20
-56.39662
 11
109.936312
 21
-56.39662
  0
LINE
  8
型材断面
  6
DOT
 10
75.19177
 20
-57.87137
 11
109.936312
 21
-57.87137
  0
LINE
  8
型材断面
  6
DOT
 10
74.48677
 20
-58.54637
 11
109.936312
 21
-58.54637
  0
ENDBLK
  0
BLOCK
  2
*GRP_0061
 70
    65
 10
0.0
 20
0.0
  0
INSERT
  2
M8横
  8
ゴム等
  6
DOT
 10
143.675852
 20
-57.68637
 50
180.0
 41
0.05
 42
-0.05
  0
LINE
  8
ボルト／ビス
  6
DOT
 10
143.475852
 20
-57.371372
 11
143.500852
 21
-57.346372
  0
LINE
  8
ボルト／ビス
  6
DOT
 10
143.850852
 20
-57.346372
 11
143.875852
 21
-57.371372
  0
LINE
  8
ボルト／ビス
  6
DOT
 10
143.875852
 20
-57.371372
 11
143.475852
 21
-57.371372
  0
LINE
  8
ボルト／ビス
  6
DOT
 10
143.850852
 20
-57.346372
 11
143.500852
 21
-57.346372
  0
LINE
  8
ボルト／ビス
  6
DOT
 10
143.500852
 20
-57.346372
 11
143.500852
 21
-57.41137
  0
LINE
  8
ボルト／ビス
  6
DOT
 10
143.475852
 20
-57.371372
 11
143.475852
 21
-57.41137
  0
LINE
  8
ボルト／ビス
  6
DOT
 10
143.875852
 20
-57.371372
 11
143.875852
 21
-57.41137
  0
LINE
  8
ボルト／ビス
  6
DOT
 10
143.850852
 20
-57.346372
 11
143.850852
 21
-57.41137
  0
LINE
  8
ボルト／ビス
  6
DOT
 10
144.225852
 20
-57.68637
 11
143.125852
 21
-57.68637
  0
LINE
  8
ボルト／ビス
  6
DOT
 10
143.050852
 20
-57.74637
 11
143.050852
 21
-57.87137
  0
LINE
  8
ボルト／ビス
  6
DOT
 10
143.050852
 20
-57.87137
 11
144.300852
 21
-57.87137
  0
LINE
  8
ボルト／ビス
  6
DOT
 10
144.300852
 20
-57.87137
 11
144.300852
 21
-57.74637
  0
LINE
  8
ボルト／ビス
  6
DOT
 10
143.050852
 20
-57.74637
 11
144.300852
 21
-57.74637
  0
LINE
  8
ボルト／ビス
  6
DOT
 10
144.225852
 20
-57.68637
 11
144.225852
 21
-57.74637
  0
LINE
  8
ボルト／ビス
  6
DOT
 10
143.125852
 20
-57.68637
 11
143.125852
 21
-57.74637
  0
LINE
  8
ボルト／ビス
  6
DOT
 10
143.675852
 20
-57.76137
 11
143.675852
 21
-57.68637
  0
ENDBLK
  0
BLOCK
  2
*GRP_0062
 70
    65
 10
0.0
 20
0.0
  0
LINE
  8
ボルト／ビス
  6
DOT
 10
143.985855
 20
-56.39662
 11
143.985855
 21
-56.29662
  0
LINE
  8
ボルト／ビス
  6
DOT
 10
143.985855
 20
-56.29662
 11
142.885855
 21
-56.29662
  0
LINE
  8
ボルト／ビス
  6
DOT
 10
142.885855
 20
-56.29662
 11
142.885855
 21
-56.39662
  0
LINE
  8
ボルト／ビス
  6
DOT
 10
143.985855
 20
-56.39662
 11
142.885855
 21
-56.39662
  0
LINE
  8
ボルト／ビス
  6
DOT
 10
143.885855
 20
-56.24662
 11
143.885855
 21
-56.29662
  0
LINE
  8
ボルト／ビス
  6
DOT
 10
143.885855
 20
-56.24662
 11
142.985855
 21
-56.24662
  0
LINE
  8
ボルト／ビス
  6
DOT
 10
142.985855
 20
-56.24662
 11
142.985855
 21
-56.29662
  0
LINE
  8
ボルト／ビス
  6
DOT
 62
    64
 10
143.676418
 20
-55.94662
 11
143.72453
 21
-55.964132
  0
ARC
  8
ボルト／ビス
  6
DOT
 62
    64
 10
143.652362
 20
-56.104088
 40
0.157468
 50
90.0
 51
117.278033
  0
ARC
  8
ボルト／ビス
  6
DOT
 62
    64
 10
143.435855
 20
-56.550224
 40
0.603603
 50
76.165015
 51
103.834998
  0
LINE
  8
ボルト／ビス
  6
DOT
 62
    64
 10
143.195292
 20
-55.94662
 11
143.14718
 21
-55.964132
  0
ARC
  8
ボルト／ビス
  6
DOT
 62
    64
 10
143.219349
 20
-56.104088
 40
0.157468
 50
62.721967
 51
90.0
  0
LINE
  8
ボルト／ビス
  6
DOT
 62
    64
 10
143.676418
 20
-55.94662
 11
143.195292
 21
-55.94662
  0
LINE
  8
ボルト／ビス
  6
DOT
 62
    64
 10
143.14718
 20
-55.964132
 11
143.14718
 21
-56.14662
  0
LINE
  8
ボルト／ビス
  6
DOT
 62
    64
 10
143.291518
 20
-55.964132
 11
143.291518
 21
-56.14662
  0
LINE
  8
ボルト／ビス
  6
DOT
 62
    64
 10
143.72453
 20
-55.964132
 11
143.72453
 21
-56.14662
  0
LINE
  8
ボルト／ビス
  6
DOT
 62
    64
 10
143.580192
 20
-55.964132
 11
143.580192
 21
-56.14662
  0
LINE
  8
ボルト／ビス
  6
DOT
 10
143.72453
 20
-56.14662
 11
143.14718
 21
-56.14662
  0
LINE
  8
ボルト／ビス
  6
DOT
 10
143.735855
 20
-56.14662
 11
143.735855
 21
-56.24662
  0
LINE
  8
ボルト／ビス
  6
DOT
 10
143.735855
 20
-56.14662
 11
143.135855
 21
-56.14662
  0
LINE
  8
ボルト／ビス
  6
DOT
 10
143.135855
 20
-56.14662
 11
143.135855
 21
-56.24662
  0
ENDBLK
  0
BLOCK
  2
*GRP_0063
 70
    65
 10
0.0
 20
0.0
  0
INSERT
  2
M8横
  8
ゴム等
  6
DOT
 10
76.196773
 20
-57.68637
 41
0.05
 42
0.05
  0
LINE
  8
ボルト／ビス
  6
DOT
 10
76.396773
 20
-57.371372
 11
76.371773
 21
-57.346372
  0
LINE
  8
ボルト／ビス
  6
DOT
 10
76.021773
 20
-57.346372
 11
75.996773
 21
-57.371372
  0
LINE
  8
ボルト／ビス
  6
DOT
 10
75.996773
 20
-57.371372
 11
76.396773
 21
-57.371372
  0
LINE
  8
ボルト／ビス
  6
DOT
 10
76.021773
 20
-57.346372
 11
76.371773
 21
-57.346372
  0
LINE
  8
ボルト／ビス
  6
DOT
 10
76.371773
 20
-57.346372
 11
76.371773
 21
-57.41137
  0
LINE
  8
ボルト／ビス
  6
DOT
 10
76.396773
 20
-57.371372
 11
76.396773
 21
-57.41137
  0
LINE
  8
ボルト／ビス
  6
DOT
 10
75.996773
 20
-57.371372
 11
75.996773
 21
-57.41137
  0
LINE
  8
ボルト／ビス
  6
DOT
 10
76.021773
 20
-57.346372
 11
76.021773
 21
-57.41137
  0
LINE
  8
ボルト／ビス
  6
DOT
 10
75.646773
 20
-57.68637
 11
76.746773
 21
-57.68637
  0
LINE
  8
ボルト／ビス
  6
DOT
 10
76.821773
 20
-57.74637
 11
76.821773
 21
-57.87137
  0
LINE
  8
ボルト／ビス
  6
DOT
 10
76.821773
 20
-57.87137
 11
75.571773
 21
-57.87137
  0
LINE
  8
ボルト／ビス
  6
DOT
 10
75.571773
 20
-57.87137
 11
75.571773
 21
-57.74637
  0
LINE
  8
ボルト／ビス
  6
DOT
 10
76.821773
 20
-57.74637
 11
75.571773
 21
-57.74637
  0
LINE
  8
ボルト／ビス
  6
DOT
 10
75.646773
 20
-57.68637
 11
75.646773
 21
-57.74637
  0
LINE
  8
ボルト／ビス
  6
DOT
 10
76.746773
 20
-57.68637
 11
76.746773
 21
-57.74637
  0
LINE
  8
ボルト／ビス
  6
DOT
 10
76.196773
 20
-57.76137
 11
76.196773
 21
-57.68637
  0
ENDBLK
  0
BLOCK
  2
*GRP_0064
 70
    65
 10
0.0
 20
0.0
  0
LINE
  8
ボルト／ビス
  6
DOT
 10
75.88677
 20
-56.39662
 11
75.88677
 21
-56.29662
  0
LINE
  8
ボルト／ビス
  6
DOT
 10
75.88677
 20
-56.29662
 11
76.98677
 21
-56.29662
  0
LINE
  8
ボルト／ビス
  6
DOT
 10
76.98677
 20
-56.29662
 11
76.98677
 21
-56.39662
  0
LINE
  8
ボルト／ビス
  6
DOT
 10
75.88677
 20
-56.39662
 11
76.98677
 21
-56.39662
  0
LINE
  8
ボルト／ビス
  6
DOT
 10
75.98677
 20
-56.24662
 11
75.98677
 21
-56.29662
  0
LINE
  8
ボルト／ビス
  6
DOT
 10
75.98677
 20
-56.24662
 11
76.88677
 21
-56.24662
  0
LINE
  8
ボルト／ビス
  6
DOT
 10
76.88677
 20
-56.24662
 11
76.88677
 21
-56.29662
  0
LINE
  8
ボルト／ビス
  6
DOT
 62
    64
 10
76.196207
 20
-55.94662
 11
76.148095
 21
-55.964132
  0
ARC
  8
ボルト／ビス
  6
DOT
 62
    64
 10
76.220263
 20
-56.104088
 40
0.157468
 50
62.721967
 51
90.0
  0
ARC
  8
ボルト／ビス
  6
DOT
 62
    64
 10
76.436769
 20
-56.550224
 40
0.603603
 50
76.165002
 51
103.834985
  0
LINE
  8
ボルト／ビス
  6
DOT
 62
    64
 10
76.677333
 20
-55.94662
 11
76.725445
 21
-55.964132
  0
ARC
  8
ボルト／ビス
  6
DOT
 62
    64
 10
76.653276
 20
-56.104088
 40
0.157468
 50
90.0
 51
117.278033
  0
LINE
  8
ボルト／ビス
  6
DOT
 62
    64
 10
76.196207
 20
-55.94662
 11
76.677333
 21
-55.94662
  0
LINE
  8
ボルト／ビス
  6
DOT
 62
    64
 10
76.725445
 20
-55.964132
 11
76.725445
 21
-56.14662
  0
LINE
  8
ボルト／ビス
  6
DOT
 62
    64
 10
76.581107
 20
-55.964132
 11
76.581107
 21
-56.14662
  0
LINE
  8
ボルト／ビス
  6
DOT
 62
    64
 10
76.148095
 20
-55.964132
 11
76.148095
 21
-56.14662
  0
LINE
  8
ボルト／ビス
  6
DOT
 62
    64
 10
76.292432
 20
-55.964132
 11
76.292432
 21
-56.14662
  0
LINE
  8
ボルト／ビス
  6
DOT
 10
76.148095
 20
-56.14662
 11
76.725445
 21
-56.14662
  0
LINE
  8
ボルト／ビス
  6
DOT
 10
76.13677
 20
-56.14662
 11
76.13677
 21
-56.24662
  0
LINE
  8
ボルト／ビス
  6
DOT
 10
76.13677
 20
-56.14662
 11
76.73677
 21
-56.14662
  0
LINE
  8
ボルト／ビス
  6
DOT
 10
76.73677
 20
-56.14662
 11
76.73677
 21
-56.24662
  0
ENDBLK
  0
BLOCK
  2
*GRP_0065
 70
    65
 10
0.0
 20
0.0
  0
LINE
  8
型材断面
  6
CONTINUOUS
 10
141.33962
 20
-79.146965
 11
141.705263
 21
-80.142608
  0
LINE
  8
型材断面
  6
CONTINUOUS
 10
141.705263
 20
-80.142608
 11
141.285262
 21
-81.050133
  0
LINE
  8
型材断面
  6
CONTINUOUS
 10
141.285262
 20
-81.050133
 11
140.28962
 21
-81.415775
  0
LINE
  8
型材断面
  6
CONTINUOUS
 10
97.324703
 20
-58.776962
 11
141.33962
 21
-79.146965
  0
LINE
  8
型材断面
  6
CONTINUOUS
 10
96.329058
 20
-59.142605
 11
97.324703
 21
-58.776962
  0
LINE
  8
型材断面
  6
CONTINUOUS
 10
96.329058
 20
-59.142605
 11
95.909058
 21
-60.05013
  0
LINE
  8
型材断面
  6
CONTINUOUS
 10
96.274703
 20
-61.045773
 11
140.28962
 21
-81.415775
  0
LINE
  8
型材断面
  6
CONTINUOUS
 10
95.909058
 20
-60.05013
 11
96.274703
 21
-61.045773
  0
INSERT
  2
*GRP_0067
  8
ボルト／ビス
  6
CONTINUOUS
 62
    64
 10
0.0
 20
0.0
  0
INSERT
  2
*GRP_0068
  8
ボルト／ビス
  6
CONTINUOUS
 62
    64
 10
0.0
 20
0.0
  0
INSERT
  2
*GRP_0069
  8
ボルト／ビス
  6
CONTINUOUS
 62
    64
 10
0.0
 20
0.0
  0
ENDBLK
  0
BLOCK
  2
*GRP_0066
 70
    65
 10
0.0
 20
0.0
  0
LINE
  8
型材断面
  6
CONTINUOUS
 10
96.2747
 20
-79.146965
 11
95.909058
 21
-80.142608
  0
LINE
  8
型材断面
  6
CONTINUOUS
 10
95.909058
 20
-80.142608
 11
96.329058
 21
-81.050133
  0
LINE
  8
型材断面
  6
CONTINUOUS
 10
96.329058
 20
-81.050133
 11
97.3247
 21
-81.415775
  0
LINE
  8
型材断面
  6
CONTINUOUS
 10
140.289617
 20
-58.776962
 11
96.2747
 21
-79.146965
  0
LINE
  8
型材断面
  6
CONTINUOUS
 10
141.285262
 20
-59.142605
 11
140.289617
 21
-58.776962
  0
LINE
  8
型材断面
  6
CONTINUOUS
 10
141.285262
 20
-59.142605
 11
141.705263
 21
-60.05013
  0
LINE
  8
型材断面
  6
CONTINUOUS
 10
141.339617
 20
-61.045773
 11
97.3247
 21
-81.415775
  0
LINE
  8
型材断面
  6
CONTINUOUS
 10
141.705263
 20
-60.05013
 11
141.339617
 21
-61.045773
  0
INSERT
  2
*GRP_0070
  8
ボルト／ビス
  6
CONTINUOUS
 62
    64
 10
0.0
 20
0.0
  0
INSERT
  2
*GRP_0071
  8
ボルト／ビス
  6
CONTINUOUS
 62
    64
 10
0.0
 20
0.0
  0
INSERT
  2
*GRP_0072
  8
ボルト／ビス
  6
CONTINUOUS
 62
    64
 10
0.0
 20
0.0
  0
ENDBLK
  0
BLOCK
  2
*GRP_0067
 70
    65
 10
0.0
 20
0.0
  0
INSERT
  2
*GRP_0073
  8
補助線
  6
CONTINUOUS
 62
    64
 10
0.0
 20
0.0
  0
LINE
  8
ボルト／ビス
  6
CONTINUOUS
 62
    64
 10
97.447452
 20
-59.7022
 11
96.987448
 21
-59.743785
  0
LINE
  8
ボルト／ビス
  6
CONTINUOUS
 62
    64
 10
97.447452
 20
-59.7022
 11
97.713467
 21
-60.079785
  0
LINE
  8
ボルト／ビス
  6
CONTINUOUS
 62
    64
 10
97.059475
 20
-60.540535
 11
96.79346
 21
-60.162953
  0
LINE
  8
ボルト／ビス
  6
CONTINUOUS
 62
    64
 10
97.059475
 20
-60.540535
 11
97.519477
 21
-60.498952
  0
CIRCLE
  8
ボルト／ビス
  6
CONTINUOUS
 62
    64
 10
97.253463
 20
-60.121367
 40
0.4
  0
LINE
  8
ボルト／ビス
  6
CONTINUOUS
 62
    64
 10
97.713467
 20
-60.079785
 11
97.519477
 21
-60.498952
  0
LINE
  8
ボルト／ビス
  6
CONTINUOUS
 62
    64
 10
96.987448
 20
-59.743785
 11
96.79346
 21
-60.162953
  0
ENDBLK
  0
BLOCK
  2
*GRP_0068
 70
    65
 10
0.0
 20
0.0
  0
INSERT
  2
*GRP_0074
  8
補助線
  6
CONTINUOUS
 62
    64
 10
0.0
 20
0.0
  0
LINE
  8
ボルト／ビス
  6
CONTINUOUS
 62
    64
 10
140.554847
 20
-79.652203
 11
140.820862
 21
-80.029788
  0
LINE
  8
ボルト／ビス
  6
CONTINUOUS
 62
    64
 10
140.554847
 20
-79.652203
 11
140.094843
 21
-79.693787
  0
LINE
  8
ボルト／ビス
  6
CONTINUOUS
 62
    64
 10
140.166868
 20
-80.490538
 11
140.626872
 21
-80.448952
  0
LINE
  8
ボルト／ビス
  6
CONTINUOUS
 62
    64
 10
140.166868
 20
-80.490538
 11
139.900852
 21
-80.112953
  0
CIRCLE
  8
ボルト／ビス
  6
CONTINUOUS
 62
    64
 10
140.360858
 20
-80.07137
 40
0.4
  0
LINE
  8
ボルト／ビス
  6
CONTINUOUS
 62
    64
 10
140.094843
 20
-79.693787
 11
139.900852
 21
-80.112953
  0
LINE
  8
ボルト／ビス
  6
CONTINUOUS
 62
    64
 10
140.820862
 20
-80.029788
 11
140.626872
 21
-80.448952
  0
ENDBLK
  0
BLOCK
  2
*GRP_0069
 70
    65
 10
0.0
 20
0.0
  0
INSERT
  2
*GRP_0075
  8
補助線
  6
CONTINUOUS
 62
    64
 10
0.0
 20
0.0
  0
LINE
  8
ボルト／ビス
  6
CONTINUOUS
 62
    64
 10
119.00115
 20
-69.677203
 11
118.541145
 21
-69.718785
  0
LINE
  8
ボルト／ビス
  6
CONTINUOUS
 62
    64
 10
119.00115
 20
-69.677203
 11
119.267165
 21
-70.054785
  0
LINE
  8
ボルト／ビス
  6
CONTINUOUS
 62
    64
 10
118.61317
 20
-70.515535
 11
118.347155
 21
-70.137953
  0
LINE
  8
ボルト／ビス
  6
CONTINUOUS
 62
    64
 10
118.61317
 20
-70.515535
 11
119.073175
 21
-70.473952
  0
CIRCLE
  8
ボルト／ビス
  6
CONTINUOUS
 62
    64
 10
118.80716
 20
-70.09637
 40
0.4
  0
LINE
  8
ボルト／ビス
  6
CONTINUOUS
 62
    64
 10
119.267165
 20
-70.054785
 11
119.073175
 21
-70.473952
  0
LINE
  8
ボルト／ビス
  6
CONTINUOUS
 62
    64
 10
118.541145
 20
-69.718785
 11
118.347155
 21
-70.137953
  0
ENDBLK
  0
BLOCK
  2
*GRP_0070
 70
    65
 10
0.0
 20
0.0
  0
INSERT
  2
*GRP_0076
  8
補助線
  6
CONTINUOUS
 62
    64
 10
0.0
 20
0.0
  0
LINE
  8
ボルト／ビス
  6
CONTINUOUS
 62
    64
 10
140.166868
 20
-59.7022
 11
140.626872
 21
-59.743785
  0
LINE
  8
ボルト／ビス
  6
CONTINUOUS
 62
    64
 10
140.166868
 20
-59.7022
 11
139.900852
 21
-60.079785
  0
LINE
  8
ボルト／ビス
  6
CONTINUOUS
 62
    64
 10
140.554845
 20
-60.540535
 11
140.82086
 21
-60.162953
  0
LINE
  8
ボルト／ビス
  6
CONTINUOUS
 62
    64
 10
140.554845
 20
-60.540535
 11
140.094843
 21
-60.498952
  0
CIRCLE
  8
ボルト／ビス
  6
CONTINUOUS
 62
    64
 10
140.360858
 20
-60.121367
 40
0.4
  0
LINE
  8
ボルト／ビス
  6
CONTINUOUS
 62
    64
 10
139.900852
 20
-60.079785
 11
140.094843
 21
-60.498952
  0
LINE
  8
ボルト／ビス
  6
CONTINUOUS
 62
    64
 10
140.626872
 20
-59.743785
 11
140.82086
 21
-60.162953
  0
ENDBLK
  0
BLOCK
  2
*GRP_0071
 70
    65
 10
0.0
 20
0.0
  0
INSERT
  2
*GRP_0077
  8
補助線
  6
CONTINUOUS
 62
    64
 10
0.0
 20
0.0
  0
LINE
  8
ボルト／ビス
  6
CONTINUOUS
 62
    64
 10
97.059473
 20
-79.652203
 11
96.793457
 21
-80.029788
  0
LINE
  8
ボルト／ビス
  6
CONTINUOUS
 62
    64
 10
97.059473
 20
-79.652203
 11
97.519477
 21
-79.693787
  0
LINE
  8
ボルト／ビス
  6
CONTINUOUS
 62
    64
 10
97.447452
 20
-80.490538
 11
96.987448
 21
-80.448952
  0
LINE
  8
ボルト／ビス
  6
CONTINUOUS
 62
    64
 10
97.447452
 20
-80.490538
 11
97.713467
 21
-80.112953
  0
CIRCLE
  8
ボルト／ビス
  6
CONTINUOUS
 62
    64
 10
97.253463
 20
-80.07137
 40
0.4
  0
LINE
  8
ボルト／ビス
  6
CONTINUOUS
 62
    64
 10
97.519477
 20
-79.693787
 11
97.713467
 21
-80.112953
  0
LINE
  8
ボルト／ビス
  6
CONTINUOUS
 62
    64
 10
96.793457
 20
-80.029788
 11
96.987448
 21
-80.448952
  0
ENDBLK
  0
BLOCK
  2
*GRP_0072
 70
    65
 10
0.0
 20
0.0
  0
INSERT
  2
*GRP_0078
  8
補助線
  6
CONTINUOUS
 62
    64
 10
0.0
 20
0.0
  0
LINE
  8
ボルト／ビス
  6
CONTINUOUS
 62
    64
 10
118.61317
 20
-69.677203
 11
119.073175
 21
-69.718785
  0
LINE
  8
ボルト／ビス
  6
CONTINUOUS
 62
    64
 10
118.61317
 20
-69.677203
 11
118.347155
 21
-70.054785
  0
LINE
  8
ボルト／ビス
  6
CONTINUOUS
 62
    64
 10
119.00115
 20
-70.515535
 11
119.267165
 21
-70.137953
  0
LINE
  8
ボルト／ビス
  6
CONTINUOUS
 62
    64
 10
119.00115
 20
-70.515535
 11
118.541145
 21
-70.473952
  0
CIRCLE
  8
ボルト／ビス
  6
CONTINUOUS
 62
    64
 10
118.80716
 20
-70.09637
 40
0.4
  0
LINE
  8
ボルト／ビス
  6
CONTINUOUS
 62
    64
 10
118.347155
 20
-70.054785
 11
118.541145
 21
-70.473952
  0
LINE
  8
ボルト／ビス
  6
CONTINUOUS
 62
    64
 10
119.073175
 20
-69.718785
 11
119.267165
 21
-70.137953
  0
ENDBLK
  0
BLOCK
  2
*GRP_0073
 70
    65
 10
0.0
 20
0.0
  0
LINE
  8
補助線
  6
BYBLOCK
 62
    64
 10
97.366905
 20
-60.173867
 11
97.140022
 21
-60.068868
  0
LINE
  8
補助線
  6
BYBLOCK
 62
    64
 10
97.305962
 20
-60.007928
 11
97.200963
 21
-60.234807
  0
ENDBLK
  0
BLOCK
  2
*GRP_0074
 70
    65
 10
0.0
 20
0.0
  0
LINE
  8
補助線
  6
BYBLOCK
 62
    64
 10
140.247417
 20
-80.01887
 11
140.474297
 21
-80.12387
  0
LINE
  8
補助線
  6
BYBLOCK
 62
    64
 10
140.413357
 20
-79.95793
 11
140.308358
 21
-80.18481
  0
ENDBLK
  0
BLOCK
  2
*GRP_0075
 70
    65
 10
0.0
 20
0.0
  0
LINE
  8
補助線
  6
BYBLOCK
 62
    64
 10
118.9206
 20
-70.14887
 11
118.69372
 21
-70.04387
  0
LINE
  8
補助線
  6
BYBLOCK
 62
    64
 10
118.85966
 20
-69.982928
 11
118.75466
 21
-70.20981
  0
ENDBLK
  0
BLOCK
  2
*GRP_0076
 70
    65
 10
0.0
 20
0.0
  0
LINE
  8
補助線
  6
BYBLOCK
 62
    64
 10
140.247415
 20
-60.173867
 11
140.474297
 21
-60.068868
  0
LINE
  8
補助線
  6
BYBLOCK
 62
    64
 10
140.308358
 20
-60.007928
 11
140.413357
 21
-60.234807
  0
ENDBLK
  0
BLOCK
  2
*GRP_0077
 70
    65
 10
0.0
 20
0.0
  0
LINE
  8
補助線
  6
BYBLOCK
 62
    64
 10
97.366902
 20
-80.01887
 11
97.140022
 21
-80.12387
  0
LINE
  8
補助線
  6
BYBLOCK
 62
    64
 10
97.200963
 20
-79.95793
 11
97.305962
 21
-80.18481
  0
ENDBLK
  0
BLOCK
  2
*GRP_0078
 70
    65
 10
0.0
 20
0.0
  0
LINE
  8
補助線
  6
BYBLOCK
 62
    64
 10
118.69372
 20
-70.14887
 11
118.9206
 21
-70.04387
  0
LINE
  8
補助線
  6
BYBLOCK
 62
    64
 10
118.75466
 20
-69.982928
 11
118.85966
 21
-70.20981
  0
ENDBLK
  0
BLOCK
  2
*DIM_0079
 70
    65
 10
0.0
 20
0.0
  0
LINE
  8
寸法
  6
CONTINUOUS
 10
150.855855
 20
-78.555408
 11
170.429975
 21
-78.555408
  0
LINE
  8
寸法
  6
CONTINUOUS
 10
150.780855
 20
-62.555408
 11
170.429975
 21
-62.555408
  0
LINE
  8
寸法
  6
CONTINUOUS
 10
170.429975
 20
-78.555408
 11
170.429975
 21
-62.555408
  0
POINT
  8
寸法
 10
170.429975
 20
-78.555408
  0
POINT
  8
寸法
 10
170.429975
 20
-62.555408
  0
TEXT
  7
TextStyle03
  8
寸法
  6
CONTINUOUS
 10
173.8
 20
-79.66875
  1
上昇258以上
 40
3.0
 50
90.0
 72
     5
 11
173.8
 21
-61.48125
  0
ENDBLK
  0
BLOCK
  2
*DIM_0080
 70
    65
 10
0.0
 20
0.0
  0
LINE
  8
寸法
  6
CONTINUOUS
 10
87.89061
 20
75.280877
 11
87.89061
 21
86.534678
  0
LINE
  8
寸法
  6
CONTINUOUS
 10
151.89061
 20
75.280877
 11
151.89061
 21
86.534678
  0
LINE
  8
寸法
  6
CONTINUOUS
 10
87.89061
 20
86.534678
 11
151.89061
 21
86.534678
  0
POINT
  8
寸法
 10
87.89061
 20
86.534678
  0
POINT
  8
寸法
 10
151.89061
 20
86.534678
  0
TEXT
  7
TextStyle03
  8
寸法
  6
CONTINUOUS
 10
116.59375
 20
86.925
  1
1280
 40
3.0
 72
     5
 11
123.15625
 21
86.925
  0
ENDBLK
  0
BLOCK
  2
*DIM_0081
 70
    65
 10
0.0
 20
0.0
  0
LINE
  8
寸法
  6
CONTINUOUS
 10
156.89061
 20
70.280877
 11
172.92131
 21
70.280877
  0
LINE
  8
寸法
  6
CONTINUOUS
 10
156.89061
 20
6.280877
 11
172.92131
 21
6.280877
  0
LINE
  8
寸法
  6
CONTINUOUS
 10
172.92131
 20
70.280877
 11
172.92131
 21
6.280877
  0
POINT
  8
寸法
 10
172.92131
 20
70.280877
  0
POINT
  8
寸法
 10
172.92131
 20
6.280877
  0
TEXT
  7
TextStyle03
  8
寸法
  6
CONTINUOUS
 10
172.525
 20
34.99375
  1
1280
 40
3.0
 50
90.0
 72
     5
 11
172.525
 21
41.55625
  0
ENDBLK
  0
BLOCK
  2
*DIM_0082
 70
    65
 10
0.0
 20
0.0
  0
LINE
  8
寸法
  6
CONTINUOUS
 10
-24.638257
 20
-41.89646
 11
-89.638257
 21
-41.89646
  0
POINT
  8
寸法
 10
-24.638257
 20
-41.89646
  0
POINT
  8
寸法
 10
-89.638257
 20
-41.89646
  0
TEXT
  7
TextStyle03
  8
寸法
  6
CONTINUOUS
 10
-68.86875
 20
-41.525
  1
呼称寸法　1300
 40
3.0
 72
     5
 11
-45.43125
 21
-41.525
  0
ENDBLK
  0
BLOCK
  2
M8横
 70
    64
 10
-88.370132
 20
140.837665
  0
LINE
  8
ボルト／ビス
 10
-95.870132
 20
140.837665
 11
-80.870132
 21
140.837665
  0
LINE
  8
ボルト／ビス
 10
-80.870132
 20
145.837665
 11
-81.370132
 21
146.337665
  0
POLYLINE
  8
ボルト／ビス
 66
     1
  0
VERTEX
  8
ボルト／ビス
 10
-84.120132
 20
146.337665
  0
VERTEX
  8
ボルト／ビス
 10
-84.620132
 20
145.837665
  0
VERTEX
  8
ボルト／ビス
 10
-85.120132
 20
146.337665
  0
SEQEND
  0
POLYLINE
  8
ボルト／ビス
 66
     1
  0
VERTEX
  8
ボルト／ビス
 10
-91.620132
 20
146.337665
  0
VERTEX
  8
ボルト／ビス
 10
-92.120132
 20
145.837665
  0
VERTEX
  8
ボルト／ビス
 10
-92.620132
 20
146.337665
  0
SEQEND
  0
LINE
  8
ボルト／ビス
 10
-95.370132
 20
146.337665
 11
-95.870132
 21
145.837665
  0
LINE
  8
ボルト／ビス
 10
-95.870132
 20
140.837665
 11
-95.870132
 21
145.837665
  0
LINE
  8
ボルト／ビス
 10
-80.870132
 20
140.837665
 11
-80.870132
 21
145.837665
  0
LINE
  8
ボルト／ビス
 10
-95.370132
 20
146.337665
 11
-81.370132
 21
146.337665
  0
LINE
  8
ボルト／ビス
 10
-84.620132
 20
140.837665
 11
-84.620132
 21
145.837665
  0
LINE
  8
ボルト／ビス
 10
-92.120132
 20
140.837665
 11
-92.120132
 21
145.837665
  0
ENDBLK
  0
ENDSEC
  0
SECTION
  2
ENTITIES
  0
POLYLINE
  8
通り芯
  6
CONTINUOUS
 66
     1
 70
     1
  0
VERTEX
  8
通り芯
 10
-210.0
 20
-148.5
  0
VERTEX
  8
通り芯
 10
210.0
 20
-148.5
  0
VERTEX
  8
通り芯
 10
210.0
 20
148.5
  0
VERTEX
  8
通り芯
 10
-210.0
 20
148.5
  0
SEQEND
  0
INSERT
  2
*GRP_0001
  8
型材断面
  6
CONTINUOUS
 10
0.0
 20
0.0
  0
POLYLINE
  8
型材断面
  6
CONTINUOUS
 66
     1
 70
     1
  0
VERTEX
  8
型材断面
 10
-29.783597
 20
-94.850355
  0
VERTEX
  8
型材断面
 10
-78.462273
 20
-94.850355
  0
VERTEX
  8
型材断面
 10
-78.462273
 20
-111.19502
  0
VERTEX
  8
型材断面
 10
-29.783597
 20
-111.19502
  0
SEQEND
  0
LINE
  8
型材断面
  6
CONTINUOUS
 10
-22.138257
 20
-73.14662
 11
-22.213257
 21
-73.14662
  0
LINE
  8
型材断面
  6
CONTINUOUS
 10
-24.638257
 20
-72.39662
 11
-24.638257
 21
-71.29662
  0
LINE
  8
型材断面
  6
CONTINUOUS
 62
    47
 10
-22.538715
 20
-83.24637
 11
-22.613715
 21
-83.24637
  0
LINE
  8
型材断面
  6
CONTINUOUS
 62
    47
 10
-22.538715
 20
-83.24637
 11
-22.538715
 21
-82.49637
  0
LINE
  8
型材断面
  6
CONTINUOUS
 10
-24.563715
 20
-73.87137
 11
-22.393715
 21
-73.87137
  0
LINE
  8
型材断面
  6
CONTINUOUS
 10
-22.393715
 20
-74.54637
 11
-22.393715
 21
-73.87137
  0
LINE
  8
型材断面
  6
CONTINUOUS
 62
    47
 10
-21.293715
 20
-78.555408
 11
-21.218715
 21
-78.555408
  0
LINE
  8
型材断面
  6
CONTINUOUS
 62
    47
 10
-21.218715
 20
-78.555408
 11
-21.218715
 21
-78.055408
  0
LINE
  8
型材断面
  6
CONTINUOUS
 62
    47
 10
-21.218715
 20
-78.055408
 11
-22.393715
 21
-77.905407
  0
LINE
  8
型材断面
  6
CONTINUOUS
 62
    47
 10
-22.393715
 20
-77.29637
 11
-22.393715
 21
-77.905407
  0
LINE
  8
型材断面
  6
CONTINUOUS
 62
    47
 10
-21.688715
 20
-77.29637
 11
-21.688715
 21
-74.54637
  0
LINE
  8
型材断面
  6
CONTINUOUS
 10
-22.138257
 20
-73.14662
 11
-22.138257
 21
-72.39662
  0
LINE
  8
型材断面
  6
CONTINUOUS
 10
-24.563715
 20
-73.87137
 11
-24.563715
 21
-73.14662
  0
LINE
  8
型材断面
  6
CONTINUOUS
 62
    47
 10
-21.688715
 20
-82.49637
 11
-21.688715
 21
-78.555408
  0
INSERT
  2
*GRP_0002
  8
型材断面
  6
DOT
 10
0.0
 20
0.0
  0
INSERT
  2
*GRP_0003
  8
型材断面
  6
DOT
 10
0.0
 20
0.0
  0
LINE
  8
型材断面
  6
CONTINUOUS
 10
-21.688715
 20
-82.49637
 11
-57.138257
 21
-82.49637
  0
LINE
  8
型材断面
  6
CONTINUOUS
 10
-22.538715
 20
-83.24637
 11
-57.138257
 21
-83.24637
  0
LINE
  8
型材断面
  6
CONTINUOUS
 10
-21.218715
 20
-78.555408
 11
-57.138257
 21
-78.555408
  0
LINE
  8
型材断面
  6
CONTINUOUS
 10
-21.218715
 20
-78.055408
 11
-57.138257
 21
-78.055408
  0
LINE
  8
型材断面
  6
CONTINUOUS
 10
-22.393715
 20
-77.905407
 11
-57.138257
 21
-77.905407
  0
LINE
  8
型材断面
  6
CONTINUOUS
 10
-21.688715
 20
-77.29637
 11
-57.138257
 21
-77.29637
  0
LINE
  8
型材断面
  6
CONTINUOUS
 10
-22.138257
 20
-73.14662
 11
-57.138257
 21
-73.14662
  0
LINE
  8
型材断面
  6
CONTINUOUS
 10
-24.638257
 20
-71.29662
 11
-57.138257
 21
-71.29662
  0
LINE
  8
型材断面
  6
CONTINUOUS
 10
-22.138257
 20
-72.39662
 11
-57.138257
 21
-72.39662
  0
LINE
  8
型材断面
  6
CONTINUOUS
 10
-22.393715
 20
-73.87137
 11
-57.138257
 21
-73.87137
  0
LINE
  8
型材断面
  6
CONTINUOUS
 10
-21.688715
 20
-74.54637
 11
-57.138257
 21
-74.54637
  0
LINE
  8
型材断面
  6
CONTINUOUS
 10
-25.888257
 20
59.235085
 11
-24.638257
 21
59.235085
  0
LINE
  8
型材断面
  6
CONTINUOUS
 10
-25.888257
 20
57.985085
 11
-24.638257
 21
57.985085
  0
LINE
  8
型材断面
  6
CONTINUOUS
 10
-92.138257
 20
-73.14662
 11
-92.063257
 21
-73.14662
  0
LINE
  8
型材断面
  6
CONTINUOUS
 10
-89.638257
 20
-72.39662
 11
-89.638257
 21
-71.29662
  0
LINE
  8
型材断面
  6
CONTINUOUS
 62
    47
 10
-91.7378
 20
-83.24637
 11
-91.6628
 21
-83.24637
  0
LINE
  8
型材断面
  6
CONTINUOUS
 62
    47
 10
-91.7378
 20
-83.24637
 11
-91.7378
 21
-82.49637
  0
LINE
  8
型材断面
  6
CONTINUOUS
 10
-89.7128
 20
-73.87137
 11
-91.8828
 21
-73.87137
  0
LINE
  8
型材断面
  6
CONTINUOUS
 10
-91.8828
 20
-74.54637
 11
-91.8828
 21
-73.87137
  0
LINE
  8
型材断面
  6
CONTINUOUS
 62
    47
 10
-92.9828
 20
-78.555408
 11
-93.0578
 21
-78.555408
  0
LINE
  8
型材断面
  6
CONTINUOUS
 62
    47
 10
-93.0578
 20
-78.555408
 11
-93.0578
 21
-78.055408
  0
LINE
  8
型材断面
  6
CONTINUOUS
 62
    47
 10
-93.0578
 20
-78.055408
 11
-91.8828
 21
-77.905407
  0
LINE
  8
型材断面
  6
CONTINUOUS
 62
    47
 10
-91.8828
 20
-77.29637
 11
-91.8828
 21
-77.905407
  0
LINE
  8
型材断面
  6
CONTINUOUS
 62
    47
 10
-92.5878
 20
-77.29637
 11
-92.5878
 21
-74.54637
  0
LINE
  8
型材断面
  6
CONTINUOUS
 10
-92.138257
 20
-73.14662
 11
-92.138257
 21
-72.39662
  0
LINE
  8
型材断面
  6
CONTINUOUS
 10
-89.7128
 20
-73.87137
 11
-89.7128
 21
-73.14662
  0
LINE
  8
型材断面
  6
CONTINUOUS
 62
    47
 10
-92.5878
 20
-82.49637
 11
-92.5878
 21
-78.555408
  0
INSERT
  2
*GRP_0006
  8
型材断面
  6
DOT
 10
0.0
 20
0.0
  0
INSERT
  2
*GRP_0007
  8
型材断面
  6
DOT
 10
0.0
 20
0.0
  0
LINE
  8
型材断面
  6
CONTINUOUS
 10
-92.5878
 20
-82.49637
 11
-57.138257
 21
-82.49637
  0
LINE
  8
型材断面
  6
CONTINUOUS
 10
-91.7378
 20
-83.24637
 11
-57.138257
 21
-83.24637
  0
LINE
  8
型材断面
  6
CONTINUOUS
 10
-93.0578
 20
-78.555408
 11
-57.138257
 21
-78.555408
  0
LINE
  8
型材断面
  6
CONTINUOUS
 10
-93.0578
 20
-78.055408
 11
-57.138257
 21
-78.055408
  0
LINE
  8
型材断面
  6
CONTINUOUS
 10
-91.8828
 20
-77.905407
 11
-57.138257
 21
-77.905407
  0
LINE
  8
型材断面
  6
CONTINUOUS
 10
-92.5878
 20
-77.29637
 11
-57.138257
 21
-77.29637
  0
LINE
  8
型材断面
  6
CONTINUOUS
 10
-92.138257
 20
-73.14662
 11
-57.138257
 21
-73.14662
  0
LINE
  8
型材断面
  6
CONTINUOUS
 10
-89.638257
 20
-71.29662
 11
-57.138257
 21
-71.29662
  0
LINE
  8
型材断面
  6
CONTINUOUS
 10
-92.138257
 20
-72.39662
 11
-57.138257
 21
-72.39662
  0
LINE
  8
型材断面
  6
CONTINUOUS
 10
-91.8828
 20
-73.87137
 11
-57.138257
 21
-73.87137
  0
LINE
  8
型材断面
  6
CONTINUOUS
 10
-92.5878
 20
-74.54637
 11
-57.138257
 21
-74.54637
  0
LINE
  8
型材断面
  6
CONTINUOUS
 10
-88.388257
 20
57.985085
 11
-89.638257
 21
57.985085
  0
LINE
  8
型材断面
  6
CONTINUOUS
 10
-88.388257
 20
59.235085
 11
-89.638257
 21
59.235085
  0
LINE
  8
型材断面
  6
DASHDOT
 10
-89.638257
 20
58.610085
 11
-24.638257
 21
58.610085
  0
LINE
  8
型材断面
  6
CONTINUOUS
 10
-56.513257
 20
89.860085
 11
-56.513257
 21
91.110085
  0
LINE
  8
型材断面
  6
CONTINUOUS
 10
-57.763257
 20
89.860085
 11
-57.763257
 21
91.110085
  0
LINE
  8
型材断面
  6
CONTINUOUS
 10
-25.888257
 20
89.860085
 11
-21.218715
 21
94.529628
  0
LINE
  8
型材断面
  6
CONTINUOUS
 10
-25.888257
 20
89.860085
 11
-56.513257
 21
89.860085
  0
LINE
  8
型材断面
  6
CONTINUOUS
 10
-88.388257
 20
89.860085
 11
-93.0578
 21
94.529628
  0
LINE
  8
型材断面
  6
CONTINUOUS
 10
-57.763257
 20
89.860085
 11
-88.388257
 21
89.860085
  0
LINE
  8
型材断面
  6
CONTINUOUS
 10
-24.638257
 20
91.110085
 11
-89.638257
 21
91.110085
  0
LINE
  8
型材断面
  6
CONTINUOUS
 10
-21.688715
 20
94.059627
 11
-92.5878
 21
94.059627
  0
LINE
  8
型材断面
  6
CONTINUOUS
 10
-21.218715
 20
94.529628
 11
-93.0578
 21
94.529628
  0
LINE
  8
型材断面
  6
CONTINUOUS
 10
-22.138257
 20
93.610085
 11
-92.138257
 21
93.610085
  0
LINE
  8
型材断面
  6
CONTINUOUS
 10
-57.763257
 20
27.360085
 11
-57.763257
 21
26.110085
  0
LINE
  8
型材断面
  6
CONTINUOUS
 10
-56.513257
 20
27.360085
 11
-56.513257
 21
26.110085
  0
LINE
  8
型材断面
  6
CONTINUOUS
 10
-25.888257
 20
27.360085
 11
-21.218715
 21
22.690543
  0
LINE
  8
型材断面
  6
CONTINUOUS
 10
-25.888257
 20
27.360085
 11
-56.513257
 21
27.360085
  0
LINE
  8
型材断面
  6
CONTINUOUS
 10
-88.388257
 20
27.360085
 11
-93.0578
 21
22.690543
  0
LINE
  8
型材断面
  6
CONTINUOUS
 10
-57.763257
 20
27.360085
 11
-88.388257
 21
27.360085
  0
LINE
  8
型材断面
  6
CONTINUOUS
 10
-24.638257
 20
26.110085
 11
-89.638257
 21
26.110085
  0
LINE
  8
型材断面
  6
CONTINUOUS
 10
-21.688715
 20
23.160542
 11
-92.5878
 21
23.160542
  0
LINE
  8
型材断面
  6
CONTINUOUS
 10
-21.218715
 20
22.690543
 11
-93.0578
 21
22.690543
  0
LINE
  8
型材断面
  6
CONTINUOUS
 10
-22.138257
 20
23.610085
 11
-92.138257
 21
23.610085
  0
LINE
  8
型材断面
  6
DASHDOT
 10
-24.638257
 20
-87.120773
 11
-24.638257
 21
26.110085
  0
LINE
  8
型材断面
  6
CONTINUOUS
 10
-25.888257
 20
57.985085
 11
-25.888257
 21
27.360085
  0
LINE
  8
型材断面
  6
CONTINUOUS
 10
-25.888257
 20
59.235085
 11
-25.888257
 21
89.860085
  0
LINE
  8
型材断面
  6
CONTINUOUS
 10
-24.638257
 20
26.110085
 11
-24.638257
 21
91.110085
  0
LINE
  8
型材断面
  6
CONTINUOUS
 10
-21.218715
 20
22.690543
 11
-21.218715
 21
94.529628
  0
LINE
  8
型材断面
  6
CONTINUOUS
 10
-22.138257
 20
23.610085
 11
-22.138257
 21
93.610085
  0
LINE
  8
型材断面
  6
CONTINUOUS
 10
-21.688715
 20
23.160542
 11
-21.688715
 21
94.059627
  0
LINE
  8
型材断面
  6
DASHDOT
 10
-57.138257
 20
-87.120773
 11
-57.138257
 21
91.110085
  0
LINE
  8
型材断面
  6
CONTINUOUS
 10
-88.388257
 20
59.235085
 11
-88.388257
 21
89.860085
  0
LINE
  8
型材断面
  6
DASHDOT
 10
-89.638257
 20
-87.120773
 11
-89.638257
 21
26.110085
  0
LINE
  8
型材断面
  6
CONTINUOUS
 10
-88.388257
 20
57.985085
 11
-88.388257
 21
27.360085
  0
LINE
  8
型材断面
  6
CONTINUOUS
 10
-89.638257
 20
91.110085
 11
-89.638257
 21
26.110085
  0
LINE
  8
型材断面
  6
CONTINUOUS
 10
-92.138257
 20
93.610085
 11
-92.138257
 21
23.610085
  0
LINE
  8
型材断面
  6
CONTINUOUS
 10
-92.5878
 20
94.059627
 11
-92.5878
 21
23.160542
  0
LINE
  8
型材断面
  6
CONTINUOUS
 10
-93.0578
 20
94.529628
 11
-93.0578
 21
22.690543
  0
LINE
  8
型材断面
  6
DOT
 10
-29.747617
 20
91.110085
 11
-29.747617
 21
26.110085
  0
LINE
  8
型材断面
  6
DOT
 10
-27.747617
 20
91.110085
 11
-27.747617
 21
26.110085
  0
LINE
  8
型材断面
  6
CONTINUOUS
 10
-16.614383
 20
58.610085
 11
-12.728622
 21
56.36664
  0
LINE
  8
型材断面
  6
CONTINUOUS
 10
-16.614383
 20
58.610085
 11
-12.728622
 21
60.85353
  0
LINE
  8
型材断面
  6
CONTINUOUS
 10
-12.728622
 20
60.85353
 11
-12.728622
 21
56.36664
  0
LINE
  8
型材断面
  6
CONTINUOUS
 10
-57.138257
 20
99.13396
 11
-59.381703
 21
103.01972
  0
LINE
  8
型材断面
  6
CONTINUOUS
 10
-57.138257
 20
99.13396
 11
-54.894812
 21
103.01972
  0
LINE
  8
型材断面
  6
CONTINUOUS
 10
-54.894812
 20
103.01972
 11
-59.381703
 21
103.01972
  0
LINE
  8
型材断面
  6
CONTINUOUS
 10
-57.138257
 20
18.08621
 11
-59.381703
 21
14.20045
  0
LINE
  8
型材断面
  6
CONTINUOUS
 10
-57.138257
 20
18.08621
 11
-54.894812
 21
14.20045
  0
LINE
  8
型材断面
  6
CONTINUOUS
 10
-54.894812
 20
14.20045
 11
-59.381703
 21
14.20045
  0
LINE
  8
型材断面
  6
CONTINUOUS
 10
-97.662133
 20
58.610085
 11
-101.547893
 21
56.36664
  0
LINE
  8
型材断面
  6
CONTINUOUS
 10
-97.662133
 20
58.610085
 11
-101.547893
 21
60.85353
  0
LINE
  8
型材断面
  6
CONTINUOUS
 10
-101.547893
 20
60.85353
 11
-101.547893
 21
56.36664
  0
LINE
  8
型材断面
  6
CONTINUOUS
 10
11.048102
 20
20.324287
 11
8.804658
 21
16.438528
  0
LINE
  8
型材断面
  6
CONTINUOUS
 10
11.048102
 20
20.324287
 11
13.291547
 21
16.438528
  0
LINE
  8
型材断面
  6
CONTINUOUS
 10
13.291547
 20
16.438528
 11
8.804658
 21
16.438528
  0
LINE
  8
型材断面
  6
CONTINUOUS
 10
11.048102
 20
12.63474
 11
11.942187
 21
8.74898
  0
LINE
  8
型材断面
  6
CONTINUOUS
 10
11.048102
 20
12.63474
 11
10.154018
 21
8.74898
  0
LINE
  8
型材断面
  6
CONTINUOUS
 10
10.154018
 20
8.74898
 11
11.942187
 21
8.74898
  0
LINE
  8
型材断面
  6
CONTINUOUS
 10
2.014222
 20
15.030635
 11
54.670903
 21
15.030635
  0
LINE
  8
型材断面
  6
CONTINUOUS
 10
2.014222
 20
3.830643
 11
54.670903
 21
3.830643
  0
LINE
  8
型材断面
  6
CONTINUOUS
 10
2.014222
 20
-3.009303
 11
54.670903
 21
-3.009303
  0
LINE
  8
型材断面
  6
CONTINUOUS
 10
-16.614377
 20
31.960085
 11
-12.728618
 21
32.85417
  0
LINE
  8
型材断面
  6
CONTINUOUS
 10
-16.614377
 20
31.960085
 11
-12.728618
 21
31.066
  0
LINE
  8
型材断面
  6
CONTINUOUS
 10
-12.728618
 20
31.066
 11
-12.728618
 21
32.85417
  0
LINE
  8
型材断面
  6
CONTINUOUS
 10
-16.614377
 20
85.260085
 11
-12.728618
 21
84.366
  0
LINE
  8
型材断面
  6
CONTINUOUS
 10
-16.614377
 20
85.260085
 11
-12.728618
 21
86.15417
  0
LINE
  8
型材断面
  6
CONTINUOUS
 10
-12.728618
 20
86.15417
 11
-12.728618
 21
84.366
  0
LINE
  8
型材断面
  6
CONTINUOUS
 10
-97.662137
 20
31.960085
 11
-101.547898
 21
32.85417
  0
LINE
  8
型材断面
  6
CONTINUOUS
 10
-97.662137
 20
31.960085
 11
-101.547898
 21
31.066
  0
LINE
  8
型材断面
  6
CONTINUOUS
 10
-101.547898
 20
31.066
 11
-101.547898
 21
32.85417
  0
LINE
  8
型材断面
  6
CONTINUOUS
 10
-97.662137
 20
85.260085
 11
-101.547898
 21
84.366
  0
LINE
  8
型材断面
  6
CONTINUOUS
 10
-97.662137
 20
85.260085
 11
-101.547898
 21
86.15417
  0
LINE
  8
型材断面
  6
CONTINUOUS
 10
-101.547898
 20
86.15417
 11
-101.547898
 21
84.366
  0
POLYLINE
  8
型材断面
  6
CONTINUOUS
 66
     1
 70
     1
  0
VERTEX
  8
型材断面
 10
-48.029713
 20
12.31697
  0
VERTEX
  8
型材断面
 10
-66.584925
 20
12.31697
  0
VERTEX
  8
型材断面
 10
-66.584925
 20
7.524935
  0
VERTEX
  8
型材断面
 10
-48.029713
 20
7.524935
  0
SEQEND
  0
POLYLINE
  8
型材断面
  6
CONTINUOUS
 66
     1
 70
     1
  0
VERTEX
  8
型材断面
 10
-48.029713
 20
108.576345
  0
VERTEX
  8
型材断面
 10
-66.584925
 20
108.576345
  0
VERTEX
  8
型材断面
 10
-66.584925
 20
103.78431
  0
VERTEX
  8
型材断面
 10
-48.029713
 20
103.78431
  0
SEQEND
  0
LINE
  8
型材断面
  6
CONTINUOUS
 10
2.014222
 20
-9.849248
 11
54.670903
 21
-9.849248
  0
LINE
  8
型材断面
  6
CONTINUOUS
 10
144.936312
 20
-73.14662
 11
144.861313
 21
-73.14662
  0
LINE
  8
型材断面
  6
CONTINUOUS
 10
142.436312
 20
-72.39662
 11
142.436312
 21
-71.29662
  0
LINE
  8
型材断面
  6
CONTINUOUS
 62
    47
 10
144.535855
 20
-83.24637
 11
144.460855
 21
-83.24637
  0
LINE
  8
型材断面
  6
CONTINUOUS
 62
    47
 10
144.535855
 20
-83.24637
 11
144.535855
 21
-82.49637
  0
LINE
  8
型材断面
  6
CONTINUOUS
 10
142.510855
 20
-73.87137
 11
144.680855
 21
-73.87137
  0
LINE
  8
型材断面
  6
CONTINUOUS
 10
144.680855
 20
-74.54637
 11
144.680855
 21
-73.87137
  0
LINE
  8
型材断面
  6
CONTINUOUS
 62
    47
 10
145.780855
 20
-78.555408
 11
145.855855
 21
-78.555408
  0
LINE
  8
型材断面
  6
CONTINUOUS
 62
    47
 10
145.855855
 20
-78.555408
 11
145.855855
 21
-78.055408
  0
LINE
  8
型材断面
  6
CONTINUOUS
 62
    47
 10
145.855855
 20
-78.055408
 11
144.680855
 21
-77.905407
  0
LINE
  8
型材断面
  6
CONTINUOUS
 62
    47
 10
144.680855
 20
-77.29637
 11
144.680855
 21
-77.905407
  0
LINE
  8
型材断面
  6
CONTINUOUS
 62
    47
 10
145.385855
 20
-77.29637
 11
145.385855
 21
-74.54637
  0
LINE
  8
型材断面
  6
CONTINUOUS
 10
144.936312
 20
-73.14662
 11
144.936312
 21
-72.39662
  0
LINE
  8
型材断面
  6
CONTINUOUS
 10
142.510855
 20
-73.87137
 11
142.510855
 21
-73.14662
  0
LINE
  8
型材断面
  6
CONTINUOUS
 62
    47
 10
145.385855
 20
-82.49637
 11
145.385855
 21
-78.555408
  0
INSERT
  2
*GRP_0046
  8
型材断面
  6
DOT
 10
0.0
 20
0.0
  0
INSERT
  2
*GRP_0047
  8
型材断面
  6
DOT
 10
0.0
 20
0.0
  0
LINE
  8
型材断面
  6
CONTINUOUS
 10
145.385855
 20
-82.49637
 11
109.936312
 21
-82.49637
  0
LINE
  8
型材断面
  6
CONTINUOUS
 10
144.535855
 20
-83.24637
 11
109.936312
 21
-83.24637
  0
LINE
  8
型材断面
  6
CONTINUOUS
 10
145.855855
 20
-78.555408
 11
109.936312
 21
-78.555408
  0
LINE
  8
型材断面
  6
CONTINUOUS
 10
145.855855
 20
-78.055408
 11
109.936312
 21
-78.055408
  0
LINE
  8
型材断面
  6
CONTINUOUS
 10
144.680855
 20
-77.905407
 11
109.936312
 21
-77.905407
  0
LINE
  8
型材断面
  6
CONTINUOUS
 10
145.385855
 20
-77.29637
 11
109.936312
 21
-77.29637
  0
LINE
  8
型材断面
  6
CONTINUOUS
 10
144.936312
 20
-73.14662
 11
109.936312
 21
-73.14662
  0
LINE
  8
型材断面
  6
CONTINUOUS
 10
142.436312
 20
-71.29662
 11
109.936312
 21
-71.29662
  0
LINE
  8
型材断面
  6
CONTINUOUS
 10
144.936312
 20
-72.39662
 11
109.936312
 21
-72.39662
  0
LINE
  8
型材断面
  6
CONTINUOUS
 10
144.680855
 20
-73.87137
 11
109.936312
 21
-73.87137
  0
LINE
  8
型材断面
  6
CONTINUOUS
 10
145.385855
 20
-74.54637
 11
109.936312
 21
-74.54637
  0
LINE
  8
型材断面
  6
CONTINUOUS
 10
74.936312
 20
-73.14662
 11
75.011312
 21
-73.14662
  0
LINE
  8
型材断面
  6
CONTINUOUS
 10
77.436312
 20
-72.39662
 11
77.436312
 21
-71.29662
  0
LINE
  8
型材断面
  6
CONTINUOUS
 62
    47
 10
75.33677
 20
-83.24637
 11
75.41177
 21
-83.24637
  0
LINE
  8
型材断面
  6
CONTINUOUS
 62
    47
 10
75.33677
 20
-83.24637
 11
75.33677
 21
-82.49637
  0
LINE
  8
型材断面
  6
CONTINUOUS
 10
77.36177
 20
-73.87137
 11
75.19177
 21
-73.87137
  0
LINE
  8
型材断面
  6
CONTINUOUS
 10
75.19177
 20
-74.54637
 11
75.19177
 21
-73.87137
  0
LINE
  8
型材断面
  6
CONTINUOUS
 62
    47
 10
74.09177
 20
-78.555408
 11
74.01677
 21
-78.555408
  0
LINE
  8
型材断面
  6
CONTINUOUS
 62
    47
 10
74.01677
 20
-78.555408
 11
74.01677
 21
-78.055408
  0
LINE
  8
型材断面
  6
CONTINUOUS
 62
    47
 10
74.01677
 20
-78.055408
 11
75.19177
 21
-77.905407
  0
LINE
  8
型材断面
  6
CONTINUOUS
 62
    47
 10
75.19177
 20
-77.29637
 11
75.19177
 21
-77.905407
  0
LINE
  8
型材断面
  6
CONTINUOUS
 62
    47
 10
74.48677
 20
-77.29637
 11
74.48677
 21
-74.54637
  0
LINE
  8
型材断面
  6
CONTINUOUS
 10
74.936312
 20
-73.14662
 11
74.936312
 21
-72.39662
  0
LINE
  8
型材断面
  6
CONTINUOUS
 10
77.36177
 20
-73.87137
 11
77.36177
 21
-73.14662
  0
LINE
  8
型材断面
  6
CONTINUOUS
 62
    47
 10
74.48677
 20
-82.49637
 11
74.48677
 21
-78.555408
  0
INSERT
  2
*GRP_0048
  8
型材断面
  6
DOT
 10
0.0
 20
0.0
  0
INSERT
  2
*GRP_0049
  8
型材断面
  6
DOT
 10
0.0
 20
0.0
  0
LINE
  8
型材断面
  6
CONTINUOUS
 10
74.48677
 20
-82.49637
 11
109.936312
 21
-82.49637
  0
LINE
  8
型材断面
  6
CONTINUOUS
 10
75.33677
 20
-83.24637
 11
109.936312
 21
-83.24637
  0
LINE
  8
型材断面
  6
CONTINUOUS
 10
74.01677
 20
-78.555408
 11
109.936312
 21
-78.555408
  0
LINE
  8
型材断面
  6
CONTINUOUS
 10
74.01677
 20
-78.055408
 11
109.936312
 21
-78.055408
  0
LINE
  8
型材断面
  6
CONTINUOUS
 10
75.19177
 20
-77.905407
 11
109.936312
 21
-77.905407
  0
LINE
  8
型材断面
  6
CONTINUOUS
 10
74.48677
 20
-77.29637
 11
109.936312
 21
-77.29637
  0
LINE
  8
型材断面
  6
CONTINUOUS
 10
74.936312
 20
-73.14662
 11
109.936312
 21
-73.14662
  0
LINE
  8
型材断面
  6
CONTINUOUS
 10
77.436312
 20
-71.29662
 11
109.936312
 21
-71.29662
  0
LINE
  8
型材断面
  6
CONTINUOUS
 10
74.936312
 20
-72.39662
 11
109.936312
 21
-72.39662
  0
LINE
  8
型材断面
  6
CONTINUOUS
 10
75.19177
 20
-73.87137
 11
109.936312
 21
-73.87137
  0
LINE
  8
型材断面
  6
CONTINUOUS
 10
74.48677
 20
-74.54637
 11
109.936312
 21
-74.54637
  0
INSERT
  2
*GRP_0050
  8
型材断面
  6
DOT
 10
0.0
 20
0.0
  0
INSERT
  2
*GRP_0055
  8
型材断面
  6
DOT
 10
0.0
 20
0.0
  0
INSERT
  2
*GRP_0065
  8
型材断面
  6
CONTINUOUS
 10
0.0
 20
0.0
  0
INSERT
  2
*GRP_0066
  8
型材断面
  6
CONTINUOUS
 10
0.0
 20
0.0
  0
LINE
  8
ガラス
  6
CONTINUOUS
 10
-55.121562
 20
60.575015
 11
-59.06801
 21
56.62857
  0
LINE
  8
ガラス
  6
CONTINUOUS
 10
-56.105822
 20
57.612827
 11
-58.083748
 21
59.590762
  0
LINE
  8
ガラス
  6
CONTINUOUS
 10
-57.38539
 20
57.658505
 11
-55.860615
 21
59.18328
  0
LINE
  8
ガラス
  6
CONTINUOUS
 10
-56.804183
 20
59.545085
 11
-58.328953
 21
58.020313
  0
POLYLINE
  8
ガラス
  6
CONTINUOUS
 66
     1
 70
     1
  0
VERTEX
  8
ガラス
 10
151.89061
 20
70.280877
  0
VERTEX
  8
ガラス
 10
87.89061
 20
70.280877
  0
VERTEX
  8
ガラス
 10
87.89061
 20
6.280877
  0
VERTEX
  8
ガラス
 10
151.89061
 20
6.280877
  0
SEQEND
  0
CIRCLE
  8
ボルト／ビス
  6
CONTINUOUS
 10
-49.638257
 20
92.110085
 40
0.288675
  0
CIRCLE
  8
ボルト／ビス
  6
CONTINUOUS
 10
-49.638257
 20
92.110085
 40
0.455885
  0
CIRCLE
  8
ボルト／ビス
  6
CONTINUOUS
 10
-34.638257
 20
92.110085
 40
0.288675
  0
CIRCLE
  8
ボルト／ビス
  6
CONTINUOUS
 10
-34.638257
 20
92.110085
 40
0.455885
  0
CIRCLE
  8
ボルト／ビス
  6
CONTINUOUS
 10
-64.638257
 20
92.110085
 40
0.288675
  0
CIRCLE
  8
ボルト／ビス
  6
CONTINUOUS
 10
-64.638257
 20
92.110085
 40
0.455885
  0
CIRCLE
  8
ボルト／ビス
  6
CONTINUOUS
 10
-79.638257
 20
92.110085
 40
0.288675
  0
CIRCLE
  8
ボルト／ビス
  6
CONTINUOUS
 10
-79.638257
 20
92.110085
 40
0.455885
  0
CIRCLE
  8
ボルト／ビス
  6
CONTINUOUS
 10
-90.638255
 20
66.110088
 40
0.288675
  0
CIRCLE
  8
ボルト／ビス
  6
CONTINUOUS
 10
-90.638255
 20
66.110088
 40
0.455885
  0
CIRCLE
  8
ボルト／ビス
  6
CONTINUOUS
 10
-90.638255
 20
81.110088
 40
0.288675
  0
CIRCLE
  8
ボルト／ビス
  6
CONTINUOUS
 10
-90.638255
 20
81.110088
 40
0.455885
  0
CIRCLE
  8
ボルト／ビス
  6
CONTINUOUS
 10
-90.638255
 20
51.110082
 40
0.288675
  0
CIRCLE
  8
ボルト／ビス
  6
CONTINUOUS
 10
-90.638255
 20
51.110082
 40
0.455885
  0
CIRCLE
  8
ボルト／ビス
  6
CONTINUOUS
 10
-90.638255
 20
36.110082
 40
0.288675
  0
CIRCLE
  8
ボルト／ビス
  6
CONTINUOUS
 10
-90.638255
 20
36.110082
 40
0.455885
  0
CIRCLE
  8
ボルト／ビス
  6
CONTINUOUS
 10
-64.63826
 20
25.110088
 40
0.288675
  0
CIRCLE
  8
ボルト／ビス
  6
CONTINUOUS
 10
-64.63826
 20
25.110088
 40
0.455885
  0
CIRCLE
  8
ボルト／ビス
  6
CONTINUOUS
 10
-79.63826
 20
25.110088
 40
0.288675
  0
CIRCLE
  8
ボルト／ビス
  6
CONTINUOUS
 10
-79.63826
 20
25.110088
 40
0.455885
  0
CIRCLE
  8
ボルト／ビス
  6
CONTINUOUS
 10
-49.638255
 20
25.110088
 40
0.288675
  0
CIRCLE
  8
ボルト／ビス
  6
CONTINUOUS
 10
-49.638255
 20
25.110088
 40
0.455885
  0
CIRCLE
  8
ボルト／ビス
  6
CONTINUOUS
 10
-34.638255
 20
25.110088
 40
0.288675
  0
CIRCLE
  8
ボルト／ビス
  6
CONTINUOUS
 10
-34.638255
 20
25.110088
 40
0.455885
  0
CIRCLE
  8
ボルト／ビス
  6
CONTINUOUS
 10
-23.638257
 20
51.110085
 40
0.288675
  0
CIRCLE
  8
ボルト／ビス
  6
CONTINUOUS
 10
-23.638257
 20
51.110085
 40
0.455885
  0
CIRCLE
  8
ボルト／ビス
  6
CONTINUOUS
 10
-23.638257
 20
36.110085
 40
0.288675
  0
CIRCLE
  8
ボルト／ビス
  6
CONTINUOUS
 10
-23.638257
 20
36.110085
 40
0.455885
  0
CIRCLE
  8
ボルト／ビス
  6
CONTINUOUS
 10
-23.638257
 20
66.110085
 40
0.288675
  0
CIRCLE
  8
ボルト／ビス
  6
CONTINUOUS
 10
-23.638257
 20
66.110085
 40
0.455885
  0
CIRCLE
  8
ボルト／ビス
  6
CONTINUOUS
 10
-23.638257
 20
81.110085
 40
0.288675
  0
CIRCLE
  8
ボルト／ビス
  6
CONTINUOUS
 10
-23.638257
 20
81.110085
 40
0.455885
  0
TEXT
  7
TextStyle03
  8
文字
  6
CONTINUOUS
 10
-74.125
 20
-100.575
  1
※トップライト枠高さ寸法
 40
3.0
 72
     5
 11
-34.0
 21
-100.575
  0
TEXT
  7
TextStyle03
  8
文字
  6
CONTINUOUS
 10
-74.125
 20
-103.95
  1
　シングルガラス：214
 40
3.0
 72
     5
 11
-38.875
 21
-103.95
  0
TEXT
  7
TextStyle03
  8
文字
  6
CONTINUOUS
 10
-74.125
 20
-107.325
  1
　ペアガラス：224
 40
3.0
 72
     5
 11
-45.625
 21
-107.325
  0
TEXT
  7
TextStyle03
  8
文字
  6
CONTINUOUS
 10
-15.975
 20
44.8
  1
ﾊﾞﾗﾝｽｽﾃｰ
 40
3.0
 72
     5
 11
-2.6625
 21
44.8
  0
TEXT
  7
TextStyle03
  8
文字
  6
CONTINUOUS
 10
15.275
 20
16.75
  1
は排水穴位置を示す
 40
3.0
 72
     5
 11
45.275
 21
16.75
  0
TEXT
  7
TextStyle03
  8
文字
  6
CONTINUOUS
 10
15.275
 20
8.9
  1
はケーシング位置を示す
 40
3.0
 72
     5
 11
52.025
 21
8.9
  0
TEXT
  7
TextStyle03
  8
文字
  6
CONTINUOUS
 10
15.275
 20
5.525
  1
４ヶ所中1ヶ所に設定
 40
3.0
 72
     5
 11
46.9625
 21
5.525
  0
INSERT
  2
*GRP_0010
  8
文字
  6
CONTINUOUS
 10
0.0
 20
0.0
  0
INSERT
  2
*GRP_0012
  8
文字
  6
CONTINUOUS
 10
0.0
 20
0.0
  0
INSERT
  2
*GRP_0014
  8
文字
  6
CONTINUOUS
 10
0.0
 20
0.0
  0
INSERT
  2
*GRP_0015
  8
文字
  6
CONTINUOUS
 10
0.0
 20
0.0
  0
INSERT
  2
*GRP_0018
  8
文字
  6
CONTINUOUS
 10
0.0
 20
0.0
  0
INSERT
  2
*GRP_0019
  8
文字
  6
CONTINUOUS
 10
0.0
 20
0.0
  0
INSERT
  2
*GRP_0022
  8
文字
  6
CONTINUOUS
 10
0.0
 20
0.0
  0
INSERT
  2
*GRP_0023
  8
文字
  6
CONTINUOUS
 10
0.0
 20
0.0
  0
INSERT
  2
*GRP_0026
  8
文字
  6
CONTINUOUS
 10
0.0
 20
0.0
  0
INSERT
  2
*GRP_0027
  8
文字
  6
CONTINUOUS
 10
0.0
 20
0.0
  0
INSERT
  2
*GRP_0030
  8
文字
  6
CONTINUOUS
 10
0.0
 20
0.0
  0
INSERT
  2
*GRP_0031
  8
文字
  6
CONTINUOUS
 10
0.0
 20
0.0
  0
INSERT
  2
*GRP_0034
  8
文字
  6
CONTINUOUS
 10
0.0
 20
0.0
  0
INSERT
  2
*GRP_0035
  8
文字
  6
CONTINUOUS
 10
0.0
 20
0.0
  0
INSERT
  2
*GRP_0038
  8
文字
  6
CONTINUOUS
 10
0.0
 20
0.0
  0
INSERT
  2
*GRP_0039
  8
文字
  6
CONTINUOUS
 10
0.0
 20
0.0
  0
TEXT
  7
TextStyle03
  8
文字
  6
CONTINUOUS
 10
-65.65
 20
8.5
  1
可動装置側
 40
3.0
 72
     5
 11
-49.15
 21
8.5
  0
TEXT
  7
TextStyle03
  8
文字
  6
CONTINUOUS
 10
-65.65
 20
104.75
  1
可動装置側
 40
3.0
 72
     5
 11
-49.15
 21
104.75
  0
TEXT
  7
TextStyle03
  8
文字
  6
CONTINUOUS
 10
9.65
 20
-8.45
  1
アームユニット数　２ヶ所
 40
3.0
 72
     5
 11
49.775
 21
-8.45
  0
TEXT
  7
TextStyle03
  8
文字
  6
CONTINUOUS
 10
9.675
 20
-1.625
  1
アンカー数量　８ヶ所
 40
3.0
 72
     5
 11
43.05
 21
-1.625
  0
TEXT
  7
TextStyle03
  8
文字
  6
CONTINUOUS
 10
-85.375
 20
118.025
  1
アンカーピッチ
 40
3.0
 72
     5
 11
-62.125
 21
118.025
  0
TEXT
  7
TextStyle03
  8
文字
  6
CONTINUOUS
 10
-117.45
 20
32.5
  1
アンカーピッチ
 40
3.0
 50
90.0
 72
     5
 11
-117.45
 21
55.75
  0
TEXT
  7
TextStyle03
  8
文字
  6
CONTINUOUS
 10
137.025
 20
9.925
  1
×１枚
 40
3.0
 72
     5
 11
146.775
 21
9.925
  0
TEXT
  7
TextStyle03
  8
文字
  6
CONTINUOUS
 10
86.0
 20
92.5
  1
ガラス寸法
 40
3.0
 72
     5
 11
102.5
 21
92.5
  0
LINE
  8
文字
  6
CONTINUOUS
 10
84.262175
 20
91.75237
 11
104.186578
 21
91.75237
  0
TEXT
  7
TextStyle03
  8
文字
  6
CONTINUOUS
 10
73.075
 20
125.25
  1
シリーズ：ＳＴＦＦ
 40
5.0
 72
     5
 11
123.075
 21
125.25
  0
TEXT
  7
TextStyle03
  8
文字
  6
CONTINUOUS
 10
73.075
 20
119.625
  1
　　　　　（上下可動）1300×1300タイプ
 40
5.0
 72
     5
 11
179.325
 21
119.625
  0
TEXT
  7
TextStyle03
  8
文字
  6
CONTINUOUS
 10
73.075
 20
114.0
  1
図面名　：外観姿図
 40
5.0
 72
     5
 11
123.075
 21
114.0
  0
TEXT
  7
TextStyle03
  8
文字
  6
CONTINUOUS
 10
73.075
 20
108.375
  1
　　　　　　
 40
5.0
 72
     5
 11
106.2
 21
108.375
  0
INSERT
  2
*DIM_0004
  8
寸法
  6
CONTINUOUS
 10
0.0
 20
0.0
  0
INSERT
  2
*DIM_0005
  8
寸法
  6
CONTINUOUS
 10
0.0
 20
0.0
  0
INSERT
  2
*DIM_0008
  8
寸法
  6
CONTINUOUS
 10
0.0
 20
0.0
  0
INSERT
  2
*GRP_0009
  8
寸法
  6
CONTINUOUS
 10
0.0
 20
0.0
  0
INSERT
  2
*DIM_0042
  8
寸法
  6
CONTINUOUS
 10
0.0
 20
0.0
  0
INSERT
  2
*DIM_0043
  8
寸法
  6
CONTINUOUS
 10
0.0
 20
0.0
  0
INSERT
  2
*DIM_0044
  8
寸法
  6
CONTINUOUS
 10
0.0
 20
0.0
  0
INSERT
  2
*DIM_0045
  8
寸法
  6
CONTINUOUS
 10
0.0
 20
0.0
  0
INSERT
  2
*DIM_0079
  8
寸法
  6
CONTINUOUS
 10
0.0
 20
0.0
  0
INSERT
  2
*DIM_0080
  8
寸法
  6
CONTINUOUS
 10
0.0
 20
0.0
  0
INSERT
  2
*DIM_0081
  8
寸法
  6
CONTINUOUS
 10
0.0
 20
0.0
  0
INSERT
  2
*DIM_0082
  8
寸法
  6
CONTINUOUS
 10
0.0
 20
0.0
  0
ENDSEC
  0
EOF
