  0
SECTION
  2
HEADER
  9
$EXTMIN
 10
-210.0
 20
-148.5
  9
$EXTMAX
 10
210.0
 20
148.5
  9
$PDMODE
 70
    32
  9
$PDSIZE
 40
1.5
  9
$LTSCALE
 40
10.0
  0
ENDSEC
  0
SECTION
  2
TABLES
  0
TABLE
  2
LTYPE
 70
    15
  0
LTYPE
  2
CONTINUOUS
 70
    64
  3
実線
 72
    65
 73
     0
 40
0.0
  0
LTYPE
  2
DASHED
 70
    64
  3
破線A
 72
    65
 73
     2
 40
0.6
 49
0.4
 49
-0.2
  0
LTYPE
  2
DASHEDX2
 70
    64
  3
破線B
 72
    65
 73
     2
 40
1.3
 49
0.9
 49
-0.4
  0
LTYPE
  2
DASHDOT
 70
    64
  3
１点鎖線A
 72
    65
 73
     4
 40
0.5375
 49
0.375
 49
-0.05
 49
0.0625
 49
-0.05
  0
LTYPE
  2
DASHDOTX2
 70
    64
  3
１点鎖線B
 72
    65
 73
     4
 40
1.075
 49
0.75
 49
-0.1
 49
0.125
 49
-0.1
  0
LTYPE
  2
DIVIDE2
 70
    64
  3
２点鎖線A
 72
    65
 73
     6
 40
0.5125
 49
0.3
 49
-0.0375
 49
0.05
 49
-0.0375
 49
0.05
 49
-0.0375
  0
LTYPE
  2
DIVIDE
 70
    64
  3
２点鎖線B
 72
    65
 73
     6
 40
1.05
 49
0.55
 49
-0.1
 49
0.1
 49
-0.1
 49
0.1
 49
-0.1
  0
LTYPE
  2
DOT
 70
    64
  3
点線A
 72
    65
 73
     2
 40
0.1125
 49
0.0625
 49
-0.05
  0
LTYPE
  2
DOTX2
 70
    64
  3
点線B
 72
    65
 73
     2
 40
0.275
 49
0.15
 49
-0.125
  0
LTYPE
  2
CONTINUOUS
 70
    64
  3
実線
 72
    65
 73
     0
 40
0.0
  0
LTYPE
  2
CONTINUOUS
 70
    64
  3
実線
 72
    65
 73
     0
 40
0.0
  0
LTYPE
  2
CONTINUOUS
 70
    64
  3
実線
 72
    65
 73
     0
 40
0.0
  0
LTYPE
  2
CONTINUOUS
 70
    64
  3
実線
 72
    65
 73
     0
 40
0.0
  0
LTYPE
  2
CONTINUOUS
 70
    64
  3
実線
 72
    65
 73
     0
 40
0.0
  0
LTYPE
  2
CONTINUOUS
 70
    64
  3
実線
 72
    65
 73
     0
 40
0.0
  0
ENDTAB
  0
TABLE
  2
LAYER
 70
    34
  0
LAYER
  2
通り芯
 70
     0
 62
    15
  6
CONTINUOUS
  0
LAYER
  2
補助線
 70
     0
 62
    16
  6
DOT
  0
LAYER
  2
躯体
 70
     0
 62
    31
  6
CONTINUOUS
  0
LAYER
  2
型材
 70
     0
 62
    32
  6
CONTINUOUS
  0
LAYER
  2
型材断面
 70
     0
 62
    47
  6
CONTINUOUS
  0
LAYER
  2
ガラス
 70
     0
 62
    48
  6
CONTINUOUS
  0
LAYER
  2
ゴム等
 70
     0
 62
    63
  6
CONTINUOUS
  0
LAYER
  2
ボルト／ビス
 70
     0
 62
    64
  6
CONTINUOUS
  0
LAYER
  2
文字
 70
     0
 62
    79
  6
CONTINUOUS
  0
LAYER
  2
寸法
 70
     0
 62
    80
  6
CONTINUOUS
  0
LAYER
  2
ﾊｯﾁﾝｸﾞ
 70
     0
 62
    95
  6
CONTINUOUS
  0
LAYER
  2
別途部材
 70
     0
 62
    96
  6
CONTINUOUS
  0
LAYER
  2
曲げ物
 70
     0
 62
   111
  6
CONTINUOUS
  0
LAYER
  2
鉄骨等
 70
     0
 62
   112
  6
CONTINUOUS
  0
LAYER
  2
St
 70
     0
 62
   127
  6
CONTINUOUS
  0
LAYER
  2
その他部品等
 70
     0
 62
   128
  6
CONTINUOUS
  0
LAYER
  2
ｶﾞｽｹｯﾄ
 70
     0
 62
   143
  6
CONTINUOUS
  0
LAYER
  2
ｽｹｯﾁ
 70
     0
 62
    14
  6
CONTINUOUS
  0
LAYER
  2
0
 70
     0
 62
    17
  6
CONTINUOUS
  0
LAYER
  2
1
 70
     0
 62
    30
  6
CONTINUOUS
  0
LAYER
  2
4
 70
     0
 62
    33
  6
CONTINUOUS
  0
LAYER
  2
ﾚｲﾔ3
 70
     0
 62
    46
  6
CONTINUOUS
  0
LAYER
  2
外形線
 70
     0
 62
    49
  6
CONTINUOUS
  0
LAYER
  2
部品
 70
     0
 62
    14
  6
CONTINUOUS
  0
LAYER
  2
サッシ芯
 70
     0
 62
    17
  6
DASHDOTX2
  0
LAYER
  2
寸法線
 70
     0
 62
    62
  6
CONTINUOUS
  0
LAYER
  2
姿図外形線
 70
     0
 62
    65
  6
CONTINUOUS
  0
LAYER
  2
姿補助線
 70
     0
 62
    30
  6
CONTINUOUS
  0
LAYER
  2
透視線
 70
     0
 62
    78
  6
DOT
  0
LAYER
  2
用紙
 70
     0
 62
    81
  6
CONTINUOUS
  0
LAYER
  2
実線図枠
 70
     0
 62
    94
  6
CONTINUOUS
  0
LAYER
  2
補助図枠
 70
     0
 62
    97
  6
CONTINUOUS
  0
LAYER
  2
建具記号
 70
     0
 62
   110
  6
CONTINUOUS
  0
LAYER
  2
補助文字
 70
     0
 62
   113
  6
CONTINUOUS
  0
ENDTAB
  0
TABLE
  2
STYLE
 70
    10
  0
STYLE
  2
STANDARD
 70
     0
 40
1.0
 41
1.0
 42
1.0
 50
0.0
 71
     0
  3
TXT
  4
BIGFONT
  0
STYLE
  2
TATE
 70
     4
 40
1.0
 41
1.0
 42
1.0
 50
0.0
 71
     0
  3
TXT
  4
BIGFONT
  0
STYLE
  2
TextStyle03
 70
     0
 40
1.0
 41
1.0
 42
1.0
 50
0.0
 71
     0
  3
MONOTXT
  4
BIGFONT
  0
STYLE
  2
TextStyle04
 70
     0
 40
1.0
 41
1.0
 42
1.0
 50
0.0
 71
     0
  3
MONOTXT
  4
BIGFONT
  0
STYLE
  2
TextStyle05
 70
     0
 40
1.0
 41
1.0
 42
1.0
 50
0.0
 71
     0
  3
MONOTXT
  4
BIGFONT
  0
STYLE
  2
TextStyle06
 70
     0
 40
1.0
 41
1.0
 42
1.0
 50
0.0
 71
     0
  3
MONOTXT
  4
BIGFONT
  0
STYLE
  2
TextStyle07
 70
     0
 40
1.0
 41
1.0
 42
1.0
 50
0.0
 71
     0
  3
MONOTXT
  4
BIGFONT
  0
STYLE
  2
TextStyle08
 70
     0
 40
1.0
 41
1.0
 42
1.0
 50
0.0
 71
     0
  3
MONOTXT
  4
BIGFONT
  0
STYLE
  2
TextStyle09
 70
     0
 40
1.0
 41
1.0
 42
1.0
 50
0.0
 71
     0
  3
MONOTXT
  4
BIGFONT
  0
STYLE
  2
TextStyle10
 70
     0
 40
1.0
 41
1.0
 42
1.0
 50
0.0
 71
     0
  3
MONOTXT
  4
BIGFONT
  0
ENDTAB
  0
ENDSEC
  0
SECTION
  2
BLOCKS
  0
BLOCK
  2
*GRP_0001
 70
    65
 10
0.0
 20
0.0
  0
LINE
  8
型材断面
  6
CONTINUOUS
 10
195.0
 20
133.5
 11
195.0
 21
-133.5
  0
LINE
  8
型材断面
  6
CONTINUOUS
 10
195.0
 20
-133.5
 11
-185.0
 21
-133.5
  0
LINE
  8
型材断面
  6
CONTINUOUS
 10
-185.0
 20
-133.5
 11
-185.0
 21
133.5
  0
LINE
  8
型材断面
  6
CONTINUOUS
 10
195.0
 20
133.5
 11
-185.0
 21
133.5
  0
LINE
  8
型材断面
  6
CONTINUOUS
 10
145.0
 20
-133.5
 11
145.0
 21
-118.5
  0
LINE
  8
型材断面
  6
CONTINUOUS
 10
195.0
 20
-118.5
 11
145.0
 21
-118.5
  0
ENDBLK
  0
BLOCK
  2
*GRP_0002
 70
    65
 10
0.0
 20
0.0
  0
INSERT
  2
M8横
  8
ゴム等
  6
CONTINUOUS
 10
-40.898718
 20
-73.68637
 50
180.0
 41
0.05
 42
-0.05
  0
LINE
  8
ボルト／ビス
  6
CONTINUOUS
 10
-41.098718
 20
-73.371372
 11
-41.073718
 21
-73.346372
  0
LINE
  8
ボルト／ビス
  6
CONTINUOUS
 10
-40.723718
 20
-73.346372
 11
-40.698718
 21
-73.371372
  0
LINE
  8
ボルト／ビス
  6
CONTINUOUS
 10
-40.698718
 20
-73.371372
 11
-41.098718
 21
-73.371372
  0
LINE
  8
ボルト／ビス
  6
CONTINUOUS
 10
-40.723718
 20
-73.346372
 11
-41.073718
 21
-73.346372
  0
LINE
  8
ボルト／ビス
  6
CONTINUOUS
 10
-41.073718
 20
-73.346372
 11
-41.073718
 21
-73.41137
  0
LINE
  8
ボルト／ビス
  6
CONTINUOUS
 10
-41.098718
 20
-73.371372
 11
-41.098718
 21
-73.41137
  0
LINE
  8
ボルト／ビス
  6
CONTINUOUS
 10
-40.698718
 20
-73.371372
 11
-40.698718
 21
-73.41137
  0
LINE
  8
ボルト／ビス
  6
CONTINUOUS
 10
-40.723718
 20
-73.346372
 11
-40.723718
 21
-73.41137
  0
LINE
  8
ボルト／ビス
  6
CONTINUOUS
 10
-40.348718
 20
-73.68637
 11
-41.448718
 21
-73.68637
  0
LINE
  8
ボルト／ビス
  6
CONTINUOUS
 10
-41.523718
 20
-73.74637
 11
-41.523718
 21
-73.87137
  0
LINE
  8
ボルト／ビス
  6
CONTINUOUS
 10
-41.523718
 20
-73.87137
 11
-40.273718
 21
-73.87137
  0
LINE
  8
ボルト／ビス
  6
CONTINUOUS
 10
-40.273718
 20
-73.87137
 11
-40.273718
 21
-73.74637
  0
LINE
  8
ボルト／ビス
  6
CONTINUOUS
 10
-41.523718
 20
-73.74637
 11
-40.273718
 21
-73.74637
  0
LINE
  8
ボルト／ビス
  6
CONTINUOUS
 10
-40.348718
 20
-73.68637
 11
-40.348718
 21
-73.74637
  0
LINE
  8
ボルト／ビス
  6
CONTINUOUS
 10
-41.448718
 20
-73.68637
 11
-41.448718
 21
-73.74637
  0
LINE
  8
ボルト／ビス
  6
CONTINUOUS
 10
-40.898718
 20
-73.76137
 11
-40.898718
 21
-73.68637
  0
ENDBLK
  0
BLOCK
  2
*GRP_0003
 70
    65
 10
0.0
 20
0.0
  0
LINE
  8
ボルト／ビス
  6
CONTINUOUS
 10
-40.588715
 20
-72.39662
 11
-40.588715
 21
-72.29662
  0
LINE
  8
ボルト／ビス
  6
CONTINUOUS
 10
-40.588715
 20
-72.29662
 11
-41.688715
 21
-72.29662
  0
LINE
  8
ボルト／ビス
  6
CONTINUOUS
 10
-41.688715
 20
-72.29662
 11
-41.688715
 21
-72.39662
  0
LINE
  8
ボルト／ビス
  6
CONTINUOUS
 10
-40.588715
 20
-72.39662
 11
-41.688715
 21
-72.39662
  0
LINE
  8
ボルト／ビス
  6
CONTINUOUS
 10
-40.688715
 20
-72.24662
 11
-40.688715
 21
-72.29662
  0
LINE
  8
ボルト／ビス
  6
CONTINUOUS
 10
-40.688715
 20
-72.24662
 11
-41.588715
 21
-72.24662
  0
LINE
  8
ボルト／ビス
  6
CONTINUOUS
 10
-41.588715
 20
-72.24662
 11
-41.588715
 21
-72.29662
  0
LINE
  8
ボルト／ビス
  6
CONTINUOUS
 62
    64
 10
-40.898153
 20
-71.94662
 11
-40.85004
 21
-71.964132
  0
ARC
  8
ボルト／ビス
  6
CONTINUOUS
 62
    64
 10
-40.922208
 20
-72.104088
 40
0.157468
 50
90.0
 51
117.278033
  0
ARC
  8
ボルト／ビス
  6
CONTINUOUS
 62
    64
 10
-41.138715
 20
-72.550224
 40
0.603603
 50
76.165015
 51
103.834998
  0
LINE
  8
ボルト／ビス
  6
CONTINUOUS
 62
    64
 10
-41.379277
 20
-71.94662
 11
-41.42739
 21
-71.964132
  0
ARC
  8
ボルト／ビス
  6
CONTINUOUS
 62
    64
 10
-41.355221
 20
-72.104088
 40
0.157468
 50
62.721967
 51
90.0
  0
LINE
  8
ボルト／ビス
  6
CONTINUOUS
 62
    64
 10
-40.898153
 20
-71.94662
 11
-41.379277
 21
-71.94662
  0
LINE
  8
ボルト／ビス
  6
CONTINUOUS
 62
    64
 10
-41.42739
 20
-71.964132
 11
-41.42739
 21
-72.14662
  0
LINE
  8
ボルト／ビス
  6
CONTINUOUS
 62
    64
 10
-41.283053
 20
-71.964132
 11
-41.283053
 21
-72.14662
  0
LINE
  8
ボルト／ビス
  6
CONTINUOUS
 62
    64
 10
-40.85004
 20
-71.964132
 11
-40.85004
 21
-72.14662
  0
LINE
  8
ボルト／ビス
  6
CONTINUOUS
 62
    64
 10
-40.994377
 20
-71.964132
 11
-40.994377
 21
-72.14662
  0
LINE
  8
ボルト／ビス
  6
CONTINUOUS
 10
-40.85004
 20
-72.14662
 11
-41.42739
 21
-72.14662
  0
LINE
  8
ボルト／ビス
  6
CONTINUOUS
 10
-40.838715
 20
-72.14662
 11
-40.838715
 21
-72.24662
  0
LINE
  8
ボルト／ビス
  6
CONTINUOUS
 10
-40.838715
 20
-72.14662
 11
-41.438715
 21
-72.14662
  0
LINE
  8
ボルト／ビス
  6
CONTINUOUS
 10
-41.438715
 20
-72.14662
 11
-41.438715
 21
-72.24662
  0
ENDBLK
  0
BLOCK
  2
*GRP_0004
 70
    65
 10
0.0
 20
0.0
  0
INSERT
  2
M8横
  8
ゴム等
  6
CONTINUOUS
 10
-73.377798
 20
-73.68637
 41
0.05
 42
0.05
  0
LINE
  8
ボルト／ビス
  6
CONTINUOUS
 10
-73.177797
 20
-73.371372
 11
-73.202798
 21
-73.346372
  0
LINE
  8
ボルト／ビス
  6
CONTINUOUS
 10
-73.552797
 20
-73.346372
 11
-73.577798
 21
-73.371372
  0
LINE
  8
ボルト／ビス
  6
CONTINUOUS
 10
-73.577798
 20
-73.371372
 11
-73.177797
 21
-73.371372
  0
LINE
  8
ボルト／ビス
  6
CONTINUOUS
 10
-73.552797
 20
-73.346372
 11
-73.202798
 21
-73.346372
  0
LINE
  8
ボルト／ビス
  6
CONTINUOUS
 10
-73.202798
 20
-73.346372
 11
-73.202798
 21
-73.41137
  0
LINE
  8
ボルト／ビス
  6
CONTINUOUS
 10
-73.177797
 20
-73.371372
 11
-73.177797
 21
-73.41137
  0
LINE
  8
ボルト／ビス
  6
CONTINUOUS
 10
-73.577798
 20
-73.371372
 11
-73.577798
 21
-73.41137
  0
LINE
  8
ボルト／ビス
  6
CONTINUOUS
 10
-73.552797
 20
-73.346372
 11
-73.552797
 21
-73.41137
  0
LINE
  8
ボルト／ビス
  6
CONTINUOUS
 10
-73.927797
 20
-73.68637
 11
-72.827798
 21
-73.68637
  0
LINE
  8
ボルト／ビス
  6
CONTINUOUS
 10
-72.752798
 20
-73.74637
 11
-72.752798
 21
-73.87137
  0
LINE
  8
ボルト／ビス
  6
CONTINUOUS
 10
-72.752798
 20
-73.87137
 11
-74.002798
 21
-73.87137
  0
LINE
  8
ボルト／ビス
  6
CONTINUOUS
 10
-74.002798
 20
-73.87137
 11
-74.002798
 21
-73.74637
  0
LINE
  8
ボルト／ビス
  6
CONTINUOUS
 10
-72.752798
 20
-73.74637
 11
-74.002798
 21
-73.74637
  0
LINE
  8
ボルト／ビス
  6
CONTINUOUS
 10
-73.927797
 20
-73.68637
 11
-73.927797
 21
-73.74637
  0
LINE
  8
ボルト／ビス
  6
CONTINUOUS
 10
-72.827798
 20
-73.68637
 11
-72.827798
 21
-73.74637
  0
LINE
  8
ボルト／ビス
  6
CONTINUOUS
 10
-73.377798
 20
-73.76137
 11
-73.377798
 21
-73.68637
  0
ENDBLK
  0
BLOCK
  2
*GRP_0005
 70
    65
 10
0.0
 20
0.0
  0
LINE
  8
ボルト／ビス
  6
CONTINUOUS
 10
-73.6878
 20
-72.39662
 11
-73.6878
 21
-72.29662
  0
LINE
  8
ボルト／ビス
  6
CONTINUOUS
 10
-73.6878
 20
-72.29662
 11
-72.5878
 21
-72.29662
  0
LINE
  8
ボルト／ビス
  6
CONTINUOUS
 10
-72.5878
 20
-72.29662
 11
-72.5878
 21
-72.39662
  0
LINE
  8
ボルト／ビス
  6
CONTINUOUS
 10
-73.6878
 20
-72.39662
 11
-72.5878
 21
-72.39662
  0
LINE
  8
ボルト／ビス
  6
CONTINUOUS
 10
-73.5878
 20
-72.24662
 11
-73.5878
 21
-72.29662
  0
LINE
  8
ボルト／ビス
  6
CONTINUOUS
 10
-73.5878
 20
-72.24662
 11
-72.6878
 21
-72.24662
  0
LINE
  8
ボルト／ビス
  6
CONTINUOUS
 10
-72.6878
 20
-72.24662
 11
-72.6878
 21
-72.29662
  0
LINE
  8
ボルト／ビス
  6
CONTINUOUS
 62
    64
 10
-73.378363
 20
-71.94662
 11
-73.426475
 21
-71.964132
  0
ARC
  8
ボルト／ビス
  6
CONTINUOUS
 62
    64
 10
-73.354307
 20
-72.104088
 40
0.157468
 50
62.721967
 51
90.0
  0
ARC
  8
ボルト／ビス
  6
CONTINUOUS
 62
    64
 10
-73.1378
 20
-72.550224
 40
0.603603
 50
76.165002
 51
103.834985
  0
LINE
  8
ボルト／ビス
  6
CONTINUOUS
 62
    64
 10
-72.897238
 20
-71.94662
 11
-72.849125
 21
-71.964132
  0
ARC
  8
ボルト／ビス
  6
CONTINUOUS
 62
    64
 10
-72.921294
 20
-72.104088
 40
0.157468
 50
90.0
 51
117.278033
  0
LINE
  8
ボルト／ビス
  6
CONTINUOUS
 62
    64
 10
-73.378363
 20
-71.94662
 11
-72.897238
 21
-71.94662
  0
LINE
  8
ボルト／ビス
  6
CONTINUOUS
 62
    64
 10
-72.849125
 20
-71.964132
 11
-72.849125
 21
-72.14662
  0
LINE
  8
ボルト／ビス
  6
CONTINUOUS
 62
    64
 10
-72.993462
 20
-71.964132
 11
-72.993462
 21
-72.14662
  0
LINE
  8
ボルト／ビス
  6
CONTINUOUS
 62
    64
 10
-73.426475
 20
-71.964132
 11
-73.426475
 21
-72.14662
  0
LINE
  8
ボルト／ビス
  6
CONTINUOUS
 62
    64
 10
-73.282138
 20
-71.964132
 11
-73.282138
 21
-72.14662
  0
LINE
  8
ボルト／ビス
  6
CONTINUOUS
 10
-73.426475
 20
-72.14662
 11
-72.849125
 21
-72.14662
  0
LINE
  8
ボルト／ビス
  6
CONTINUOUS
 10
-73.4378
 20
-72.14662
 11
-73.4378
 21
-72.24662
  0
LINE
  8
ボルト／ビス
  6
CONTINUOUS
 10
-73.4378
 20
-72.14662
 11
-72.8378
 21
-72.14662
  0
LINE
  8
ボルト／ビス
  6
CONTINUOUS
 10
-72.8378
 20
-72.14662
 11
-72.8378
 21
-72.24662
  0
ENDBLK
  0
BLOCK
  2
*DIM_0006
 70
    65
 10
0.0
 20
0.0
  0
LINE
  8
寸法
  6
BYBLOCK
 62
     0
 10
106.174642
 20
74.557477
 11
115.836955
 21
74.557477
  0
LINE
  8
寸法
  6
BYBLOCK
 62
     0
 10
106.174642
 20
45.557477
 11
115.836955
 21
45.557477
  0
LINE
  8
寸法
  6
BYBLOCK
 62
     0
 10
115.836955
 20
74.557477
 11
115.836955
 21
45.557477
  0
POINT
  8
寸法
 62
     0
 10
115.836955
 20
74.557477
  0
POINT
  8
寸法
 62
     0
 10
115.836955
 20
45.557477
  0
TEXT
  7
TextStyle03
  8
寸法
  6
CONTINUOUS
 62
     0
 10
115.45
 20
57.6125
  1
580
 40
3.0
 50
90.0
 72
     5
 11
115.45
 21
62.4875
  0
ENDBLK
  0
BLOCK
  2
*DIM_0007
 70
    65
 10
0.0
 20
0.0
  0
LINE
  8
寸法
  6
BYBLOCK
 62
     0
 10
74.174642
 20
77.557477
 11
74.174642
 21
85.30483
  0
LINE
  8
寸法
  6
BYBLOCK
 62
     0
 10
103.174642
 20
77.557477
 11
103.174642
 21
85.30483
  0
LINE
  8
寸法
  6
BYBLOCK
 62
     0
 10
74.174642
 20
85.30483
 11
103.174642
 21
85.30483
  0
POINT
  8
寸法
 62
     0
 10
74.174642
 20
85.30483
  0
POINT
  8
寸法
 62
     0
 10
103.174642
 20
85.30483
  0
TEXT
  7
TextStyle03
  8
寸法
  6
CONTINUOUS
 62
     0
 10
86.2375
 20
85.675
  1
580
 40
3.0
 72
     5
 11
91.1125
 21
85.675
  0
ENDBLK
  0
BLOCK
  2
*DIM_0008
 70
    65
 10
0.0
 20
0.0
  0
LINE
  8
寸法
  6
CONTINUOUS
 10
-38.718715
 20
-73.055408
 11
-38.718715
 21
-41.89646
  0
LINE
  8
寸法
  6
CONTINUOUS
 10
-42.138257
 20
-41.89646
 11
-38.718715
 21
-41.89646
  0
POINT
  8
寸法
 10
-42.138257
 20
-41.89646
  0
POINT
  8
寸法
 10
-38.718715
 20
-41.89646
  0
TEXT
  7
TextStyle03
  8
寸法
  6
CONTINUOUS
 10
-36.98125
 20
-41.525
  1
68.4
 40
3.0
 72
     5
 11
-30.41875
 21
-41.525
  0
ENDBLK
  0
BLOCK
  2
*DIM_0009
 70
    65
 10
0.0
 20
0.0
  0
LINE
  8
寸法
  6
CONTINUOUS
 10
-75.5578
 20
-73.055408
 11
-75.5578
 21
-41.89646
  0
LINE
  8
寸法
  6
CONTINUOUS
 10
-72.138257
 20
-41.89646
 11
-75.5578
 21
-41.89646
  0
POINT
  8
寸法
 10
-72.138257
 20
-41.89646
  0
POINT
  8
寸法
 10
-75.5578
 20
-41.89646
  0
TEXT
  7
TextStyle03
  8
寸法
  6
CONTINUOUS
 10
-83.88125
 20
-41.525
  1
68.4
 40
3.0
 72
     5
 11
-77.31875
 21
-41.525
  0
ENDBLK
  0
BLOCK
  2
*DIM_0010
 70
    65
 10
0.0
 20
0.0
  0
LINE
  8
寸法
  6
CONTINUOUS
 10
-42.138257
 20
-41.89646
 11
-72.138257
 21
-41.89646
  0
POINT
  8
寸法
 10
-42.138257
 20
-41.89646
  0
POINT
  8
寸法
 10
-72.138257
 20
-41.89646
  0
TEXT
  7
TextStyle03
  8
寸法
  6
CONTINUOUS
 10
-68.025
 20
-41.525
  1
呼称寸法　600
 40
3.0
 72
     5
 11
-46.275
 21
-41.525
  0
ENDBLK
  0
BLOCK
  2
*GRP_0011
 70
    65
 10
0.0
 20
0.0
  0
INSERT
  2
*GRP_0023
  8
補助線
  6
CONTINUOUS
 10
0.0
 20
0.0
  0
LINE
  8
ボルト／ビス
  6
CONTINUOUS
 10
-64.638257
 20
42.32141
 11
-64.388257
 21
42.465747
  0
LINE
  8
ボルト／ビス
  6
CONTINUOUS
 10
-64.638257
 20
42.32141
 11
-64.888257
 21
42.465747
  0
LINE
  8
ボルト／ビス
  6
CONTINUOUS
 10
-64.388257
 20
42.754422
 11
-64.638257
 21
42.89876
  0
LINE
  8
ボルト／ビス
  6
CONTINUOUS
 10
-64.888257
 20
42.754422
 11
-64.638257
 21
42.89876
  0
CIRCLE
  8
ボルト／ビス
  6
CONTINUOUS
 10
-64.638257
 20
42.610085
 40
0.25
  0
LINE
  8
ボルト／ビス
  6
CONTINUOUS
 10
-64.888257
 20
42.465747
 11
-64.888257
 21
42.754422
  0
LINE
  8
ボルト／ビス
  6
CONTINUOUS
 10
-64.388257
 20
42.754422
 11
-64.388257
 21
42.465747
  0
ENDBLK
  0
BLOCK
  2
*GRP_0012
 70
    65
 10
0.0
 20
0.0
  0
INSERT
  2
*GRP_0024
  8
補助線
  6
CONTINUOUS
 10
0.0
 20
0.0
  0
LINE
  8
ボルト／ビス
  6
CONTINUOUS
 10
-73.426933
 20
51.110085
 11
-73.282595
 21
51.360085
  0
LINE
  8
ボルト／ビス
  6
CONTINUOUS
 10
-73.426933
 20
51.110085
 11
-73.282595
 21
50.860085
  0
LINE
  8
ボルト／ビス
  6
CONTINUOUS
 10
-72.99392
 20
51.360085
 11
-72.849582
 21
51.110085
  0
LINE
  8
ボルト／ビス
  6
CONTINUOUS
 10
-72.99392
 20
50.860085
 11
-72.849582
 21
51.110085
  0
CIRCLE
  8
ボルト／ビス
  6
CONTINUOUS
 10
-73.138257
 20
51.110085
 40
0.25
  0
LINE
  8
ボルト／ビス
  6
CONTINUOUS
 10
-73.282595
 20
50.860085
 11
-72.99392
 21
50.860085
  0
LINE
  8
ボルト／ビス
  6
CONTINUOUS
 10
-72.99392
 20
51.360085
 11
-73.282595
 21
51.360085
  0
ENDBLK
  0
BLOCK
  2
*GRP_0013
 70
    65
 10
0.0
 20
0.0
  0
INSERT
  2
*GRP_0025
  8
補助線
  6
CONTINUOUS
 10
0.0
 20
0.0
  0
LINE
  8
ボルト／ビス
  6
CONTINUOUS
 10
-49.638257
 20
42.32141
 11
-49.888257
 21
42.465747
  0
LINE
  8
ボルト／ビス
  6
CONTINUOUS
 10
-49.638257
 20
42.32141
 11
-49.388257
 21
42.465747
  0
LINE
  8
ボルト／ビス
  6
CONTINUOUS
 10
-49.888257
 20
42.754422
 11
-49.638257
 21
42.89876
  0
LINE
  8
ボルト／ビス
  6
CONTINUOUS
 10
-49.388257
 20
42.754422
 11
-49.638257
 21
42.89876
  0
CIRCLE
  8
ボルト／ビス
  6
CONTINUOUS
 10
-49.638257
 20
42.610085
 40
0.25
  0
LINE
  8
ボルト／ビス
  6
CONTINUOUS
 10
-49.388257
 20
42.465747
 11
-49.388257
 21
42.754422
  0
LINE
  8
ボルト／ビス
  6
CONTINUOUS
 10
-49.888257
 20
42.754422
 11
-49.888257
 21
42.465747
  0
ENDBLK
  0
BLOCK
  2
*GRP_0014
 70
    65
 10
0.0
 20
0.0
  0
INSERT
  2
*GRP_0026
  8
補助線
  6
CONTINUOUS
 10
0.0
 20
0.0
  0
LINE
  8
ボルト／ビス
  6
CONTINUOUS
 10
-40.849582
 20
51.110085
 11
-40.99392
 21
51.360085
  0
LINE
  8
ボルト／ビス
  6
CONTINUOUS
 10
-40.849582
 20
51.110085
 11
-40.99392
 21
50.860085
  0
LINE
  8
ボルト／ビス
  6
CONTINUOUS
 10
-41.282595
 20
51.360085
 11
-41.426933
 21
51.110085
  0
LINE
  8
ボルト／ビス
  6
CONTINUOUS
 10
-41.282595
 20
50.860085
 11
-41.426933
 21
51.110085
  0
CIRCLE
  8
ボルト／ビス
  6
CONTINUOUS
 10
-41.138257
 20
51.110085
 40
0.25
  0
LINE
  8
ボルト／ビス
  6
CONTINUOUS
 10
-40.99392
 20
50.860085
 11
-41.282595
 21
50.860085
  0
LINE
  8
ボルト／ビス
  6
CONTINUOUS
 10
-41.282595
 20
51.360085
 11
-40.99392
 21
51.360085
  0
ENDBLK
  0
BLOCK
  2
*GRP_0015
 70
    65
 10
0.0
 20
0.0
  0
INSERT
  2
*GRP_0027
  8
補助線
  6
CONTINUOUS
 10
0.0
 20
0.0
  0
LINE
  8
ボルト／ビス
  6
CONTINUOUS
 10
-49.638257
 20
74.89876
 11
-49.888257
 21
74.754422
  0
LINE
  8
ボルト／ビス
  6
CONTINUOUS
 10
-49.638257
 20
74.89876
 11
-49.388257
 21
74.754422
  0
LINE
  8
ボルト／ビス
  6
CONTINUOUS
 10
-49.888257
 20
74.465747
 11
-49.638257
 21
74.32141
  0
LINE
  8
ボルト／ビス
  6
CONTINUOUS
 10
-49.388257
 20
74.465747
 11
-49.638257
 21
74.32141
  0
CIRCLE
  8
ボルト／ビス
  6
CONTINUOUS
 10
-49.638257
 20
74.610085
 40
0.25
  0
LINE
  8
ボルト／ビス
  6
CONTINUOUS
 10
-49.388257
 20
74.754422
 11
-49.388257
 21
74.465747
  0
LINE
  8
ボルト／ビス
  6
CONTINUOUS
 10
-49.888257
 20
74.465747
 11
-49.888257
 21
74.754422
  0
ENDBLK
  0
BLOCK
  2
*GRP_0016
 70
    65
 10
0.0
 20
0.0
  0
INSERT
  2
*GRP_0028
  8
補助線
  6
CONTINUOUS
 10
0.0
 20
0.0
  0
LINE
  8
ボルト／ビス
  6
CONTINUOUS
 10
-40.849582
 20
66.110085
 11
-40.99392
 21
65.860085
  0
LINE
  8
ボルト／ビス
  6
CONTINUOUS
 10
-40.849582
 20
66.110085
 11
-40.99392
 21
66.360085
  0
LINE
  8
ボルト／ビス
  6
CONTINUOUS
 10
-41.282595
 20
65.860085
 11
-41.426933
 21
66.110085
  0
LINE
  8
ボルト／ビス
  6
CONTINUOUS
 10
-41.282595
 20
66.360085
 11
-41.426933
 21
66.110085
  0
CIRCLE
  8
ボルト／ビス
  6
CONTINUOUS
 10
-41.138257
 20
66.110085
 40
0.25
  0
LINE
  8
ボルト／ビス
  6
CONTINUOUS
 10
-40.99392
 20
66.360085
 11
-41.282595
 21
66.360085
  0
LINE
  8
ボルト／ビス
  6
CONTINUOUS
 10
-41.282595
 20
65.860085
 11
-40.99392
 21
65.860085
  0
ENDBLK
  0
BLOCK
  2
*GRP_0017
 70
    65
 10
0.0
 20
0.0
  0
INSERT
  2
*GRP_0029
  8
補助線
  6
CONTINUOUS
 10
0.0
 20
0.0
  0
LINE
  8
ボルト／ビス
  6
CONTINUOUS
 10
-64.638257
 20
74.89876
 11
-64.388257
 21
74.754422
  0
LINE
  8
ボルト／ビス
  6
CONTINUOUS
 10
-64.638257
 20
74.89876
 11
-64.888257
 21
74.754422
  0
LINE
  8
ボルト／ビス
  6
CONTINUOUS
 10
-64.388257
 20
74.465747
 11
-64.638257
 21
74.32141
  0
LINE
  8
ボルト／ビス
  6
CONTINUOUS
 10
-64.888257
 20
74.465747
 11
-64.638257
 21
74.32141
  0
CIRCLE
  8
ボルト／ビス
  6
CONTINUOUS
 10
-64.638257
 20
74.610085
 40
0.25
  0
LINE
  8
ボルト／ビス
  6
CONTINUOUS
 10
-64.888257
 20
74.754422
 11
-64.888257
 21
74.465747
  0
LINE
  8
ボルト／ビス
  6
CONTINUOUS
 10
-64.388257
 20
74.465747
 11
-64.388257
 21
74.754422
  0
ENDBLK
  0
BLOCK
  2
*GRP_0018
 70
    65
 10
0.0
 20
0.0
  0
INSERT
  2
*GRP_0030
  8
補助線
  6
CONTINUOUS
 10
0.0
 20
0.0
  0
LINE
  8
ボルト／ビス
  6
CONTINUOUS
 10
-73.426933
 20
66.110085
 11
-73.282595
 21
65.860085
  0
LINE
  8
ボルト／ビス
  6
CONTINUOUS
 10
-73.426933
 20
66.110085
 11
-73.282595
 21
66.360085
  0
LINE
  8
ボルト／ビス
  6
CONTINUOUS
 10
-72.99392
 20
65.860085
 11
-72.849582
 21
66.110085
  0
LINE
  8
ボルト／ビス
  6
CONTINUOUS
 10
-72.99392
 20
66.360085
 11
-72.849582
 21
66.110085
  0
CIRCLE
  8
ボルト／ビス
  6
CONTINUOUS
 10
-73.138257
 20
66.110085
 40
0.25
  0
LINE
  8
ボルト／ビス
  6
CONTINUOUS
 10
-73.282595
 20
66.360085
 11
-72.99392
 21
66.360085
  0
LINE
  8
ボルト／ビス
  6
CONTINUOUS
 10
-72.99392
 20
65.860085
 11
-73.282595
 21
65.860085
  0
ENDBLK
  0
BLOCK
  2
*DIM_0019
 70
    65
 10
0.0
 20
0.0
  0
LINE
  8
寸法
  6
CONTINUOUS
 62
     0
 10
-47.138257
 20
74.610082
 11
-47.138257
 21
94.560687
  0
LINE
  8
寸法
  6
CONTINUOUS
 62
     0
 10
-67.138257
 20
74.610082
 11
-67.138257
 21
94.560687
  0
LINE
  8
寸法
  6
CONTINUOUS
 62
     0
 10
-47.138257
 20
94.560687
 11
-67.138257
 21
94.560687
  0
POINT
  8
寸法
 62
     0
 10
-47.138257
 20
94.560687
 50
-270.0
  0
POINT
  8
寸法
 62
     0
 10
-67.138257
 20
94.560687
 50
-270.0
  0
TEXT
  7
TextStyle03
  8
寸法
  6
CONTINUOUS
 62
     0
 10
-59.6375
 20
94.975
  1
400
 40
3.0
 72
     5
 11
-54.7625
 21
94.975
  0
ENDBLK
  0
BLOCK
  2
*GRP_0020
 70
    65
 10
0.0
 20
0.0
  0
POLYLINE
  8
寸法
  6
CONTINUOUS
 62
     0
 66
     1
  0
VERTEX
  8
寸法
 10
-44.474737
 20
56.106378
  0
VERTEX
  8
寸法
 10
-40.793542
 20
52.425182
  0
VERTEX
  8
寸法
 10
-17.950965
 20
52.425182
  0
SEQEND
  0
ENDBLK
  0
BLOCK
  2
*DIM_0021
 70
    65
 10
0.0
 20
0.0
  0
LINE
  8
寸法
  6
BYBLOCK
 62
     0
 10
-41.138257
 20
73.610085
 11
-25.048758
 21
73.610085
  0
LINE
  8
寸法
  6
BYBLOCK
 62
     0
 10
-33.11438
 20
67.760085
 11
-25.048758
 21
67.760085
  0
LINE
  8
寸法
  6
BYBLOCK
 62
     0
 10
-25.048758
 20
73.610085
 11
-25.048758
 21
67.760085
  0
POINT
  8
寸法
 62
     0
 10
-25.048758
 20
73.610085
  0
POINT
  8
寸法
 62
     0
 10
-25.048758
 20
67.760085
  0
TEXT
  7
TextStyle03
  8
寸法
  6
CONTINUOUS
 62
     0
 10
-25.45
 20
68.2375
  1
117
 40
3.0
 50
90.0
 72
     5
 11
-25.45
 21
73.1125
  0
ENDBLK
  0
BLOCK
  2
*DIM_0022
 70
    65
 10
0.0
 20
0.0
  0
LINE
  8
寸法
  6
BYBLOCK
 62
     0
 10
-41.138257
 20
43.610085
 11
-25.048758
 21
43.610085
  0
LINE
  8
寸法
  6
BYBLOCK
 62
     0
 10
-33.11438
 20
49.460085
 11
-25.048758
 21
49.460085
  0
LINE
  8
寸法
  6
BYBLOCK
 62
     0
 10
-25.048758
 20
43.610085
 11
-25.048758
 21
49.460085
  0
POINT
  8
寸法
 62
     0
 10
-25.048758
 20
43.610085
  0
POINT
  8
寸法
 62
     0
 10
-25.048758
 20
49.460085
  0
TEXT
  7
TextStyle03
  8
寸法
  6
CONTINUOUS
 62
     0
 10
-25.45
 20
44.0875
  1
117
 40
3.0
 50
90.0
 72
     5
 11
-25.45
 21
48.9625
  0
ENDBLK
  0
BLOCK
  2
*GRP_0023
 70
    65
 10
0.0
 20
0.0
  0
LINE
  8
補助線
  6
BYBLOCK
 62
     0
 10
-64.763257
 20
42.610085
 11
-64.513257
 21
42.610085
  0
LINE
  8
補助線
  6
BYBLOCK
 62
     0
 10
-64.638257
 20
42.485085
 11
-64.638257
 21
42.735085
  0
ENDBLK
  0
BLOCK
  2
*GRP_0024
 70
    65
 10
0.0
 20
0.0
  0
LINE
  8
補助線
  6
BYBLOCK
 62
     0
 10
-73.138257
 20
50.985085
 11
-73.138257
 21
51.235085
  0
LINE
  8
補助線
  6
BYBLOCK
 62
     0
 10
-73.263257
 20
51.110085
 11
-73.013257
 21
51.110085
  0
ENDBLK
  0
BLOCK
  2
*GRP_0025
 70
    65
 10
0.0
 20
0.0
  0
LINE
  8
補助線
  6
BYBLOCK
 62
     0
 10
-49.513257
 20
42.610085
 11
-49.763257
 21
42.610085
  0
LINE
  8
補助線
  6
BYBLOCK
 62
     0
 10
-49.638257
 20
42.485085
 11
-49.638257
 21
42.735085
  0
ENDBLK
  0
BLOCK
  2
*GRP_0026
 70
    65
 10
0.0
 20
0.0
  0
LINE
  8
補助線
  6
BYBLOCK
 62
     0
 10
-41.138257
 20
50.985085
 11
-41.138257
 21
51.235085
  0
LINE
  8
補助線
  6
BYBLOCK
 62
     0
 10
-41.013257
 20
51.110085
 11
-41.263257
 21
51.110085
  0
ENDBLK
  0
BLOCK
  2
*GRP_0027
 70
    65
 10
0.0
 20
0.0
  0
LINE
  8
補助線
  6
BYBLOCK
 62
     0
 10
-49.513257
 20
74.610085
 11
-49.763257
 21
74.610085
  0
LINE
  8
補助線
  6
BYBLOCK
 62
     0
 10
-49.638257
 20
74.735085
 11
-49.638257
 21
74.485085
  0
ENDBLK
  0
BLOCK
  2
*GRP_0028
 70
    65
 10
0.0
 20
0.0
  0
LINE
  8
補助線
  6
BYBLOCK
 62
     0
 10
-41.138257
 20
66.235085
 11
-41.138257
 21
65.985085
  0
LINE
  8
補助線
  6
BYBLOCK
 62
     0
 10
-41.013257
 20
66.110085
 11
-41.263257
 21
66.110085
  0
ENDBLK
  0
BLOCK
  2
*GRP_0029
 70
    65
 10
0.0
 20
0.0
  0
LINE
  8
補助線
  6
BYBLOCK
 62
     0
 10
-64.763257
 20
74.610085
 11
-64.513257
 21
74.610085
  0
LINE
  8
補助線
  6
BYBLOCK
 62
     0
 10
-64.638257
 20
74.735085
 11
-64.638257
 21
74.485085
  0
ENDBLK
  0
BLOCK
  2
*GRP_0030
 70
    65
 10
0.0
 20
0.0
  0
LINE
  8
補助線
  6
BYBLOCK
 62
     0
 10
-73.138257
 20
66.235085
 11
-73.138257
 21
65.985085
  0
LINE
  8
補助線
  6
BYBLOCK
 62
     0
 10
-73.263257
 20
66.110085
 11
-73.013257
 21
66.110085
  0
ENDBLK
  0
BLOCK
  2
*DIM_0031
 70
    65
 10
0.0
 20
0.0
  0
LINE
  8
寸法
  6
CONTINUOUS
 10
-34.188715
 20
-82.49637
 11
-21.136863
 21
-82.49637
  0
LINE
  8
寸法
  6
CONTINUOUS
 10
-37.138257
 20
-71.29662
 11
-21.136863
 21
-71.29662
  0
LINE
  8
寸法
  6
CONTINUOUS
 10
-21.136863
 20
-82.49637
 11
-21.136863
 21
-71.29662
  0
POINT
  8
寸法
 10
-21.136863
 20
-82.49637
  0
POINT
  8
寸法
 10
-21.136863
 20
-71.29662
  0
TEXT
  7
TextStyle03
  8
寸法
  6
CONTINUOUS
 10
-21.525
 20
-79.3375
  1
224
 40
3.0
 50
90.0
 72
     5
 11
-21.525
 21
-74.4625
  0
ENDBLK
  0
BLOCK
  2
*GRP_0032
 70
    65
 10
0.0
 20
0.0
  0
INSERT
  2
M8横
  8
ゴム等
  6
CONTINUOUS
 10
100.960985
 20
-73.68637
 50
180.0
 41
0.05
 42
-0.05
  0
LINE
  8
ボルト／ビス
  6
CONTINUOUS
 10
100.760985
 20
-73.371372
 11
100.785985
 21
-73.346372
  0
LINE
  8
ボルト／ビス
  6
CONTINUOUS
 10
101.135985
 20
-73.346372
 11
101.160985
 21
-73.371372
  0
LINE
  8
ボルト／ビス
  6
CONTINUOUS
 10
101.160985
 20
-73.371372
 11
100.760985
 21
-73.371372
  0
LINE
  8
ボルト／ビス
  6
CONTINUOUS
 10
101.135985
 20
-73.346372
 11
100.785985
 21
-73.346372
  0
LINE
  8
ボルト／ビス
  6
CONTINUOUS
 10
100.785985
 20
-73.346372
 11
100.785985
 21
-73.41137
  0
LINE
  8
ボルト／ビス
  6
CONTINUOUS
 10
100.760985
 20
-73.371372
 11
100.760985
 21
-73.41137
  0
LINE
  8
ボルト／ビス
  6
CONTINUOUS
 10
101.160985
 20
-73.371372
 11
101.160985
 21
-73.41137
  0
LINE
  8
ボルト／ビス
  6
CONTINUOUS
 10
101.135985
 20
-73.346372
 11
101.135985
 21
-73.41137
  0
LINE
  8
ボルト／ビス
  6
CONTINUOUS
 10
101.510985
 20
-73.68637
 11
100.410985
 21
-73.68637
  0
LINE
  8
ボルト／ビス
  6
CONTINUOUS
 10
100.335985
 20
-73.74637
 11
100.335985
 21
-73.87137
  0
LINE
  8
ボルト／ビス
  6
CONTINUOUS
 10
100.335985
 20
-73.87137
 11
101.585985
 21
-73.87137
  0
LINE
  8
ボルト／ビス
  6
CONTINUOUS
 10
101.585985
 20
-73.87137
 11
101.585985
 21
-73.74637
  0
LINE
  8
ボルト／ビス
  6
CONTINUOUS
 10
100.335985
 20
-73.74637
 11
101.585985
 21
-73.74637
  0
LINE
  8
ボルト／ビス
  6
CONTINUOUS
 10
101.510985
 20
-73.68637
 11
101.510985
 21
-73.74637
  0
LINE
  8
ボルト／ビス
  6
CONTINUOUS
 10
100.410985
 20
-73.68637
 11
100.410985
 21
-73.74637
  0
LINE
  8
ボルト／ビス
  6
CONTINUOUS
 10
100.960985
 20
-73.76137
 11
100.960985
 21
-73.68637
  0
ENDBLK
  0
BLOCK
  2
*GRP_0033
 70
    65
 10
0.0
 20
0.0
  0
LINE
  8
ボルト／ビス
  6
CONTINUOUS
 10
101.270988
 20
-72.39662
 11
101.270988
 21
-72.29662
  0
LINE
  8
ボルト／ビス
  6
CONTINUOUS
 10
101.270988
 20
-72.29662
 11
100.170988
 21
-72.29662
  0
LINE
  8
ボルト／ビス
  6
CONTINUOUS
 10
100.170988
 20
-72.29662
 11
100.170988
 21
-72.39662
  0
LINE
  8
ボルト／ビス
  6
CONTINUOUS
 10
101.270988
 20
-72.39662
 11
100.170988
 21
-72.39662
  0
LINE
  8
ボルト／ビス
  6
CONTINUOUS
 10
101.170988
 20
-72.24662
 11
101.170988
 21
-72.29662
  0
LINE
  8
ボルト／ビス
  6
CONTINUOUS
 10
101.170988
 20
-72.24662
 11
100.270988
 21
-72.24662
  0
LINE
  8
ボルト／ビス
  6
CONTINUOUS
 10
100.270988
 20
-72.24662
 11
100.270988
 21
-72.29662
  0
LINE
  8
ボルト／ビス
  6
CONTINUOUS
 62
    64
 10
100.96155
 20
-71.94662
 11
101.009663
 21
-71.964132
  0
ARC
  8
ボルト／ビス
  6
CONTINUOUS
 62
    64
 10
100.937495
 20
-72.104088
 40
0.157468
 50
90.0
 51
117.278033
  0
ARC
  8
ボルト／ビス
  6
CONTINUOUS
 62
    64
 10
100.720988
 20
-72.550224
 40
0.603603
 50
76.165015
 51
103.834998
  0
LINE
  8
ボルト／ビス
  6
CONTINUOUS
 62
    64
 10
100.480425
 20
-71.94662
 11
100.432313
 21
-71.964132
  0
ARC
  8
ボルト／ビス
  6
CONTINUOUS
 62
    64
 10
100.504482
 20
-72.104088
 40
0.157468
 50
62.721967
 51
90.0
  0
LINE
  8
ボルト／ビス
  6
CONTINUOUS
 62
    64
 10
100.96155
 20
-71.94662
 11
100.480425
 21
-71.94662
  0
LINE
  8
ボルト／ビス
  6
CONTINUOUS
 62
    64
 10
100.432313
 20
-71.964132
 11
100.432313
 21
-72.14662
  0
LINE
  8
ボルト／ビス
  6
CONTINUOUS
 62
    64
 10
100.57665
 20
-71.964132
 11
100.57665
 21
-72.14662
  0
LINE
  8
ボルト／ビス
  6
CONTINUOUS
 62
    64
 10
101.009663
 20
-71.964132
 11
101.009663
 21
-72.14662
  0
LINE
  8
ボルト／ビス
  6
CONTINUOUS
 62
    64
 10
100.865325
 20
-71.964132
 11
100.865325
 21
-72.14662
  0
LINE
  8
ボルト／ビス
  6
CONTINUOUS
 10
101.009663
 20
-72.14662
 11
100.432313
 21
-72.14662
  0
LINE
  8
ボルト／ビス
  6
CONTINUOUS
 10
101.020988
 20
-72.14662
 11
101.020988
 21
-72.24662
  0
LINE
  8
ボルト／ビス
  6
CONTINUOUS
 10
101.020988
 20
-72.14662
 11
100.420988
 21
-72.14662
  0
LINE
  8
ボルト／ビス
  6
CONTINUOUS
 10
100.420988
 20
-72.14662
 11
100.420988
 21
-72.24662
  0
ENDBLK
  0
BLOCK
  2
*GRP_0034
 70
    65
 10
0.0
 20
0.0
  0
INSERT
  2
M8横
  8
ゴム等
  6
CONTINUOUS
 10
68.481905
 20
-73.68637
 41
0.05
 42
0.05
  0
LINE
  8
ボルト／ビス
  6
CONTINUOUS
 10
68.681905
 20
-73.371372
 11
68.656905
 21
-73.346372
  0
LINE
  8
ボルト／ビス
  6
CONTINUOUS
 10
68.306905
 20
-73.346372
 11
68.281905
 21
-73.371372
  0
LINE
  8
ボルト／ビス
  6
CONTINUOUS
 10
68.281905
 20
-73.371372
 11
68.681905
 21
-73.371372
  0
LINE
  8
ボルト／ビス
  6
CONTINUOUS
 10
68.306905
 20
-73.346372
 11
68.656905
 21
-73.346372
  0
LINE
  8
ボルト／ビス
  6
CONTINUOUS
 10
68.656905
 20
-73.346372
 11
68.656905
 21
-73.41137
  0
LINE
  8
ボルト／ビス
  6
CONTINUOUS
 10
68.681905
 20
-73.371372
 11
68.681905
 21
-73.41137
  0
LINE
  8
ボルト／ビス
  6
CONTINUOUS
 10
68.281905
 20
-73.371372
 11
68.281905
 21
-73.41137
  0
LINE
  8
ボルト／ビス
  6
CONTINUOUS
 10
68.306905
 20
-73.346372
 11
68.306905
 21
-73.41137
  0
LINE
  8
ボルト／ビス
  6
CONTINUOUS
 10
67.931905
 20
-73.68637
 11
69.031905
 21
-73.68637
  0
LINE
  8
ボルト／ビス
  6
CONTINUOUS
 10
69.106905
 20
-73.74637
 11
69.106905
 21
-73.87137
  0
LINE
  8
ボルト／ビス
  6
CONTINUOUS
 10
69.106905
 20
-73.87137
 11
67.856905
 21
-73.87137
  0
LINE
  8
ボルト／ビス
  6
CONTINUOUS
 10
67.856905
 20
-73.87137
 11
67.856905
 21
-73.74637
  0
LINE
  8
ボルト／ビス
  6
CONTINUOUS
 10
69.106905
 20
-73.74637
 11
67.856905
 21
-73.74637
  0
LINE
  8
ボルト／ビス
  6
CONTINUOUS
 10
67.931905
 20
-73.68637
 11
67.931905
 21
-73.74637
  0
LINE
  8
ボルト／ビス
  6
CONTINUOUS
 10
69.031905
 20
-73.68637
 11
69.031905
 21
-73.74637
  0
LINE
  8
ボルト／ビス
  6
CONTINUOUS
 10
68.481905
 20
-73.76137
 11
68.481905
 21
-73.68637
  0
ENDBLK
  0
BLOCK
  2
*GRP_0035
 70
    65
 10
0.0
 20
0.0
  0
LINE
  8
ボルト／ビス
  6
CONTINUOUS
 10
68.171903
 20
-72.39662
 11
68.171903
 21
-72.29662
  0
LINE
  8
ボルト／ビス
  6
CONTINUOUS
 10
68.171903
 20
-72.29662
 11
69.271903
 21
-72.29662
  0
LINE
  8
ボルト／ビス
  6
CONTINUOUS
 10
69.271903
 20
-72.29662
 11
69.271903
 21
-72.39662
  0
LINE
  8
ボルト／ビス
  6
CONTINUOUS
 10
68.171903
 20
-72.39662
 11
69.271903
 21
-72.39662
  0
LINE
  8
ボルト／ビス
  6
CONTINUOUS
 10
68.271903
 20
-72.24662
 11
68.271903
 21
-72.29662
  0
LINE
  8
ボルト／ビス
  6
CONTINUOUS
 10
68.271903
 20
-72.24662
 11
69.171903
 21
-72.24662
  0
LINE
  8
ボルト／ビス
  6
CONTINUOUS
 10
69.171903
 20
-72.24662
 11
69.171903
 21
-72.29662
  0
LINE
  8
ボルト／ビス
  6
CONTINUOUS
 62
    64
 10
68.48134
 20
-71.94662
 11
68.433228
 21
-71.964132
  0
ARC
  8
ボルト／ビス
  6
CONTINUOUS
 62
    64
 10
68.505396
 20
-72.104088
 40
0.157468
 50
62.721967
 51
90.0
  0
ARC
  8
ボルト／ビス
  6
CONTINUOUS
 62
    64
 10
68.721903
 20
-72.550224
 40
0.603603
 50
76.165002
 51
103.834985
  0
LINE
  8
ボルト／ビス
  6
CONTINUOUS
 62
    64
 10
68.962465
 20
-71.94662
 11
69.010577
 21
-71.964132
  0
ARC
  8
ボルト／ビス
  6
CONTINUOUS
 62
    64
 10
68.938409
 20
-72.104088
 40
0.157468
 50
90.0
 51
117.278033
  0
LINE
  8
ボルト／ビス
  6
CONTINUOUS
 62
    64
 10
68.48134
 20
-71.94662
 11
68.962465
 21
-71.94662
  0
LINE
  8
ボルト／ビス
  6
CONTINUOUS
 62
    64
 10
69.010577
 20
-71.964132
 11
69.010577
 21
-72.14662
  0
LINE
  8
ボルト／ビス
  6
CONTINUOUS
 62
    64
 10
68.86624
 20
-71.964132
 11
68.86624
 21
-72.14662
  0
LINE
  8
ボルト／ビス
  6
CONTINUOUS
 62
    64
 10
68.433228
 20
-71.964132
 11
68.433228
 21
-72.14662
  0
LINE
  8
ボルト／ビス
  6
CONTINUOUS
 62
    64
 10
68.577565
 20
-71.964132
 11
68.577565
 21
-72.14662
  0
LINE
  8
ボルト／ビス
  6
CONTINUOUS
 10
68.433228
 20
-72.14662
 11
69.010577
 21
-72.14662
  0
LINE
  8
ボルト／ビス
  6
CONTINUOUS
 10
68.421903
 20
-72.14662
 11
68.421903
 21
-72.24662
  0
LINE
  8
ボルト／ビス
  6
CONTINUOUS
 10
68.421903
 20
-72.14662
 11
69.021903
 21
-72.14662
  0
LINE
  8
ボルト／ビス
  6
CONTINUOUS
 10
69.021903
 20
-72.14662
 11
69.021903
 21
-72.24662
  0
ENDBLK
  0
BLOCK
  2
*GRP_0036
 70
    65
 10
0.0
 20
0.0
  0
LINE
  8
補助線
  6
BYBLOCK
 62
    64
 10
94.618503
 20
-79.999808
 11
94.823478
 21
-80.142933
  0
LINE
  8
補助線
  6
BYBLOCK
 62
    64
 10
94.792553
 20
-79.968883
 11
94.649427
 21
-80.173858
  0
LINE
  8
補助線
  6
BYBLOCK
 62
    64
 10
86.624382
 20
-74.418005
 11
86.419405
 21
-74.27488
  0
LINE
  8
補助線
  6
BYBLOCK
 62
    64
 10
86.593455
 20
-74.243952
 11
86.450332
 21
-74.44893
  0
LINE
  8
補助線
  6
BYBLOCK
 62
    64
 10
78.42528
 20
-68.693083
 11
78.220303
 21
-68.54996
  0
LINE
  8
補助線
  6
BYBLOCK
 62
    64
 10
78.394353
 20
-68.519032
 11
78.25123
 21
-68.72401
  0
LINE
  8
型材断面
  6
CONTINUOUS
 10
95.846563
 20
-79.33273
 11
96.032122
 21
-80.37703
  0
LINE
  8
型材断面
  6
CONTINUOUS
 10
96.032122
 20
-80.37703
 11
95.45963
 21
-81.196943
  0
LINE
  8
型材断面
  6
CONTINUOUS
 10
95.45963
 20
-81.196943
 11
94.41533
 21
-81.382503
  0
LINE
  8
型材断面
  6
CONTINUOUS
 10
86.808137
 20
-73.936492
 11
86.235642
 21
-74.756402
  0
LINE
  8
型材断面
  6
CONTINUOUS
 10
78.62845
 20
-67.310387
 11
77.58415
 21
-67.49595
  0
LINE
  8
型材断面
  6
CONTINUOUS
 10
77.58415
 20
-67.49595
 11
77.011657
 21
-68.31586
  0
LINE
  8
型材断面
  6
CONTINUOUS
 10
77.011657
 20
-68.31586
 11
77.197222
 21
-69.360163
  0
LINE
  8
型材断面
  6
CONTINUOUS
 10
95.846563
 20
-79.33273
 11
78.628465
 21
-67.310385
  0
LINE
  8
型材断面
  6
CONTINUOUS
 10
94.41533
 20
-81.382503
 11
77.197218
 21
-69.360152
  0
LINE
  8
ボルト／ビス
  6
CONTINUOUS
 62
    64
 10
94.985412
 20
-79.69267
 11
95.181165
 21
-80.111017
  0
LINE
  8
ボルト／ビス
  6
CONTINUOUS
 62
    64
 10
94.985412
 20
-79.69267
 11
94.525238
 21
-79.653025
  0
LINE
  8
ボルト／ビス
  6
CONTINUOUS
 62
    64
 10
94.456567
 20
-80.45007
 11
94.916742
 21
-80.489715
  0
LINE
  8
ボルト／ビス
  6
CONTINUOUS
 62
    64
 10
94.456567
 20
-80.45007
 11
94.260815
 21
-80.031722
  0
CIRCLE
  8
ボルト／ビス
  6
CONTINUOUS
 62
    64
 10
94.72099
 20
-80.07137
 40
0.4
  0
LINE
  8
ボルト／ビス
  6
CONTINUOUS
 62
    64
 10
94.525238
 20
-79.653025
 11
94.260815
 21
-80.031722
  0
LINE
  8
ボルト／ビス
  6
CONTINUOUS
 62
    64
 10
95.181165
 20
-80.111017
 11
94.916742
 21
-80.489715
  0
LINE
  8
ボルト／ビス
  6
CONTINUOUS
 62
    64
 10
86.786318
 20
-73.967742
 11
86.32614
 21
-73.928095
  0
LINE
  8
ボルト／ビス
  6
CONTINUOUS
 62
    64
 10
86.786318
 20
-73.967742
 11
86.98207
 21
-74.386088
  0
LINE
  8
ボルト／ビス
  6
CONTINUOUS
 62
    64
 10
86.25747
 20
-74.72514
 11
86.061717
 21
-74.306795
  0
LINE
  8
ボルト／ビス
  6
CONTINUOUS
 62
    64
 10
86.25747
 20
-74.72514
 11
86.717645
 21
-74.764787
  0
CIRCLE
  8
ボルト／ビス
  6
CONTINUOUS
 62
    64
 10
86.521892
 20
-74.346443
 40
0.4
  0
LINE
  8
ボルト／ビス
  6
CONTINUOUS
 62
    64
 10
86.98207
 20
-74.386088
 11
86.717645
 21
-74.764787
  0
LINE
  8
ボルト／ビス
  6
CONTINUOUS
 62
    64
 10
86.32614
 20
-73.928095
 11
86.061717
 21
-74.306795
  0
LINE
  8
ボルト／ビス
  6
CONTINUOUS
 62
    64
 10
78.587212
 20
-68.242822
 11
78.127038
 21
-68.203175
  0
LINE
  8
ボルト／ビス
  6
CONTINUOUS
 62
    64
 10
78.587212
 20
-68.242822
 11
78.782965
 21
-68.66117
  0
LINE
  8
ボルト／ビス
  6
CONTINUOUS
 62
    64
 10
78.05837
 20
-69.000223
 11
77.862617
 21
-68.581875
  0
LINE
  8
ボルト／ビス
  6
CONTINUOUS
 62
    64
 10
78.05837
 20
-69.000223
 11
78.518545
 21
-69.039868
  0
CIRCLE
  8
ボルト／ビス
  6
CONTINUOUS
 62
    64
 10
78.32279
 20
-68.621522
 40
0.4
  0
LINE
  8
ボルト／ビス
  6
CONTINUOUS
 62
    64
 10
78.782965
 20
-68.66117
 11
78.518545
 21
-69.039868
  0
LINE
  8
ボルト／ビス
  6
CONTINUOUS
 62
    64
 10
78.127038
 20
-68.203175
 11
77.862617
 21
-68.581875
  0
ENDBLK
  0
BLOCK
  2
*GRP_0037
 70
    65
 10
0.0
 20
0.0
  0
LINE
  8
補助線
  6
BYBLOCK
 62
    64
 10
78.425282
 20
-79.999808
 11
78.220307
 21
-80.142933
  0
LINE
  8
補助線
  6
BYBLOCK
 62
    64
 10
78.251232
 20
-79.968883
 11
78.394357
 21
-80.173858
  0
LINE
  8
補助線
  6
BYBLOCK
 62
    64
 10
86.419403
 20
-74.418005
 11
86.62438
 21
-74.27488
  0
LINE
  8
補助線
  6
BYBLOCK
 62
    64
 10
86.45033
 20
-74.243952
 11
86.593453
 21
-74.44893
  0
LINE
  8
補助線
  6
BYBLOCK
 62
    64
 10
94.618505
 20
-68.693083
 11
94.823482
 21
-68.54996
  0
LINE
  8
補助線
  6
BYBLOCK
 62
    64
 10
94.649432
 20
-68.519032
 11
94.792555
 21
-68.72401
  0
LINE
  8
型材断面
  6
CONTINUOUS
 10
77.197222
 20
-79.33273
 11
77.011663
 21
-80.37703
  0
LINE
  8
型材断面
  6
CONTINUOUS
 10
77.011663
 20
-80.37703
 11
77.584155
 21
-81.196943
  0
LINE
  8
型材断面
  6
CONTINUOUS
 10
77.584155
 20
-81.196943
 11
78.628455
 21
-81.382503
  0
LINE
  8
型材断面
  6
CONTINUOUS
 10
86.235648
 20
-73.936492
 11
86.808143
 21
-74.756402
  0
LINE
  8
型材断面
  6
CONTINUOUS
 10
94.415335
 20
-67.310387
 11
95.459635
 21
-67.49595
  0
LINE
  8
型材断面
  6
CONTINUOUS
 10
95.459635
 20
-67.49595
 11
96.032128
 21
-68.31586
  0
LINE
  8
型材断面
  6
CONTINUOUS
 10
96.032128
 20
-68.31586
 11
95.846563
 21
-69.360163
  0
LINE
  8
型材断面
  6
CONTINUOUS
 10
77.197222
 20
-79.33273
 11
94.41532
 21
-67.310385
  0
LINE
  8
型材断面
  6
CONTINUOUS
 10
78.628455
 20
-81.382503
 11
95.846567
 21
-69.360152
  0
LINE
  8
ボルト／ビス
  6
CONTINUOUS
 62
    64
 10
78.058373
 20
-79.69267
 11
77.86262
 21
-80.111017
  0
LINE
  8
ボルト／ビス
  6
CONTINUOUS
 62
    64
 10
78.058373
 20
-79.69267
 11
78.518548
 21
-79.653025
  0
LINE
  8
ボルト／ビス
  6
CONTINUOUS
 62
    64
 10
78.587218
 20
-80.45007
 11
78.127043
 21
-80.489715
  0
LINE
  8
ボルト／ビス
  6
CONTINUOUS
 62
    64
 10
78.587218
 20
-80.45007
 11
78.78297
 21
-80.031722
  0
CIRCLE
  8
ボルト／ビス
  6
CONTINUOUS
 62
    64
 10
78.322795
 20
-80.07137
 40
0.4
  0
LINE
  8
ボルト／ビス
  6
CONTINUOUS
 62
    64
 10
78.518548
 20
-79.653025
 11
78.78297
 21
-80.031722
  0
LINE
  8
ボルト／ビス
  6
CONTINUOUS
 62
    64
 10
77.86262
 20
-80.111017
 11
78.127043
 21
-80.489715
  0
LINE
  8
ボルト／ビス
  6
CONTINUOUS
 62
    64
 10
86.257467
 20
-73.967742
 11
86.717645
 21
-73.928095
  0
LINE
  8
ボルト／ビス
  6
CONTINUOUS
 62
    64
 10
86.257467
 20
-73.967742
 11
86.061715
 21
-74.386088
  0
LINE
  8
ボルト／ビス
  6
CONTINUOUS
 62
    64
 10
86.786315
 20
-74.72514
 11
86.982068
 21
-74.306795
  0
LINE
  8
ボルト／ビス
  6
CONTINUOUS
 62
    64
 10
86.786315
 20
-74.72514
 11
86.32614
 21
-74.764787
  0
CIRCLE
  8
ボルト／ビス
  6
CONTINUOUS
 62
    64
 10
86.521892
 20
-74.346443
 40
0.4
  0
LINE
  8
ボルト／ビス
  6
CONTINUOUS
 62
    64
 10
86.061715
 20
-74.386088
 11
86.32614
 21
-74.764787
  0
LINE
  8
ボルト／ビス
  6
CONTINUOUS
 62
    64
 10
86.717645
 20
-73.928095
 11
86.982068
 21
-74.306795
  0
LINE
  8
ボルト／ビス
  6
CONTINUOUS
 62
    64
 10
94.456573
 20
-68.242822
 11
94.916748
 21
-68.203175
  0
LINE
  8
ボルト／ビス
  6
CONTINUOUS
 62
    64
 10
94.456573
 20
-68.242822
 11
94.26082
 21
-68.66117
  0
LINE
  8
ボルト／ビス
  6
CONTINUOUS
 62
    64
 10
94.985415
 20
-69.000223
 11
95.181168
 21
-68.581875
  0
LINE
  8
ボルト／ビス
  6
CONTINUOUS
 62
    64
 10
94.985415
 20
-69.000223
 11
94.52524
 21
-69.039868
  0
CIRCLE
  8
ボルト／ビス
  6
CONTINUOUS
 62
    64
 10
94.720995
 20
-68.621522
 40
0.4
  0
LINE
  8
ボルト／ビス
  6
CONTINUOUS
 62
    64
 10
94.26082
 20
-68.66117
 11
94.52524
 21
-69.039868
  0
LINE
  8
ボルト／ビス
  6
CONTINUOUS
 62
    64
 10
94.916748
 20
-68.203175
 11
95.181168
 21
-68.581875
  0
ENDBLK
  0
BLOCK
  2
*GRP_0038
 70
    65
 10
0.0
 20
0.0
  0
LINE
  8
型材断面
  6
DOT
 10
102.221445
 20
-65.64662
 11
102.146445
 21
-65.64662
  0
LINE
  8
型材断面
  6
DOT
 10
99.721445
 20
-64.89662
 11
99.721445
 21
-63.79662
  0
LINE
  8
型材断面
  6
DOT
 10
99.795988
 20
-66.37137
 11
101.965987
 21
-66.37137
  0
LINE
  8
型材断面
  6
DOT
 10
101.965987
 20
-67.04637
 11
101.965987
 21
-66.37137
  0
LINE
  8
型材断面
  6
DOT
 62
    47
 10
103.065987
 20
-71.055408
 11
103.140987
 21
-71.055408
  0
LINE
  8
型材断面
  6
DOT
 62
    47
 10
103.140987
 20
-71.055408
 11
103.140987
 21
-70.555408
  0
LINE
  8
型材断面
  6
DOT
 62
    47
 10
103.140987
 20
-70.555408
 11
101.965987
 21
-70.405407
  0
LINE
  8
型材断面
  6
DOT
 62
    47
 10
101.965987
 20
-69.79637
 11
101.965987
 21
-70.405407
  0
LINE
  8
型材断面
  6
DOT
 62
    47
 10
102.670988
 20
-69.79637
 11
102.670988
 21
-67.04637
  0
LINE
  8
型材断面
  6
DOT
 10
102.221445
 20
-65.64662
 11
102.221445
 21
-64.89662
  0
LINE
  8
型材断面
  6
DOT
 10
99.795988
 20
-66.37137
 11
99.795988
 21
-65.64662
  0
INSERT
  2
*GRP_0040
  8
型材断面
  6
DOT
 10
0.0
 20
0.0
  0
INSERT
  2
*GRP_0041
  8
型材断面
  6
DOT
 10
0.0
 20
0.0
  0
LINE
  8
型材断面
  6
DOT
 10
103.140987
 20
-71.055408
 11
84.721445
 21
-71.055408
  0
LINE
  8
型材断面
  6
DOT
 10
103.140987
 20
-70.555408
 11
84.721445
 21
-70.555408
  0
LINE
  8
型材断面
  6
DOT
 10
101.965987
 20
-70.405407
 11
84.721445
 21
-70.405407
  0
LINE
  8
型材断面
  6
DOT
 10
102.670988
 20
-69.79637
 11
84.721445
 21
-69.79637
  0
LINE
  8
型材断面
  6
DOT
 10
102.221445
 20
-65.64662
 11
84.721445
 21
-65.64662
  0
LINE
  8
型材断面
  6
DOT
 10
99.721445
 20
-63.79662
 11
84.721445
 21
-63.79662
  0
LINE
  8
型材断面
  6
DOT
 10
102.221445
 20
-64.89662
 11
84.721445
 21
-64.89662
  0
LINE
  8
型材断面
  6
DOT
 10
101.965987
 20
-66.37137
 11
84.721445
 21
-66.37137
  0
LINE
  8
型材断面
  6
DOT
 10
102.670988
 20
-67.04637
 11
84.721445
 21
-67.04637
  0
LINE
  8
型材断面
  6
DOT
 10
67.221445
 20
-65.64662
 11
67.296445
 21
-65.64662
  0
LINE
  8
型材断面
  6
DOT
 10
69.721445
 20
-64.89662
 11
69.721445
 21
-63.79662
  0
LINE
  8
型材断面
  6
DOT
 10
69.646903
 20
-66.37137
 11
67.476902
 21
-66.37137
  0
LINE
  8
型材断面
  6
DOT
 10
67.476902
 20
-67.04637
 11
67.476902
 21
-66.37137
  0
LINE
  8
型材断面
  6
DOT
 62
    47
 10
66.376902
 20
-71.055408
 11
66.301902
 21
-71.055408
  0
LINE
  8
型材断面
  6
DOT
 62
    47
 10
66.301902
 20
-71.055408
 11
66.301902
 21
-70.555408
  0
LINE
  8
型材断面
  6
DOT
 62
    47
 10
66.301902
 20
-70.555408
 11
67.476902
 21
-70.405407
  0
LINE
  8
型材断面
  6
DOT
 62
    47
 10
67.476902
 20
-69.79637
 11
67.476902
 21
-70.405407
  0
LINE
  8
型材断面
  6
DOT
 62
    47
 10
66.771903
 20
-69.79637
 11
66.771903
 21
-67.04637
  0
LINE
  8
型材断面
  6
DOT
 10
67.221445
 20
-65.64662
 11
67.221445
 21
-64.89662
  0
LINE
  8
型材断面
  6
DOT
 10
69.646903
 20
-66.37137
 11
69.646903
 21
-65.64662
  0
INSERT
  2
*GRP_0042
  8
型材断面
  6
DOT
 10
0.0
 20
0.0
  0
INSERT
  2
*GRP_0043
  8
型材断面
  6
DOT
 10
0.0
 20
0.0
  0
LINE
  8
型材断面
  6
DOT
 10
66.301902
 20
-71.055408
 11
84.721445
 21
-71.055408
  0
LINE
  8
型材断面
  6
DOT
 10
66.301902
 20
-70.555408
 11
84.721445
 21
-70.555408
  0
LINE
  8
型材断面
  6
DOT
 10
67.476902
 20
-70.405407
 11
84.721445
 21
-70.405407
  0
LINE
  8
型材断面
  6
DOT
 10
66.771903
 20
-69.79637
 11
84.721445
 21
-69.79637
  0
LINE
  8
型材断面
  6
DOT
 10
67.221445
 20
-65.64662
 11
84.721445
 21
-65.64662
  0
LINE
  8
型材断面
  6
DOT
 10
69.721445
 20
-63.79662
 11
84.721445
 21
-63.79662
  0
LINE
  8
型材断面
  6
DOT
 10
67.221445
 20
-64.89662
 11
84.721445
 21
-64.89662
  0
LINE
  8
型材断面
  6
DOT
 10
67.476902
 20
-66.37137
 11
84.721445
 21
-66.37137
  0
LINE
  8
型材断面
  6
DOT
 10
66.771903
 20
-67.04637
 11
84.721445
 21
-67.04637
  0
ENDBLK
  0
BLOCK
  2
*DIM_0039
 70
    65
 10
0.0
 20
0.0
  0
LINE
  8
寸法
  6
CONTINUOUS
 10
108.065987
 20
-71.055408
 11
118.998525
 21
-71.055408
  0
LINE
  8
寸法
  6
CONTINUOUS
 10
108.065987
 20
-78.555408
 11
118.998525
 21
-78.555408
  0
LINE
  8
寸法
  6
CONTINUOUS
 10
118.998525
 20
-71.055408
 11
118.998525
 21
-78.555408
  0
POINT
  8
寸法
 10
118.998525
 20
-71.055408
  0
POINT
  8
寸法
 10
118.998525
 20
-78.555408
  0
TEXT
  7
TextStyle03
  8
寸法
  6
CONTINUOUS
 10
121.975
 20
-83.075
  1
上昇87以上
 40
3.0
 50
90.0
 72
     5
 11
121.975
 21
-66.575
  0
ENDBLK
  0
BLOCK
  2
*GRP_0040
 70
    65
 10
0.0
 20
0.0
  0
INSERT
  2
M8横
  8
ゴム等
  6
DOT
 10
100.960985
 20
-66.18637
 50
180.0
 41
0.05
 42
-0.05
  0
LINE
  8
ボルト／ビス
  6
DOT
 10
100.760985
 20
-65.871372
 11
100.785985
 21
-65.846372
  0
LINE
  8
ボルト／ビス
  6
DOT
 10
101.135985
 20
-65.846372
 11
101.160985
 21
-65.871372
  0
LINE
  8
ボルト／ビス
  6
DOT
 10
101.160985
 20
-65.871372
 11
100.760985
 21
-65.871372
  0
LINE
  8
ボルト／ビス
  6
DOT
 10
101.135985
 20
-65.846372
 11
100.785985
 21
-65.846372
  0
LINE
  8
ボルト／ビス
  6
DOT
 10
100.785985
 20
-65.846372
 11
100.785985
 21
-65.91137
  0
LINE
  8
ボルト／ビス
  6
DOT
 10
100.760985
 20
-65.871372
 11
100.760985
 21
-65.91137
  0
LINE
  8
ボルト／ビス
  6
DOT
 10
101.160985
 20
-65.871372
 11
101.160985
 21
-65.91137
  0
LINE
  8
ボルト／ビス
  6
DOT
 10
101.135985
 20
-65.846372
 11
101.135985
 21
-65.91137
  0
LINE
  8
ボルト／ビス
  6
DOT
 10
101.510985
 20
-66.18637
 11
100.410985
 21
-66.18637
  0
LINE
  8
ボルト／ビス
  6
DOT
 10
100.335985
 20
-66.24637
 11
100.335985
 21
-66.37137
  0
LINE
  8
ボルト／ビス
  6
DOT
 10
100.335985
 20
-66.37137
 11
101.585985
 21
-66.37137
  0
LINE
  8
ボルト／ビス
  6
DOT
 10
101.585985
 20
-66.37137
 11
101.585985
 21
-66.24637
  0
LINE
  8
ボルト／ビス
  6
DOT
 10
100.335985
 20
-66.24637
 11
101.585985
 21
-66.24637
  0
LINE
  8
ボルト／ビス
  6
DOT
 10
101.510985
 20
-66.18637
 11
101.510985
 21
-66.24637
  0
LINE
  8
ボルト／ビス
  6
DOT
 10
100.410985
 20
-66.18637
 11
100.410985
 21
-66.24637
  0
LINE
  8
ボルト／ビス
  6
DOT
 10
100.960985
 20
-66.26137
 11
100.960985
 21
-66.18637
  0
ENDBLK
  0
BLOCK
  2
*GRP_0041
 70
    65
 10
0.0
 20
0.0
  0
LINE
  8
ボルト／ビス
  6
DOT
 10
101.270988
 20
-64.89662
 11
101.270988
 21
-64.79662
  0
LINE
  8
ボルト／ビス
  6
DOT
 10
101.270988
 20
-64.79662
 11
100.170988
 21
-64.79662
  0
LINE
  8
ボルト／ビス
  6
DOT
 10
100.170988
 20
-64.79662
 11
100.170988
 21
-64.89662
  0
LINE
  8
ボルト／ビス
  6
DOT
 10
101.270988
 20
-64.89662
 11
100.170988
 21
-64.89662
  0
LINE
  8
ボルト／ビス
  6
DOT
 10
101.170988
 20
-64.74662
 11
101.170988
 21
-64.79662
  0
LINE
  8
ボルト／ビス
  6
DOT
 10
101.170988
 20
-64.74662
 11
100.270988
 21
-64.74662
  0
LINE
  8
ボルト／ビス
  6
DOT
 10
100.270988
 20
-64.74662
 11
100.270988
 21
-64.79662
  0
LINE
  8
ボルト／ビス
  6
DOT
 62
    64
 10
100.96155
 20
-64.44662
 11
101.009663
 21
-64.464132
  0
ARC
  8
ボルト／ビス
  6
DOT
 62
    64
 10
100.937495
 20
-64.60409
 40
0.157468
 50
90.0
 51
117.278033
  0
ARC
  8
ボルト／ビス
  6
DOT
 62
    64
 10
100.720988
 20
-65.050225
 40
0.603603
 50
76.165015
 51
103.834998
  0
LINE
  8
ボルト／ビス
  6
DOT
 62
    64
 10
100.480425
 20
-64.44662
 11
100.432313
 21
-64.464132
  0
ARC
  8
ボルト／ビス
  6
DOT
 62
    64
 10
100.504482
 20
-64.60409
 40
0.157468
 50
62.721967
 51
90.0
  0
LINE
  8
ボルト／ビス
  6
DOT
 62
    64
 10
100.96155
 20
-64.44662
 11
100.480425
 21
-64.44662
  0
LINE
  8
ボルト／ビス
  6
DOT
 62
    64
 10
100.432313
 20
-64.464132
 11
100.432313
 21
-64.64662
  0
LINE
  8
ボルト／ビス
  6
DOT
 62
    64
 10
100.57665
 20
-64.464132
 11
100.57665
 21
-64.64662
  0
LINE
  8
ボルト／ビス
  6
DOT
 62
    64
 10
101.009663
 20
-64.464132
 11
101.009663
 21
-64.64662
  0
LINE
  8
ボルト／ビス
  6
DOT
 62
    64
 10
100.865325
 20
-64.464132
 11
100.865325
 21
-64.64662
  0
LINE
  8
ボルト／ビス
  6
DOT
 10
101.009663
 20
-64.64662
 11
100.432313
 21
-64.64662
  0
LINE
  8
ボルト／ビス
  6
DOT
 10
101.020988
 20
-64.64662
 11
101.020988
 21
-64.74662
  0
LINE
  8
ボルト／ビス
  6
DOT
 10
101.020988
 20
-64.64662
 11
100.420988
 21
-64.64662
  0
LINE
  8
ボルト／ビス
  6
DOT
 10
100.420988
 20
-64.64662
 11
100.420988
 21
-64.74662
  0
ENDBLK
  0
BLOCK
  2
*GRP_0042
 70
    65
 10
0.0
 20
0.0
  0
INSERT
  2
M8横
  8
ゴム等
  6
DOT
 10
68.481905
 20
-66.18637
 41
0.05
 42
0.05
  0
LINE
  8
ボルト／ビス
  6
DOT
 10
68.681905
 20
-65.871372
 11
68.656905
 21
-65.846372
  0
LINE
  8
ボルト／ビス
  6
DOT
 10
68.306905
 20
-65.846372
 11
68.281905
 21
-65.871372
  0
LINE
  8
ボルト／ビス
  6
DOT
 10
68.281905
 20
-65.871372
 11
68.681905
 21
-65.871372
  0
LINE
  8
ボルト／ビス
  6
DOT
 10
68.306905
 20
-65.846372
 11
68.656905
 21
-65.846372
  0
LINE
  8
ボルト／ビス
  6
DOT
 10
68.656905
 20
-65.846372
 11
68.656905
 21
-65.91137
  0
LINE
  8
ボルト／ビス
  6
DOT
 10
68.681905
 20
-65.871372
 11
68.681905
 21
-65.91137
  0
LINE
  8
ボルト／ビス
  6
DOT
 10
68.281905
 20
-65.871372
 11
68.281905
 21
-65.91137
  0
LINE
  8
ボルト／ビス
  6
DOT
 10
68.306905
 20
-65.846372
 11
68.306905
 21
-65.91137
  0
LINE
  8
ボルト／ビス
  6
DOT
 10
67.931905
 20
-66.18637
 11
69.031905
 21
-66.18637
  0
LINE
  8
ボルト／ビス
  6
DOT
 10
69.106905
 20
-66.24637
 11
69.106905
 21
-66.37137
  0
LINE
  8
ボルト／ビス
  6
DOT
 10
69.106905
 20
-66.37137
 11
67.856905
 21
-66.37137
  0
LINE
  8
ボルト／ビス
  6
DOT
 10
67.856905
 20
-66.37137
 11
67.856905
 21
-66.24637
  0
LINE
  8
ボルト／ビス
  6
DOT
 10
69.106905
 20
-66.24637
 11
67.856905
 21
-66.24637
  0
LINE
  8
ボルト／ビス
  6
DOT
 10
67.931905
 20
-66.18637
 11
67.931905
 21
-66.24637
  0
LINE
  8
ボルト／ビス
  6
DOT
 10
69.031905
 20
-66.18637
 11
69.031905
 21
-66.24637
  0
LINE
  8
ボルト／ビス
  6
DOT
 10
68.481905
 20
-66.26137
 11
68.481905
 21
-66.18637
  0
ENDBLK
  0
BLOCK
  2
*GRP_0043
 70
    65
 10
0.0
 20
0.0
  0
LINE
  8
ボルト／ビス
  6
DOT
 10
68.171903
 20
-64.89662
 11
68.171903
 21
-64.79662
  0
LINE
  8
ボルト／ビス
  6
DOT
 10
68.171903
 20
-64.79662
 11
69.271903
 21
-64.79662
  0
LINE
  8
ボルト／ビス
  6
DOT
 10
69.271903
 20
-64.79662
 11
69.271903
 21
-64.89662
  0
LINE
  8
ボルト／ビス
  6
DOT
 10
68.171903
 20
-64.89662
 11
69.271903
 21
-64.89662
  0
LINE
  8
ボルト／ビス
  6
DOT
 10
68.271903
 20
-64.74662
 11
68.271903
 21
-64.79662
  0
LINE
  8
ボルト／ビス
  6
DOT
 10
68.271903
 20
-64.74662
 11
69.171903
 21
-64.74662
  0
LINE
  8
ボルト／ビス
  6
DOT
 10
69.171903
 20
-64.74662
 11
69.171903
 21
-64.79662
  0
LINE
  8
ボルト／ビス
  6
DOT
 62
    64
 10
68.48134
 20
-64.44662
 11
68.433228
 21
-64.464132
  0
ARC
  8
ボルト／ビス
  6
DOT
 62
    64
 10
68.505396
 20
-64.60409
 40
0.157468
 50
62.721967
 51
90.0
  0
ARC
  8
ボルト／ビス
  6
DOT
 62
    64
 10
68.721903
 20
-65.050225
 40
0.603603
 50
76.165002
 51
103.834985
  0
LINE
  8
ボルト／ビス
  6
DOT
 62
    64
 10
68.962465
 20
-64.44662
 11
69.010577
 21
-64.464132
  0
ARC
  8
ボルト／ビス
  6
DOT
 62
    64
 10
68.938409
 20
-64.60409
 40
0.157468
 50
90.0
 51
117.278033
  0
LINE
  8
ボルト／ビス
  6
DOT
 62
    64
 10
68.48134
 20
-64.44662
 11
68.962465
 21
-64.44662
  0
LINE
  8
ボルト／ビス
  6
DOT
 62
    64
 10
69.010577
 20
-64.464132
 11
69.010577
 21
-64.64662
  0
LINE
  8
ボルト／ビス
  6
DOT
 62
    64
 10
68.86624
 20
-64.464132
 11
68.86624
 21
-64.64662
  0
LINE
  8
ボルト／ビス
  6
DOT
 62
    64
 10
68.433228
 20
-64.464132
 11
68.433228
 21
-64.64662
  0
LINE
  8
ボルト／ビス
  6
DOT
 62
    64
 10
68.577565
 20
-64.464132
 11
68.577565
 21
-64.64662
  0
LINE
  8
ボルト／ビス
  6
DOT
 10
68.433228
 20
-64.64662
 11
69.010577
 21
-64.64662
  0
LINE
  8
ボルト／ビス
  6
DOT
 10
68.421903
 20
-64.64662
 11
68.421903
 21
-64.74662
  0
LINE
  8
ボルト／ビス
  6
DOT
 10
68.421903
 20
-64.64662
 11
69.021903
 21
-64.64662
  0
LINE
  8
ボルト／ビス
  6
DOT
 10
69.021903
 20
-64.64662
 11
69.021903
 21
-64.74662
  0
ENDBLK
  0
BLOCK
  2
M8横
 70
    64
 10
-88.370132
 20
140.837665
  0
LINE
  8
ボルト／ビス
 10
-95.870132
 20
140.837665
 11
-80.870132
 21
140.837665
  0
LINE
  8
ボルト／ビス
 10
-80.870132
 20
145.837665
 11
-81.370132
 21
146.337665
  0
POLYLINE
  8
ボルト／ビス
 66
     1
  0
VERTEX
  8
ボルト／ビス
 10
-84.120132
 20
146.337665
  0
VERTEX
  8
ボルト／ビス
 10
-84.620132
 20
145.837665
  0
VERTEX
  8
ボルト／ビス
 10
-85.120132
 20
146.337665
  0
SEQEND
  0
POLYLINE
  8
ボルト／ビス
 66
     1
  0
VERTEX
  8
ボルト／ビス
 10
-91.620132
 20
146.337665
  0
VERTEX
  8
ボルト／ビス
 10
-92.120132
 20
145.837665
  0
VERTEX
  8
ボルト／ビス
 10
-92.620132
 20
146.337665
  0
SEQEND
  0
LINE
  8
ボルト／ビス
 10
-95.370132
 20
146.337665
 11
-95.870132
 21
145.837665
  0
LINE
  8
ボルト／ビス
 10
-95.870132
 20
140.837665
 11
-95.870132
 21
145.837665
  0
LINE
  8
ボルト／ビス
 10
-80.870132
 20
140.837665
 11
-80.870132
 21
145.837665
  0
LINE
  8
ボルト／ビス
 10
-95.370132
 20
146.337665
 11
-81.370132
 21
146.337665
  0
LINE
  8
ボルト／ビス
 10
-84.620132
 20
140.837665
 11
-84.620132
 21
145.837665
  0
LINE
  8
ボルト／ビス
 10
-92.120132
 20
140.837665
 11
-92.120132
 21
145.837665
  0
ENDBLK
  0
ENDSEC
  0
SECTION
  2
ENTITIES
  0
POLYLINE
  8
通り芯
  6
CONTINUOUS
 66
     1
 70
     1
  0
VERTEX
  8
通り芯
 10
-210.0
 20
-148.5
  0
VERTEX
  8
通り芯
 10
210.0
 20
-148.5
  0
VERTEX
  8
通り芯
 10
210.0
 20
148.5
  0
VERTEX
  8
通り芯
 10
-210.0
 20
148.5
  0
SEQEND
  0
INSERT
  2
*GRP_0001
  8
型材断面
  6
CONTINUOUS
 10
0.0
 20
0.0
  0
LINE
  8
型材断面
  6
CONTINUOUS
 10
-39.638257
 20
-73.14662
 11
-39.713257
 21
-73.14662
  0
LINE
  8
型材断面
  6
CONTINUOUS
 10
-42.138257
 20
-72.39662
 11
-42.138257
 21
-71.29662
  0
LINE
  8
型材断面
  6
CONTINUOUS
 62
    47
 10
-40.038715
 20
-83.24637
 11
-40.113715
 21
-83.24637
  0
LINE
  8
型材断面
  6
CONTINUOUS
 62
    47
 10
-40.038715
 20
-83.24637
 11
-40.038715
 21
-82.49637
  0
LINE
  8
型材断面
  6
CONTINUOUS
 10
-42.063715
 20
-73.87137
 11
-39.893715
 21
-73.87137
  0
LINE
  8
型材断面
  6
CONTINUOUS
 10
-39.893715
 20
-74.54637
 11
-39.893715
 21
-73.87137
  0
LINE
  8
型材断面
  6
CONTINUOUS
 62
    47
 10
-38.793715
 20
-78.555408
 11
-38.718715
 21
-78.555408
  0
LINE
  8
型材断面
  6
CONTINUOUS
 62
    47
 10
-38.718715
 20
-78.555408
 11
-38.718715
 21
-78.055408
  0
LINE
  8
型材断面
  6
CONTINUOUS
 62
    47
 10
-38.718715
 20
-78.055408
 11
-39.893715
 21
-77.905407
  0
LINE
  8
型材断面
  6
CONTINUOUS
 62
    47
 10
-39.893715
 20
-77.29637
 11
-39.893715
 21
-77.905407
  0
LINE
  8
型材断面
  6
CONTINUOUS
 62
    47
 10
-39.188715
 20
-77.29637
 11
-39.188715
 21
-74.54637
  0
LINE
  8
型材断面
  6
CONTINUOUS
 10
-39.638257
 20
-73.14662
 11
-39.638257
 21
-72.39662
  0
LINE
  8
型材断面
  6
CONTINUOUS
 10
-42.063715
 20
-73.87137
 11
-42.063715
 21
-73.14662
  0
LINE
  8
型材断面
  6
CONTINUOUS
 62
    47
 10
-39.188715
 20
-82.49637
 11
-39.188715
 21
-78.555408
  0
INSERT
  2
*GRP_0002
  8
型材断面
  6
DOT
 10
0.0
 20
0.0
  0
INSERT
  2
*GRP_0003
  8
型材断面
  6
DOT
 10
0.0
 20
0.0
  0
LINE
  8
型材断面
  6
CONTINUOUS
 10
-39.188715
 20
-82.49637
 11
-57.138257
 21
-82.49637
  0
LINE
  8
型材断面
  6
CONTINUOUS
 10
-40.038715
 20
-83.24637
 11
-57.138257
 21
-83.24637
  0
LINE
  8
型材断面
  6
CONTINUOUS
 10
-38.718715
 20
-78.555408
 11
-57.138257
 21
-78.555408
  0
LINE
  8
型材断面
  6
CONTINUOUS
 10
-38.718715
 20
-78.055408
 11
-57.138257
 21
-78.055408
  0
LINE
  8
型材断面
  6
CONTINUOUS
 10
-39.893715
 20
-77.905407
 11
-57.138257
 21
-77.905407
  0
LINE
  8
型材断面
  6
CONTINUOUS
 10
-39.188715
 20
-77.29637
 11
-57.138257
 21
-77.29637
  0
LINE
  8
型材断面
  6
CONTINUOUS
 10
-39.638257
 20
-73.14662
 11
-57.138257
 21
-73.14662
  0
LINE
  8
型材断面
  6
CONTINUOUS
 10
-42.138257
 20
-71.29662
 11
-57.138257
 21
-71.29662
  0
LINE
  8
型材断面
  6
CONTINUOUS
 10
-39.638257
 20
-72.39662
 11
-57.138257
 21
-72.39662
  0
LINE
  8
型材断面
  6
CONTINUOUS
 10
-39.893715
 20
-73.87137
 11
-57.138257
 21
-73.87137
  0
LINE
  8
型材断面
  6
CONTINUOUS
 10
-39.188715
 20
-74.54637
 11
-57.138257
 21
-74.54637
  0
LINE
  8
型材断面
  6
CONTINUOUS
 10
-74.638257
 20
-73.14662
 11
-74.563257
 21
-73.14662
  0
LINE
  8
型材断面
  6
CONTINUOUS
 10
-72.138257
 20
-72.39662
 11
-72.138257
 21
-71.29662
  0
LINE
  8
型材断面
  6
CONTINUOUS
 62
    47
 10
-74.2378
 20
-83.24637
 11
-74.1628
 21
-83.24637
  0
LINE
  8
型材断面
  6
CONTINUOUS
 62
    47
 10
-74.2378
 20
-83.24637
 11
-74.2378
 21
-82.49637
  0
LINE
  8
型材断面
  6
CONTINUOUS
 10
-72.2128
 20
-73.87137
 11
-74.3828
 21
-73.87137
  0
LINE
  8
型材断面
  6
CONTINUOUS
 10
-74.3828
 20
-74.54637
 11
-74.3828
 21
-73.87137
  0
LINE
  8
型材断面
  6
CONTINUOUS
 62
    47
 10
-75.4828
 20
-78.555408
 11
-75.5578
 21
-78.555408
  0
LINE
  8
型材断面
  6
CONTINUOUS
 62
    47
 10
-75.5578
 20
-78.555408
 11
-75.5578
 21
-78.055408
  0
LINE
  8
型材断面
  6
CONTINUOUS
 62
    47
 10
-75.5578
 20
-78.055408
 11
-74.3828
 21
-77.905407
  0
LINE
  8
型材断面
  6
CONTINUOUS
 62
    47
 10
-74.3828
 20
-77.29637
 11
-74.3828
 21
-77.905407
  0
LINE
  8
型材断面
  6
CONTINUOUS
 62
    47
 10
-75.0878
 20
-77.29637
 11
-75.0878
 21
-74.54637
  0
LINE
  8
型材断面
  6
CONTINUOUS
 10
-74.638257
 20
-73.14662
 11
-74.638257
 21
-72.39662
  0
LINE
  8
型材断面
  6
CONTINUOUS
 10
-72.2128
 20
-73.87137
 11
-72.2128
 21
-73.14662
  0
LINE
  8
型材断面
  6
CONTINUOUS
 62
    47
 10
-75.0878
 20
-82.49637
 11
-75.0878
 21
-78.555408
  0
INSERT
  2
*GRP_0004
  8
型材断面
  6
DOT
 10
0.0
 20
0.0
  0
INSERT
  2
*GRP_0005
  8
型材断面
  6
DOT
 10
0.0
 20
0.0
  0
LINE
  8
型材断面
  6
CONTINUOUS
 10
-75.0878
 20
-82.49637
 11
-57.138257
 21
-82.49637
  0
LINE
  8
型材断面
  6
CONTINUOUS
 10
-74.2378
 20
-83.24637
 11
-57.138257
 21
-83.24637
  0
LINE
  8
型材断面
  6
CONTINUOUS
 10
-75.5578
 20
-78.555408
 11
-57.138257
 21
-78.555408
  0
LINE
  8
型材断面
  6
CONTINUOUS
 10
-75.5578
 20
-78.055408
 11
-57.138257
 21
-78.055408
  0
LINE
  8
型材断面
  6
CONTINUOUS
 10
-74.3828
 20
-77.905407
 11
-57.138257
 21
-77.905407
  0
LINE
  8
型材断面
  6
CONTINUOUS
 10
-75.0878
 20
-77.29637
 11
-57.138257
 21
-77.29637
  0
LINE
  8
型材断面
  6
CONTINUOUS
 10
-74.638257
 20
-73.14662
 11
-57.138257
 21
-73.14662
  0
LINE
  8
型材断面
  6
CONTINUOUS
 10
-72.138257
 20
-71.29662
 11
-57.138257
 21
-71.29662
  0
LINE
  8
型材断面
  6
CONTINUOUS
 10
-74.638257
 20
-72.39662
 11
-57.138257
 21
-72.39662
  0
LINE
  8
型材断面
  6
CONTINUOUS
 10
-74.3828
 20
-73.87137
 11
-57.138257
 21
-73.87137
  0
LINE
  8
型材断面
  6
CONTINUOUS
 10
-75.0878
 20
-74.54637
 11
-57.138257
 21
-74.54637
  0
LINE
  8
型材断面
  6
DASHDOT
 10
-57.138257
 20
-87.120773
 11
-57.138257
 21
73.610085
  0
LINE
  8
型材断面
  6
DASHDOT
 10
-42.138257
 20
-87.120773
 11
-42.138257
 21
43.610085
  0
LINE
  8
型材断面
  6
DASHDOT
 10
-72.138257
 20
-87.120773
 11
-72.138257
 21
43.610085
  0
LINE
  8
型材断面
  6
CONTINUOUS
 10
-42.138257
 20
43.610085
 11
-42.138257
 21
73.610085
  0
LINE
  8
型材断面
  6
CONTINUOUS
 10
-39.188715
 20
40.660542
 11
-39.188715
 21
76.559627
  0
LINE
  8
型材断面
  6
CONTINUOUS
 10
-38.718715
 20
40.190543
 11
-38.718715
 21
77.029628
  0
LINE
  8
型材断面
  6
CONTINUOUS
 10
-39.638257
 20
41.110085
 11
-39.638257
 21
76.110085
  0
LINE
  8
型材断面
  6
CONTINUOUS
 10
-42.138257
 20
43.610085
 11
-72.138257
 21
43.610085
  0
LINE
  8
型材断面
  6
CONTINUOUS
 10
-39.188715
 20
40.660542
 11
-75.0878
 21
40.660542
  0
LINE
  8
型材断面
  6
CONTINUOUS
 10
-38.718715
 20
40.190543
 11
-75.5578
 21
40.190543
  0
LINE
  8
型材断面
  6
CONTINUOUS
 10
-39.638257
 20
41.110085
 11
-74.638257
 21
41.110085
  0
LINE
  8
型材断面
  6
CONTINUOUS
 10
-42.138257
 20
73.610085
 11
-72.138257
 21
73.610085
  0
LINE
  8
型材断面
  6
CONTINUOUS
 10
-39.188715
 20
76.559627
 11
-75.0878
 21
76.559627
  0
LINE
  8
型材断面
  6
CONTINUOUS
 10
-38.718715
 20
77.029628
 11
-75.5578
 21
77.029628
  0
LINE
  8
型材断面
  6
CONTINUOUS
 10
-39.638257
 20
76.110085
 11
-74.638257
 21
76.110085
  0
LINE
  8
型材断面
  6
CONTINUOUS
 10
-72.138257
 20
43.610085
 11
-72.138257
 21
73.610085
  0
LINE
  8
型材断面
  6
CONTINUOUS
 10
-75.0878
 20
40.660542
 11
-75.0878
 21
76.559627
  0
LINE
  8
型材断面
  6
CONTINUOUS
 10
-75.5578
 20
40.190543
 11
-75.5578
 21
77.029628
  0
LINE
  8
型材断面
  6
CONTINUOUS
 10
-74.638257
 20
41.110085
 11
-74.638257
 21
76.110085
  0
LINE
  8
型材断面
  6
CONTINUOUS
 10
-43.388257
 20
44.860085
 11
-38.718715
 21
40.190543
  0
LINE
  8
型材断面
  6
CONTINUOUS
 10
-43.388257
 20
72.360085
 11
-38.718715
 21
77.029628
  0
LINE
  8
型材断面
  6
CONTINUOUS
 10
-70.888257
 20
72.360085
 11
-75.5578
 21
77.029628
  0
LINE
  8
型材断面
  6
CONTINUOUS
 10
-70.888257
 20
44.860085
 11
-75.5578
 21
40.190543
  0
LINE
  8
型材断面
  6
CONTINUOUS
 10
-57.763257
 20
44.860085
 11
-57.763257
 21
43.610085
  0
LINE
  8
型材断面
  6
CONTINUOUS
 10
-56.513257
 20
44.860085
 11
-56.513257
 21
43.610085
  0
LINE
  8
型材断面
  6
CONTINUOUS
 10
-43.388257
 20
44.860085
 11
-56.513257
 21
44.860085
  0
LINE
  8
型材断面
  6
CONTINUOUS
 10
-57.763257
 20
44.860085
 11
-70.888257
 21
44.860085
  0
LINE
  8
型材断面
  6
CONTINUOUS
 10
-43.388257
 20
59.235085
 11
-42.138257
 21
59.235085
  0
LINE
  8
型材断面
  6
CONTINUOUS
 10
-43.388257
 20
57.985085
 11
-42.138257
 21
57.985085
  0
LINE
  8
型材断面
  6
CONTINUOUS
 10
-56.513257
 20
72.360085
 11
-56.513257
 21
73.610085
  0
LINE
  8
型材断面
  6
CONTINUOUS
 10
-57.763257
 20
72.360085
 11
-57.763257
 21
73.610085
  0
LINE
  8
型材断面
  6
CONTINUOUS
 10
-70.888257
 20
57.985085
 11
-72.138257
 21
57.985085
  0
LINE
  8
型材断面
  6
CONTINUOUS
 10
-70.888257
 20
59.235085
 11
-72.138257
 21
59.235085
  0
LINE
  8
型材断面
  6
CONTINUOUS
 10
-70.888257
 20
44.860085
 11
-70.888257
 21
57.985085
  0
LINE
  8
型材断面
  6
CONTINUOUS
 10
-70.888257
 20
59.235085
 11
-70.888257
 21
72.360085
  0
LINE
  8
型材断面
  6
CONTINUOUS
 10
-43.388257
 20
72.360085
 11
-56.513257
 21
72.360085
  0
LINE
  8
型材断面
  6
CONTINUOUS
 10
-57.763257
 20
72.360085
 11
-70.888257
 21
72.360085
  0
LINE
  8
型材断面
  6
CONTINUOUS
 10
-43.388257
 20
44.860085
 11
-43.388257
 21
57.985085
  0
LINE
  8
型材断面
  6
CONTINUOUS
 10
-43.388257
 20
59.235085
 11
-43.388257
 21
72.360085
  0
LINE
  8
型材断面
  6
DASHDOT
 10
-72.138257
 20
58.610085
 11
-42.138257
 21
58.610085
  0
LINE
  8
型材断面
  6
CONTINUOUS
 10
-80.16213
 20
58.610085
 11
-84.04789
 21
56.36664
  0
LINE
  8
型材断面
  6
CONTINUOUS
 10
-80.16213
 20
58.610085
 11
-84.04789
 21
60.85353
  0
LINE
  8
型材断面
  6
CONTINUOUS
 10
-84.04789
 20
60.85353
 11
-84.04789
 21
56.36664
  0
LINE
  8
型材断面
  6
CONTINUOUS
 10
-34.11438
 20
58.610085
 11
-30.22862
 21
56.36664
  0
LINE
  8
型材断面
  6
CONTINUOUS
 10
-34.11438
 20
58.610085
 11
-30.22862
 21
60.85353
  0
LINE
  8
型材断面
  6
CONTINUOUS
 10
-30.22862
 20
60.85353
 11
-30.22862
 21
56.36664
  0
LINE
  8
型材断面
  6
CONTINUOUS
 10
-57.138257
 20
81.633957
 11
-59.381703
 21
85.519717
  0
LINE
  8
型材断面
  6
CONTINUOUS
 10
-57.138257
 20
81.633957
 11
-54.894812
 21
85.519717
  0
LINE
  8
型材断面
  6
CONTINUOUS
 10
-54.894812
 20
85.519717
 11
-59.381703
 21
85.519717
  0
LINE
  8
型材断面
  6
CONTINUOUS
 10
-57.138257
 20
35.586207
 11
-59.381703
 21
31.700447
  0
LINE
  8
型材断面
  6
CONTINUOUS
 10
-57.138257
 20
35.586207
 11
-54.894812
 21
31.700447
  0
LINE
  8
型材断面
  6
CONTINUOUS
 10
-54.894812
 20
31.700447
 11
-59.381703
 21
31.700447
  0
LINE
  8
型材断面
  6
DOT
 10
-46.474737
 20
43.610085
 11
-46.474737
 21
73.610088
  0
LINE
  8
型材断面
  6
DOT
 10
-44.474737
 20
43.610085
 11
-44.474737
 21
73.610088
  0
LINE
  8
型材断面
  6
CONTINUOUS
 10
-15.187572
 20
35.736067
 11
-17.431017
 21
31.850308
  0
LINE
  8
型材断面
  6
CONTINUOUS
 10
-15.187572
 20
35.736067
 11
-12.944128
 21
31.850308
  0
LINE
  8
型材断面
  6
CONTINUOUS
 10
-12.944128
 20
31.850308
 11
-17.431017
 21
31.850308
  0
LINE
  8
型材断面
  6
CONTINUOUS
 10
-15.187572
 20
28.04652
 11
-14.293487
 21
24.16076
  0
LINE
  8
型材断面
  6
CONTINUOUS
 10
-15.187572
 20
28.04652
 11
-16.081657
 21
24.16076
  0
LINE
  8
型材断面
  6
CONTINUOUS
 10
-16.081657
 20
24.16076
 11
-14.293487
 21
24.16076
  0
LINE
  8
型材断面
  6
CONTINUOUS
 10
-24.221453
 20
30.442415
 11
28.435227
 21
30.442415
  0
LINE
  8
型材断面
  6
CONTINUOUS
 10
-24.221453
 20
19.242423
 11
28.435227
 21
19.242423
  0
LINE
  8
型材断面
  6
CONTINUOUS
 10
-24.221453
 20
12.402477
 11
28.435227
 21
12.402477
  0
LINE
  8
型材断面
  6
CONTINUOUS
 10
-34.11438
 20
67.760085
 11
-30.22862
 21
66.866
  0
LINE
  8
型材断面
  6
CONTINUOUS
 10
-34.11438
 20
67.760085
 11
-30.22862
 21
68.65417
  0
LINE
  8
型材断面
  6
CONTINUOUS
 10
-30.22862
 20
68.65417
 11
-30.22862
 21
66.866
  0
LINE
  8
型材断面
  6
CONTINUOUS
 10
-34.11438
 20
49.460085
 11
-30.22862
 21
50.35417
  0
LINE
  8
型材断面
  6
CONTINUOUS
 10
-34.11438
 20
49.460085
 11
-30.22862
 21
48.566
  0
LINE
  8
型材断面
  6
CONTINUOUS
 10
-30.22862
 20
48.566
 11
-30.22862
 21
50.35417
  0
LINE
  8
型材断面
  6
CONTINUOUS
 10
-80.162135
 20
67.760085
 11
-84.047895
 21
66.866
  0
LINE
  8
型材断面
  6
CONTINUOUS
 10
-80.162135
 20
67.760085
 11
-84.047895
 21
68.65417
  0
LINE
  8
型材断面
  6
CONTINUOUS
 10
-84.047895
 20
68.65417
 11
-84.047895
 21
66.866
  0
LINE
  8
型材断面
  6
CONTINUOUS
 10
-80.162135
 20
49.460085
 11
-84.047895
 21
50.35417
  0
LINE
  8
型材断面
  6
CONTINUOUS
 10
-80.162135
 20
49.460085
 11
-84.047895
 21
48.566
  0
LINE
  8
型材断面
  6
CONTINUOUS
 10
-84.047895
 20
48.566
 11
-84.047895
 21
50.35417
  0
POLYLINE
  8
型材断面
  6
CONTINUOUS
 66
     1
 70
     1
  0
VERTEX
  8
型材断面
 10
-47.92837
 20
30.723488
  0
VERTEX
  8
型材断面
 10
-66.483583
 20
30.723488
  0
VERTEX
  8
型材断面
 10
-66.483583
 20
25.931452
  0
VERTEX
  8
型材断面
 10
-47.92837
 20
25.931452
  0
SEQEND
  0
POLYLINE
  8
型材断面
  6
CONTINUOUS
 66
     1
 70
     1
  0
VERTEX
  8
型材断面
 10
-47.92837
 20
91.022445
  0
VERTEX
  8
型材断面
 10
-66.483583
 20
91.022445
  0
VERTEX
  8
型材断面
 10
-66.483583
 20
86.23041
  0
VERTEX
  8
型材断面
 10
-47.92837
 20
86.23041
  0
SEQEND
  0
LINE
  8
型材断面
  6
CONTINUOUS
 10
-24.221453
 20
5.562533
 11
28.435227
 21
5.562533
  0
POLYLINE
  8
型材断面
  6
CONTINUOUS
 66
     1
 70
     1
  0
VERTEX
  8
型材断面
 10
-29.783597
 20
-94.850355
  0
VERTEX
  8
型材断面
 10
-78.462273
 20
-94.850355
  0
VERTEX
  8
型材断面
 10
-78.462273
 20
-111.19502
  0
VERTEX
  8
型材断面
 10
-29.783597
 20
-111.19502
  0
SEQEND
  0
LINE
  8
型材断面
  6
CONTINUOUS
 10
102.221445
 20
-73.14662
 11
102.146445
 21
-73.14662
  0
LINE
  8
型材断面
  6
CONTINUOUS
 10
99.721445
 20
-72.39662
 11
99.721445
 21
-71.29662
  0
LINE
  8
型材断面
  6
CONTINUOUS
 62
    47
 10
101.820988
 20
-83.24637
 11
101.745988
 21
-83.24637
  0
LINE
  8
型材断面
  6
CONTINUOUS
 62
    47
 10
101.820988
 20
-83.24637
 11
101.820988
 21
-82.49637
  0
LINE
  8
型材断面
  6
CONTINUOUS
 10
99.795988
 20
-73.87137
 11
101.965987
 21
-73.87137
  0
LINE
  8
型材断面
  6
CONTINUOUS
 10
101.965987
 20
-74.54637
 11
101.965987
 21
-73.87137
  0
LINE
  8
型材断面
  6
CONTINUOUS
 62
    47
 10
103.065987
 20
-78.555408
 11
103.140987
 21
-78.555408
  0
LINE
  8
型材断面
  6
CONTINUOUS
 62
    47
 10
103.140987
 20
-78.555408
 11
103.140987
 21
-78.055408
  0
LINE
  8
型材断面
  6
CONTINUOUS
 62
    47
 10
103.140987
 20
-78.055408
 11
101.965987
 21
-77.905407
  0
LINE
  8
型材断面
  6
CONTINUOUS
 62
    47
 10
101.965987
 20
-77.29637
 11
101.965987
 21
-77.905407
  0
LINE
  8
型材断面
  6
CONTINUOUS
 62
    47
 10
102.670988
 20
-77.29637
 11
102.670988
 21
-74.54637
  0
LINE
  8
型材断面
  6
CONTINUOUS
 10
102.221445
 20
-73.14662
 11
102.221445
 21
-72.39662
  0
LINE
  8
型材断面
  6
CONTINUOUS
 10
99.795988
 20
-73.87137
 11
99.795988
 21
-73.14662
  0
LINE
  8
型材断面
  6
CONTINUOUS
 62
    47
 10
102.670988
 20
-82.49637
 11
102.670988
 21
-78.555408
  0
INSERT
  2
*GRP_0032
  8
型材断面
  6
DOT
 10
0.0
 20
0.0
  0
INSERT
  2
*GRP_0033
  8
型材断面
  6
DOT
 10
0.0
 20
0.0
  0
LINE
  8
型材断面
  6
CONTINUOUS
 10
102.670988
 20
-82.49637
 11
84.721445
 21
-82.49637
  0
LINE
  8
型材断面
  6
CONTINUOUS
 10
101.820988
 20
-83.24637
 11
84.721445
 21
-83.24637
  0
LINE
  8
型材断面
  6
CONTINUOUS
 10
103.140987
 20
-78.555408
 11
84.721445
 21
-78.555408
  0
LINE
  8
型材断面
  6
CONTINUOUS
 10
103.140987
 20
-78.055408
 11
84.721445
 21
-78.055408
  0
LINE
  8
型材断面
  6
CONTINUOUS
 10
101.965987
 20
-77.905407
 11
84.721445
 21
-77.905407
  0
LINE
  8
型材断面
  6
CONTINUOUS
 10
102.670988
 20
-77.29637
 11
84.721445
 21
-77.29637
  0
LINE
  8
型材断面
  6
CONTINUOUS
 10
102.221445
 20
-73.14662
 11
84.721445
 21
-73.14662
  0
LINE
  8
型材断面
  6
CONTINUOUS
 10
99.721445
 20
-71.29662
 11
84.721445
 21
-71.29662
  0
LINE
  8
型材断面
  6
CONTINUOUS
 10
102.221445
 20
-72.39662
 11
84.721445
 21
-72.39662
  0
LINE
  8
型材断面
  6
CONTINUOUS
 10
101.965987
 20
-73.87137
 11
84.721445
 21
-73.87137
  0
LINE
  8
型材断面
  6
CONTINUOUS
 10
102.670988
 20
-74.54637
 11
84.721445
 21
-74.54637
  0
LINE
  8
型材断面
  6
CONTINUOUS
 10
67.221445
 20
-73.14662
 11
67.296445
 21
-73.14662
  0
LINE
  8
型材断面
  6
CONTINUOUS
 10
69.721445
 20
-72.39662
 11
69.721445
 21
-71.29662
  0
LINE
  8
型材断面
  6
CONTINUOUS
 62
    47
 10
67.621903
 20
-83.24637
 11
67.696903
 21
-83.24637
  0
LINE
  8
型材断面
  6
CONTINUOUS
 62
    47
 10
67.621903
 20
-83.24637
 11
67.621903
 21
-82.49637
  0
LINE
  8
型材断面
  6
CONTINUOUS
 10
69.646903
 20
-73.87137
 11
67.476902
 21
-73.87137
  0
LINE
  8
型材断面
  6
CONTINUOUS
 10
67.476902
 20
-74.54637
 11
67.476902
 21
-73.87137
  0
LINE
  8
型材断面
  6
CONTINUOUS
 62
    47
 10
66.376902
 20
-78.555408
 11
66.301902
 21
-78.555408
  0
LINE
  8
型材断面
  6
CONTINUOUS
 62
    47
 10
66.301902
 20
-78.555408
 11
66.301902
 21
-78.055408
  0
LINE
  8
型材断面
  6
CONTINUOUS
 62
    47
 10
66.301902
 20
-78.055408
 11
67.476902
 21
-77.905407
  0
LINE
  8
型材断面
  6
CONTINUOUS
 62
    47
 10
67.476902
 20
-77.29637
 11
67.476902
 21
-77.905407
  0
LINE
  8
型材断面
  6
CONTINUOUS
 62
    47
 10
66.771903
 20
-77.29637
 11
66.771903
 21
-74.54637
  0
LINE
  8
型材断面
  6
CONTINUOUS
 10
67.221445
 20
-73.14662
 11
67.221445
 21
-72.39662
  0
LINE
  8
型材断面
  6
CONTINUOUS
 10
69.646903
 20
-73.87137
 11
69.646903
 21
-73.14662
  0
LINE
  8
型材断面
  6
CONTINUOUS
 62
    47
 10
66.771903
 20
-82.49637
 11
66.771903
 21
-78.555408
  0
INSERT
  2
*GRP_0034
  8
型材断面
  6
DOT
 10
0.0
 20
0.0
  0
INSERT
  2
*GRP_0035
  8
型材断面
  6
DOT
 10
0.0
 20
0.0
  0
LINE
  8
型材断面
  6
CONTINUOUS
 10
66.771903
 20
-82.49637
 11
84.721445
 21
-82.49637
  0
LINE
  8
型材断面
  6
CONTINUOUS
 10
67.621903
 20
-83.24637
 11
84.721445
 21
-83.24637
  0
LINE
  8
型材断面
  6
CONTINUOUS
 10
66.301902
 20
-78.555408
 11
84.721445
 21
-78.555408
  0
LINE
  8
型材断面
  6
CONTINUOUS
 10
66.301902
 20
-78.055408
 11
84.721445
 21
-78.055408
  0
LINE
  8
型材断面
  6
CONTINUOUS
 10
67.476902
 20
-77.905407
 11
84.721445
 21
-77.905407
  0
LINE
  8
型材断面
  6
CONTINUOUS
 10
66.771903
 20
-77.29637
 11
84.721445
 21
-77.29637
  0
LINE
  8
型材断面
  6
CONTINUOUS
 10
67.221445
 20
-73.14662
 11
84.721445
 21
-73.14662
  0
LINE
  8
型材断面
  6
CONTINUOUS
 10
69.721445
 20
-71.29662
 11
84.721445
 21
-71.29662
  0
LINE
  8
型材断面
  6
CONTINUOUS
 10
67.221445
 20
-72.39662
 11
84.721445
 21
-72.39662
  0
LINE
  8
型材断面
  6
CONTINUOUS
 10
67.476902
 20
-73.87137
 11
84.721445
 21
-73.87137
  0
LINE
  8
型材断面
  6
CONTINUOUS
 10
66.771903
 20
-74.54637
 11
84.721445
 21
-74.54637
  0
INSERT
  2
*GRP_0036
  8
型材断面
  6
CONTINUOUS
 10
0.0
 20
0.0
  0
INSERT
  2
*GRP_0037
  8
型材断面
  6
CONTINUOUS
 10
0.0
 20
0.0
  0
INSERT
  2
*GRP_0038
  8
型材断面
  6
DOT
 10
0.0
 20
0.0
  0
LINE
  8
型材断面
  6
CONTINUOUS
 10
69.86145
 20
91.546908
 11
90.114725
 21
91.546908
  0
LINE
  8
ガラス
  6
CONTINUOUS
 10
74.174642
 20
45.557477
 11
103.174642
 21
45.557477
  0
LINE
  8
ガラス
  6
CONTINUOUS
 10
103.174642
 20
74.557477
 11
103.174642
 21
45.557477
  0
LINE
  8
ガラス
  6
CONTINUOUS
 10
103.174642
 20
74.557477
 11
74.174642
 21
74.557477
  0
LINE
  8
ガラス
  6
CONTINUOUS
 10
74.174642
 20
45.557477
 11
74.174642
 21
74.557477
  0
LINE
  8
ガラス
  6
CONTINUOUS
 10
-55.121562
 20
60.575015
 11
-59.06801
 21
56.62857
  0
LINE
  8
ガラス
  6
CONTINUOUS
 10
-56.105822
 20
57.612827
 11
-58.083748
 21
59.590762
  0
LINE
  8
ガラス
  6
CONTINUOUS
 10
-57.38539
 20
57.658505
 11
-55.860615
 21
59.18328
  0
LINE
  8
ガラス
  6
CONTINUOUS
 10
-56.804183
 20
59.545085
 11
-58.328953
 21
58.020313
  0
CIRCLE
  8
ボルト／ビス
  6
CONTINUOUS
 10
-64.638257
 20
42.610085
 40
0.288675
  0
CIRCLE
  8
ボルト／ビス
  6
CONTINUOUS
 10
-64.638257
 20
42.610085
 40
0.455885
  0
CIRCLE
  8
ボルト／ビス
  6
CONTINUOUS
 10
-73.138257
 20
51.110085
 40
0.288675
  0
CIRCLE
  8
ボルト／ビス
  6
CONTINUOUS
 10
-73.138257
 20
51.110085
 40
0.455885
  0
CIRCLE
  8
ボルト／ビス
  6
CONTINUOUS
 10
-49.638257
 20
42.610085
 40
0.288675
  0
CIRCLE
  8
ボルト／ビス
  6
CONTINUOUS
 10
-49.638257
 20
42.610085
 40
0.455885
  0
CIRCLE
  8
ボルト／ビス
  6
CONTINUOUS
 10
-41.138257
 20
51.110085
 40
0.288675
  0
CIRCLE
  8
ボルト／ビス
  6
CONTINUOUS
 10
-41.138257
 20
51.110085
 40
0.455885
  0
CIRCLE
  8
ボルト／ビス
  6
CONTINUOUS
 10
-49.638257
 20
74.610085
 40
0.288675
  0
CIRCLE
  8
ボルト／ビス
  6
CONTINUOUS
 10
-49.638257
 20
74.610085
 40
0.455885
  0
CIRCLE
  8
ボルト／ビス
  6
CONTINUOUS
 10
-41.138257
 20
66.110085
 40
0.288675
  0
CIRCLE
  8
ボルト／ビス
  6
CONTINUOUS
 10
-41.138257
 20
66.110085
 40
0.455885
  0
CIRCLE
  8
ボルト／ビス
  6
CONTINUOUS
 10
-64.638257
 20
74.610085
 40
0.288675
  0
CIRCLE
  8
ボルト／ビス
  6
CONTINUOUS
 10
-64.638257
 20
74.610085
 40
0.455885
  0
CIRCLE
  8
ボルト／ビス
  6
CONTINUOUS
 10
-73.138257
 20
66.110085
 40
0.288675
  0
CIRCLE
  8
ボルト／ビス
  6
CONTINUOUS
 10
-73.138257
 20
66.110085
 40
0.455885
  0
TEXT
  7
TextStyle03
  8
文字
  6
CONTINUOUS
 10
73.075
 20
125.25
  1
シリーズ：ＳＴＦＦ
 40
5.0
 72
     5
 11
123.075
 21
125.25
  0
TEXT
  7
TextStyle03
  8
文字
  6
CONTINUOUS
 10
73.075
 20
119.625
  1
　　　　　（上下可動）600×600タイプ
 40
5.0
 72
     5
 11
173.7
 21
119.625
  0
TEXT
  7
TextStyle03
  8
文字
  6
CONTINUOUS
 10
73.075
 20
114.0
  1
図面名　：外観姿図
 40
5.0
 72
     5
 11
123.075
 21
114.0
  0
TEXT
  7
TextStyle03
  8
文字
  6
CONTINUOUS
 10
73.075
 20
108.375
  1
　　　　　　
 40
5.0
 72
     5
 11
106.2
 21
108.375
  0
TEXT
  7
TextStyle03
  8
文字
  6
CONTINUOUS
 10
88.6
 20
48.55
  1
×１枚
 40
3.0
 72
     5
 11
98.35
 21
48.55
  0
INSERT
  2
*GRP_0011
  8
文字
  6
CONTINUOUS
 10
0.0
 20
0.0
  0
INSERT
  2
*GRP_0012
  8
文字
  6
CONTINUOUS
 10
0.0
 20
0.0
  0
INSERT
  2
*GRP_0013
  8
文字
  6
CONTINUOUS
 10
0.0
 20
0.0
  0
INSERT
  2
*GRP_0014
  8
文字
  6
CONTINUOUS
 10
0.0
 20
0.0
  0
INSERT
  2
*GRP_0015
  8
文字
  6
CONTINUOUS
 10
0.0
 20
0.0
  0
INSERT
  2
*GRP_0016
  8
文字
  6
CONTINUOUS
 10
0.0
 20
0.0
  0
INSERT
  2
*GRP_0017
  8
文字
  6
CONTINUOUS
 10
0.0
 20
0.0
  0
INSERT
  2
*GRP_0018
  8
文字
  6
CONTINUOUS
 10
0.0
 20
0.0
  0
TEXT
  7
TextStyle03
  8
文字
  6
CONTINUOUS
 10
-78.55
 20
100.0
  1
アンカーピッチ
 40
3.0
 72
     5
 11
-55.3
 21
100.0
  0
TEXT
  7
TextStyle03
  8
文字
  6
CONTINUOUS
 10
-17.225
 20
51.0
  1
ﾊﾞﾗﾝｽｽﾃｰ
 40
3.0
 72
     5
 11
-3.9125
 21
51.0
  0
TEXT
  7
TextStyle03
  8
文字
  6
CONTINUOUS
 10
-10.925
 20
32.2
  1
は排水穴位置を示す
 40
3.0
 72
     5
 11
19.075
 21
32.2
  0
TEXT
  7
TextStyle03
  8
文字
  6
CONTINUOUS
 10
-10.925
 20
24.35
  1
はケーシング位置を示す
 40
3.0
 72
     5
 11
25.825
 21
24.35
  0
TEXT
  7
TextStyle03
  8
文字
  6
CONTINUOUS
 10
-10.925
 20
20.975
  1
４ヶ所中1ヶ所に設定
 40
3.0
 72
     5
 11
20.7625
 21
20.975
  0
TEXT
  7
TextStyle03
  8
文字
  6
CONTINUOUS
 10
-16.525
 20
13.825
  1
アンカー数量　４ヶ所
 40
3.0
 72
     5
 11
16.85
 21
13.825
  0
TEXT
  7
TextStyle03
  8
文字
  6
CONTINUOUS
 10
-65.525
 20
26.95
  1
可動装置側
 40
3.0
 72
     5
 11
-49.025
 21
26.95
  0
TEXT
  7
TextStyle03
  8
文字
  6
CONTINUOUS
 10
-65.525
 20
87.225
  1
可動装置側
 40
3.0
 72
     5
 11
-49.025
 21
87.225
  0
TEXT
  7
TextStyle03
  8
文字
  6
CONTINUOUS
 10
-16.575
 20
6.975
  1
アームユニット数　２ヶ所
 40
3.0
 72
     5
 11
23.55
 21
6.975
  0
TEXT
  7
TextStyle03
  8
文字
  6
CONTINUOUS
 10
-74.125
 20
-100.575
  1
※トップライト枠高さ寸法
 40
3.0
 72
     5
 11
-34.0
 21
-100.575
  0
TEXT
  7
TextStyle03
  8
文字
  6
CONTINUOUS
 10
-74.125
 20
-103.95
  1
　シングルガラス：214
 40
3.0
 72
     5
 11
-38.875
 21
-103.95
  0
TEXT
  7
TextStyle03
  8
文字
  6
CONTINUOUS
 10
-74.125
 20
-107.325
  1
　ペアガラス：224
 40
3.0
 72
     5
 11
-45.625
 21
-107.325
  0
TEXT
  7
TextStyle03
  8
文字
  6
CONTINUOUS
 10
71.7
 20
92.225
  1
ガラス寸法
 40
3.0
 72
     5
 11
88.2
 21
92.225
  0
INSERT
  2
*DIM_0006
  8
寸法
  6
CONTINUOUS
 10
0.0
 20
0.0
  0
INSERT
  2
*DIM_0007
  8
寸法
  6
CONTINUOUS
 10
0.0
 20
0.0
  0
INSERT
  2
*DIM_0008
  8
寸法
  6
CONTINUOUS
 10
0.0
 20
0.0
  0
INSERT
  2
*DIM_0009
  8
寸法
  6
CONTINUOUS
 10
0.0
 20
0.0
  0
INSERT
  2
*DIM_0010
  8
寸法
  6
CONTINUOUS
 10
0.0
 20
0.0
  0
INSERT
  2
*DIM_0019
  8
寸法
  6
CONTINUOUS
 10
0.0
 20
0.0
  0
INSERT
  2
*GRP_0020
  8
寸法
  6
CONTINUOUS
 10
0.0
 20
0.0
  0
INSERT
  2
*DIM_0021
  8
寸法
  6
CONTINUOUS
 10
0.0
 20
0.0
  0
INSERT
  2
*DIM_0022
  8
寸法
  6
CONTINUOUS
 10
0.0
 20
0.0
  0
INSERT
  2
*DIM_0031
  8
寸法
  6
CONTINUOUS
 10
0.0
 20
0.0
  0
INSERT
  2
*DIM_0039
  8
寸法
  6
CONTINUOUS
 10
0.0
 20
0.0
  0
ENDSEC
  0
EOF
