  0
SECTION
  2
HEADER
  9
$EXTMIN
 10
-210.0
 20
-148.5
  9
$EXTMAX
 10
210.0
 20
148.5
  9
$PDMODE
 70
    32
  9
$PDSIZE
 40
1.5
  9
$LTSCALE
 40
10.0
  0
ENDSEC
  0
SECTION
  2
TABLES
  0
TABLE
  2
LTYPE
 70
    15
  0
LTYPE
  2
CONTINUOUS
 70
    64
  3
実線
 72
    65
 73
     0
 40
0.0
  0
LTYPE
  2
DASHED
 70
    64
  3
破線A
 72
    65
 73
     2
 40
0.6
 49
0.4
 49
-0.2
  0
LTYPE
  2
DASHEDX2
 70
    64
  3
破線B
 72
    65
 73
     2
 40
1.3
 49
0.9
 49
-0.4
  0
LTYPE
  2
DASHDOT
 70
    64
  3
１点鎖線A
 72
    65
 73
     4
 40
0.5375
 49
0.375
 49
-0.05
 49
0.0625
 49
-0.05
  0
LTYPE
  2
DASHDOTX2
 70
    64
  3
１点鎖線B
 72
    65
 73
     4
 40
1.075
 49
0.75
 49
-0.1
 49
0.125
 49
-0.1
  0
LTYPE
  2
DIVIDE2
 70
    64
  3
２点鎖線A
 72
    65
 73
     6
 40
0.5125
 49
0.3
 49
-0.0375
 49
0.05
 49
-0.0375
 49
0.05
 49
-0.0375
  0
LTYPE
  2
DIVIDE
 70
    64
  3
２点鎖線B
 72
    65
 73
     6
 40
1.05
 49
0.55
 49
-0.1
 49
0.1
 49
-0.1
 49
0.1
 49
-0.1
  0
LTYPE
  2
DOT
 70
    64
  3
点線A
 72
    65
 73
     2
 40
0.1125
 49
0.0625
 49
-0.05
  0
LTYPE
  2
DOTX2
 70
    64
  3
点線B
 72
    65
 73
     2
 40
0.275
 49
0.15
 49
-0.125
  0
LTYPE
  2
CONTINUOUS
 70
    64
  3
実線
 72
    65
 73
     0
 40
0.0
  0
LTYPE
  2
CONTINUOUS
 70
    64
  3
実線
 72
    65
 73
     0
 40
0.0
  0
LTYPE
  2
CONTINUOUS
 70
    64
  3
実線
 72
    65
 73
     0
 40
0.0
  0
LTYPE
  2
CONTINUOUS
 70
    64
  3
実線
 72
    65
 73
     0
 40
0.0
  0
LTYPE
  2
CONTINUOUS
 70
    64
  3
実線
 72
    65
 73
     0
 40
0.0
  0
LTYPE
  2
CONTINUOUS
 70
    64
  3
実線
 72
    65
 73
     0
 40
0.0
  0
ENDTAB
  0
TABLE
  2
LAYER
 70
    36
  0
LAYER
  2
通り芯
 70
     0
 62
    15
  6
CONTINUOUS
  0
LAYER
  2
補助線
 70
     0
 62
    16
  6
DOT
  0
LAYER
  2
躯体
 70
     0
 62
    31
  6
CONTINUOUS
  0
LAYER
  2
型材
 70
     0
 62
    32
  6
CONTINUOUS
  0
LAYER
  2
型材断面
 70
     0
 62
    47
  6
CONTINUOUS
  0
LAYER
  2
ガラス
 70
     0
 62
    48
  6
CONTINUOUS
  0
LAYER
  2
ゴム等
 70
     0
 62
    63
  6
CONTINUOUS
  0
LAYER
  2
ボルト／ビス
 70
     0
 62
    64
  6
CONTINUOUS
  0
LAYER
  2
文字
 70
     0
 62
    79
  6
CONTINUOUS
  0
LAYER
  2
寸法
 70
     0
 62
    80
  6
CONTINUOUS
  0
LAYER
  2
ﾊｯﾁﾝｸﾞ
 70
     0
 62
    95
  6
CONTINUOUS
  0
LAYER
  2
別途部材
 70
     0
 62
    96
  6
CONTINUOUS
  0
LAYER
  2
曲げ物
 70
     0
 62
   111
  6
CONTINUOUS
  0
LAYER
  2
鉄骨等
 70
     0
 62
   112
  6
CONTINUOUS
  0
LAYER
  2
St
 70
     0
 62
   127
  6
CONTINUOUS
  0
LAYER
  2
その他部品等
 70
     0
 62
   128
  6
CONTINUOUS
  0
LAYER
  2
ｶﾞｽｹｯﾄ
 70
     0
 62
   143
  6
CONTINUOUS
  0
LAYER
  2
ｽｹｯﾁ
 70
     0
 62
    14
  6
CONTINUOUS
  0
LAYER
  2
0
 70
     0
 62
    17
  6
CONTINUOUS
  0
LAYER
  2
1
 70
     0
 62
    30
  6
CONTINUOUS
  0
LAYER
  2
4
 70
     0
 62
    33
  6
CONTINUOUS
  0
LAYER
  2
ﾚｲﾔ3
 70
     0
 62
    46
  6
CONTINUOUS
  0
LAYER
  2
外形線
 70
     0
 62
    49
  6
CONTINUOUS
  0
LAYER
  2
部品
 70
     0
 62
    14
  6
CONTINUOUS
  0
LAYER
  2
サッシ芯
 70
     0
 62
    17
  6
DASHDOTX2
  0
LAYER
  2
寸法線
 70
     0
 62
    62
  6
CONTINUOUS
  0
LAYER
  2
姿図外形線
 70
     0
 62
    65
  6
CONTINUOUS
  0
LAYER
  2
姿補助線
 70
     0
 62
    30
  6
CONTINUOUS
  0
LAYER
  2
透視線
 70
     0
 62
    78
  6
DOT
  0
LAYER
  2
用紙
 70
     0
 62
    81
  6
CONTINUOUS
  0
LAYER
  2
実線図枠
 70
     0
 62
    94
  6
CONTINUOUS
  0
LAYER
  2
補助図枠
 70
     0
 62
    97
  6
CONTINUOUS
  0
LAYER
  2
建具記号
 70
     0
 62
   110
  6
CONTINUOUS
  0
LAYER
  2
補助文字
 70
     0
 62
   113
  6
CONTINUOUS
  0
LAYER
  2
LAYER010
 70
     0
 62
    11
  6
CONTINUOUS
  0
LAYER
  2
SUNPO
 70
     0
 62
     6
  6
CONTINUOUS
  0
ENDTAB
  0
TABLE
  2
STYLE
 70
    10
  0
STYLE
  2
STANDARD
 70
     0
 40
1.0
 41
1.0
 42
1.0
 50
0.0
 71
     0
  3
TXT
  4
BIGFONT
  0
STYLE
  2
TATE
 70
     4
 40
1.0
 41
1.0
 42
1.0
 50
0.0
 71
     0
  3
TXT
  4
BIGFONT
  0
STYLE
  2
TextStyle03
 70
     0
 40
1.0
 41
1.0
 42
1.0
 50
0.0
 71
     0
  3
MONOTXT
  4
BIGFONT
  0
STYLE
  2
TextStyle04
 70
     0
 40
1.0
 41
1.0
 42
1.0
 50
0.0
 71
     0
  3
MONOTXT
  4
BIGFONT
  0
STYLE
  2
TextStyle05
 70
     0
 40
1.0
 41
1.0
 42
1.0
 50
0.0
 71
     0
  3
MONOTXT
  4
BIGFONT
  0
STYLE
  2
TextStyle06
 70
     0
 40
1.0
 41
1.0
 42
1.0
 50
0.0
 71
     0
  3
MONOTXT
  4
BIGFONT
  0
STYLE
  2
TextStyle07
 70
     0
 40
1.0
 41
1.0
 42
1.0
 50
0.0
 71
     0
  3
MONOTXT
  4
BIGFONT
  0
STYLE
  2
TextStyle08
 70
     0
 40
1.0
 41
1.0
 42
1.0
 50
0.0
 71
     0
  3
MONOTXT
  4
BIGFONT
  0
STYLE
  2
TextStyle09
 70
     0
 40
1.0
 41
1.0
 42
1.0
 50
0.0
 71
     0
  3
MONOTXT
  4
BIGFONT
  0
STYLE
  2
TextStyle10
 70
     0
 40
1.0
 41
1.0
 42
1.0
 50
0.0
 71
     0
  3
MONOTXT
  4
BIGFONT
  0
ENDTAB
  0
ENDSEC
  0
SECTION
  2
BLOCKS
  0
BLOCK
  2
*HAT_0001
 70
    65
 10
0.0
 20
0.0
  0
LINE
  8
ゴム等
 10
38.025
 20
-41.65
 11
38.025
 21
-41.575
  0
LINE
  8
ゴム等
 10
38.025
 20
-43.075
 11
36.6
 21
-41.575
  0
LINE
  8
ゴム等
 10
38.025
 20
-44.5
 11
35.175
 21
-41.575
  0
LINE
  8
ゴム等
 10
38.025
 20
-45.85
 11
33.75
 21
-41.575
  0
LINE
  8
ゴム等
 10
38.025
 20
-47.35
 11
32.325
 21
-41.575
  0
LINE
  8
ゴム等
 10
38.025
 20
-48.7
 11
32.025
 21
-42.7
  0
LINE
  8
ゴム等
 10
38.025
 20
-50.125
 11
32.025
 21
-44.125
  0
LINE
  8
ゴム等
 10
38.025
 20
-51.55
 11
33.075
 21
-46.525
  0
LINE
  8
ゴム等
 10
32.1
 20
-45.55
 11
32.025
 21
-45.55
  0
LINE
  8
ゴム等
 10
38.025
 20
-52.975
 11
33.075
 21
-47.95
  0
LINE
  8
ゴム等
 10
38.025
 20
-54.4
 11
33.075
 21
-49.375
  0
LINE
  8
ゴム等
 10
36.9
 20
-54.55
 11
32.1
 21
-49.825
  0
LINE
  8
ゴム等
 10
35.475
 20
-54.55
 11
32.25
 21
-51.4
  0
LINE
  8
ゴム等
 10
34.125
 20
-54.625
 11
32.4
 21
-52.9
  0
LINE
  8
ゴム等
 10
33.75
 20
-55.75
 11
32.775
 21
-54.775
  0
LINE
  8
ゴム等
 10
33.75
 20
-57.1
 11
32.85
 21
-56.2
  0
LINE
  8
ゴム等
 10
33.3
 20
-58.075
 11
32.925
 21
-57.7
  0
ENDBLK
  0
BLOCK
  2
*HAT_0002
 70
    65
 10
0.0
 20
0.0
  0
LINE
  8
ﾊｯﾁﾝｸﾞ
 10
-91.55
 20
7.425
 11
-89.25
 21
9.725
  0
LINE
  8
ﾊｯﾁﾝｸﾞ
 10
-94.375
 20
7.425
 11
-89.25
 21
12.55
  0
LINE
  8
ﾊｯﾁﾝｸﾞ
 10
-97.2
 20
7.425
 11
-89.25
 21
15.375
  0
LINE
  8
ﾊｯﾁﾝｸﾞ
 10
-98.45
 20
9.0
 11
-90.025
 21
17.425
  0
LINE
  8
ﾊｯﾁﾝｸﾞ
 10
-98.45
 20
11.825
 11
-92.85
 21
17.425
  0
LINE
  8
ﾊｯﾁﾝｸﾞ
 10
-98.45
 20
14.65
 11
-95.675
 21
17.425
  0
LINE
  8
ﾊｯﾁﾝｸﾞ
 10
-98.45
 20
7.95
 11
-97.925
 21
7.425
  0
LINE
  8
ﾊｯﾁﾝｸﾞ
 10
-98.45
 20
10.775
 11
-95.1
 21
7.425
  0
LINE
  8
ﾊｯﾁﾝｸﾞ
 10
-98.45
 20
13.6
 11
-92.275
 21
7.425
  0
LINE
  8
ﾊｯﾁﾝｸﾞ
 10
-98.45
 20
16.425
 11
-89.45
 21
7.425
  0
LINE
  8
ﾊｯﾁﾝｸﾞ
 10
-96.625
 20
17.425
 11
-89.25
 21
10.05
  0
LINE
  8
ﾊｯﾁﾝｸﾞ
 10
-93.8
 20
17.425
 11
-89.25
 21
12.875
  0
LINE
  8
ﾊｯﾁﾝｸﾞ
 10
-90.975
 20
17.425
 11
-89.25
 21
15.7
  0
ENDBLK
  0
BLOCK
  2
*HAT_0003
 70
    65
 10
0.0
 20
0.0
  0
LINE
  8
St
 10
-73.5
 20
-14.425
 11
-75.3
 21
-12.55
  0
LINE
  8
St
 10
-73.5
 20
-15.775
 11
-76.2
 21
-13.15
  0
LINE
  8
St
 10
-73.5
 20
-17.2
 11
-76.5
 21
-14.2
  0
LINE
  8
St
 10
-73.5
 20
-18.625
 11
-76.5
 21
-15.625
  0
LINE
  8
St
 10
-73.5
 20
-20.05
 11
-76.5
 21
-17.05
  0
LINE
  8
St
 10
-73.5
 20
-21.475
 11
-76.5
 21
-18.475
  0
LINE
  8
St
 10
-73.5
 20
-22.9
 11
-76.5
 21
-19.9
  0
LINE
  8
St
 10
-73.5
 20
-24.25
 11
-76.5
 21
-21.25
  0
LINE
  8
St
 10
-73.5
 20
-25.675
 11
-76.5
 21
-22.675
  0
LINE
  8
St
 10
-73.5
 20
-27.1
 11
-76.5
 21
-24.1
  0
LINE
  8
St
 10
-73.5
 20
-28.525
 11
-76.5
 21
-25.525
  0
LINE
  8
St
 10
-73.5
 20
-29.95
 11
-76.5
 21
-26.95
  0
LINE
  8
St
 10
-73.5
 20
-31.375
 11
-76.5
 21
-28.375
  0
LINE
  8
St
 10
-73.5
 20
-32.725
 11
-76.5
 21
-29.725
  0
LINE
  8
St
 10
-73.5
 20
-34.15
 11
-76.5
 21
-31.15
  0
LINE
  8
St
 10
-73.5
 20
-35.575
 11
-76.5
 21
-32.575
  0
LINE
  8
St
 10
-73.5
 20
-37.0
 11
-76.5
 21
-34.0
  0
LINE
  8
St
 10
-73.5
 20
-38.425
 11
-76.5
 21
-35.425
  0
LINE
  8
St
 10
-73.5
 20
-39.85
 11
-76.5
 21
-36.85
  0
LINE
  8
St
 10
-73.5
 20
-41.2
 11
-76.5
 21
-38.2
  0
LINE
  8
St
 10
-73.95
 20
-42.175
 11
-76.5
 21
-39.625
  0
LINE
  8
St
 10
-75.0
 20
-42.55
 11
-76.5
 21
-41.05
  0
ENDBLK
  0
BLOCK
  2
*GRP_0001
 70
    65
 10
0.0
 20
0.0
  0
LINE
  8
型材断面
  6
CONTINUOUS
 10
195.0
 20
133.5
 11
195.0
 21
-133.5
  0
LINE
  8
型材断面
  6
CONTINUOUS
 10
195.0
 20
-133.5
 11
-185.0
 21
-133.5
  0
LINE
  8
型材断面
  6
CONTINUOUS
 10
-185.0
 20
-133.5
 11
-185.0
 21
133.5
  0
LINE
  8
型材断面
  6
CONTINUOUS
 10
195.0
 20
133.5
 11
-185.0
 21
133.5
  0
LINE
  8
型材断面
  6
CONTINUOUS
 10
145.0
 20
-133.5
 11
145.0
 21
-118.5
  0
LINE
  8
型材断面
  6
CONTINUOUS
 10
195.0
 20
-118.5
 11
145.0
 21
-118.5
  0
ENDBLK
  0
BLOCK
  2
*GRP_0002
 70
    65
 10
0.0
 20
0.0
  0
LINE
  8
補助線
  6
BYBLOCK
 62
     0
 10
75.56393
 20
-25.551807
 11
75.56393
 21
-60.55181
  0
LINE
  8
補助線
  6
BYBLOCK
 62
     0
 10
58.063933
 20
-43.051805
 11
93.063927
 21
-43.051805
  0
ENDBLK
  0
BLOCK
  2
*GRP_0003
 70
    65
 10
0.0
 20
0.0
  0
LINE
  8
補助線
  6
BYBLOCK
 62
     0
 10
-3.436067
 20
-25.551822
 11
-3.436067
 21
-60.551825
  0
LINE
  8
補助線
  6
BYBLOCK
 62
     0
 10
-20.936072
 20
-43.05182
 11
14.06393
 21
-43.05182
  0
ENDBLK
  0
BLOCK
  2
*GRP_0004
 70
    65
 10
0.0
 20
0.0
  0
LINE
  8
型材断面
  6
CONTINUOUS
 62
    47
 10
124.063903
 20
-39.55178
 11
125.563903
 21
-39.55178
  0
LINE
  8
型材断面
  6
CONTINUOUS
 62
    47
 10
125.563903
 20
-48.051778
 11
125.563903
 21
-39.55178
  0
LINE
  8
型材断面
  6
CONTINUOUS
 62
    47
 10
139.063903
 20
-49.551778
 11
139.063903
 21
-48.051778
  0
LINE
  8
型材断面
  6
CONTINUOUS
 62
    47
 10
125.563903
 20
-48.051778
 11
139.063903
 21
-48.051778
  0
ARC
  8
型材断面
  6
CONTINUOUS
 62
    47
 10
125.563905
 20
-48.051774
 40
1.5
 50
180.0
 51
270.0
  0
LINE
  8
型材断面
  6
CONTINUOUS
 62
    47
 10
124.063903
 20
-39.55178
 11
124.063903
 21
-49.551778
  0
LINE
  8
型材断面
  6
CONTINUOUS
 62
    47
 10
139.063903
 20
-49.551778
 11
124.063903
 21
-49.551778
  0
ENDBLK
  0
BLOCK
  2
*GRP_0005
 70
    65
 10
0.0
 20
0.0
  0
LINE
  8
型材断面
  6
CONTINUOUS
 62
    47
 10
122.563903
 20
12.448195
 11
121.063903
 21
12.448195
  0
LINE
  8
型材断面
  6
CONTINUOUS
 62
    47
 10
94.563905
 20
-7.5518
 11
94.563905
 21
-6.0518
  0
LINE
  8
型材断面
  6
CONTINUOUS
 62
    47
 10
94.563905
 20
-6.0518
 11
121.063903
 21
-6.0518
  0
LINE
  8
型材断面
  6
CONTINUOUS
 62
    47
 10
121.063903
 20
12.448195
 11
121.063903
 21
-6.0518
  0
ARC
  8
型材断面
  6
CONTINUOUS
 62
    47
 10
121.063904
 20
-6.051801
 40
1.5
 50
270.0
 51
360.0
  0
LINE
  8
型材断面
  6
CONTINUOUS
 62
    47
 10
94.563905
 20
-7.5518
 11
122.563903
 21
-7.5518
  0
LINE
  8
型材断面
  6
CONTINUOUS
 62
    47
 10
122.563903
 20
12.448195
 11
122.563903
 21
-7.5518
  0
LINE
  8
型材断面
  6
CONTINUOUS
 62
    47
 10
105.063905
 20
-7.5518
 11
105.063905
 21
-6.0518
  0
LINE
  8
型材断面
  6
CONTINUOUS
 62
    47
 10
108.563907
 20
-7.5518
 11
108.563907
 21
-6.0518
  0
LINE
  8
型材断面
  6
CONTINUOUS
 62
    47
 10
105.063905
 20
-7.1768
 11
108.563907
 21
-7.1768
  0
LINE
  8
型材断面
  6
CONTINUOUS
 62
    47
 10
105.063905
 20
-6.8018
 11
108.563907
 21
-6.8018
  0
LINE
  8
型材断面
  6
CONTINUOUS
 62
    47
 10
105.063905
 20
-6.4268
 11
108.563907
 21
-6.4268
  0
LINE
  8
型材断面
  6
CONTINUOUS
 62
    47
 10
106.813903
 20
-4.43081
 11
106.813903
 21
-9.42155
  0
ENDBLK
  0
BLOCK
  2
*GRP_0006
 70
    65
 10
0.0
 20
0.0
  0
LINE
  8
通り芯
  6
CONTINUOUS
 62
    47
 10
112.563905
 20
-65.05178
 11
112.563905
 21
-55.051775
  0
LINE
  8
通り芯
  6
CONTINUOUS
 62
    47
 10
111.063905
 20
-65.05178
 11
112.563905
 21
-65.05178
  0
LINE
  8
通り芯
  6
CONTINUOUS
 62
    47
 10
121.063903
 20
-53.551775
 11
121.063903
 21
-43.551778
  0
LINE
  8
通り芯
  6
CONTINUOUS
 62
    47
 10
121.063903
 20
-43.551778
 11
122.563903
 21
-43.551778
  0
ARC
  8
通り芯
  6
CONTINUOUS
 62
    47
 10
112.563904
 20
-55.051776
 40
1.5
 50
90.0
 51
180.0
  0
ARC
  8
通り芯
  6
CONTINUOUS
 62
    47
 10
121.063904
 20
-53.551776
 40
1.5
 50
270.0
 51
360.0
  0
LINE
  8
通り芯
  6
CONTINUOUS
 62
    47
 10
111.063905
 20
-65.05178
 11
111.063905
 21
-53.551775
  0
LINE
  8
通り芯
  6
CONTINUOUS
 62
    47
 10
121.063903
 20
-53.551775
 11
111.063905
 21
-53.551775
  0
LINE
  8
通り芯
  6
CONTINUOUS
 62
    47
 10
112.563905
 20
-55.051775
 11
122.563903
 21
-55.051775
  0
LINE
  8
通り芯
  6
CONTINUOUS
 62
    47
 10
122.563903
 20
-43.551778
 11
122.563903
 21
-55.051775
  0
ENDBLK
  0
BLOCK
  2
*GRP_0007
 70
    65
 10
0.0
 20
0.0
  0
LINE
  8
型材断面
  6
CONTINUOUS
 62
    63
 10
54.063927
 20
-35.301815
 11
54.063927
 21
-40.80182
  0
LINE
  8
型材断面
  6
CONTINUOUS
 62
    63
 10
51.313925
 20
-38.05181
 11
56.813923
 21
-38.05181
  0
LINE
  8
型材断面
  6
CONTINUOUS
 62
    63
 10
97.063933
 20
-35.301815
 11
97.063933
 21
-40.80182
  0
LINE
  8
型材断面
  6
CONTINUOUS
 62
    63
 10
94.31393
 20
-38.05181
 11
99.813935
 21
-38.05181
  0
ARC
  8
型材断面
  6
CONTINUOUS
 62
    63
 10
57.563924
 20
-15.051808
 40
2.2
 50
282.301255
 51
437.698745
  0
LINE
  8
型材断面
  6
CONTINUOUS
 62
    63
 10
57.56393
 20
-12.90233
 11
58.032657
 21
-12.90233
  0
LINE
  8
型材断面
  6
CONTINUOUS
 62
    63
 10
57.56393
 20
-17.201315
 11
58.032627
 21
-17.201315
  0
ARC
  8
型材断面
  6
CONTINUOUS
 62
    63
 10
75.563927
 20
-43.051804
 40
15.5
 50
121.072958
 51
418.927056
  0
LINE
  8
型材断面
  6
CONTINUOUS
 62
    63
 10
53.563925
 20
-26.051825
 11
53.563925
 21
-9.0518
  0
ARC
  8
型材断面
  6
CONTINUOUS
 62
    63
 10
55.063922
 20
-9.051804
 40
1.5
 50
90.0
 51
180.0
  0
LINE
  8
型材断面
  6
CONTINUOUS
 62
    63
 10
97.563935
 20
-10.5518
 11
97.563935
 21
-31.551815
  0
ARC
  8
型材断面
  6
CONTINUOUS
 62
    63
 10
42.563925
 20
-63.551772
 40
1.5
 50
180.0
 51
270.0
  0
LINE
  8
型材断面
  6
CONTINUOUS
 62
    63
 10
106.813918
 20
-7.8518
 11
106.513918
 21
-7.5518
  0
LINE
  8
型材断面
  6
CONTINUOUS
 62
    63
 10
106.813918
 20
-7.8518
 11
107.113918
 21
-7.5518
  0
LINE
  8
型材断面
  6
CONTINUOUS
 62
    63
 10
27.862483
 20
-34.05182
 11
27.562483
 21
-34.35182
  0
LINE
  8
型材断面
  6
CONTINUOUS
 62
    63
 10
27.862483
 20
-34.05182
 11
27.562483
 21
-33.75182
  0
LINE
  8
型材断面
  6
CONTINUOUS
 62
    63
 10
97.563935
 20
-31.551815
 11
91.311958
 21
-31.551815
  0
ARC
  8
型材断面
  6
CONTINUOUS
 62
    63
 10
29.062482
 20
-27.551817
 40
1.5
 50
90.0
 51
180.0
  0
LINE
  8
型材断面
  6
CONTINUOUS
 62
    63
 10
27.562483
 20
-33.75182
 11
27.562483
 21
-27.551825
  0
LINE
  8
型材断面
  6
CONTINUOUS
 62
    63
 10
53.563925
 20
-29.051825
 11
30.562483
 21
-29.051825
  0
LINE
  8
型材断面
  6
CONTINUOUS
 62
    63
 10
30.562483
 20
-40.05182
 11
29.062483
 21
-40.05182
  0
LINE
  8
型材断面
  6
CONTINUOUS
 62
    63
 10
27.562483
 20
-34.35182
 11
27.562483
 21
-38.55182
  0
ARC
  8
型材断面
  6
CONTINUOUS
 62
    63
 10
29.062483
 20
-38.551816
 40
1.5
 50
180.0
 51
270.0
  0
LINE
  8
型材断面
  6
CONTINUOUS
 62
    63
 10
30.562483
 20
-29.051825
 11
30.562483
 21
-40.05182
  0
LINE
  8
型材断面
  6
CONTINUOUS
 62
    63
 10
56.06393
 20
-43.05182
 11
44.063923
 21
-43.05182
  0
ARC
  8
型材断面
  6
CONTINUOUS
 62
    63
 10
53.97542
 20
-35.403289
 40
0.6
 50
91.913936
 51
195.000027
  0
LINE
  8
型材断面
  6
CONTINUOUS
 62
    63
 10
53.395865
 20
-35.558585
 11
53.47586
 21
-35.85713
  0
ARC
  8
型材断面
  6
CONTINUOUS
 62
    63
 10
54.055412
 20
-35.701826
 40
0.6
 50
195.000108
 51
270.207564
  0
ARC
  8
型材断面
  6
CONTINUOUS
 62
    63
 10
54.063925
 20
-38.05181
 40
1.75
 50
179.792532
 51
450.207564
  0
ARC
  8
型材断面
  6
CONTINUOUS
 62
    63
 10
51.71394
 20
-38.043301
 40
0.6
 50
-0.207468
 51
75.00005
  0
LINE
  8
型材断面
  6
CONTINUOUS
 62
    63
 10
51.570695
 20
-37.383755
 11
51.869232
 21
-37.46375
  0
ARC
  8
型材断面
  6
CONTINUOUS
 62
    63
 10
51.415403
 20
-37.963309
 40
0.6
 50
74.999988
 51
178.086157
  0
ARC
  8
型材断面
  6
CONTINUOUS
 62
    63
 10
98.999302
 20
-39.862017
 40
0.6
 50
-43.086064
 51
60.000027
  0
LINE
  8
型材断面
  6
CONTINUOUS
 62
    63
 10
99.2993
 20
-39.342395
 11
99.03164
 21
-39.187865
  0
ARC
  8
型材断面
  6
CONTINUOUS
 62
    63
 10
98.731641
 20
-39.707482
 40
0.6
 50
60.000108
 51
135.207564
  0
ARC
  8
型材断面
  6
CONTINUOUS
 62
    63
 10
97.063931
 20
-38.051812
 40
1.75
 50
44.792532
 51
315.207564
  0
ARC
  8
型材断面
  6
CONTINUOUS
 62
    63
 10
98.731639
 20
-36.396139
 40
0.6
 50
224.792532
 51
300.00005
  0
LINE
  8
型材断面
  6
CONTINUOUS
 62
    63
 10
99.299293
 20
-36.761225
 11
99.031632
 21
-36.915755
  0
ARC
  8
型材断面
  6
CONTINUOUS
 62
    63
 10
98.999299
 20
-36.241604
 40
0.6
 50
299.999988
 51
403.086157
  0
ARC
  8
型材断面
  6
CONTINUOUS
 62
    63
 10
75.56393
 20
-43.051804
 40
19.500003
 50
23.740612
 51
36.138764
  0
ARC
  8
型材断面
  6
CONTINUOUS
 62
    63
 10
97.063931
 20
-38.051812
 40
3.25
 50
43.086157
 51
130.051309
  0
ARC
  8
型材断面
  6
CONTINUOUS
 62
    63
 10
94.32917
 20
-34.798571
 40
1.0
 50
203.740612
 51
310.051309
  0
ARC
  8
型材断面
  6
CONTINUOUS
 62
    63
 10
75.56393
 20
-43.051804
 40
19.500003
 50
0.000003
 51
2.443134
  0
ARC
  8
型材断面
  6
CONTINUOUS
 62
    63
 10
97.063931
 20
-38.051812
 40
3.25
 50
256.132437
 51
316.913936
  0
ARC
  8
型材断面
  6
CONTINUOUS
 62
    63
 10
96.045298
 20
-42.177934
 40
1.0
 50
76.132437
 51
182.443134
  0
ARC
  8
型材断面
  6
CONTINUOUS
 62
    63
 10
54.063925
 20
-38.05181
 40
3.25
 50
49.948648
 51
91.913936
  0
LINE
  8
型材断面
  6
CONTINUOUS
 62
    63
 10
41.063923
 20
-40.05182
 11
49.93325
 21
-40.05182
  0
ARC
  8
型材断面
  6
CONTINUOUS
 62
    63
 10
54.063925
 20
-38.05181
 40
3.25
 50
178.086157
 51
193.609035
  0
ARC
  8
型材断面
  6
CONTINUOUS
 62
    63
 10
49.933248
 20
-39.051816
 40
1.0
 50
-90.0
 51
13.609035
  0
LINE
  8
型材断面
  6
CONTINUOUS
 62
    63
 10
57.56393
 20
-22.551822
 11
57.56393
 21
-17.201315
  0
LINE
  8
型材断面
  6
CONTINUOUS
 62
    63
 10
93.56393
 20
-22.551822
 11
93.56393
 21
-17.2013
  0
ARC
  8
型材断面
  6
CONTINUOUS
 62
    63
 10
56.798689
 20
-34.798571
 40
1.0
 50
229.948648
 51
319.928457
  0
LINE
  8
型材断面
  6
CONTINUOUS
 62
    63
 10
88.563927
 20
-27.551825
 11
93.56393
 21
-22.551822
  0
ARC
  8
型材断面
  6
CONTINUOUS
 62
    63
 10
121.063905
 20
-63.551772
 40
1.5
 50
270.0
 51
360.0
  0
LINE
  8
型材断面
  6
CONTINUOUS
 62
    63
 10
119.563903
 20
-62.051765
 11
119.563903
 21
-10.5518
  0
LINE
  8
型材断面
  6
CONTINUOUS
 62
    63
 10
97.563927
 20
-10.5518
 11
119.563903
 21
-10.5518
  0
LINE
  8
型材断面
  6
CONTINUOUS
 62
    63
 10
107.113918
 20
-7.5518
 11
122.563903
 21
-7.5518
  0
LINE
  8
型材断面
  6
CONTINUOUS
 62
    63
 10
122.563903
 20
-63.55178
 11
122.563903
 21
-31.851815
  0
LINE
  8
型材断面
  6
CONTINUOUS
 62
    63
 10
122.563903
 20
-7.5518
 11
122.563903
 21
-31.251815
  0
LINE
  8
型材断面
  6
CONTINUOUS
 62
    63
 10
44.063923
 20
-43.05182
 11
44.063923
 21
-52.051775
  0
LINE
  8
型材断面
  6
CONTINUOUS
 62
    63
 10
41.363923
 20
-48.051778
 11
41.063923
 21
-48.351778
  0
LINE
  8
型材断面
  6
CONTINUOUS
 62
    63
 10
41.363923
 20
-48.051778
 11
41.063923
 21
-47.751778
  0
LINE
  8
型材断面
  6
CONTINUOUS
 62
    63
 10
41.063923
 20
-40.05182
 11
41.063923
 21
-47.751778
  0
LINE
  8
型材断面
  6
CONTINUOUS
 62
    63
 10
42.563923
 20
-65.05178
 11
72.26393
 21
-65.05178
  0
LINE
  8
型材断面
  6
CONTINUOUS
 62
    63
 10
72.86393
 20
-65.05178
 11
78.26393
 21
-65.05178
  0
LINE
  8
型材断面
  6
CONTINUOUS
 62
    63
 10
78.86393
 20
-65.05178
 11
121.063903
 21
-65.05178
  0
LINE
  8
型材断面
  6
CONTINUOUS
 62
    63
 10
85.374703
 20
-62.05178
 11
119.563903
 21
-62.05178
  0
ARC
  8
型材断面
  6
CONTINUOUS
 62
    63
 10
75.56393
 20
-43.051804
 40
19.500003
 50
298.592316
 51
360.000003
  0
ARC
  8
型材断面
  6
CONTINUOUS
 62
    63
 10
75.56393
 20
-43.051804
 40
19.500003
 50
179.999997
 51
241.407684
  0
LINE
  8
型材断面
  6
CONTINUOUS
 62
    63
 10
57.56393
 20
-35.44232
 11
57.56393
 21
-32.051825
  0
LINE
  8
型材断面
  6
CONTINUOUS
 62
    63
 10
53.563925
 20
-29.051825
 11
53.563925
 21
-32.051825
  0
LINE
  8
型材断面
  6
CONTINUOUS
 62
    63
 10
34.56248
 20
-26.351825
 11
34.26248
 21
-26.051825
  0
LINE
  8
型材断面
  6
CONTINUOUS
 62
    63
 10
34.56248
 20
-26.351825
 11
34.86248
 21
-26.051825
  0
LINE
  8
型材断面
  6
CONTINUOUS
 62
    63
 10
29.062483
 20
-26.051825
 11
34.26248
 21
-26.051825
  0
LINE
  8
型材断面
  6
CONTINUOUS
 62
    63
 10
53.563925
 20
-26.051825
 11
34.86248
 21
-26.051825
  0
LINE
  8
型材断面
  6
CONTINUOUS
 62
    63
 10
55.063925
 20
-7.5518
 11
57.063927
 21
-7.5518
  0
LINE
  8
型材断面
  6
CONTINUOUS
 62
    63
 10
57.56393
 20
-12.90233
 11
57.56393
 21
-8.051803
  0
LINE
  8
型材断面
  6
CONTINUOUS
 62
    63
 10
93.56393
 20
-12.90233
 11
93.56393
 21
-8.051803
  0
LINE
  8
型材断面
  6
CONTINUOUS
 62
    63
 10
106.513918
 20
-7.5518
 11
94.063933
 21
-7.5518
  0
LINE
  8
型材断面
  6
CONTINUOUS
 62
    63
 10
41.063923
 20
-63.55178
 11
41.063923
 21
-62.551775
  0
LINE
  8
型材断面
  6
CONTINUOUS
 62
    63
 10
65.753158
 20
-62.05178
 11
41.563918
 21
-62.05178
  0
LINE
  8
型材断面
  6
CONTINUOUS
 62
    63
 10
41.063923
 20
-51.55178
 11
41.063923
 21
-48.351778
  0
LINE
  8
型材断面
  6
CONTINUOUS
 62
    63
 10
122.263903
 20
-31.551815
 11
122.563903
 21
-31.251815
  0
LINE
  8
型材断面
  6
CONTINUOUS
 62
    63
 10
122.263903
 20
-31.551815
 11
122.563903
 21
-31.851815
  0
LINE
  8
型材断面
  6
CONTINUOUS
 62
    63
 10
72.56393
 20
-64.75178
 11
72.26393
 21
-65.05178
  0
LINE
  8
型材断面
  6
CONTINUOUS
 62
    63
 10
72.56393
 20
-64.75178
 11
72.86393
 21
-65.05178
  0
LINE
  8
型材断面
  6
CONTINUOUS
 62
    63
 10
78.56393
 20
-64.75178
 11
78.26393
 21
-65.05178
  0
LINE
  8
型材断面
  6
CONTINUOUS
 62
    63
 10
78.56393
 20
-64.75178
 11
78.86393
 21
-65.05178
  0
ARC
  8
型材断面
  6
CONTINUOUS
 62
    63
 10
85.3747
 20
-61.051773
 40
1.0
 50
118.592316
 51
270.0
  0
ARC
  8
型材断面
  6
CONTINUOUS
 62
    63
 10
65.753159
 20
-61.051773
 40
1.0
 50
-90.0
 51
61.407684
  0
LINE
  8
型材断面
  6
CONTINUOUS
 62
    63
 10
57.56393
 20
-32.051825
 11
53.563925
 21
-32.051825
  0
ARC
  8
型材断面
  6
CONTINUOUS
 62
    63
 10
57.06393
 20
-8.0518
 40
0.5
 50
0.0
 51
90.0
  0
ARC
  8
型材断面
  6
CONTINUOUS
 62
    63
 10
94.06393
 20
-8.0518
 40
0.5
 50
90.0
 51
180.0
  0
ARC
  8
型材断面
  6
CONTINUOUS
 62
    63
 10
41.563922
 20
-62.551772
 40
0.5
 50
90.0
 51
180.0
  0
LINE
  8
型材断面
  6
CONTINUOUS
 62
    63
 10
41.563918
 20
-52.051775
 11
44.063923
 21
-52.051775
  0
ARC
  8
型材断面
  6
CONTINUOUS
 62
    63
 10
41.563922
 20
-51.551772
 40
0.5
 50
180.0
 51
270.0
  0
LINE
  8
型材断面
  6
CONTINUOUS
 62
    63
 10
93.56393
 20
-17.2013
 11
92.287348
 21
-17.2013
  0
LINE
  8
型材断面
  6
CONTINUOUS
 62
    63
 10
93.56393
 20
-12.90233
 11
92.287325
 21
-12.90233
  0
LINE
  8
型材断面
  6
CONTINUOUS
 62
    63
 10
62.563933
 20
-27.551825
 11
67.563927
 21
-27.551825
  0
LINE
  8
型材断面
  6
CONTINUOUS
 62
    63
 10
88.563927
 20
-27.551825
 11
83.563925
 21
-27.551825
  0
LINE
  8
型材断面
  6
CONTINUOUS
 62
    63
 10
83.563925
 20
-29.875895
 11
83.563925
 21
-27.551825
  0
LINE
  8
型材断面
  6
CONTINUOUS
 62
    63
 10
67.563927
 20
-29.875895
 11
67.563927
 21
-27.551825
  0
LINE
  8
ゴム等
  6
CONTINUOUS
 62
    63
 10
30.562483
 20
-32.301822
 11
27.562483
 21
-32.301822
  0
LINE
  8
ゴム等
  6
CONTINUOUS
 62
    63
 10
30.562483
 20
-35.801825
 11
27.562483
 21
-35.801825
  0
LINE
  8
ゴム等
  6
CONTINUOUS
 62
    63
 10
42.313198
 20
-29.051825
 11
42.313198
 21
-26.051825
  0
LINE
  8
ゴム等
  6
CONTINUOUS
 62
    63
 10
38.813195
 20
-29.051825
 11
38.813195
 21
-26.051825
  0
LINE
  8
ゴム等
  6
CONTINUOUS
 62
    63
 10
108.563907
 20
-10.5518
 11
108.563907
 21
-7.5518
  0
LINE
  8
ゴム等
  6
CONTINUOUS
 62
    63
 10
105.063912
 20
-10.5518
 11
105.063912
 21
-7.5518
  0
LINE
  8
ゴム等
  6
CONTINUOUS
 62
    63
 10
119.563903
 20
-50.80178
 11
122.563903
 21
-50.80178
  0
LINE
  8
ゴム等
  6
CONTINUOUS
 62
    63
 10
119.563903
 20
-54.301775
 11
122.563903
 21
-54.301775
  0
LINE
  8
ゴム等
  6
CONTINUOUS
 62
    63
 10
120.313903
 20
-50.80178
 11
120.313903
 21
-54.301775
  0
LINE
  8
ゴム等
  6
CONTINUOUS
 62
    63
 10
121.063903
 20
-50.80178
 11
121.063903
 21
-54.301775
  0
LINE
  8
ゴム等
  6
CONTINUOUS
 62
    63
 10
121.813903
 20
-50.80178
 11
121.813903
 21
-54.301775
  0
LINE
  8
ゴム等
  6
CONTINUOUS
 62
    63
 10
105.063912
 20
-8.3018
 11
108.563907
 21
-8.3018
  0
LINE
  8
ゴム等
  6
CONTINUOUS
 62
    63
 10
105.063912
 20
-9.0518
 11
108.563907
 21
-9.0518
  0
LINE
  8
ゴム等
  6
CONTINUOUS
 62
    63
 10
105.063912
 20
-9.8018
 11
108.563907
 21
-9.8018
  0
LINE
  8
ゴム等
  6
CONTINUOUS
 62
    63
 10
38.813195
 20
-28.301825
 11
42.313198
 21
-28.301825
  0
LINE
  8
ゴム等
  6
CONTINUOUS
 62
    63
 10
38.813195
 20
-27.551825
 11
42.313198
 21
-27.551825
  0
LINE
  8
ゴム等
  6
CONTINUOUS
 62
    63
 10
38.813195
 20
-26.801825
 11
42.313198
 21
-26.801825
  0
LINE
  8
ゴム等
  6
CONTINUOUS
 62
    63
 10
28.312483
 20
-35.801825
 11
28.312483
 21
-32.301822
  0
LINE
  8
ゴム等
  6
CONTINUOUS
 62
    63
 10
29.062483
 20
-35.801825
 11
29.062483
 21
-32.301822
  0
LINE
  8
ゴム等
  6
CONTINUOUS
 62
    63
 10
29.812483
 20
-35.801825
 11
29.812483
 21
-32.301822
  0
LINE
  8
ゴム等
  6
CONTINUOUS
 62
    63
 10
85.063933
 20
-25.056215
 11
85.063933
 21
-25.056215
  0
LINE
  8
ゴム等
  6
CONTINUOUS
 62
    63
 10
57.56393
 20
-22.551822
 11
62.563933
 21
-27.551825
  0
LINE
  8
ゴム等
  6
CONTINUOUS
 62
    63
 10
62.563933
 20
-27.551825
 11
64.563927
 21
-27.551825
  0
ARC
  8
ゴム等
  6
CONTINUOUS
 62
    63
 10
93.563933
 20
-15.051805
 40
2.5
 50
120.706651
 51
239.29391
  0
ENDBLK
  0
BLOCK
  2
*GRP_0008
 70
    65
 10
0.0
 20
0.0
  0
LINE
  8
型材断面
  6
CONTINUOUS
 62
    47
 10
18.563923
 20
-7.5518
 11
-46.936082
 21
-7.5518
  0
ARC
  8
型材断面
  6
CONTINUOUS
 62
    47
 10
18.563922
 20
-7.5518
 40
1.5
 50
0.0
 51
90.0
  0
LINE
  8
型材断面
  6
CONTINUOUS
 62
    47
 10
20.063923
 20
-6.0518
 11
-46.936082
 21
-6.0518
  0
ARC
  8
型材断面
  6
CONTINUOUS
 62
    47
 10
20.063922
 20
-49.451803
 40
1.5
 50
180.0
 51
270.0
  0
LINE
  8
型材断面
  6
CONTINUOUS
 62
    47
 10
20.063923
 20
-6.0518
 11
20.063923
 21
-49.45181
  0
LINE
  8
型材断面
  6
CONTINUOUS
 62
    47
 10
20.063923
 20
-49.45181
 11
33.06392
 21
-49.45181
  0
LINE
  8
型材断面
  6
CONTINUOUS
 62
    47
 10
33.06392
 20
-50.95181
 11
33.06392
 21
-49.45181
  0
LINE
  8
型材断面
  6
CONTINUOUS
 62
    47
 10
18.563923
 20
-7.5518
 11
18.563923
 21
-50.95181
  0
LINE
  8
型材断面
  6
CONTINUOUS
 62
    47
 10
18.563923
 20
-50.95181
 11
33.06392
 21
-50.95181
  0
LINE
  8
型材断面
  6
CONTINUOUS
 62
    47
 10
-46.936082
 20
-7.5518
 11
-46.936082
 21
-6.0518
  0
ENDBLK
  0
BLOCK
  2
*GRP_0009
 70
    65
 10
0.0
 20
0.0
  0
LINE
  8
補助線
  6
BYBLOCK
 62
    63
 10
-3.436067
 20
-26.55182
 11
-3.436067
 21
-59.55182
  0
LINE
  8
補助線
  6
BYBLOCK
 62
    63
 10
-19.936067
 20
-43.05182
 11
13.063933
 21
-43.05182
  0
LINE
  8
補助線
  6
BYBLOCK
 62
    63
 10
-21.436067
 20
-11.55182
 11
-21.436067
 21
-18.551825
  0
LINE
  8
補助線
  6
BYBLOCK
 62
    63
 10
-24.936063
 20
-15.051822
 11
-17.936065
 21
-15.051822
  0
LINE
  8
補助線
  6
BYBLOCK
 62
    63
 10
14.563925
 20
-11.85182
 11
14.563925
 21
-18.251825
  0
LINE
  8
補助線
  6
BYBLOCK
 62
    63
 10
11.363923
 20
-15.051822
 11
17.763927
 21
-15.051822
  0
LINE
  8
ゴム等
  6
CONTINUOUS
 62
    63
 10
-16.436072
 20
-27.556228
 11
-21.436067
 21
-22.556225
  0
LINE
  8
ゴム等
  6
CONTINUOUS
 62
    63
 10
9.56393
 20
-27.556228
 11
14.563933
 21
-22.556225
  0
LINE
  8
ゴム等
  6
CONTINUOUS
 62
    63
 10
-37.136072
 20
-41.45165
 11
-37.136072
 21
-50.951772
  0
LINE
  8
ゴム等
  6
CONTINUOUS
 62
    63
 10
-37.136072
 20
-38.951645
 11
-37.136072
 21
-25.75172
  0
LINE
  8
ゴム等
  6
CONTINUOUS
 62
    63
 10
-35.13607
 20
-48.95177
 11
-35.13607
 21
-23.251722
  0
LINE
  8
ゴム等
  6
CONTINUOUS
 62
    63
 10
-35.936072
 20
-23.251722
 11
-35.13607
 21
-23.251722
  0
LINE
  8
St
  6
CONTINUOUS
 62
    63
 10
-19.936067
 20
-43.05182
 11
-21.436075
 21
-43.05182
  0
LINE
  8
St
  6
CONTINUOUS
 62
    63
 10
-21.436075
 20
-43.05182
 11
-21.436075
 21
-26.79887
  0
ARC
  8
St
  6
CONTINUOUS
 62
    63
 10
-21.436064
 20
-15.051823
 40
2.5
 50
180.000057
 51
180.000057
  0
ARC
  8
St
  6
CONTINUOUS
 62
    63
 10
14.563924
 20
-15.051827
 40
2.2
 50
102.301255
 51
257.698745
  0
LINE
  8
St
  6
CONTINUOUS
 62
    63
 10
14.563933
 20
-17.2013
 11
14.095197
 21
-17.2013
  0
LINE
  8
St
  6
CONTINUOUS
 62
    63
 10
14.563933
 20
-12.902322
 11
14.095197
 21
-12.902322
  0
ARC
  8
St
  6
CONTINUOUS
 62
    63
 10
-3.436073
 20
-43.051823
 40
15.5
 50
121.072958
 51
418.927056
  0
LINE
  8
St
  6
CONTINUOUS
 62
    63
 10
-23.936072
 20
-7.5518
 11
-21.936078
 21
-7.5518
  0
LINE
  8
St
  6
CONTINUOUS
 62
    63
 10
-21.436067
 20
-12.902322
 11
-21.436067
 21
-8.051795
  0
LINE
  8
St
  6
CONTINUOUS
 62
    63
 10
14.563933
 20
-12.902322
 11
14.563933
 21
-8.051795
  0
ARC
  8
St
  6
CONTINUOUS
 62
    63
 10
-21.93607
 20
-8.051819
 40
0.5
 50
0.0
 51
90.0
  0
ARC
  8
St
  6
CONTINUOUS
 62
    63
 10
15.06393
 20
-8.051819
 40
0.5
 50
90.0
 51
180.0
  0
LINE
  8
St
  6
CONTINUOUS
 62
    63
 10
15.063927
 20
-7.5518
 11
15.563923
 21
-7.5518
  0
ARC
  8
St
  6
CONTINUOUS
 62
    63
 10
-30.436072
 20
-62.051791
 40
3.0
 50
180.0
 51
270.0
  0
ARC
  8
St
  6
CONTINUOUS
 62
    63
 10
-30.436072
 20
-62.051791
 40
1.0
 50
180.0
 51
270.0
  0
ARC
  8
St
  6
CONTINUOUS
 62
    63
 10
15.563932
 20
-62.051791
 40
3.0
 50
270.0
 51
360.0
  0
ARC
  8
St
  6
CONTINUOUS
 62
    63
 10
15.563932
 20
-62.051791
 40
1.0
 50
270.0
 51
360.0
  0
ARC
  8
St
  6
CONTINUOUS
 62
    63
 10
15.563932
 20
-10.551819
 40
3.0
 50
0.0
 51
90.0
  0
LINE
  8
St
  6
CONTINUOUS
 62
    63
 10
-33.436067
 20
-62.051772
 11
-33.436067
 21
-50.951772
  0
LINE
  8
St
  6
CONTINUOUS
 62
    63
 10
-31.436072
 20
-62.051772
 11
-31.436072
 21
-48.95177
  0
LINE
  8
St
  6
CONTINUOUS
 62
    63
 10
-46.936067
 20
-7.5518
 11
-30.236072
 21
-7.5518
  0
LINE
  8
St
  6
CONTINUOUS
 62
    63
 10
-29.636072
 20
-7.5518
 11
-21.436067
 21
-7.5518
  0
LINE
  8
St
  6
CONTINUOUS
 62
    63
 10
-27.936078
 20
-64.751772
 11
-28.236078
 21
-65.051772
  0
LINE
  8
St
  6
CONTINUOUS
 62
    63
 10
-27.936078
 20
-64.751772
 11
-27.636078
 21
-65.051772
  0
LINE
  8
St
  6
CONTINUOUS
 62
    63
 10
-28.236078
 20
-65.051772
 11
-30.436067
 21
-65.051772
  0
LINE
  8
St
  6
CONTINUOUS
 62
    63
 10
15.563923
 20
-65.051772
 11
1.563927
 21
-65.051772
  0
LINE
  8
St
  6
CONTINUOUS
 62
    63
 10
-27.636078
 20
-65.051772
 11
1.563927
 21
-65.051772
  0
LINE
  8
St
  6
CONTINUOUS
 62
    63
 10
15.563923
 20
-63.05177
 11
-1.436072
 21
-63.05177
  0
LINE
  8
St
  6
CONTINUOUS
 62
    63
 10
-30.436067
 20
-63.05177
 11
-5.436078
 21
-63.05177
  0
LINE
  8
St
  6
CONTINUOUS
 62
    63
 10
-29.936072
 20
-7.8518
 11
-30.236072
 21
-7.5518
  0
LINE
  8
St
  6
CONTINUOUS
 62
    63
 10
-29.936072
 20
-7.8518
 11
-29.636072
 21
-7.5518
  0
ARC
  8
St
  6
CONTINUOUS
 62
    63
 10
-46.636091
 20
-12.151804
 40
0.3
 50
180.00412
 51
270.0
  0
ARC
  8
St
  6
CONTINUOUS
 62
    63
 10
-46.636091
 20
-21.151764
 40
0.3
 50
90.002747
 51
180.00412
  0
LINE
  8
St
  6
CONTINUOUS
 62
    63
 10
-46.936067
 20
-21.151745
 11
-46.936067
 21
-24.751722
  0
LINE
  8
St
  6
CONTINUOUS
 62
    63
 10
-46.936067
 20
-7.5518
 11
-46.936067
 21
-12.148272
  0
ARC
  8
St
  6
CONTINUOUS
 62
    63
 10
-46.636091
 20
-36.851691
 40
0.3
 50
90.0
 51
179.99588
  0
ARC
  8
St
  6
CONTINUOUS
 62
    63
 10
-46.636091
 20
-27.851731
 40
0.3
 50
179.99588
 51
269.997253
  0
LINE
  8
St
  6
CONTINUOUS
 62
    63
 10
-46.936067
 20
-27.85172
 11
-46.936067
 21
-24.25172
  0
LINE
  8
St
  6
CONTINUOUS
 62
    63
 10
-46.936067
 20
-41.45165
 11
-46.936067
 21
-36.8552
  0
LINE
  8
St
  6
CONTINUOUS
 62
    63
 10
-44.436078
 20
-21.351695
 11
-44.436078
 21
-23.251722
  0
LINE
  8
St
  6
CONTINUOUS
 62
    63
 10
-44.436078
 20
-11.951697
 11
-44.436078
 21
-10.051797
  0
ARC
  8
St
  6
CONTINUOUS
 62
    63
 10
-44.936079
 20
-21.351726
 40
0.5
 50
0.001373
 51
90.002747
  0
ARC
  8
St
  6
CONTINUOUS
 62
    63
 10
-44.936079
 20
-11.951703
 40
0.5
 50
270.0
 51
360.001373
  0
LINE
  8
St
  6
CONTINUOUS
 62
    63
 10
-44.436078
 20
-27.651747
 11
-44.436078
 21
-25.75172
  0
LINE
  8
St
  6
CONTINUOUS
 62
    63
 10
-44.436078
 20
-37.051775
 11
-44.436078
 21
-38.951645
  0
ARC
  8
St
  6
CONTINUOUS
 62
    63
 10
-44.936079
 20
-27.651769
 40
0.5
 50
269.997253
 51
359.998627
  0
ARC
  8
St
  6
CONTINUOUS
 62
    63
 10
-44.936079
 20
-37.051792
 40
0.5
 50
359.998627
 51
450.0
  0
LINE
  8
St
  6
CONTINUOUS
 62
    63
 10
-46.636097
 20
-20.8517
 11
-44.936118
 21
-20.8517
  0
LINE
  8
St
  6
CONTINUOUS
 62
    63
 10
-46.636097
 20
-28.151772
 11
-44.936118
 21
-28.151772
  0
LINE
  8
St
  6
CONTINUOUS
 62
    63
 10
-46.636097
 20
-12.4517
 11
-44.936118
 21
-12.4517
  0
LINE
  8
St
  6
CONTINUOUS
 62
    63
 10
-46.636097
 20
-36.551772
 11
-44.936118
 21
-36.551772
  0
LINE
  8
St
  6
CONTINUOUS
 62
    63
 10
-44.436078
 20
-23.251722
 11
-37.936067
 21
-23.251722
  0
LINE
  8
St
  6
CONTINUOUS
 62
    63
 10
-37.936067
 20
-23.251722
 11
-37.936067
 21
-10.051797
  0
LINE
  8
St
  6
CONTINUOUS
 62
    63
 10
-44.436078
 20
-10.051797
 11
-37.936067
 21
-10.051797
  0
LINE
  8
St
  6
CONTINUOUS
 62
    63
 10
-35.936072
 20
-10.051797
 11
-23.936072
 21
-10.051797
  0
LINE
  8
St
  6
CONTINUOUS
 62
    63
 10
-5.436078
 20
-63.05177
 11
-5.436078
 21
-60.940348
  0
LINE
  8
St
  6
CONTINUOUS
 62
    63
 10
-1.436072
 20
-63.05177
 11
-1.436072
 21
-60.940348
  0
LINE
  8
St
  6
CONTINUOUS
 62
    63
 10
-21.436067
 20
-12.902322
 11
-20.159477
 21
-12.902322
  0
LINE
  8
St
  6
CONTINUOUS
 62
    63
 10
-21.436067
 20
-17.201322
 11
-20.159493
 21
-17.201322
  0
ARC
  8
St
  6
CONTINUOUS
 62
    63
 10
-21.436064
 20
-15.051823
 40
2.5
 50
300.705753
 51
419.293349
  0
LINE
  8
St
  6
CONTINUOUS
 62
    63
 10
-11.436078
 20
-29.875895
 11
-11.436078
 21
-27.551825
  0
LINE
  8
St
  6
CONTINUOUS
 62
    63
 10
4.563927
 20
-29.775897
 11
4.563927
 21
-27.55622
  0
LINE
  8
St
  6
CONTINUOUS
 62
    63
 10
16.563927
 20
-62.051772
 11
16.563927
 21
-45.051815
  0
LINE
  8
St
  6
CONTINUOUS
 62
    63
 10
-25.436072
 20
-15.551795
 11
-23.936072
 21
-14.551797
  0
LINE
  8
St
  6
CONTINUOUS
 62
    63
 10
-23.936072
 20
-10.051797
 11
-23.936072
 21
-14.551797
  0
LINE
  8
St
  6
CONTINUOUS
 62
    63
 10
-35.936072
 20
-10.051797
 11
-35.936072
 21
-23.251722
  0
LINE
  8
St
  6
CONTINUOUS
 62
    63
 10
-44.436078
 20
-38.951645
 11
-37.136072
 21
-38.951645
  0
LINE
  8
St
  6
CONTINUOUS
 62
    63
 10
-46.936067
 20
-41.45165
 11
-37.136072
 21
-41.45165
  0
LINE
  8
St
  6
CONTINUOUS
 62
    63
 10
-33.436067
 20
-50.951772
 11
-37.136072
 21
-50.951772
  0
LINE
  8
St
  6
CONTINUOUS
 62
    63
 10
-31.436072
 20
-48.95177
 11
-35.13607
 21
-48.95177
  0
LINE
  8
St
  6
CONTINUOUS
 62
    63
 10
-44.436078
 20
-25.75172
 11
-37.136072
 21
-25.75172
  0
LINE
  8
St
  6
CONTINUOUS
 62
    63
 10
-11.436078
 20
-27.551825
 11
-16.440467
 21
-27.551825
  0
LINE
  8
St
  6
CONTINUOUS
 62
    63
 10
-21.436067
 20
-17.201322
 11
-21.436067
 21
-22.556225
  0
LINE
  8
St
  6
CONTINUOUS
 62
    63
 10
4.563927
 20
-27.55622
 11
9.563938
 21
-27.55622
  0
LINE
  8
St
  6
CONTINUOUS
 62
    63
 10
14.563933
 20
-17.2013
 11
14.563933
 21
-22.556225
  0
LINE
  8
St
  6
CONTINUOUS
 62
    63
 10
-25.436072
 20
-15.551795
 11
-25.436072
 21
-22.798865
  0
LINE
  8
St
  6
CONTINUOUS
 62
    63
 10
18.563923
 20
-62.051772
 11
18.563923
 21
-42.05177
  0
LINE
  8
St
  6
CONTINUOUS
 62
    63
 10
16.563882
 20
-45.051815
 11
14.452468
 21
-45.051815
  0
LINE
  8
St
  6
CONTINUOUS
 62
    63
 10
18.563923
 20
-10.5518
 11
18.563923
 21
-24.21308
  0
ARC
  8
St
  6
CONTINUOUS
 62
    63
 10
-3.436074
 20
-43.051822
 40
18.0
 50
276.379378
 51
353.620659
  0
LINE
  8
St
  6
CONTINUOUS
 62
    63
 10
18.563923
 20
-24.21308
 11
14.563925
 21
-28.213085
  0
LINE
  8
St
  6
CONTINUOUS
 62
    63
 10
18.563923
 20
-42.05177
 11
15.563923
 21
-42.05177
  0
LINE
  8
St
  6
CONTINUOUS
 62
    63
 10
14.563925
 20
-28.213085
 11
14.563925
 21
-41.051772
  0
ARC
  8
St
  6
CONTINUOUS
 62
    63
 10
15.563925
 20
-41.051773
 40
1.0
 50
180.0
 51
270.0
  0
LINE
  8
St
  6
CONTINUOUS
 62
    63
 10
-25.436072
 20
-22.798865
 11
-21.436075
 21
-26.79887
  0
ARC
  8
St
  6
CONTINUOUS
 62
    63
 10
-3.436074
 20
-43.051822
 40
18.0
 50
180.000003
 51
263.620638
  0
ENDBLK
  0
BLOCK
  2
*GRP_0010
 70
    65
 10
0.0
 20
0.0
  0
LINE
  8
型材断面
  6
CONTINUOUS
 10
122.563903
 20
-65.05178
 11
122.563903
 21
-66.55178
  0
LINE
  8
型材断面
  6
CONTINUOUS
 10
116.563903
 20
-65.05178
 11
116.563903
 21
-66.55178
  0
LINE
  8
型材断面
  6
CONTINUOUS
 10
116.563903
 20
-66.17678
 11
122.563903
 21
-66.17678
  0
LINE
  8
型材断面
  6
CONTINUOUS
 10
116.563903
 20
-65.80178
 11
122.563903
 21
-65.80178
  0
LINE
  8
型材断面
  6
CONTINUOUS
 10
116.563903
 20
-65.42678
 11
122.563903
 21
-65.42678
  0
LINE
  8
型材断面
  6
CONTINUOUS
 62
    47
 10
124.063903
 20
-55.551778
 11
122.563903
 21
-54.718445
  0
LINE
  8
型材断面
  6
CONTINUOUS
 62
    47
 10
122.563903
 20
-50.38511
 11
124.063903
 21
-49.551778
  0
LINE
  8
型材断面
  6
CONTINUOUS
 62
    47
 10
122.938903
 20
-50.176775
 11
122.938903
 21
-54.92678
  0
LINE
  8
型材断面
  6
CONTINUOUS
 62
    47
 10
123.313903
 20
-49.96844
 11
123.313903
 21
-55.135115
  0
LINE
  8
型材断面
  6
CONTINUOUS
 62
    47
 10
123.688903
 20
-49.760113
 11
123.688903
 21
-55.343443
  0
ARC
  8
型材断面
  6
CONTINUOUS
 62
    47
 10
122.56391
 20
-65.051774
 40
1.5
 50
270.0
 51
360.0
  0
ARC
  8
型材断面
  6
CONTINUOUS
 62
    47
 10
122.56391
 20
48.448196
 40
1.5
 50
0.0
 51
90.0
  0
LINE
  8
型材断面
  6
CONTINUOUS
 62
    47
 10
122.563903
 20
-65.05178
 11
122.563903
 21
48.448195
  0
LINE
  8
型材断面
  6
CONTINUOUS
 62
    47
 10
124.063903
 20
-66.55178
 11
124.063903
 21
49.948195
  0
LINE
  8
型材断面
  6
CONTINUOUS
 62
    47
 10
24.562475
 20
-37.05182
 11
26.062483
 21
-36.218487
  0
LINE
  8
型材断面
  6
CONTINUOUS
 62
    47
 10
26.062483
 20
-31.885153
 11
24.562475
 21
-31.05182
  0
LINE
  8
型材断面
  6
CONTINUOUS
 62
    47
 10
24.937483
 20
-31.260155
 11
24.937483
 21
-36.843485
  0
LINE
  8
型材断面
  6
CONTINUOUS
 62
    47
 10
25.312483
 20
-31.46849
 11
25.312483
 21
-36.63515
  0
LINE
  8
型材断面
  6
CONTINUOUS
 62
    47
 10
25.687483
 20
-31.676825
 11
25.687483
 21
-36.426822
  0
LINE
  8
型材断面
  6
CONTINUOUS
 62
    47
 10
26.062483
 20
-26.051825
 11
26.062483
 21
-40.051775
  0
ARC
  8
型材断面
  6
CONTINUOUS
 62
    47
 10
26.062485
 20
-40.051769
 40
1.5
 50
180.0
 51
270.0
  0
ARC
  8
型材断面
  6
CONTINUOUS
 62
    47
 10
38.063925
 20
-41.551769
 40
1.5
 50
0.0
 51
90.0
  0
ARC
  8
型材断面
  6
CONTINUOUS
 62
    47
 10
39.563925
 20
-65.051774
 40
1.5
 50
180.0
 51
270.0
  0
LINE
  8
型材断面
  6
CONTINUOUS
 62
    47
 10
38.063923
 20
-41.551775
 11
38.063923
 21
-66.55178
  0
LINE
  8
型材断面
  6
CONTINUOUS
 62
    47
 10
39.563923
 20
-65.05178
 11
39.563923
 21
-40.051775
  0
LINE
  8
型材断面
  6
CONTINUOUS
 62
    47
 10
26.062483
 20
-40.051775
 11
39.563923
 21
-40.051775
  0
LINE
  8
型材断面
  6
CONTINUOUS
 62
    47
 10
38.063923
 20
-41.551775
 11
24.562483
 21
-41.551775
  0
LINE
  8
型材断面
  6
CONTINUOUS
 62
    47
 10
24.562483
 20
-41.551775
 11
24.562483
 21
-26.051825
  0
LINE
  8
型材断面
  6
CONTINUOUS
 62
    47
 10
124.063903
 20
-66.55178
 11
38.063923
 21
-66.55178
  0
LINE
  8
型材断面
  6
CONTINUOUS
 62
    47
 10
122.563903
 20
-65.05178
 11
39.563923
 21
-65.05178
  0
LINE
  8
型材断面
  6
CONTINUOUS
 10
24.562483
 20
-26.051825
 11
26.062483
 21
-26.051825
  0
LINE
  8
型材断面
  6
CONTINUOUS
 62
    47
 10
124.063903
 20
49.948195
 11
104.063907
 21
49.948195
  0
LINE
  8
型材断面
  6
CONTINUOUS
 10
104.063907
 20
49.948195
 11
104.063907
 21
48.448195
  0
LINE
  8
型材断面
  6
CONTINUOUS
 62
    47
 10
122.563903
 20
48.448195
 11
104.063907
 21
48.448195
  0
ENDBLK
  0
BLOCK
  2
*GRP_0011
 70
    65
 10
0.0
 20
0.0
  0
LINE
  8
型材断面
  6
CONTINUOUS
 10
-71.931063
 20
-47.551797
 11
-71.931063
 21
-9.0518
  0
LINE
  8
型材断面
  6
CONTINUOUS
 10
-73.431063
 20
-47.551797
 11
-71.931063
 21
-47.551797
  0
ARC
  8
型材断面
  6
CONTINUOUS
 10
-71.931062
 20
-9.0518
 40
1.5
 50
90.0
 51
180.0
  0
LINE
  8
型材断面
  6
CONTINUOUS
 10
-73.431063
 20
-47.551797
 11
-73.431063
 21
-7.5518
  0
ARC
  8
型材断面
  6
CONTINUOUS
 10
-46.936085
 20
-50.951778
 40
1.5
 50
180.0
 51
270.0
  0
ARC
  8
型材断面
  6
CONTINUOUS
 10
-33.43607
 20
-65.051778
 40
1.5
 50
180.0
 51
270.0
  0
LINE
  8
型材断面
  6
CONTINUOUS
 10
-34.936067
 20
-50.95178
 11
-46.936082
 21
-50.95178
  0
LINE
  8
型材断面
  6
CONTINUOUS
 10
-33.436067
 20
-52.45178
 11
-33.436067
 21
-65.05178
  0
ARC
  8
型材断面
  6
CONTINUOUS
 10
-34.93607
 20
-52.451778
 40
1.5
 50
0.0
 51
90.0
  0
LINE
  8
型材断面
  6
CONTINUOUS
 10
-71.931063
 20
-9.0518
 11
-48.436082
 21
-9.0518
  0
ARC
  8
型材断面
  6
CONTINUOUS
 10
-48.436085
 20
-9.051801
 40
1.5
 50
0.0
 51
90.0
  0
LINE
  8
型材断面
  6
CONTINUOUS
 10
-46.936082
 20
-50.95178
 11
-46.936082
 21
-7.5518
  0
LINE
  8
型材断面
  6
CONTINUOUS
 10
-73.431063
 20
-7.5518
 11
-46.936082
 21
-7.5518
  0
LINE
  8
型材断面
  6
CONTINUOUS
 10
-48.436082
 20
-9.0518
 11
-48.436082
 21
-52.45178
  0
LINE
  8
型材断面
  6
CONTINUOUS
 10
-34.936067
 20
-52.45178
 11
-48.436082
 21
-52.45178
  0
LINE
  8
型材断面
  6
CONTINUOUS
 10
-34.936067
 20
-52.45178
 11
-34.936067
 21
-66.55178
  0
ARC
  8
型材断面
  6
CONTINUOUS
 62
    47
 10
18.563922
 20
-65.051773
 40
1.5
 50
270.0
 51
360.0
  0
ARC
  8
型材断面
  6
CONTINUOUS
 62
    47
 10
20.063922
 20
-52.451803
 40
1.5
 50
90.0
 51
180.0
  0
LINE
  8
型材断面
  6
CONTINUOUS
 62
    47
 10
36.565363
 20
-74.4518
 11
45.244678
 21
-74.4518
  0
LINE
  8
型材断面
  6
CONTINUOUS
 62
    47
 10
45.244678
 20
-74.4518
 11
45.244678
 21
-75.9518
  0
ARC
  8
型材断面
  6
CONTINUOUS
 62
    47
 10
36.565356
 20
-74.451801
 40
1.5
 50
187.275006
 51
270.0
  0
LINE
  8
型材断面
  6
CONTINUOUS
 62
    47
 10
45.244678
 20
-75.9518
 11
35.244672
 21
-75.9518
  0
LINE
  8
型材断面
  6
CONTINUOUS
 62
    47
 10
35.244672
 20
-75.9518
 11
32.244672
 21
-52.45181
  0
LINE
  8
型材断面
  6
CONTINUOUS
 62
    47
 10
20.063923
 20
-52.45181
 11
32.244672
 21
-52.45181
  0
ARC
  8
型材断面
  6
CONTINUOUS
 62
    47
 10
32.244671
 20
-52.451805
 40
1.5
 50
7.275006
 51
90.0
  0
LINE
  8
型材断面
  6
CONTINUOUS
 62
    47
 10
36.565363
 20
-74.4518
 11
33.565363
 21
-50.95181
  0
LINE
  8
型材断面
  6
CONTINUOUS
 62
    47
 10
18.563923
 20
-50.95181
 11
33.565363
 21
-50.95181
  0
LINE
  8
型材断面
  6
CONTINUOUS
 62
    47
 10
20.063923
 20
-52.45181
 11
20.063923
 21
-66.55178
  0
LINE
  8
型材断面
  6
CONTINUOUS
 62
    47
 10
18.563923
 20
-65.05178
 11
18.563923
 21
-50.95181
  0
LINE
  8
型材断面
  6
CONTINUOUS
 62
    47
 10
20.063923
 20
-66.55178
 11
-34.936067
 21
-66.55178
  0
LINE
  8
型材断面
  6
CONTINUOUS
 62
    47
 10
18.563923
 20
-65.05178
 11
-33.436067
 21
-65.05178
  0
ENDBLK
  0
BLOCK
  2
*GRP_0012
 70
    65
 10
0.0
 20
0.0
  0
POLYLINE
  8
ガラス
  6
CONTINUOUS
 66
     1
 70
     4
  0
VERTEX
  8
ガラス
 10
124.65
 20
-71.2
 70
     8
  0
VERTEX
  8
ガラス
 10
124.55
 20
-71.175
 70
     8
  0
VERTEX
  8
ガラス
 10
124.475
 20
-71.15
 70
     8
  0
VERTEX
  8
ガラス
 10
124.375
 20
-71.1
 70
     8
  0
VERTEX
  8
ガラス
 10
124.3
 20
-71.075
 70
     8
  0
VERTEX
  8
ガラス
 10
124.2
 20
-71.025
 70
     8
  0
VERTEX
  8
ガラス
 10
124.125
 20
-71.0
 70
     8
  0
VERTEX
  8
ガラス
 10
124.05
 20
-70.95
 70
     8
  0
VERTEX
  8
ガラス
 10
123.95
 20
-70.925
 70
     8
  0
VERTEX
  8
ガラス
 10
123.875
 20
-70.875
 70
     8
  0
VERTEX
  8
ガラス
 10
123.8
 20
-70.85
 70
     8
  0
VERTEX
  8
ガラス
 10
123.725
 20
-70.8
 70
     8
  0
VERTEX
  8
ガラス
 10
123.65
 20
-70.75
 70
     8
  0
VERTEX
  8
ガラス
 10
123.575
 20
-70.7
 70
     8
  0
VERTEX
  8
ガラス
 10
123.5
 20
-70.65
 70
     8
  0
VERTEX
  8
ガラス
 10
123.425
 20
-70.6
 70
     8
  0
VERTEX
  8
ガラス
 10
123.35
 20
-70.55
 70
     8
  0
VERTEX
  8
ガラス
 10
123.3
 20
-70.5
 70
     8
  0
VERTEX
  8
ガラス
 10
123.225
 20
-70.45
 70
     8
  0
VERTEX
  8
ガラス
 10
123.175
 20
-70.4
 70
     8
  0
VERTEX
  8
ガラス
 10
123.125
 20
-70.325
 70
     8
  0
VERTEX
  8
ガラス
 10
123.05
 20
-70.275
 70
     8
  0
VERTEX
  8
ガラス
 10
123.0
 20
-70.2
 70
     8
  0
VERTEX
  8
ガラス
 10
122.975
 20
-70.125
 70
     8
  0
VERTEX
  8
ガラス
 10
122.925
 20
-70.075
 70
     8
  0
VERTEX
  8
ガラス
 10
122.875
 20
-70.0
 70
     8
  0
VERTEX
  8
ガラス
 10
122.85
 20
-69.925
 70
     8
  0
VERTEX
  8
ガラス
 10
122.8
 20
-69.85
 70
     8
  0
VERTEX
  8
ガラス
 10
122.775
 20
-69.75
 70
     8
  0
VERTEX
  8
ガラス
 10
122.75
 20
-69.675
 70
     8
  0
VERTEX
  8
ガラス
 10
122.7
 20
-69.6
 70
     8
  0
VERTEX
  8
ガラス
 10
122.675
 20
-69.525
 70
     8
  0
VERTEX
  8
ガラス
 10
122.65
 20
-69.425
 70
     8
  0
VERTEX
  8
ガラス
 10
122.625
 20
-69.35
 70
     8
  0
VERTEX
  8
ガラス
 10
122.6
 20
-69.25
 70
     8
  0
VERTEX
  8
ガラス
 10
122.575
 20
-69.175
 70
     8
  0
VERTEX
  8
ガラス
 10
122.55
 20
-69.075
 70
     8
  0
VERTEX
  8
ガラス
 10
122.525
 20
-68.975
 70
     8
  0
VERTEX
  8
ガラス
 10
122.525
 20
-68.9
 70
     8
  0
VERTEX
  8
ガラス
 10
122.5
 20
-68.8
 70
     8
  0
VERTEX
  8
ガラス
 10
122.475
 20
-68.725
 70
     8
  0
SEQEND
  0
POLYLINE
  8
ガラス
  6
CONTINUOUS
 66
     1
 70
     4
  0
VERTEX
  8
ガラス
 10
122.475
 20
-68.725
 70
     8
  0
VERTEX
  8
ガラス
 10
122.525
 20
-68.75
 70
     8
  0
VERTEX
  8
ガラス
 10
122.6
 20
-68.75
 70
     8
  0
VERTEX
  8
ガラス
 10
122.65
 20
-68.775
 70
     8
  0
VERTEX
  8
ガラス
 10
122.7
 20
-68.8
 70
     8
  0
VERTEX
  8
ガラス
 10
122.75
 20
-68.825
 70
     8
  0
VERTEX
  8
ガラス
 10
122.825
 20
-68.85
 70
     8
  0
VERTEX
  8
ガラス
 10
122.875
 20
-68.875
 70
     8
  0
VERTEX
  8
ガラス
 10
122.925
 20
-68.9
 70
     8
  0
VERTEX
  8
ガラス
 10
123.0
 20
-68.925
 70
     8
  0
VERTEX
  8
ガラス
 10
123.05
 20
-68.95
 70
     8
  0
VERTEX
  8
ガラス
 10
123.1
 20
-68.95
 70
     8
  0
VERTEX
  8
ガラス
 10
123.175
 20
-68.975
 70
     8
  0
VERTEX
  8
ガラス
 10
123.225
 20
-69.0
 70
     8
  0
VERTEX
  8
ガラス
 10
123.275
 20
-69.025
 70
     8
  0
VERTEX
  8
ガラス
 10
123.325
 20
-69.05
 70
     8
  0
VERTEX
  8
ガラス
 10
123.4
 20
-69.05
 70
     8
  0
VERTEX
  8
ガラス
 10
123.45
 20
-69.075
 70
     8
  0
VERTEX
  8
ガラス
 10
123.5
 20
-69.1
 70
     8
  0
VERTEX
  8
ガラス
 10
123.575
 20
-69.1
 70
     8
  0
VERTEX
  8
ガラス
 10
123.625
 20
-69.125
 70
     8
  0
VERTEX
  8
ガラス
 10
123.7
 20
-69.15
 70
     8
  0
VERTEX
  8
ガラス
 10
123.75
 20
-69.15
 70
     8
  0
VERTEX
  8
ガラス
 10
123.8
 20
-69.175
 70
     8
  0
VERTEX
  8
ガラス
 10
123.875
 20
-69.175
 70
     8
  0
VERTEX
  8
ガラス
 10
123.925
 20
-69.2
 70
     8
  0
VERTEX
  8
ガラス
 10
124.0
 20
-69.2
 70
     8
  0
VERTEX
  8
ガラス
 10
124.05
 20
-69.2
 70
     8
  0
VERTEX
  8
ガラス
 10
124.1
 20
-69.225
 70
     8
  0
VERTEX
  8
ガラス
 10
124.175
 20
-69.225
 70
     8
  0
VERTEX
  8
ガラス
 10
124.225
 20
-69.25
 70
     8
  0
VERTEX
  8
ガラス
 10
124.3
 20
-69.25
 70
     8
  0
VERTEX
  8
ガラス
 10
124.35
 20
-69.25
 70
     8
  0
VERTEX
  8
ガラス
 10
124.425
 20
-69.275
 70
     8
  0
VERTEX
  8
ガラス
 10
124.475
 20
-69.275
 70
     8
  0
VERTEX
  8
ガラス
 10
124.525
 20
-69.275
 70
     8
  0
VERTEX
  8
ガラス
 10
124.6
 20
-69.275
 70
     8
  0
VERTEX
  8
ガラス
 10
124.65
 20
-69.3
 70
     8
  0
VERTEX
  8
ガラス
 10
124.725
 20
-69.3
 70
     8
  0
VERTEX
  8
ガラス
 10
124.775
 20
-69.3
 70
     8
  0
VERTEX
  8
ガラス
 10
124.85
 20
-69.3
 70
     8
  0
SEQEND
  0
ARC
  8
ガラス
  6
CONTINUOUS
 10
124.753903
 20
-70.244911
 40
0.955135
 50
263.993979
 51
443.993979
  0
ENDBLK
  0
BLOCK
  2
*GRP_0013
 70
    65
 10
0.0
 20
0.0
  0
POLYLINE
  8
ガラス
  6
CONTINUOUS
 66
     1
 70
     4
  0
VERTEX
  8
ガラス
 10
136.075
 20
-74.1
 70
     8
  0
VERTEX
  8
ガラス
 10
135.975
 20
-74.075
 70
     8
  0
VERTEX
  8
ガラス
 10
135.9
 20
-74.025
 70
     8
  0
VERTEX
  8
ガラス
 10
135.8
 20
-74.0
 70
     8
  0
VERTEX
  8
ガラス
 10
135.725
 20
-73.975
 70
     8
  0
VERTEX
  8
ガラス
 10
135.625
 20
-73.925
 70
     8
  0
VERTEX
  8
ガラス
 10
135.55
 20
-73.9
 70
     8
  0
VERTEX
  8
ガラス
 10
135.475
 20
-73.85
 70
     8
  0
VERTEX
  8
ガラス
 10
135.375
 20
-73.825
 70
     8
  0
VERTEX
  8
ガラス
 10
135.3
 20
-73.775
 70
     8
  0
VERTEX
  8
ガラス
 10
135.225
 20
-73.725
 70
     8
  0
VERTEX
  8
ガラス
 10
135.15
 20
-73.7
 70
     8
  0
VERTEX
  8
ガラス
 10
135.075
 20
-73.65
 70
     8
  0
VERTEX
  8
ガラス
 10
135.0
 20
-73.6
 70
     8
  0
VERTEX
  8
ガラス
 10
134.925
 20
-73.55
 70
     8
  0
VERTEX
  8
ガラス
 10
134.85
 20
-73.5
 70
     8
  0
VERTEX
  8
ガラス
 10
134.775
 20
-73.45
 70
     8
  0
VERTEX
  8
ガラス
 10
134.725
 20
-73.4
 70
     8
  0
VERTEX
  8
ガラス
 10
134.65
 20
-73.35
 70
     8
  0
VERTEX
  8
ガラス
 10
134.6
 20
-73.3
 70
     8
  0
VERTEX
  8
ガラス
 10
134.55
 20
-73.225
 70
     8
  0
VERTEX
  8
ガラス
 10
134.475
 20
-73.175
 70
     8
  0
VERTEX
  8
ガラス
 10
134.425
 20
-73.1
 70
     8
  0
VERTEX
  8
ガラス
 10
134.4
 20
-73.025
 70
     8
  0
VERTEX
  8
ガラス
 10
134.35
 20
-72.975
 70
     8
  0
VERTEX
  8
ガラス
 10
134.3
 20
-72.9
 70
     8
  0
VERTEX
  8
ガラス
 10
134.275
 20
-72.825
 70
     8
  0
VERTEX
  8
ガラス
 10
134.225
 20
-72.75
 70
     8
  0
VERTEX
  8
ガラス
 10
134.2
 20
-72.65
 70
     8
  0
VERTEX
  8
ガラス
 10
134.15
 20
-72.575
 70
     8
  0
VERTEX
  8
ガラス
 10
134.125
 20
-72.5
 70
     8
  0
VERTEX
  8
ガラス
 10
134.1
 20
-72.4
 70
     8
  0
VERTEX
  8
ガラス
 10
134.075
 20
-72.325
 70
     8
  0
VERTEX
  8
ガラス
 10
134.05
 20
-72.25
 70
     8
  0
VERTEX
  8
ガラス
 10
134.025
 20
-72.15
 70
     8
  0
VERTEX
  8
ガラス
 10
134.0
 20
-72.075
 70
     8
  0
VERTEX
  8
ガラス
 10
133.975
 20
-71.975
 70
     8
  0
VERTEX
  8
ガラス
 10
133.95
 20
-71.875
 70
     8
  0
VERTEX
  8
ガラス
 10
133.95
 20
-71.8
 70
     8
  0
VERTEX
  8
ガラス
 10
133.925
 20
-71.7
 70
     8
  0
VERTEX
  8
ガラス
 10
133.9
 20
-71.6
 70
     8
  0
SEQEND
  0
POLYLINE
  8
ガラス
  6
CONTINUOUS
 66
     1
 70
     4
  0
VERTEX
  8
ガラス
 10
133.9
 20
-71.6
 70
     8
  0
VERTEX
  8
ガラス
 10
133.95
 20
-71.625
 70
     8
  0
VERTEX
  8
ガラス
 10
134.0
 20
-71.65
 70
     8
  0
VERTEX
  8
ガラス
 10
134.075
 20
-71.675
 70
     8
  0
VERTEX
  8
ガラス
 10
134.125
 20
-71.7
 70
     8
  0
VERTEX
  8
ガラス
 10
134.175
 20
-71.725
 70
     8
  0
VERTEX
  8
ガラス
 10
134.25
 20
-71.75
 70
     8
  0
VERTEX
  8
ガラス
 10
134.3
 20
-71.775
 70
     8
  0
VERTEX
  8
ガラス
 10
134.35
 20
-71.8
 70
     8
  0
VERTEX
  8
ガラス
 10
134.4
 20
-71.825
 70
     8
  0
VERTEX
  8
ガラス
 10
134.475
 20
-71.825
 70
     8
  0
VERTEX
  8
ガラス
 10
134.525
 20
-71.85
 70
     8
  0
VERTEX
  8
ガラス
 10
134.575
 20
-71.875
 70
     8
  0
VERTEX
  8
ガラス
 10
134.65
 20
-71.9
 70
     8
  0
VERTEX
  8
ガラス
 10
134.7
 20
-71.925
 70
     8
  0
VERTEX
  8
ガラス
 10
134.75
 20
-71.925
 70
     8
  0
VERTEX
  8
ガラス
 10
134.825
 20
-71.95
 70
     8
  0
VERTEX
  8
ガラス
 10
134.875
 20
-71.975
 70
     8
  0
VERTEX
  8
ガラス
 10
134.925
 20
-72.0
 70
     8
  0
VERTEX
  8
ガラス
 10
135.0
 20
-72.0
 70
     8
  0
VERTEX
  8
ガラス
 10
135.05
 20
-72.025
 70
     8
  0
VERTEX
  8
ガラス
 10
135.1
 20
-72.025
 70
     8
  0
VERTEX
  8
ガラス
 10
135.175
 20
-72.05
 70
     8
  0
VERTEX
  8
ガラス
 10
135.225
 20
-72.075
 70
     8
  0
VERTEX
  8
ガラス
 10
135.3
 20
-72.075
 70
     8
  0
VERTEX
  8
ガラス
 10
135.35
 20
-72.1
 70
     8
  0
VERTEX
  8
ガラス
 10
135.4
 20
-72.1
 70
     8
  0
VERTEX
  8
ガラス
 10
135.475
 20
-72.1
 70
     8
  0
VERTEX
  8
ガラス
 10
135.525
 20
-72.125
 70
     8
  0
VERTEX
  8
ガラス
 10
135.6
 20
-72.125
 70
     8
  0
VERTEX
  8
ガラス
 10
135.65
 20
-72.125
 70
     8
  0
VERTEX
  8
ガラス
 10
135.725
 20
-72.15
 70
     8
  0
VERTEX
  8
ガラス
 10
135.775
 20
-72.15
 70
     8
  0
VERTEX
  8
ガラス
 10
135.825
 20
-72.15
 70
     8
  0
VERTEX
  8
ガラス
 10
135.9
 20
-72.175
 70
     8
  0
VERTEX
  8
ガラス
 10
135.95
 20
-72.175
 70
     8
  0
VERTEX
  8
ガラス
 10
136.025
 20
-72.175
 70
     8
  0
VERTEX
  8
ガラス
 10
136.075
 20
-72.175
 70
     8
  0
VERTEX
  8
ガラス
 10
136.15
 20
-72.2
 70
     8
  0
VERTEX
  8
ガラス
 10
136.2
 20
-72.2
 70
     8
  0
VERTEX
  8
ガラス
 10
136.275
 20
-72.2
 70
     8
  0
SEQEND
  0
ARC
  8
ガラス
  6
CONTINUOUS
 10
136.176781
 20
-73.142421
 40
0.955135
 50
263.993979
 51
443.993979
  0
ENDBLK
  0
BLOCK
  2
*GRP_0014
 70
    65
 10
0.0
 20
0.0
  0
POLYLINE
  8
ガラス
  6
CONTINUOUS
 66
     1
 70
     4
  0
VERTEX
  8
ガラス
 10
120.375
 20
-61.175
 70
     8
  0
VERTEX
  8
ガラス
 10
120.375
 20
-61.1
 70
     8
  0
VERTEX
  8
ガラス
 10
120.35
 20
-61.0
 70
     8
  0
VERTEX
  8
ガラス
 10
120.325
 20
-60.9
 70
     8
  0
VERTEX
  8
ガラス
 10
120.325
 20
-60.8
 70
     8
  0
VERTEX
  8
ガラス
 10
120.3
 20
-60.725
 70
     8
  0
VERTEX
  8
ガラス
 10
120.3
 20
-60.625
 70
     8
  0
VERTEX
  8
ガラス
 10
120.275
 20
-60.55
 70
     8
  0
VERTEX
  8
ガラス
 10
120.275
 20
-60.45
 70
     8
  0
VERTEX
  8
ガラス
 10
120.275
 20
-60.35
 70
     8
  0
VERTEX
  8
ガラス
 10
120.275
 20
-60.275
 70
     8
  0
VERTEX
  8
ガラス
 10
120.25
 20
-60.175
 70
     8
  0
VERTEX
  8
ガラス
 10
120.25
 20
-60.1
 70
     8
  0
VERTEX
  8
ガラス
 10
120.25
 20
-60.0
 70
     8
  0
VERTEX
  8
ガラス
 10
120.25
 20
-59.925
 70
     8
  0
VERTEX
  8
ガラス
 10
120.275
 20
-59.825
 70
     8
  0
VERTEX
  8
ガラス
 10
120.275
 20
-59.75
 70
     8
  0
VERTEX
  8
ガラス
 10
120.3
 20
-59.675
 70
     8
  0
VERTEX
  8
ガラス
 10
120.3
 20
-59.575
 70
     8
  0
VERTEX
  8
ガラス
 10
120.325
 20
-59.5
 70
     8
  0
VERTEX
  8
ガラス
 10
120.35
 20
-59.425
 70
     8
  0
VERTEX
  8
ガラス
 10
120.375
 20
-59.35
 70
     8
  0
VERTEX
  8
ガラス
 10
120.4
 20
-59.275
 70
     8
  0
VERTEX
  8
ガラス
 10
120.425
 20
-59.2
 70
     8
  0
VERTEX
  8
ガラス
 10
120.475
 20
-59.125
 70
     8
  0
VERTEX
  8
ガラス
 10
120.525
 20
-59.05
 70
     8
  0
VERTEX
  8
ガラス
 10
120.55
 20
-58.975
 70
     8
  0
VERTEX
  8
ガラス
 10
120.6
 20
-58.9
 70
     8
  0
VERTEX
  8
ガラス
 10
120.65
 20
-58.825
 70
     8
  0
VERTEX
  8
ガラス
 10
120.7
 20
-58.775
 70
     8
  0
VERTEX
  8
ガラス
 10
120.775
 20
-58.7
 70
     8
  0
VERTEX
  8
ガラス
 10
120.825
 20
-58.625
 70
     8
  0
VERTEX
  8
ガラス
 10
120.875
 20
-58.55
 70
     8
  0
VERTEX
  8
ガラス
 10
120.95
 20
-58.5
 70
     8
  0
VERTEX
  8
ガラス
 10
121.0
 20
-58.425
 70
     8
  0
VERTEX
  8
ガラス
 10
121.075
 20
-58.375
 70
     8
  0
VERTEX
  8
ガラス
 10
121.15
 20
-58.3
 70
     8
  0
VERTEX
  8
ガラス
 10
121.2
 20
-58.225
 70
     8
  0
VERTEX
  8
ガラス
 10
121.275
 20
-58.175
 70
     8
  0
VERTEX
  8
ガラス
 10
121.35
 20
-58.1
 70
     8
  0
VERTEX
  8
ガラス
 10
121.4
 20
-58.05
 70
     8
  0
SEQEND
  0
POLYLINE
  8
ガラス
  6
CONTINUOUS
 66
     1
 70
     4
  0
VERTEX
  8
ガラス
 10
121.4
 20
-58.05
 70
     8
  0
VERTEX
  8
ガラス
 10
121.425
 20
-58.1
 70
     8
  0
VERTEX
  8
ガラス
 10
121.425
 20
-58.15
 70
     8
  0
VERTEX
  8
ガラス
 10
121.425
 20
-58.225
 70
     8
  0
VERTEX
  8
ガラス
 10
121.45
 20
-58.275
 70
     8
  0
VERTEX
  8
ガラス
 10
121.45
 20
-58.35
 70
     8
  0
VERTEX
  8
ガラス
 10
121.475
 20
-58.4
 70
     8
  0
VERTEX
  8
ガラス
 10
121.475
 20
-58.475
 70
     8
  0
VERTEX
  8
ガラス
 10
121.475
 20
-58.525
 70
     8
  0
VERTEX
  8
ガラス
 10
121.5
 20
-58.575
 70
     8
  0
VERTEX
  8
ガラス
 10
121.5
 20
-58.65
 70
     8
  0
VERTEX
  8
ガラス
 10
121.525
 20
-58.7
 70
     8
  0
VERTEX
  8
ガラス
 10
121.525
 20
-58.775
 70
     8
  0
VERTEX
  8
ガラス
 10
121.55
 20
-58.825
 70
     8
  0
VERTEX
  8
ガラス
 10
121.55
 20
-58.9
 70
     8
  0
VERTEX
  8
ガラス
 10
121.575
 20
-58.95
 70
     8
  0
VERTEX
  8
ガラス
 10
121.575
 20
-59.0
 70
     8
  0
VERTEX
  8
ガラス
 10
121.6
 20
-59.075
 70
     8
  0
VERTEX
  8
ガラス
 10
121.625
 20
-59.125
 70
     8
  0
VERTEX
  8
ガラス
 10
121.625
 20
-59.175
 70
     8
  0
VERTEX
  8
ガラス
 10
121.65
 20
-59.25
 70
     8
  0
VERTEX
  8
ガラス
 10
121.675
 20
-59.3
 70
     8
  0
VERTEX
  8
ガラス
 10
121.675
 20
-59.35
 70
     8
  0
VERTEX
  8
ガラス
 10
121.7
 20
-59.425
 70
     8
  0
VERTEX
  8
ガラス
 10
121.725
 20
-59.475
 70
     8
  0
VERTEX
  8
ガラス
 10
121.75
 20
-59.525
 70
     8
  0
VERTEX
  8
ガラス
 10
121.775
 20
-59.6
 70
     8
  0
VERTEX
  8
ガラス
 10
121.775
 20
-59.65
 70
     8
  0
VERTEX
  8
ガラス
 10
121.8
 20
-59.7
 70
     8
  0
VERTEX
  8
ガラス
 10
121.825
 20
-59.75
 70
     8
  0
VERTEX
  8
ガラス
 10
121.85
 20
-59.825
 70
     8
  0
VERTEX
  8
ガラス
 10
121.875
 20
-59.875
 70
     8
  0
VERTEX
  8
ガラス
 10
121.9
 20
-59.925
 70
     8
  0
VERTEX
  8
ガラス
 10
121.925
 20
-59.975
 70
     8
  0
VERTEX
  8
ガラス
 10
121.95
 20
-60.05
 70
     8
  0
VERTEX
  8
ガラス
 10
121.975
 20
-60.1
 70
     8
  0
VERTEX
  8
ガラス
 10
122.0
 20
-60.15
 70
     8
  0
VERTEX
  8
ガラス
 10
122.025
 20
-60.2
 70
     8
  0
VERTEX
  8
ガラス
 10
122.05
 20
-60.275
 70
     8
  0
VERTEX
  8
ガラス
 10
122.075
 20
-60.325
 70
     8
  0
VERTEX
  8
ガラス
 10
122.1
 20
-60.375
 70
     8
  0
SEQEND
  0
ARC
  8
ガラス
  6
CONTINUOUS
 10
121.258338
 20
-60.765977
 40
0.955135
 50
204.896752
 51
384.896752
  0
ENDBLK
  0
BLOCK
  2
*GRP_0015
 70
    65
 10
0.0
 20
0.0
  0
POLYLINE
  8
ガラス
  6
CONTINUOUS
 66
     1
 70
     4
  0
VERTEX
  8
ガラス
 10
120.375
 20
-40.275
 70
     8
  0
VERTEX
  8
ガラス
 10
120.375
 20
-40.2
 70
     8
  0
VERTEX
  8
ガラス
 10
120.35
 20
-40.1
 70
     8
  0
VERTEX
  8
ガラス
 10
120.325
 20
-40.0
 70
     8
  0
VERTEX
  8
ガラス
 10
120.325
 20
-39.925
 70
     8
  0
VERTEX
  8
ガラス
 10
120.3
 20
-39.825
 70
     8
  0
VERTEX
  8
ガラス
 10
120.3
 20
-39.725
 70
     8
  0
VERTEX
  8
ガラス
 10
120.275
 20
-39.65
 70
     8
  0
VERTEX
  8
ガラス
 10
120.275
 20
-39.55
 70
     8
  0
VERTEX
  8
ガラス
 10
120.275
 20
-39.45
 70
     8
  0
VERTEX
  8
ガラス
 10
120.275
 20
-39.375
 70
     8
  0
VERTEX
  8
ガラス
 10
120.25
 20
-39.275
 70
     8
  0
VERTEX
  8
ガラス
 10
120.25
 20
-39.2
 70
     8
  0
VERTEX
  8
ガラス
 10
120.25
 20
-39.1
 70
     8
  0
VERTEX
  8
ガラス
 10
120.25
 20
-39.025
 70
     8
  0
VERTEX
  8
ガラス
 10
120.275
 20
-38.925
 70
     8
  0
VERTEX
  8
ガラス
 10
120.275
 20
-38.85
 70
     8
  0
VERTEX
  8
ガラス
 10
120.3
 20
-38.775
 70
     8
  0
VERTEX
  8
ガラス
 10
120.3
 20
-38.7
 70
     8
  0
VERTEX
  8
ガラス
 10
120.325
 20
-38.6
 70
     8
  0
VERTEX
  8
ガラス
 10
120.35
 20
-38.525
 70
     8
  0
VERTEX
  8
ガラス
 10
120.375
 20
-38.45
 70
     8
  0
VERTEX
  8
ガラス
 10
120.4
 20
-38.375
 70
     8
  0
VERTEX
  8
ガラス
 10
120.425
 20
-38.3
 70
     8
  0
VERTEX
  8
ガラス
 10
120.475
 20
-38.225
 70
     8
  0
VERTEX
  8
ガラス
 10
120.525
 20
-38.15
 70
     8
  0
VERTEX
  8
ガラス
 10
120.55
 20
-38.075
 70
     8
  0
VERTEX
  8
ガラス
 10
120.6
 20
-38.0
 70
     8
  0
VERTEX
  8
ガラス
 10
120.65
 20
-37.925
 70
     8
  0
VERTEX
  8
ガラス
 10
120.7
 20
-37.875
 70
     8
  0
VERTEX
  8
ガラス
 10
120.775
 20
-37.8
 70
     8
  0
VERTEX
  8
ガラス
 10
120.825
 20
-37.725
 70
     8
  0
VERTEX
  8
ガラス
 10
120.875
 20
-37.675
 70
     8
  0
VERTEX
  8
ガラス
 10
120.95
 20
-37.6
 70
     8
  0
VERTEX
  8
ガラス
 10
121.0
 20
-37.525
 70
     8
  0
VERTEX
  8
ガラス
 10
121.075
 20
-37.475
 70
     8
  0
VERTEX
  8
ガラス
 10
121.15
 20
-37.4
 70
     8
  0
VERTEX
  8
ガラス
 10
121.2
 20
-37.35
 70
     8
  0
VERTEX
  8
ガラス
 10
121.275
 20
-37.275
 70
     8
  0
VERTEX
  8
ガラス
 10
121.35
 20
-37.2
 70
     8
  0
VERTEX
  8
ガラス
 10
121.4
 20
-37.15
 70
     8
  0
SEQEND
  0
POLYLINE
  8
ガラス
  6
CONTINUOUS
 66
     1
 70
     4
  0
VERTEX
  8
ガラス
 10
121.4
 20
-37.15
 70
     8
  0
VERTEX
  8
ガラス
 10
121.425
 20
-37.2
 70
     8
  0
VERTEX
  8
ガラス
 10
121.425
 20
-37.275
 70
     8
  0
VERTEX
  8
ガラス
 10
121.425
 20
-37.325
 70
     8
  0
VERTEX
  8
ガラス
 10
121.45
 20
-37.4
 70
     8
  0
VERTEX
  8
ガラス
 10
121.45
 20
-37.45
 70
     8
  0
VERTEX
  8
ガラス
 10
121.475
 20
-37.5
 70
     8
  0
VERTEX
  8
ガラス
 10
121.475
 20
-37.575
 70
     8
  0
VERTEX
  8
ガラス
 10
121.475
 20
-37.625
 70
     8
  0
VERTEX
  8
ガラス
 10
121.5
 20
-37.7
 70
     8
  0
VERTEX
  8
ガラス
 10
121.5
 20
-37.75
 70
     8
  0
VERTEX
  8
ガラス
 10
121.525
 20
-37.825
 70
     8
  0
VERTEX
  8
ガラス
 10
121.525
 20
-37.875
 70
     8
  0
VERTEX
  8
ガラス
 10
121.55
 20
-37.925
 70
     8
  0
VERTEX
  8
ガラス
 10
121.55
 20
-38.0
 70
     8
  0
VERTEX
  8
ガラス
 10
121.575
 20
-38.05
 70
     8
  0
VERTEX
  8
ガラス
 10
121.575
 20
-38.1
 70
     8
  0
VERTEX
  8
ガラス
 10
121.6
 20
-38.175
 70
     8
  0
VERTEX
  8
ガラス
 10
121.625
 20
-38.225
 70
     8
  0
VERTEX
  8
ガラス
 10
121.625
 20
-38.3
 70
     8
  0
VERTEX
  8
ガラス
 10
121.65
 20
-38.35
 70
     8
  0
VERTEX
  8
ガラス
 10
121.675
 20
-38.4
 70
     8
  0
VERTEX
  8
ガラス
 10
121.675
 20
-38.475
 70
     8
  0
VERTEX
  8
ガラス
 10
121.7
 20
-38.525
 70
     8
  0
VERTEX
  8
ガラス
 10
121.725
 20
-38.575
 70
     8
  0
VERTEX
  8
ガラス
 10
121.75
 20
-38.625
 70
     8
  0
VERTEX
  8
ガラス
 10
121.775
 20
-38.7
 70
     8
  0
VERTEX
  8
ガラス
 10
121.775
 20
-38.75
 70
     8
  0
VERTEX
  8
ガラス
 10
121.8
 20
-38.8
 70
     8
  0
VERTEX
  8
ガラス
 10
121.825
 20
-38.875
 70
     8
  0
VERTEX
  8
ガラス
 10
121.85
 20
-38.925
 70
     8
  0
VERTEX
  8
ガラス
 10
121.875
 20
-38.975
 70
     8
  0
VERTEX
  8
ガラス
 10
121.9
 20
-39.025
 70
     8
  0
VERTEX
  8
ガラス
 10
121.925
 20
-39.1
 70
     8
  0
VERTEX
  8
ガラス
 10
121.95
 20
-39.15
 70
     8
  0
VERTEX
  8
ガラス
 10
121.975
 20
-39.2
 70
     8
  0
VERTEX
  8
ガラス
 10
122.0
 20
-39.25
 70
     8
  0
VERTEX
  8
ガラス
 10
122.025
 20
-39.325
 70
     8
  0
VERTEX
  8
ガラス
 10
122.05
 20
-39.375
 70
     8
  0
VERTEX
  8
ガラス
 10
122.075
 20
-39.425
 70
     8
  0
VERTEX
  8
ガラス
 10
122.1
 20
-39.475
 70
     8
  0
SEQEND
  0
ARC
  8
ガラス
  6
CONTINUOUS
 10
121.258338
 20
-39.870469
 40
0.955135
 50
204.896752
 51
384.896752
  0
ENDBLK
  0
BLOCK
  2
*GRP_0016
 70
    65
 10
0.0
 20
0.0
  0
POLYLINE
  8
ガラス
  6
CONTINUOUS
 66
     1
 70
     4
  0
VERTEX
  8
ガラス
 10
120.375
 20
-20.225
 70
     8
  0
VERTEX
  8
ガラス
 10
120.375
 20
-20.125
 70
     8
  0
VERTEX
  8
ガラス
 10
120.35
 20
-20.05
 70
     8
  0
VERTEX
  8
ガラス
 10
120.325
 20
-19.95
 70
     8
  0
VERTEX
  8
ガラス
 10
120.325
 20
-19.85
 70
     8
  0
VERTEX
  8
ガラス
 10
120.3
 20
-19.775
 70
     8
  0
VERTEX
  8
ガラス
 10
120.3
 20
-19.675
 70
     8
  0
VERTEX
  8
ガラス
 10
120.275
 20
-19.575
 70
     8
  0
VERTEX
  8
ガラス
 10
120.275
 20
-19.5
 70
     8
  0
VERTEX
  8
ガラス
 10
120.275
 20
-19.4
 70
     8
  0
VERTEX
  8
ガラス
 10
120.275
 20
-19.325
 70
     8
  0
VERTEX
  8
ガラス
 10
120.25
 20
-19.225
 70
     8
  0
VERTEX
  8
ガラス
 10
120.25
 20
-19.125
 70
     8
  0
VERTEX
  8
ガラス
 10
120.25
 20
-19.05
 70
     8
  0
VERTEX
  8
ガラス
 10
120.25
 20
-18.975
 70
     8
  0
VERTEX
  8
ガラス
 10
120.275
 20
-18.875
 70
     8
  0
VERTEX
  8
ガラス
 10
120.275
 20
-18.8
 70
     8
  0
VERTEX
  8
ガラス
 10
120.3
 20
-18.7
 70
     8
  0
VERTEX
  8
ガラス
 10
120.3
 20
-18.625
 70
     8
  0
VERTEX
  8
ガラス
 10
120.325
 20
-18.55
 70
     8
  0
VERTEX
  8
ガラス
 10
120.35
 20
-18.475
 70
     8
  0
VERTEX
  8
ガラス
 10
120.375
 20
-18.4
 70
     8
  0
VERTEX
  8
ガラス
 10
120.4
 20
-18.325
 70
     8
  0
VERTEX
  8
ガラス
 10
120.425
 20
-18.25
 70
     8
  0
VERTEX
  8
ガラス
 10
120.475
 20
-18.175
 70
     8
  0
VERTEX
  8
ガラス
 10
120.525
 20
-18.1
 70
     8
  0
VERTEX
  8
ガラス
 10
120.55
 20
-18.025
 70
     8
  0
VERTEX
  8
ガラス
 10
120.6
 20
-17.95
 70
     8
  0
VERTEX
  8
ガラス
 10
120.65
 20
-17.875
 70
     8
  0
VERTEX
  8
ガラス
 10
120.7
 20
-17.8
 70
     8
  0
VERTEX
  8
ガラス
 10
120.775
 20
-17.75
 70
     8
  0
VERTEX
  8
ガラス
 10
120.825
 20
-17.675
 70
     8
  0
VERTEX
  8
ガラス
 10
120.875
 20
-17.6
 70
     8
  0
VERTEX
  8
ガラス
 10
120.95
 20
-17.55
 70
     8
  0
VERTEX
  8
ガラス
 10
121.0
 20
-17.475
 70
     8
  0
VERTEX
  8
ガラス
 10
121.075
 20
-17.4
 70
     8
  0
VERTEX
  8
ガラス
 10
121.15
 20
-17.35
 70
     8
  0
VERTEX
  8
ガラス
 10
121.2
 20
-17.275
 70
     8
  0
VERTEX
  8
ガラス
 10
121.275
 20
-17.225
 70
     8
  0
VERTEX
  8
ガラス
 10
121.35
 20
-17.15
 70
     8
  0
VERTEX
  8
ガラス
 10
121.4
 20
-17.075
 70
     8
  0
SEQEND
  0
POLYLINE
  8
ガラス
  6
CONTINUOUS
 66
     1
 70
     4
  0
VERTEX
  8
ガラス
 10
121.4
 20
-17.075
 70
     8
  0
VERTEX
  8
ガラス
 10
121.425
 20
-17.15
 70
     8
  0
VERTEX
  8
ガラス
 10
121.425
 20
-17.2
 70
     8
  0
VERTEX
  8
ガラス
 10
121.425
 20
-17.275
 70
     8
  0
VERTEX
  8
ガラス
 10
121.45
 20
-17.325
 70
     8
  0
VERTEX
  8
ガラス
 10
121.45
 20
-17.4
 70
     8
  0
VERTEX
  8
ガラス
 10
121.475
 20
-17.45
 70
     8
  0
VERTEX
  8
ガラス
 10
121.475
 20
-17.5
 70
     8
  0
VERTEX
  8
ガラス
 10
121.475
 20
-17.575
 70
     8
  0
VERTEX
  8
ガラス
 10
121.5
 20
-17.625
 70
     8
  0
VERTEX
  8
ガラス
 10
121.5
 20
-17.7
 70
     8
  0
VERTEX
  8
ガラス
 10
121.525
 20
-17.75
 70
     8
  0
VERTEX
  8
ガラス
 10
121.525
 20
-17.825
 70
     8
  0
VERTEX
  8
ガラス
 10
121.55
 20
-17.875
 70
     8
  0
VERTEX
  8
ガラス
 10
121.55
 20
-17.925
 70
     8
  0
VERTEX
  8
ガラス
 10
121.575
 20
-18.0
 70
     8
  0
VERTEX
  8
ガラス
 10
121.575
 20
-18.05
 70
     8
  0
VERTEX
  8
ガラス
 10
121.6
 20
-18.1
 70
     8
  0
VERTEX
  8
ガラス
 10
121.625
 20
-18.175
 70
     8
  0
VERTEX
  8
ガラス
 10
121.625
 20
-18.225
 70
     8
  0
VERTEX
  8
ガラス
 10
121.65
 20
-18.3
 70
     8
  0
VERTEX
  8
ガラス
 10
121.675
 20
-18.35
 70
     8
  0
VERTEX
  8
ガラス
 10
121.675
 20
-18.4
 70
     8
  0
VERTEX
  8
ガラス
 10
121.7
 20
-18.45
 70
     8
  0
VERTEX
  8
ガラス
 10
121.725
 20
-18.525
 70
     8
  0
VERTEX
  8
ガラス
 10
121.75
 20
-18.575
 70
     8
  0
VERTEX
  8
ガラス
 10
121.775
 20
-18.625
 70
     8
  0
VERTEX
  8
ガラス
 10
121.775
 20
-18.7
 70
     8
  0
VERTEX
  8
ガラス
 10
121.8
 20
-18.75
 70
     8
  0
VERTEX
  8
ガラス
 10
121.825
 20
-18.8
 70
     8
  0
VERTEX
  8
ガラス
 10
121.85
 20
-18.85
 70
     8
  0
VERTEX
  8
ガラス
 10
121.875
 20
-18.925
 70
     8
  0
VERTEX
  8
ガラス
 10
121.9
 20
-18.975
 70
     8
  0
VERTEX
  8
ガラス
 10
121.925
 20
-19.025
 70
     8
  0
VERTEX
  8
ガラス
 10
121.95
 20
-19.075
 70
     8
  0
VERTEX
  8
ガラス
 10
121.975
 20
-19.15
 70
     8
  0
VERTEX
  8
ガラス
 10
122.0
 20
-19.2
 70
     8
  0
VERTEX
  8
ガラス
 10
122.025
 20
-19.25
 70
     8
  0
VERTEX
  8
ガラス
 10
122.05
 20
-19.3
 70
     8
  0
VERTEX
  8
ガラス
 10
122.075
 20
-19.375
 70
     8
  0
VERTEX
  8
ガラス
 10
122.1
 20
-19.425
 70
     8
  0
SEQEND
  0
ARC
  8
ガラス
  6
CONTINUOUS
 10
121.258338
 20
-19.810781
 40
0.955135
 50
204.896752
 51
384.896752
  0
ENDBLK
  0
BLOCK
  2
*GRP_0017
 70
    65
 10
0.0
 20
0.0
  0
POLYLINE
  8
ガラス
  6
CONTINUOUS
 66
     1
 70
     4
  0
VERTEX
  8
ガラス
 10
120.375
 20
2.175
 70
     8
  0
VERTEX
  8
ガラス
 10
120.375
 20
2.275
 70
     8
  0
VERTEX
  8
ガラス
 10
120.35
 20
2.35
 70
     8
  0
VERTEX
  8
ガラス
 10
120.325
 20
2.45
 70
     8
  0
VERTEX
  8
ガラス
 10
120.325
 20
2.55
 70
     8
  0
VERTEX
  8
ガラス
 10
120.3
 20
2.625
 70
     8
  0
VERTEX
  8
ガラス
 10
120.3
 20
2.725
 70
     8
  0
VERTEX
  8
ガラス
 10
120.275
 20
2.825
 70
     8
  0
VERTEX
  8
ガラス
 10
120.275
 20
2.9
 70
     8
  0
VERTEX
  8
ガラス
 10
120.275
 20
3.0
 70
     8
  0
VERTEX
  8
ガラス
 10
120.275
 20
3.075
 70
     8
  0
VERTEX
  8
ガラス
 10
120.25
 20
3.175
 70
     8
  0
VERTEX
  8
ガラス
 10
120.25
 20
3.275
 70
     8
  0
VERTEX
  8
ガラス
 10
120.25
 20
3.35
 70
     8
  0
VERTEX
  8
ガラス
 10
120.25
 20
3.425
 70
     8
  0
VERTEX
  8
ガラス
 10
120.275
 20
3.525
 70
     8
  0
VERTEX
  8
ガラス
 10
120.275
 20
3.6
 70
     8
  0
VERTEX
  8
ガラス
 10
120.3
 20
3.7
 70
     8
  0
VERTEX
  8
ガラス
 10
120.3
 20
3.775
 70
     8
  0
VERTEX
  8
ガラス
 10
120.325
 20
3.85
 70
     8
  0
VERTEX
  8
ガラス
 10
120.35
 20
3.925
 70
     8
  0
VERTEX
  8
ガラス
 10
120.375
 20
4.0
 70
     8
  0
VERTEX
  8
ガラス
 10
120.4
 20
4.075
 70
     8
  0
VERTEX
  8
ガラス
 10
120.425
 20
4.15
 70
     8
  0
VERTEX
  8
ガラス
 10
120.475
 20
4.225
 70
     8
  0
VERTEX
  8
ガラス
 10
120.525
 20
4.3
 70
     8
  0
VERTEX
  8
ガラス
 10
120.55
 20
4.375
 70
     8
  0
VERTEX
  8
ガラス
 10
120.6
 20
4.45
 70
     8
  0
VERTEX
  8
ガラス
 10
120.65
 20
4.525
 70
     8
  0
VERTEX
  8
ガラス
 10
120.7
 20
4.6
 70
     8
  0
VERTEX
  8
ガラス
 10
120.775
 20
4.65
 70
     8
  0
VERTEX
  8
ガラス
 10
120.825
 20
4.725
 70
     8
  0
VERTEX
  8
ガラス
 10
120.875
 20
4.8
 70
     8
  0
VERTEX
  8
ガラス
 10
120.95
 20
4.85
 70
     8
  0
VERTEX
  8
ガラス
 10
121.0
 20
4.925
 70
     8
  0
VERTEX
  8
ガラス
 10
121.075
 20
5.0
 70
     8
  0
VERTEX
  8
ガラス
 10
121.15
 20
5.05
 70
     8
  0
VERTEX
  8
ガラス
 10
121.2
 20
5.125
 70
     8
  0
VERTEX
  8
ガラス
 10
121.275
 20
5.175
 70
     8
  0
VERTEX
  8
ガラス
 10
121.35
 20
5.25
 70
     8
  0
VERTEX
  8
ガラス
 10
121.4
 20
5.325
 70
     8
  0
SEQEND
  0
POLYLINE
  8
ガラス
  6
CONTINUOUS
 66
     1
 70
     4
  0
VERTEX
  8
ガラス
 10
121.4
 20
5.325
 70
     8
  0
VERTEX
  8
ガラス
 10
121.425
 20
5.25
 70
     8
  0
VERTEX
  8
ガラス
 10
121.425
 20
5.2
 70
     8
  0
VERTEX
  8
ガラス
 10
121.425
 20
5.125
 70
     8
  0
VERTEX
  8
ガラス
 10
121.45
 20
5.075
 70
     8
  0
VERTEX
  8
ガラス
 10
121.45
 20
5.0
 70
     8
  0
VERTEX
  8
ガラス
 10
121.475
 20
4.95
 70
     8
  0
VERTEX
  8
ガラス
 10
121.475
 20
4.9
 70
     8
  0
VERTEX
  8
ガラス
 10
121.475
 20
4.825
 70
     8
  0
VERTEX
  8
ガラス
 10
121.5
 20
4.775
 70
     8
  0
VERTEX
  8
ガラス
 10
121.5
 20
4.7
 70
     8
  0
VERTEX
  8
ガラス
 10
121.525
 20
4.65
 70
     8
  0
VERTEX
  8
ガラス
 10
121.525
 20
4.575
 70
     8
  0
VERTEX
  8
ガラス
 10
121.55
 20
4.525
 70
     8
  0
VERTEX
  8
ガラス
 10
121.55
 20
4.475
 70
     8
  0
VERTEX
  8
ガラス
 10
121.575
 20
4.4
 70
     8
  0
VERTEX
  8
ガラス
 10
121.575
 20
4.35
 70
     8
  0
VERTEX
  8
ガラス
 10
121.6
 20
4.3
 70
     8
  0
VERTEX
  8
ガラス
 10
121.625
 20
4.225
 70
     8
  0
VERTEX
  8
ガラス
 10
121.625
 20
4.175
 70
     8
  0
VERTEX
  8
ガラス
 10
121.65
 20
4.1
 70
     8
  0
VERTEX
  8
ガラス
 10
121.675
 20
4.05
 70
     8
  0
VERTEX
  8
ガラス
 10
121.675
 20
4.0
 70
     8
  0
VERTEX
  8
ガラス
 10
121.7
 20
3.95
 70
     8
  0
VERTEX
  8
ガラス
 10
121.725
 20
3.875
 70
     8
  0
VERTEX
  8
ガラス
 10
121.75
 20
3.825
 70
     8
  0
VERTEX
  8
ガラス
 10
121.775
 20
3.775
 70
     8
  0
VERTEX
  8
ガラス
 10
121.775
 20
3.7
 70
     8
  0
VERTEX
  8
ガラス
 10
121.8
 20
3.65
 70
     8
  0
VERTEX
  8
ガラス
 10
121.825
 20
3.6
 70
     8
  0
VERTEX
  8
ガラス
 10
121.85
 20
3.55
 70
     8
  0
VERTEX
  8
ガラス
 10
121.875
 20
3.475
 70
     8
  0
VERTEX
  8
ガラス
 10
121.9
 20
3.425
 70
     8
  0
VERTEX
  8
ガラス
 10
121.925
 20
3.375
 70
     8
  0
VERTEX
  8
ガラス
 10
121.95
 20
3.325
 70
     8
  0
VERTEX
  8
ガラス
 10
121.975
 20
3.25
 70
     8
  0
VERTEX
  8
ガラス
 10
122.0
 20
3.2
 70
     8
  0
VERTEX
  8
ガラス
 10
122.025
 20
3.15
 70
     8
  0
VERTEX
  8
ガラス
 10
122.05
 20
3.1
 70
     8
  0
VERTEX
  8
ガラス
 10
122.075
 20
3.025
 70
     8
  0
VERTEX
  8
ガラス
 10
122.1
 20
2.975
 70
     8
  0
SEQEND
  0
ARC
  8
ガラス
  6
CONTINUOUS
 10
121.258338
 20
2.589204
 40
0.955135
 50
204.896752
 51
384.896752
  0
ENDBLK
  0
BLOCK
  2
*GRP_0018
 70
    65
 10
0.0
 20
0.0
  0
POLYLINE
  8
ガラス
  6
CONTINUOUS
 66
     1
 70
     4
  0
VERTEX
  8
ガラス
 10
120.375
 20
20.9
 70
     8
  0
VERTEX
  8
ガラス
 10
120.375
 20
21.0
 70
     8
  0
VERTEX
  8
ガラス
 10
120.35
 20
21.075
 70
     8
  0
VERTEX
  8
ガラス
 10
120.325
 20
21.175
 70
     8
  0
VERTEX
  8
ガラス
 10
120.325
 20
21.275
 70
     8
  0
VERTEX
  8
ガラス
 10
120.3
 20
21.35
 70
     8
  0
VERTEX
  8
ガラス
 10
120.3
 20
21.45
 70
     8
  0
VERTEX
  8
ガラス
 10
120.275
 20
21.55
 70
     8
  0
VERTEX
  8
ガラス
 10
120.275
 20
21.625
 70
     8
  0
VERTEX
  8
ガラス
 10
120.275
 20
21.725
 70
     8
  0
VERTEX
  8
ガラス
 10
120.275
 20
21.8
 70
     8
  0
VERTEX
  8
ガラス
 10
120.25
 20
21.9
 70
     8
  0
VERTEX
  8
ガラス
 10
120.25
 20
21.975
 70
     8
  0
VERTEX
  8
ガラス
 10
120.25
 20
22.075
 70
     8
  0
VERTEX
  8
ガラス
 10
120.25
 20
22.15
 70
     8
  0
VERTEX
  8
ガラス
 10
120.275
 20
22.25
 70
     8
  0
VERTEX
  8
ガラス
 10
120.275
 20
22.325
 70
     8
  0
VERTEX
  8
ガラス
 10
120.3
 20
22.4
 70
     8
  0
VERTEX
  8
ガラス
 10
120.3
 20
22.5
 70
     8
  0
VERTEX
  8
ガラス
 10
120.325
 20
22.575
 70
     8
  0
VERTEX
  8
ガラス
 10
120.35
 20
22.65
 70
     8
  0
VERTEX
  8
ガラス
 10
120.375
 20
22.725
 70
     8
  0
VERTEX
  8
ガラス
 10
120.4
 20
22.8
 70
     8
  0
VERTEX
  8
ガラス
 10
120.425
 20
22.875
 70
     8
  0
VERTEX
  8
ガラス
 10
120.475
 20
22.95
 70
     8
  0
VERTEX
  8
ガラス
 10
120.525
 20
23.025
 70
     8
  0
VERTEX
  8
ガラス
 10
120.55
 20
23.1
 70
     8
  0
VERTEX
  8
ガラス
 10
120.6
 20
23.175
 70
     8
  0
VERTEX
  8
ガラス
 10
120.65
 20
23.25
 70
     8
  0
VERTEX
  8
ガラス
 10
120.7
 20
23.325
 70
     8
  0
VERTEX
  8
ガラス
 10
120.775
 20
23.375
 70
     8
  0
VERTEX
  8
ガラス
 10
120.825
 20
23.45
 70
     8
  0
VERTEX
  8
ガラス
 10
120.875
 20
23.525
 70
     8
  0
VERTEX
  8
ガラス
 10
120.95
 20
23.575
 70
     8
  0
VERTEX
  8
ガラス
 10
121.0
 20
23.65
 70
     8
  0
VERTEX
  8
ガラス
 10
121.075
 20
23.725
 70
     8
  0
VERTEX
  8
ガラス
 10
121.15
 20
23.775
 70
     8
  0
VERTEX
  8
ガラス
 10
121.2
 20
23.85
 70
     8
  0
VERTEX
  8
ガラス
 10
121.275
 20
23.9
 70
     8
  0
VERTEX
  8
ガラス
 10
121.35
 20
23.975
 70
     8
  0
VERTEX
  8
ガラス
 10
121.4
 20
24.025
 70
     8
  0
SEQEND
  0
POLYLINE
  8
ガラス
  6
CONTINUOUS
 66
     1
 70
     4
  0
VERTEX
  8
ガラス
 10
121.4
 20
24.025
 70
     8
  0
VERTEX
  8
ガラス
 10
121.425
 20
23.975
 70
     8
  0
VERTEX
  8
ガラス
 10
121.425
 20
23.925
 70
     8
  0
VERTEX
  8
ガラス
 10
121.425
 20
23.85
 70
     8
  0
VERTEX
  8
ガラス
 10
121.45
 20
23.8
 70
     8
  0
VERTEX
  8
ガラス
 10
121.45
 20
23.725
 70
     8
  0
VERTEX
  8
ガラス
 10
121.475
 20
23.675
 70
     8
  0
VERTEX
  8
ガラス
 10
121.475
 20
23.6
 70
     8
  0
VERTEX
  8
ガラス
 10
121.475
 20
23.55
 70
     8
  0
VERTEX
  8
ガラス
 10
121.5
 20
23.5
 70
     8
  0
VERTEX
  8
ガラス
 10
121.5
 20
23.425
 70
     8
  0
VERTEX
  8
ガラス
 10
121.525
 20
23.375
 70
     8
  0
VERTEX
  8
ガラス
 10
121.525
 20
23.3
 70
     8
  0
VERTEX
  8
ガラス
 10
121.55
 20
23.25
 70
     8
  0
VERTEX
  8
ガラス
 10
121.55
 20
23.2
 70
     8
  0
VERTEX
  8
ガラス
 10
121.575
 20
23.125
 70
     8
  0
VERTEX
  8
ガラス
 10
121.575
 20
23.075
 70
     8
  0
VERTEX
  8
ガラス
 10
121.6
 20
23.0
 70
     8
  0
VERTEX
  8
ガラス
 10
121.625
 20
22.95
 70
     8
  0
VERTEX
  8
ガラス
 10
121.625
 20
22.9
 70
     8
  0
VERTEX
  8
ガラス
 10
121.65
 20
22.825
 70
     8
  0
VERTEX
  8
ガラス
 10
121.675
 20
22.775
 70
     8
  0
VERTEX
  8
ガラス
 10
121.675
 20
22.725
 70
     8
  0
VERTEX
  8
ガラス
 10
121.7
 20
22.65
 70
     8
  0
VERTEX
  8
ガラス
 10
121.725
 20
22.6
 70
     8
  0
VERTEX
  8
ガラス
 10
121.75
 20
22.55
 70
     8
  0
VERTEX
  8
ガラス
 10
121.775
 20
22.5
 70
     8
  0
VERTEX
  8
ガラス
 10
121.775
 20
22.425
 70
     8
  0
VERTEX
  8
ガラス
 10
121.8
 20
22.375
 70
     8
  0
VERTEX
  8
ガラス
 10
121.825
 20
22.325
 70
     8
  0
VERTEX
  8
ガラス
 10
121.85
 20
22.25
 70
     8
  0
VERTEX
  8
ガラス
 10
121.875
 20
22.2
 70
     8
  0
VERTEX
  8
ガラス
 10
121.9
 20
22.15
 70
     8
  0
VERTEX
  8
ガラス
 10
121.925
 20
22.1
 70
     8
  0
VERTEX
  8
ガラス
 10
121.95
 20
22.025
 70
     8
  0
VERTEX
  8
ガラス
 10
121.975
 20
21.975
 70
     8
  0
VERTEX
  8
ガラス
 10
122.0
 20
21.925
 70
     8
  0
VERTEX
  8
ガラス
 10
122.025
 20
21.875
 70
     8
  0
VERTEX
  8
ガラス
 10
122.05
 20
21.825
 70
     8
  0
VERTEX
  8
ガラス
 10
122.075
 20
21.75
 70
     8
  0
VERTEX
  8
ガラス
 10
122.1
 20
21.7
 70
     8
  0
SEQEND
  0
ARC
  8
ガラス
  6
CONTINUOUS
 10
121.258338
 20
21.311579
 40
0.955135
 50
204.896752
 51
384.896752
  0
ENDBLK
  0
BLOCK
  2
*GRP_0019
 70
    65
 10
0.0
 20
0.0
  0
LINE
  8
ゴム等
  6
CONTINUOUS
 10
33.06392
 20
-49.55177
 11
33.06392
 21
-45.551772
  0
LINE
  8
ゴム等
  6
CONTINUOUS
 10
33.06392
 20
-45.551772
 11
32.063923
 21
-45.551772
  0
LINE
  8
ゴム等
  6
CONTINUOUS
 10
33.06392
 20
-49.55177
 11
32.063923
 21
-49.55177
  0
LINE
  8
ゴム等
  6
CONTINUOUS
 10
32.063923
 20
-45.551772
 11
32.063923
 21
-41.551775
  0
LINE
  8
ゴム等
  6
CONTINUOUS
 10
32.063923
 20
-41.551775
 11
38.063923
 21
-41.551775
  0
LINE
  8
ゴム等
  6
CONTINUOUS
 10
38.063923
 20
-41.551775
 11
38.063923
 21
-54.551772
  0
LINE
  8
ゴム等
  6
CONTINUOUS
 10
38.063923
 20
-54.551772
 11
34.40447
 21
-54.551772
  0
LINE
  8
ゴム等
  6
CONTINUOUS
 10
32.063923
 20
-49.55177
 11
32.443197
 21
-53.533745
  0
LINE
  8
ゴム等
  6
CONTINUOUS
 10
32.443197
 20
-53.533745
 11
32.718147
 21
-53.507563
  0
ARC
  8
ゴム等
  6
CONTINUOUS
 10
33.313784
 20
-57.635397
 40
0.4
 50
181.441077
 51
364.310481
  0
LINE
  8
ゴム等
  6
CONTINUOUS
 10
32.913905
 20
-57.645455
 11
32.794722
 21
-54.31148
  0
LINE
  8
ゴム等
  6
CONTINUOUS
 10
32.718147
 20
-53.507563
 11
32.794722
 21
-54.311473
  0
ARC
  8
ゴム等
  6
CONTINUOUS
 10
34.404474
 20
-56.551773
 40
2.0
 50
90.0
 51
107.753828
  0
LINE
  8
ゴム等
  6
CONTINUOUS
 10
33.712647
 20
-57.60533
 11
33.794615
 21
-54.647023
  0
INSERT
  2
*HAT_0001
  8
ゴム等
 10
0.0
 20
0.0
  0
ENDBLK
  0
BLOCK
  2
*GRP_0020
 70
    65
 10
0.0
 20
0.0
  0
LINE
  8
ゴム等
  6
CONTINUOUS
 10
-69.9361
 20
18.239042
 11
-69.9361
 21
16.739057
  0
LINE
  8
ゴム等
  6
CONTINUOUS
 10
-64.436103
 20
16.73905
 11
-69.9361
 21
16.739057
  0
LINE
  8
ゴム等
  6
CONTINUOUS
 10
-63.436097
 20
8.239053
 11
-63.436105
 21
15.739045
  0
LINE
  8
ゴム等
  6
CONTINUOUS
 10
-64.436103
 20
16.73905
 11
-63.436105
 21
15.739045
  0
LINE
  8
ゴム等
  6
CONTINUOUS
 10
-69.9361
 20
18.239042
 11
-71.4361
 21
18.239057
  0
LINE
  8
ゴム等
  6
CONTINUOUS
 10
-71.4361
 20
18.239057
 11
-71.4361
 21
8.239053
  0
LINE
  8
ゴム等
  6
CONTINUOUS
 10
-63.436097
 20
8.239053
 11
-71.4361
 21
8.239053
  0
LINE
  8
ゴム等
  6
CONTINUOUS
 10
-71.4361
 20
17.2588
 11
-70.45585
 21
18.23905
  0
LINE
  8
ゴム等
  6
CONTINUOUS
 10
-71.4361
 20
15.844592
 11
-69.936093
 21
17.344592
  0
LINE
  8
ゴム等
  6
CONTINUOUS
 10
-71.4361
 20
14.430378
 11
-69.12742
 21
16.739057
  0
LINE
  8
ゴム等
  6
CONTINUOUS
 10
-71.436093
 20
13.01617
 11
-67.713213
 21
16.739057
  0
LINE
  8
ゴム等
  6
CONTINUOUS
 10
-71.4361
 20
11.601963
 11
-66.298998
 21
16.73905
  0
LINE
  8
ゴム等
  6
CONTINUOUS
 10
-71.4361
 20
10.18774
 11
-64.884782
 21
16.73905
  0
LINE
  8
ゴム等
  6
CONTINUOUS
 10
-71.4361
 20
8.773532
 11
-63.953335
 21
16.25629
  0
LINE
  8
ゴム等
  6
CONTINUOUS
 10
-70.556365
 20
8.239053
 11
-63.436105
 21
15.359312
  0
LINE
  8
ゴム等
  6
CONTINUOUS
 10
-69.14215
 20
8.239053
 11
-63.436105
 21
13.94509
  0
LINE
  8
ゴム等
  6
CONTINUOUS
 10
-67.727935
 20
8.239045
 11
-63.436105
 21
12.530875
  0
LINE
  8
ゴム等
  6
CONTINUOUS
 10
-66.313713
 20
8.239053
 11
-63.436097
 21
11.11666
  0
LINE
  8
ゴム等
  6
CONTINUOUS
 10
-64.899505
 20
8.239045
 11
-63.43609
 21
9.702453
  0
ENDBLK
  0
BLOCK
  2
*GRP_0021
 70
    65
 10
0.0
 20
0.0
  0
LINE
  8
ボルト／ビス
  6
CONTINUOUS
 10
-31.936067
 20
-11.551805
 11
-31.436072
 21
-12.0518
  0
LINE
  8
ボルト／ビス
  6
CONTINUOUS
 10
-27.93607
 20
-11.551805
 11
-28.436072
 21
-12.0518
  0
LINE
  8
ボルト／ビス
  6
CONTINUOUS
 10
-31.436072
 20
-12.0518
 11
-28.436072
 21
-12.0518
  0
LINE
  8
ボルト／ビス
  6
CONTINUOUS
 10
-31.936067
 20
-11.551805
 11
-27.93607
 21
-11.551805
  0
LINE
  8
ボルト／ビス
  6
CONTINUOUS
 10
-31.936067
 20
-11.551805
 11
-31.936067
 21
-7.8518
  0
LINE
  8
ボルト／ビス
  6
CONTINUOUS
 10
-31.436072
 20
-12.0518
 11
-31.436072
 21
-7.8518
  0
LINE
  8
ボルト／ビス
  6
CONTINUOUS
 10
-28.436072
 20
-12.0518
 11
-28.436072
 21
-7.8518
  0
LINE
  8
ボルト／ビス
  6
CONTINUOUS
 10
-27.93607
 20
-11.551805
 11
-27.93607
 21
-7.8518
  0
LINE
  8
ボルト／ビス
  6
CONTINUOUS
 10
-31.936067
 20
-7.8518
 11
-27.93607
 21
-7.8518
  0
LINE
  8
ボルト／ビス
  6
CONTINUOUS
 10
-32.936072
 20
-6.0518
 11
-31.936067
 21
-7.8518
  0
LINE
  8
ボルト／ビス
  6
CONTINUOUS
 10
-32.936072
 20
-6.0518
 11
-26.936072
 21
-6.0518
  0
LINE
  8
ボルト／ビス
  6
CONTINUOUS
 10
-26.936072
 20
-6.0518
 11
-27.93607
 21
-7.8518
  0
LINE
  8
ボルト／ビス
  6
CONTINUOUS
 10
-29.936072
 20
-13.632275
 11
-29.936072
 21
-4.56827
  0
ENDBLK
  0
BLOCK
  2
*GRP_0022
 70
    65
 10
0.0
 20
0.0
  0
LINE
  8
ボルト／ビス
  6
CONTINUOUS
 10
24.06392
 20
-46.951805
 11
24.563923
 21
-46.45181
  0
LINE
  8
ボルト／ビス
  6
CONTINUOUS
 10
28.063918
 20
-46.951805
 11
27.563923
 21
-46.45181
  0
LINE
  8
ボルト／ビス
  6
CONTINUOUS
 10
24.563923
 20
-46.45181
 11
27.563923
 21
-46.45181
  0
LINE
  8
ボルト／ビス
  6
CONTINUOUS
 10
24.06392
 20
-46.951805
 11
28.063918
 21
-46.951805
  0
LINE
  8
ボルト／ビス
  6
CONTINUOUS
 10
24.06392
 20
-46.951805
 11
24.06392
 21
-50.65181
  0
LINE
  8
ボルト／ビス
  6
CONTINUOUS
 10
24.563923
 20
-46.45181
 11
24.563923
 21
-50.65181
  0
LINE
  8
ボルト／ビス
  6
CONTINUOUS
 10
27.563923
 20
-46.45181
 11
27.563923
 21
-50.65181
  0
LINE
  8
ボルト／ビス
  6
CONTINUOUS
 10
28.063918
 20
-46.951805
 11
28.063918
 21
-50.65181
  0
LINE
  8
ボルト／ビス
  6
CONTINUOUS
 10
24.06392
 20
-50.65181
 11
28.063918
 21
-50.65181
  0
LINE
  8
ボルト／ビス
  6
CONTINUOUS
 10
23.063923
 20
-52.45181
 11
24.06392
 21
-50.65181
  0
LINE
  8
ボルト／ビス
  6
CONTINUOUS
 10
23.063923
 20
-52.45181
 11
29.063923
 21
-52.45181
  0
LINE
  8
ボルト／ビス
  6
CONTINUOUS
 10
29.063923
 20
-52.45181
 11
28.063918
 21
-50.65181
  0
LINE
  8
ボルト／ビス
  6
CONTINUOUS
 10
26.063923
 20
-44.871335
 11
26.063923
 21
-53.93534
  0
ENDBLK
  0
BLOCK
  2
*GRP_0023
 70
    65
 10
0.0
 20
0.0
  0
LINE
  8
ボルト／ビス
  6
CONTINUOUS
 10
30.06248
 20
-32.051818
 11
30.562483
 21
-32.55182
  0
LINE
  8
ボルト／ビス
  6
CONTINUOUS
 10
30.06248
 20
-36.051815
 11
30.562483
 21
-35.55182
  0
LINE
  8
ボルト／ビス
  6
CONTINUOUS
 10
30.562483
 20
-32.55182
 11
30.562483
 21
-35.55182
  0
LINE
  8
ボルト／ビス
  6
CONTINUOUS
 10
30.06248
 20
-32.051818
 11
30.06248
 21
-36.051815
  0
LINE
  8
ボルト／ビス
  6
CONTINUOUS
 10
30.06248
 20
-32.051818
 11
26.362483
 21
-32.051818
  0
LINE
  8
ボルト／ビス
  6
CONTINUOUS
 10
30.562483
 20
-32.55182
 11
26.362483
 21
-32.55182
  0
LINE
  8
ボルト／ビス
  6
CONTINUOUS
 10
30.562483
 20
-35.55182
 11
26.362483
 21
-35.55182
  0
LINE
  8
ボルト／ビス
  6
CONTINUOUS
 10
30.06248
 20
-36.051815
 11
26.362483
 21
-36.051815
  0
LINE
  8
ボルト／ビス
  6
CONTINUOUS
 10
26.362483
 20
-32.051818
 11
26.362483
 21
-36.051815
  0
LINE
  8
ボルト／ビス
  6
CONTINUOUS
 10
24.562483
 20
-31.05182
 11
26.362483
 21
-32.051818
  0
LINE
  8
ボルト／ビス
  6
CONTINUOUS
 10
24.562483
 20
-31.05182
 11
24.562483
 21
-37.05182
  0
LINE
  8
ボルト／ビス
  6
CONTINUOUS
 10
24.562483
 20
-37.05182
 11
26.362483
 21
-36.051815
  0
LINE
  8
ボルト／ビス
  6
CONTINUOUS
 10
32.142958
 20
-34.05182
 11
23.078953
 21
-34.05182
  0
ENDBLK
  0
BLOCK
  2
*GRP_0024
 70
    65
 10
0.0
 20
0.0
  0
LINE
  8
ボルト／ビス
  6
CONTINUOUS
 10
38.563198
 20
-30.051822
 11
39.063192
 21
-30.551825
  0
LINE
  8
ボルト／ビス
  6
CONTINUOUS
 10
42.563195
 20
-30.051822
 11
42.063192
 21
-30.551825
  0
LINE
  8
ボルト／ビス
  6
CONTINUOUS
 10
39.063192
 20
-30.551825
 11
42.063192
 21
-30.551825
  0
LINE
  8
ボルト／ビス
  6
CONTINUOUS
 10
38.563198
 20
-30.051822
 11
42.563195
 21
-30.051822
  0
LINE
  8
ボルト／ビス
  6
CONTINUOUS
 10
38.563198
 20
-30.051822
 11
38.563198
 21
-26.351825
  0
LINE
  8
ボルト／ビス
  6
CONTINUOUS
 10
39.063192
 20
-30.551825
 11
39.063192
 21
-26.351825
  0
LINE
  8
ボルト／ビス
  6
CONTINUOUS
 10
42.063192
 20
-30.551825
 11
42.063192
 21
-26.351825
  0
LINE
  8
ボルト／ビス
  6
CONTINUOUS
 10
42.563195
 20
-30.051822
 11
42.563195
 21
-26.351825
  0
LINE
  8
ボルト／ビス
  6
CONTINUOUS
 10
38.563198
 20
-26.351825
 11
42.563195
 21
-26.351825
  0
LINE
  8
ボルト／ビス
  6
CONTINUOUS
 10
37.563192
 20
-24.551825
 11
38.563198
 21
-26.351825
  0
LINE
  8
ボルト／ビス
  6
CONTINUOUS
 10
37.563192
 20
-24.551825
 11
43.563192
 21
-24.551825
  0
LINE
  8
ボルト／ビス
  6
CONTINUOUS
 10
43.563192
 20
-24.551825
 11
42.563195
 21
-26.351825
  0
LINE
  8
ボルト／ビス
  6
CONTINUOUS
 10
40.563192
 20
-32.1323
 11
40.563192
 21
-23.068295
  0
ENDBLK
  0
BLOCK
  2
*GRP_0025
 70
    65
 10
0.0
 20
0.0
  0
LINE
  8
ボルト／ビス
  6
CONTINUOUS
 10
104.813907
 20
-6.3518
 11
108.813905
 21
-6.3518
  0
LINE
  8
ボルト／ビス
  6
CONTINUOUS
 10
103.813903
 20
-4.5518
 11
104.813907
 21
-6.3518
  0
LINE
  8
ボルト／ビス
  6
CONTINUOUS
 10
103.813903
 20
-4.5518
 11
109.813903
 21
-4.5518
  0
LINE
  8
ボルト／ビス
  6
CONTINUOUS
 10
109.813903
 20
-4.5518
 11
108.813905
 21
-6.3518
  0
LINE
  8
ボルト／ビス
  6
CONTINUOUS
 10
106.813903
 20
-3.06827
 11
106.813903
 21
-13.430832
  0
LINE
  8
ボルト／ビス
  6
CONTINUOUS
 10
104.813907
 20
-12.0518
 11
105.313903
 21
-12.551803
  0
LINE
  8
ボルト／ビス
  6
CONTINUOUS
 10
108.813905
 20
-12.0518
 11
108.313903
 21
-12.551803
  0
LINE
  8
ボルト／ビス
  6
CONTINUOUS
 10
105.313903
 20
-12.551803
 11
108.313903
 21
-12.551803
  0
LINE
  8
ボルト／ビス
  6
CONTINUOUS
 10
104.813907
 20
-12.0518
 11
108.813905
 21
-12.0518
  0
LINE
  8
ボルト／ビス
  6
CONTINUOUS
 10
105.313903
 20
-6.3518
 11
105.313903
 21
-12.551803
  0
LINE
  8
ボルト／ビス
  6
CONTINUOUS
 10
108.313903
 20
-6.3518
 11
108.313903
 21
-12.551803
  0
LINE
  8
ボルト／ビス
  6
CONTINUOUS
 10
108.813905
 20
-6.3518
 11
108.813905
 21
-12.0518
  0
LINE
  8
ボルト／ビス
  6
CONTINUOUS
 10
104.813907
 20
-6.3518
 11
104.813907
 21
-12.0518
  0
ENDBLK
  0
BLOCK
  2
*GRP_0026
 70
    65
 10
0.0
 20
0.0
  0
LINE
  8
ボルト／ビス
  6
CONTINUOUS
 10
122.263903
 20
-50.551775
 11
122.263903
 21
-54.55178
  0
LINE
  8
ボルト／ビス
  6
CONTINUOUS
 10
124.063903
 20
-49.551778
 11
122.263903
 21
-50.551775
  0
LINE
  8
ボルト／ビス
  6
CONTINUOUS
 10
124.063903
 20
-49.551778
 11
124.063903
 21
-55.551778
  0
LINE
  8
ボルト／ビス
  6
CONTINUOUS
 10
124.063903
 20
-55.551778
 11
122.263903
 21
-54.55178
  0
LINE
  8
ボルト／ビス
  6
CONTINUOUS
 10
125.54744
 20
-52.551778
 11
115.184878
 21
-52.551778
  0
LINE
  8
ボルト／ビス
  6
CONTINUOUS
 10
116.563903
 20
-50.551775
 11
116.063907
 21
-51.051778
  0
LINE
  8
ボルト／ビス
  6
CONTINUOUS
 10
116.563903
 20
-54.55178
 11
116.063907
 21
-54.051778
  0
LINE
  8
ボルト／ビス
  6
CONTINUOUS
 10
116.063907
 20
-51.051778
 11
116.063907
 21
-54.051778
  0
LINE
  8
ボルト／ビス
  6
CONTINUOUS
 10
116.563903
 20
-50.551775
 11
116.563903
 21
-54.55178
  0
LINE
  8
ボルト／ビス
  6
CONTINUOUS
 10
122.263903
 20
-51.051778
 11
116.063907
 21
-51.051778
  0
LINE
  8
ボルト／ビス
  6
CONTINUOUS
 10
122.263903
 20
-54.051778
 11
116.063907
 21
-54.051778
  0
LINE
  8
ボルト／ビス
  6
CONTINUOUS
 10
122.263903
 20
-54.55178
 11
116.563903
 21
-54.55178
  0
LINE
  8
ボルト／ビス
  6
CONTINUOUS
 10
122.263903
 20
-50.551775
 11
116.563903
 21
-50.551775
  0
ENDBLK
  0
BLOCK
  2
*GRP_0027
 70
    65
 10
0.0
 20
0.0
  0
INSERT
  2
M8横横
  8
型材断面
  6
CONTINUOUS
 10
-43.936045
 20
-32.351757
 50
90.0
 42
-1.0
  0
INSERT
  2
M8横
  8
ゴム等
  6
CONTINUOUS
 10
-52.136072
 20
-32.351757
 50
90.0
  0
INSERT
  2
*GRP_0047
  8
ゴム等
  6
CONTINUOUS
 10
0.0
 20
0.0
  0
LINE
  8
ボルト／ビス
  6
CONTINUOUS
 10
-58.436042
 20
-28.35176
 11
-58.936045
 21
-28.851763
  0
LINE
  8
ボルト／ビス
  6
CONTINUOUS
 10
-58.936045
 20
-35.85176
 11
-58.436042
 21
-36.351763
  0
LINE
  8
ボルト／ビス
  6
CONTINUOUS
 10
-58.436042
 20
-36.351763
 11
-58.436042
 21
-28.35176
  0
LINE
  8
ボルト／ビス
  6
CONTINUOUS
 10
-58.936045
 20
-35.85176
 11
-58.936045
 21
-28.851763
  0
LINE
  8
ボルト／ビス
  6
CONTINUOUS
 10
-43.936045
 20
-28.35176
 11
-48.436067
 21
-28.35176
  0
LINE
  8
ボルト／ビス
  6
CONTINUOUS
 10
-43.936045
 20
-28.851763
 11
-48.436067
 21
-28.851763
  0
LINE
  8
ボルト／ビス
  6
CONTINUOUS
 10
-43.936045
 20
-35.85176
 11
-48.436067
 21
-35.85176
  0
LINE
  8
ボルト／ビス
  6
CONTINUOUS
 10
-43.936045
 20
-36.351763
 11
-48.436067
 21
-36.351763
  0
LINE
  8
ボルト／ビス
  6
CONTINUOUS
 10
-58.936045
 20
-28.851763
 11
-57.63607
 21
-28.851763
  0
LINE
  8
ボルト／ビス
  6
CONTINUOUS
 10
-58.436042
 20
-28.35176
 11
-57.63607
 21
-28.35176
  0
LINE
  8
ボルト／ビス
  6
CONTINUOUS
 10
-58.436042
 20
-36.351763
 11
-57.63607
 21
-36.351763
  0
LINE
  8
ボルト／ビス
  6
CONTINUOUS
 10
-58.936045
 20
-35.85176
 11
-57.63607
 21
-35.85176
  0
ENDBLK
  0
BLOCK
  2
*GRP_0028
 70
    65
 10
0.0
 20
0.0
  0
INSERT
  2
M8横横
  8
型材断面
  6
CONTINUOUS
 10
-43.936045
 20
-32.351757
 50
90.0
 42
-1.0
  0
INSERT
  2
M8横
  8
ゴム等
  6
CONTINUOUS
 10
-52.136072
 20
-32.351757
 50
90.0
  0
INSERT
  2
*GRP_0048
  8
ゴム等
  6
CONTINUOUS
 10
0.0
 20
0.0
  0
LINE
  8
ボルト／ビス
  6
CONTINUOUS
 10
-58.436042
 20
-28.35176
 11
-58.936045
 21
-28.851763
  0
LINE
  8
ボルト／ビス
  6
CONTINUOUS
 10
-58.936045
 20
-35.85176
 11
-58.436042
 21
-36.351763
  0
LINE
  8
ボルト／ビス
  6
CONTINUOUS
 10
-58.436042
 20
-36.351763
 11
-58.436042
 21
-28.35176
  0
LINE
  8
ボルト／ビス
  6
CONTINUOUS
 10
-58.936045
 20
-35.85176
 11
-58.936045
 21
-28.851763
  0
LINE
  8
ボルト／ビス
  6
CONTINUOUS
 10
-43.936045
 20
-28.35176
 11
-48.436067
 21
-28.35176
  0
LINE
  8
ボルト／ビス
  6
CONTINUOUS
 10
-43.936045
 20
-28.851763
 11
-48.436067
 21
-28.851763
  0
LINE
  8
ボルト／ビス
  6
CONTINUOUS
 10
-43.936045
 20
-35.85176
 11
-48.436067
 21
-35.85176
  0
LINE
  8
ボルト／ビス
  6
CONTINUOUS
 10
-43.936045
 20
-36.351763
 11
-48.436067
 21
-36.351763
  0
LINE
  8
ボルト／ビス
  6
CONTINUOUS
 10
-58.936045
 20
-28.851763
 11
-57.63607
 21
-28.851763
  0
LINE
  8
ボルト／ビス
  6
CONTINUOUS
 10
-58.436042
 20
-28.35176
 11
-57.63607
 21
-28.35176
  0
LINE
  8
ボルト／ビス
  6
CONTINUOUS
 10
-58.436042
 20
-36.351763
 11
-57.63607
 21
-36.351763
  0
LINE
  8
ボルト／ビス
  6
CONTINUOUS
 10
-58.936045
 20
-35.85176
 11
-57.63607
 21
-35.85176
  0
ENDBLK
  0
BLOCK
  2
*GRP_0029
 70
    65
 10
0.0
 20
0.0
  0
ARC
  8
ボルト／ビス
  6
CONTINUOUS
 10
-64.431076
 20
-31.051804
 40
1.0
 50
270.0
 51
360.0
  0
LINE
  8
ボルト／ビス
  6
CONTINUOUS
 10
-63.43108
 20
-24.0518
 11
-63.43108
 21
-31.051797
  0
ARC
  8
ボルト／ビス
  6
CONTINUOUS
 10
-64.431076
 20
-24.051804
 40
1.0
 50
0.0
 51
90.0
  0
LINE
  8
ボルト／ビス
  6
CONTINUOUS
 10
-73.93108
 20
-22.5518
 11
-73.431077
 21
-22.5518
  0
LINE
  8
ボルト／ビス
  6
CONTINUOUS
 10
-73.93108
 20
-32.551797
 11
-73.431077
 21
-32.551797
  0
LINE
  8
ボルト／ビス
  6
CONTINUOUS
 10
-73.93108
 20
-22.5518
 11
-73.93108
 21
-32.551797
  0
LINE
  8
ボルト／ビス
  6
CONTINUOUS
 10
-73.431077
 20
-22.5518
 11
-73.431077
 21
-32.551797
  0
LINE
  8
ボルト／ビス
  6
CONTINUOUS
 10
-64.431077
 20
-23.051803
 11
-70.431077
 21
-23.051803
  0
LINE
  8
ボルト／ビス
  6
CONTINUOUS
 10
-71.931077
 20
-23.051803
 11
-73.431077
 21
-23.051803
  0
LINE
  8
ボルト／ビス
  6
CONTINUOUS
 10
-73.431077
 20
-32.051803
 11
-71.931077
 21
-32.051803
  0
LINE
  8
ボルト／ビス
  6
CONTINUOUS
 10
-70.431077
 20
-32.051803
 11
-64.431077
 21
-32.051803
  0
LINE
  8
ボルト／ビス
  6
CONTINUOUS
 10
-71.931077
 20
-21.8018
 11
-71.931077
 21
-27.551803
  0
ARC
  8
ボルト／ビス
  6
CONTINUOUS
 10
-71.181076
 20
-21.801804
 40
0.75
 50
90.0
 51
180.0
  0
LINE
  8
ボルト／ビス
  6
CONTINUOUS
 10
-71.181077
 20
-21.0518
 11
-71.181077
 21
-21.0518
  0
LINE
  8
ボルト／ビス
  6
CONTINUOUS
 10
-70.431077
 20
-21.8018
 11
-70.431077
 21
-27.551803
  0
ARC
  8
ボルト／ビス
  6
CONTINUOUS
 10
-71.181076
 20
-21.801804
 40
0.75
 50
0.0
 51
90.0
  0
LINE
  8
ボルト／ビス
  6
CONTINUOUS
 10
-71.931077
 20
-33.301797
 11
-71.931077
 21
-27.551803
  0
ARC
  8
ボルト／ビス
  6
CONTINUOUS
 10
-71.181076
 20
-33.301804
 40
0.75
 50
180.0
 51
270.0
  0
LINE
  8
ボルト／ビス
  6
CONTINUOUS
 10
-71.181077
 20
-34.051797
 11
-71.181077
 21
-34.051797
  0
LINE
  8
ボルト／ビス
  6
CONTINUOUS
 10
-70.431077
 20
-33.301797
 11
-70.431077
 21
-27.551803
  0
ARC
  8
ボルト／ビス
  6
CONTINUOUS
 10
-71.181076
 20
-33.301804
 40
0.75
 50
270.0
 51
360.0
  0
ENDBLK
  0
BLOCK
  2
*GRP_0030
 70
    65
 10
0.0
 20
0.0
  0
LINE
  8
ボルト／ビス
  6
CONTINUOUS
 10
-69.43609
 20
-7.26095
 11
-65.436093
 21
-7.26095
  0
LINE
  8
ボルト／ビス
  6
CONTINUOUS
 10
-70.436095
 20
-9.06095
 11
-69.43609
 21
-7.26095
  0
LINE
  8
ボルト／ビス
  6
CONTINUOUS
 10
-70.436095
 20
-9.06095
 11
-64.436095
 21
-9.06095
  0
LINE
  8
ボルト／ビス
  6
CONTINUOUS
 10
-64.436095
 20
-9.06095
 11
-65.436093
 21
-7.26095
  0
LINE
  8
ボルト／ビス
  6
CONTINUOUS
 10
-67.436095
 20
-10.54448
 11
-67.436095
 21
2.0578
  0
LINE
  8
ボルト／ビス
  6
CONTINUOUS
 10
-69.43609
 20
0.43906
 11
-68.936095
 21
0.939048
  0
LINE
  8
ボルト／ビス
  6
CONTINUOUS
 10
-65.436093
 20
0.43906
 11
-65.936095
 21
0.939048
  0
LINE
  8
ボルト／ビス
  6
CONTINUOUS
 10
-68.936095
 20
0.939048
 11
-65.936095
 21
0.939048
  0
LINE
  8
ボルト／ビス
  6
CONTINUOUS
 10
-69.43609
 20
0.43906
 11
-65.436093
 21
0.43906
  0
LINE
  8
ボルト／ビス
  6
CONTINUOUS
 10
-65.936095
 20
-7.26095
 11
-65.936095
 21
0.939048
  0
LINE
  8
ボルト／ビス
  6
CONTINUOUS
 10
-68.936095
 20
-7.26095
 11
-68.936095
 21
0.939048
  0
LINE
  8
ボルト／ビス
  6
CONTINUOUS
 10
-69.43609
 20
-7.26095
 11
-69.43609
 21
0.43906
  0
LINE
  8
ボルト／ビス
  6
CONTINUOUS
 10
-65.436093
 20
-7.26095
 11
-65.436093
 21
0.43906
  0
ENDBLK
  0
BLOCK
  2
*GRP_0031
 70
    65
 10
0.0
 20
0.0
  0
LINE
  8
ボルト／ビス
  6
CONTINUOUS
 10
-77.931077
 20
-38.551805
 11
-79.93108
 21
-38.551805
  0
LINE
  8
ボルト／ビス
  6
CONTINUOUS
 10
-79.93108
 20
-38.551805
 11
-79.93108
 21
-16.5518
  0
LINE
  8
ボルト／ビス
  6
CONTINUOUS
 10
-79.93108
 20
-16.5518
 11
-77.931077
 21
-16.5518
  0
LINE
  8
ボルト／ビス
  6
CONTINUOUS
 10
-77.931077
 20
-38.551805
 11
-77.931077
 21
-16.5518
  0
LINE
  8
ボルト／ビス
  6
CONTINUOUS
 10
-80.931077
 20
-36.551803
 11
-79.93108
 21
-36.551803
  0
LINE
  8
ボルト／ビス
  6
CONTINUOUS
 10
-80.931077
 20
-36.551803
 11
-80.931077
 21
-18.551803
  0
LINE
  8
ボルト／ビス
  6
CONTINUOUS
 10
-80.931077
 20
-18.551803
 11
-79.93108
 21
-18.551803
  0
LINE
  8
ボルト／ビス
  6
CONTINUOUS
 62
    64
 10
-86.931077
 20
-32.363052
 11
-86.58085
 21
-33.325302
  0
ARC
  8
ボルト／ビス
  6
CONTINUOUS
 62
    64
 10
-83.781729
 20
-31.881929
 40
3.149352
 50
152.721967
 51
180.0
  0
ARC
  8
ボルト／ビス
  6
CONTINUOUS
 62
    64
 10
-74.859014
 20
-27.551802
 40
12.072067
 50
166.165002
 51
193.834985
  0
LINE
  8
ボルト／ビス
  6
CONTINUOUS
 62
    64
 10
-86.931077
 20
-22.740553
 11
-86.58085
 21
-21.778302
  0
ARC
  8
ボルト／ビス
  6
CONTINUOUS
 62
    64
 10
-83.781729
 20
-23.221674
 40
3.149352
 50
180.0
 51
207.278033
  0
LINE
  8
ボルト／ビス
  6
CONTINUOUS
 62
    64
 10
-86.931077
 20
-32.363052
 11
-86.931077
 21
-22.740553
  0
LINE
  8
ボルト／ビス
  6
CONTINUOUS
 62
    64
 10
-86.58085
 20
-21.778302
 11
-82.93108
 21
-21.778302
  0
LINE
  8
ボルト／ビス
  6
CONTINUOUS
 62
    64
 10
-86.58085
 20
-24.665053
 11
-82.93108
 21
-24.665053
  0
LINE
  8
ボルト／ビス
  6
CONTINUOUS
 62
    64
 10
-86.58085
 20
-33.325302
 11
-82.93108
 21
-33.325302
  0
LINE
  8
ボルト／ビス
  6
CONTINUOUS
 62
    64
 10
-86.58085
 20
-30.438552
 11
-82.93108
 21
-30.438552
  0
LINE
  8
ボルト／ビス
  6
CONTINUOUS
 10
-82.93108
 20
-33.325302
 11
-82.93108
 21
-21.778302
  0
LINE
  8
ボルト／ビス
  6
CONTINUOUS
 10
-82.93108
 20
-33.551803
 11
-80.931077
 21
-33.551803
  0
LINE
  8
ボルト／ビス
  6
CONTINUOUS
 10
-82.93108
 20
-33.551803
 11
-82.93108
 21
-21.551803
  0
LINE
  8
ボルト／ビス
  6
CONTINUOUS
 10
-82.93108
 20
-21.551803
 11
-80.931077
 21
-21.551803
  0
LINE
  8
ボルト／ビス
  6
CONTINUOUS
 62
    64
 10
-77.931077
 20
-25.2518
 11
-57.931082
 21
-25.2518
  0
LINE
  8
ボルト／ビス
  6
CONTINUOUS
 62
    64
 10
-77.931077
 20
-29.851805
 11
-57.931082
 21
-29.851805
  0
LINE
  8
ボルト／ビス
  6
CONTINUOUS
 62
    64
 10
-57.931082
 20
-29.851805
 11
-57.931082
 21
-25.2518
  0
LINE
  8
ボルト／ビス
  6
CONTINUOUS
 62
    64
 10
-58.93108
 20
-24.551803
 11
-57.931082
 21
-25.2518
  0
LINE
  8
ボルト／ビス
  6
CONTINUOUS
 62
    64
 10
-58.93108
 20
-30.551803
 11
-57.931082
 21
-29.851805
  0
LINE
  8
ボルト／ビス
  6
CONTINUOUS
 62
    64
 10
-58.93108
 20
-30.551803
 11
-58.93108
 21
-24.551803
  0
LINE
  8
ボルト／ビス
  6
CONTINUOUS
 62
    64
 10
-57.931082
 20
-29.851805
 11
-57.931082
 21
-25.2518
  0
LINE
  8
ボルト／ビス
  6
CONTINUOUS
 62
    64
 10
-77.931077
 20
-30.551803
 11
-58.93108
 21
-30.551803
  0
LINE
  8
ボルト／ビス
  6
CONTINUOUS
 62
    64
 10
-77.931077
 20
-24.551803
 11
-58.93108
 21
-24.551803
  0
ENDBLK
  0
BLOCK
  2
*DIM_0032
 70
    65
 10
0.0
 20
0.0
  0
LINE
  8
寸法
  6
CONTINUOUS
 10
-104.931075
 20
-7.5518
 11
-155.047145
 21
-7.5518
  0
LINE
  8
寸法
  6
CONTINUOUS
 10
-80.781875
 20
-57.560952
 11
-155.047145
 21
-57.560952
  0
LINE
  8
寸法
  6
CONTINUOUS
 10
-155.047145
 20
-7.5518
 11
-155.047145
 21
-57.560952
  0
POINT
  8
寸法
 10
-155.047145
 20
-7.5518
  0
POINT
  8
寸法
 10
-155.047145
 20
-57.560952
  0
TEXT
  7
TextStyle03
  8
寸法
  6
CONTINUOUS
 10
-155.45
 20
-34.14375
  1
50
 40
3.0
 50
90.0
 72
     5
 11
-155.45
 21
-30.95625
  0
ENDBLK
  0
BLOCK
  2
*DIM_0033
 70
    65
 10
0.0
 20
0.0
  0
LINE
  8
寸法
  6
CONTINUOUS
 10
-104.931075
 20
-7.5518
 11
-142.818732
 21
-7.5518
  0
LINE
  8
寸法
  6
CONTINUOUS
 10
-142.818732
 20
-27.551803
 11
-142.818732
 21
-7.5518
  0
POINT
  8
寸法
 10
-142.818732
 20
-7.5518
  0
TEXT
  7
TextStyle03
  8
寸法
  6
CONTINUOUS
 10
-143.225
 20
-19.14375
  1
20
 40
3.0
 50
90.0
 72
     5
 11
-143.225
 21
-15.95625
  0
ENDBLK
  0
BLOCK
  2
*DIM_0034
 70
    65
 10
0.0
 20
0.0
  0
LINE
  8
寸法
  6
CONTINUOUS
 10
-80.383735
 20
-57.560952
 11
-142.818732
 21
-57.560952
  0
LINE
  8
寸法
  6
CONTINUOUS
 10
-89.086162
 20
-27.551803
 11
-142.818732
 21
-27.551803
  0
LINE
  8
寸法
  6
CONTINUOUS
 10
-142.818732
 20
-57.560952
 11
-142.818732
 21
-27.551803
  0
POINT
  8
寸法
 10
-142.818732
 20
-57.560952
  0
POINT
  8
寸法
 10
-142.818732
 20
-27.551803
  0
TEXT
  7
TextStyle03
  8
寸法
  6
CONTINUOUS
 10
-143.225
 20
-44.14375
  1
30
 40
3.0
 50
90.0
 72
     5
 11
-143.225
 21
-40.95625
  0
ENDBLK
  0
BLOCK
  2
*DIM_0035
 70
    65
 10
0.0
 20
0.0
  0
LINE
  8
寸法
  6
CONTINUOUS
 10
-104.931075
 20
-7.5518
 11
-142.818732
 21
-7.5518
  0
LINE
  8
寸法
  6
CONTINUOUS
 10
99.063907
 20
49.948195
 11
-142.818732
 21
49.948195
  0
LINE
  8
寸法
  6
CONTINUOUS
 10
-142.818732
 20
-7.5518
 11
-142.818732
 21
49.948195
  0
POINT
  8
寸法
 10
-142.818732
 20
-7.5518
  0
POINT
  8
寸法
 10
-142.818732
 20
49.948195
  0
TEXT
  7
TextStyle03
  8
寸法
  6
CONTINUOUS
 10
-143.225
 20
17.91875
  1
57.5
 40
3.0
 50
90.0
 72
     5
 11
-143.225
 21
24.48125
  0
ENDBLK
  0
BLOCK
  2
*DIM_0036
 70
    65
 10
0.0
 20
0.0
  0
LINE
  8
寸法
  6
CONTINUOUS
 10
139.063903
 20
-54.551778
 11
139.063903
 21
-125.51886
  0
LINE
  8
寸法
  6
CONTINUOUS
 10
124.063903
 20
-71.55178
 11
124.063903
 21
-125.51886
  0
LINE
  8
寸法
  6
CONTINUOUS
 10
139.063903
 20
-125.51886
 11
124.063903
 21
-125.51886
  0
POINT
  8
寸法
 10
139.063903
 20
-125.51886
  0
POINT
  8
寸法
 10
124.063903
 20
-125.51886
  0
TEXT
  7
TextStyle03
  8
寸法
  6
CONTINUOUS
 10
129.93125
 20
-125.15
  1
15
 40
3.0
 72
     5
 11
133.11875
 21
-125.15
  0
ENDBLK
  0
BLOCK
  2
*DIM_0037
 70
    65
 10
0.0
 20
0.0
  0
LINE
  8
寸法
  6
CONTINUOUS
 10
-99.931075
 20
-12.5518
 11
-99.931075
 21
-125.51886
  0
LINE
  8
寸法
  6
CONTINUOUS
 10
124.063903
 20
-125.51886
 11
-99.931075
 21
-125.51886
  0
POINT
  8
寸法
 10
-99.931075
 20
-125.51886
  0
TEXT
  7
TextStyle03
  8
寸法
  6
CONTINUOUS
 10
9.5875
 20
-125.15
  1
224
 40
3.0
 72
     5
 11
14.4625
 21
-125.15
  0
ENDBLK
  0
BLOCK
  2
*DIM_0038
 70
    65
 10
0.0
 20
0.0
  0
LINE
  8
寸法
  6
CONTINUOUS
 10
35.244672
 20
-80.9518
 11
35.244672
 21
-113.74001
  0
LINE
  8
寸法
  6
CONTINUOUS
 10
45.244678
 20
-113.74001
 11
35.244672
 21
-113.74001
  0
POINT
  8
寸法
 10
35.244672
 20
-113.74001
  0
TEXT
  7
TextStyle03
  8
寸法
  6
CONTINUOUS
 10
38.60625
 20
-113.375
  1
10
 40
3.0
 72
     5
 11
41.79375
 21
-113.375
  0
ENDBLK
  0
BLOCK
  2
*DIM_0039
 70
    65
 10
0.0
 20
0.0
  0
LINE
  8
寸法
  6
CONTINUOUS
 10
-48.436082
 20
-57.45178
 11
-48.436082
 21
-113.74001
  0
LINE
  8
寸法
  6
CONTINUOUS
 10
35.244672
 20
-113.74001
 11
-48.436082
 21
-113.74001
  0
POINT
  8
寸法
 10
-48.436082
 20
-113.74001
  0
TEXT
  7
TextStyle03
  8
寸法
  6
CONTINUOUS
 10
-9.90625
 20
-113.375
  1
83.7
 40
3.0
 72
     5
 11
-3.34375
 21
-113.375
  0
ENDBLK
  0
BLOCK
  2
*DIM_0040
 70
    65
 10
0.0
 20
0.0
  0
LINE
  8
寸法
  6
CONTINUOUS
 10
-77.931077
 20
-60.52543
 11
-77.931077
 21
-113.74001
  0
LINE
  8
寸法
  6
CONTINUOUS
 10
-48.436082
 20
-113.74001
 11
-77.931077
 21
-113.74001
  0
POINT
  8
寸法
 10
-77.931077
 20
-113.74001
  0
TEXT
  7
TextStyle03
  8
寸法
  6
CONTINUOUS
 10
-66.50625
 20
-113.375
  1
29.5
 40
3.0
 72
     5
 11
-59.94375
 21
-113.375
  0
ENDBLK
  0
BLOCK
  2
*DIM_0041
 70
    65
 10
0.0
 20
0.0
  0
LINE
  8
寸法
  6
CONTINUOUS
 10
-99.931075
 20
-12.5518
 11
-99.931075
 21
-113.74001
  0
LINE
  8
寸法
  6
CONTINUOUS
 10
-77.931077
 20
-113.74001
 11
-99.931075
 21
-113.74001
  0
POINT
  8
寸法
 10
-99.931075
 20
-113.74001
  0
TEXT
  7
TextStyle03
  8
寸法
  6
CONTINUOUS
 10
-90.56875
 20
-113.375
  1
22
 40
3.0
 72
     5
 11
-87.38125
 21
-113.375
  0
ENDBLK
  0
BLOCK
  2
*DIM_0042
 70
    65
 10
0.0
 20
0.0
  0
LINE
  8
寸法
  6
CONTINUOUS
 10
124.063903
 20
-71.55178
 11
124.063903
 21
-113.74001
  0
LINE
  8
寸法
  6
CONTINUOUS
 10
45.244678
 20
-80.9518
 11
45.244678
 21
-113.74001
  0
LINE
  8
寸法
  6
CONTINUOUS
 10
124.063903
 20
-113.74001
 11
45.244678
 21
-113.74001
  0
POINT
  8
寸法
 10
124.063903
 20
-113.74001
  0
POINT
  8
寸法
 10
45.244678
 20
-113.74001
  0
TEXT
  7
TextStyle03
  8
寸法
  6
CONTINUOUS
 10
81.34375
 20
-113.375
  1
78.8
 40
3.0
 72
     5
 11
87.90625
 21
-113.375
  0
ENDBLK
  0
BLOCK
  2
*GRP_0043
 70
    65
 10
0.0
 20
0.0
  0
LINE
  8
ボルト／ビス
  6
CONTINUOUS
 10
53.563925
 20
-24.551803
 11
53.563925
 21
-14.551805
  0
LINE
  8
ボルト／ビス
  6
CONTINUOUS
 10
53.563925
 20
-24.551803
 11
56.863925
 21
-22.051805
  0
LINE
  8
ボルト／ビス
  6
CONTINUOUS
 10
56.863925
 20
-17.051803
 11
53.563925
 21
-14.551805
  0
LINE
  8
ボルト／ビス
  6
CONTINUOUS
 10
56.863925
 20
-22.051805
 11
56.863925
 21
-17.051803
  0
LINE
  8
ボルト／ビス
  6
CONTINUOUS
 10
52.059447
 20
-19.5518
 11
106.813168
 21
-19.5518
  0
LINE
  8
ボルト／ビス
  6
CONTINUOUS
 10
98.063923
 20
-22.051805
 11
98.563925
 21
-21.551803
  0
LINE
  8
ボルト／ビス
  6
CONTINUOUS
 10
98.063923
 20
-17.051803
 11
98.563925
 21
-17.551805
  0
LINE
  8
ボルト／ビス
  6
CONTINUOUS
 10
98.563925
 20
-17.551805
 11
98.563925
 21
-21.551803
  0
LINE
  8
ボルト／ビス
  6
CONTINUOUS
 10
98.063923
 20
-22.051805
 11
98.063923
 21
-17.051803
  0
LINE
  8
ボルト／ビス
  6
CONTINUOUS
 10
56.863925
 20
-17.551805
 11
98.563925
 21
-17.551805
  0
LINE
  8
ボルト／ビス
  6
CONTINUOUS
 10
56.863925
 20
-21.551803
 11
98.563925
 21
-21.551803
  0
LINE
  8
ボルト／ビス
  6
CONTINUOUS
 10
56.863925
 20
-22.051805
 11
98.063923
 21
-22.051805
  0
LINE
  8
ボルト／ビス
  6
CONTINUOUS
 10
56.863925
 20
-17.051803
 11
98.063923
 21
-17.051803
  0
ENDBLK
  0
BLOCK
  2
*GRP_0044
 70
    65
 10
0.0
 20
0.0
  0
LINE
  8
ボルト／ビス
  6
CONTINUOUS
 10
18.563923
 20
-24.551803
 11
18.563923
 21
-14.551805
  0
LINE
  8
ボルト／ビス
  6
CONTINUOUS
 10
18.563923
 20
-24.551803
 11
15.263923
 21
-22.051805
  0
LINE
  8
ボルト／ビス
  6
CONTINUOUS
 10
15.263923
 20
-17.051803
 11
18.563923
 21
-14.551805
  0
LINE
  8
ボルト／ビス
  6
CONTINUOUS
 10
15.263923
 20
-22.051805
 11
15.263923
 21
-17.051803
  0
LINE
  8
ボルト／ビス
  6
CONTINUOUS
 10
20.068392
 20
-19.5518
 11
-34.685328
 21
-19.5518
  0
LINE
  8
ボルト／ビス
  6
CONTINUOUS
 10
-25.936082
 20
-22.051805
 11
-26.436078
 21
-21.551803
  0
LINE
  8
ボルト／ビス
  6
CONTINUOUS
 10
-25.936082
 20
-17.051803
 11
-26.436078
 21
-17.551805
  0
LINE
  8
ボルト／ビス
  6
CONTINUOUS
 10
-26.436078
 20
-17.551805
 11
-26.436078
 21
-21.551803
  0
LINE
  8
ボルト／ビス
  6
CONTINUOUS
 10
-25.936082
 20
-22.051805
 11
-25.936082
 21
-17.051803
  0
LINE
  8
ボルト／ビス
  6
CONTINUOUS
 10
15.263923
 20
-17.551805
 11
-26.436078
 21
-17.551805
  0
LINE
  8
ボルト／ビス
  6
CONTINUOUS
 10
15.263923
 20
-21.551803
 11
-26.436078
 21
-21.551803
  0
LINE
  8
ボルト／ビス
  6
CONTINUOUS
 10
15.263923
 20
-22.051805
 11
-25.936082
 21
-22.051805
  0
LINE
  8
ボルト／ビス
  6
CONTINUOUS
 10
15.263923
 20
-17.051803
 11
-25.936082
 21
-17.051803
  0
ENDBLK
  0
BLOCK
  2
*GRP_0045
 70
    65
 10
0.0
 20
0.0
  0
ARC
  8
ゴム等
  6
CONTINUOUS
 62
   127
 10
-74.931065
 20
-14.0518
 40
1.5
 50
90.0
 51
180.0
  0
LINE
  8
ゴム等
  6
CONTINUOUS
 62
   127
 10
-74.931063
 20
-12.551795
 11
-74.931063
 21
-12.551795
  0
ARC
  8
ゴム等
  6
CONTINUOUS
 62
   127
 10
-74.931065
 20
-14.0518
 40
1.5
 50
0.0
 51
90.0
  0
LINE
  8
ゴム等
  6
CONTINUOUS
 62
   127
 10
-76.431063
 20
-41.051795
 11
-76.431063
 21
-14.051795
  0
ARC
  8
ゴム等
  6
CONTINUOUS
 62
   127
 10
-74.931065
 20
-41.0518
 40
1.5
 50
180.0
 51
270.0
  0
LINE
  8
ゴム等
  6
CONTINUOUS
 62
   127
 10
-74.931063
 20
-42.551795
 11
-74.931063
 21
-42.551795
  0
LINE
  8
ゴム等
  6
CONTINUOUS
 62
   127
 10
-73.431063
 20
-41.051795
 11
-73.431063
 21
-14.051795
  0
ARC
  8
ゴム等
  6
CONTINUOUS
 62
   127
 10
-74.931065
 20
-41.0518
 40
1.5
 50
270.0
 51
360.0
  0
ENDBLK
  0
BLOCK
  2
*GRP_0046
 70
    65
 10
0.0
 20
0.0
  0
LINE
  8
St
  6
CONTINUOUS
 10
124.063903
 20
10.864938
 11
127.263905
 21
7.664942
  0
LINE
  8
St
  6
CONTINUOUS
 10
124.063903
 20
10.15783
 11
127.263905
 21
6.957835
  0
LINE
  8
St
  6
CONTINUOUS
 10
124.063903
 20
-17.776535
 11
127.263905
 21
-20.97653
  0
LINE
  8
St
  6
CONTINUOUS
 10
124.063903
 20
-18.483643
 11
127.263905
 21
-21.683637
  0
LINE
  8
St
  6
CONTINUOUS
 10
174.06401
 20
-6.86114
 11
174.06401
 21
-10.061143
  0
ARC
  8
St
  6
CONTINUOUS
 62
   127
 10
127.264009
 20
-6.861135
 40
3.2
 50
180.0
 51
270.0
  0
LINE
  8
St
  6
CONTINUOUS
 62
   127
 10
127.264018
 20
-6.86114
 11
174.06401
 21
-6.86114
  0
LINE
  8
St
  6
CONTINUOUS
 62
   127
 10
127.264018
 20
-10.061143
 11
174.06401
 21
-10.061143
  0
LINE
  8
St
  6
CONTINUOUS
 10
164.064005
 20
-6.86114
 11
164.064005
 21
-10.061143
  0
LINE
  8
St
  6
CONTINUOUS
 10
154.064
 20
-6.86114
 11
154.064
 21
-10.061143
  0
LINE
  8
St
  6
CONTINUOUS
 10
154.064
 20
-7.661143
 11
164.064005
 21
-7.661143
  0
LINE
  8
St
  6
CONTINUOUS
 10
154.064
 20
-8.461145
 11
164.064005
 21
-8.461145
  0
LINE
  8
St
  6
CONTINUOUS
 10
154.064
 20
-9.26114
 11
164.064005
 21
-9.26114
  0
LINE
  8
St
  6
CONTINUOUS
 10
159.064003
 20
-13.261145
 11
159.064003
 21
-3.654327
  0
LINE
  8
St
  6
CONTINUOUS
 62
   127
 10
127.263905
 20
15.430367
 11
127.263905
 21
-39.551772
  0
LINE
  8
St
  6
CONTINUOUS
 62
   127
 10
124.063903
 20
15.448225
 11
124.063903
 21
-39.551772
  0
LINE
  8
St
  6
CONTINUOUS
 10
127.263905
 20
-39.551772
 11
124.063903
 21
-39.551772
  0
LINE
  8
St
  6
CONTINUOUS
 10
127.263905
 20
15.448225
 11
124.063903
 21
15.448225
  0
ENDBLK
  0
BLOCK
  2
*GRP_0047
 70
    65
 10
0.0
 20
0.0
  0
LINE
  8
ボルト／ビス
  6
CONTINUOUS
 10
-52.136072
 20
-43.35176
 11
-52.136072
 21
-21.351763
  0
LINE
  8
ボルト／ビス
  6
CONTINUOUS
 10
-50.936072
 20
-19.851763
 11
-48.436067
 21
-19.851763
  0
LINE
  8
ボルト／ビス
  6
CONTINUOUS
 10
-48.436067
 20
-19.851763
 11
-48.436067
 21
-44.85176
  0
LINE
  8
ボルト／ビス
  6
CONTINUOUS
 10
-48.436067
 20
-44.85176
 11
-50.936072
 21
-44.85176
  0
LINE
  8
ボルト／ビス
  6
CONTINUOUS
 10
-50.936072
 20
-19.851763
 11
-50.936072
 21
-44.85176
  0
LINE
  8
ボルト／ビス
  6
CONTINUOUS
 10
-52.136072
 20
-43.35176
 11
-50.936072
 21
-43.35176
  0
LINE
  8
ボルト／ビス
  6
CONTINUOUS
 10
-52.136072
 20
-21.351763
 11
-50.936072
 21
-21.351763
  0
LINE
  8
ボルト／ビス
  6
CONTINUOUS
 10
-50.636072
 20
-32.351757
 11
-52.136072
 21
-32.351757
  0
ENDBLK
  0
BLOCK
  2
*GRP_0048
 70
    65
 10
0.0
 20
0.0
  0
LINE
  8
ボルト／ビス
  6
CONTINUOUS
 10
-52.136072
 20
-43.35176
 11
-52.136072
 21
-21.351763
  0
LINE
  8
ボルト／ビス
  6
CONTINUOUS
 10
-50.936072
 20
-19.851763
 11
-48.436067
 21
-19.851763
  0
LINE
  8
ボルト／ビス
  6
CONTINUOUS
 10
-48.436067
 20
-19.851763
 11
-48.436067
 21
-44.85176
  0
LINE
  8
ボルト／ビス
  6
CONTINUOUS
 10
-48.436067
 20
-44.85176
 11
-50.936072
 21
-44.85176
  0
LINE
  8
ボルト／ビス
  6
CONTINUOUS
 10
-50.936072
 20
-19.851763
 11
-50.936072
 21
-44.85176
  0
LINE
  8
ボルト／ビス
  6
CONTINUOUS
 10
-52.136072
 20
-43.35176
 11
-50.936072
 21
-43.35176
  0
LINE
  8
ボルト／ビス
  6
CONTINUOUS
 10
-52.136072
 20
-21.351763
 11
-50.936072
 21
-21.351763
  0
LINE
  8
ボルト／ビス
  6
CONTINUOUS
 10
-50.636072
 20
-32.351757
 11
-52.136072
 21
-32.351757
  0
ENDBLK
  0
BLOCK
  2
*DIM_0049
 70
    65
 10
0.0
 20
0.0
  0
LINE
  8
寸法
  6
CONTINUOUS
 10
139.063903
 20
-43.051778
 11
139.063903
 21
97.94857
  0
LINE
  8
寸法
  6
CONTINUOUS
 10
124.063903
 20
54.948195
 11
124.063903
 21
97.94857
  0
LINE
  8
寸法
  6
CONTINUOUS
 10
139.063903
 20
97.94857
 11
124.063903
 21
97.94857
  0
POINT
  8
寸法
 10
139.063903
 20
97.94857
  0
POINT
  8
寸法
 10
124.063903
 20
97.94857
  0
TEXT
  7
TextStyle03
  8
寸法
  6
CONTINUOUS
 10
129.95625
 20
98.3
  1
15
 40
3.0
 72
     5
 11
133.14375
 21
98.3
  0
ENDBLK
  0
BLOCK
  2
*DIM_0050
 70
    65
 10
0.0
 20
0.0
  0
LINE
  8
寸法
  6
CONTINUOUS
 10
104.063907
 20
54.948195
 11
104.063907
 21
97.94857
  0
LINE
  8
寸法
  6
CONTINUOUS
 10
124.063903
 20
97.94857
 11
104.063907
 21
97.94857
  0
POINT
  8
寸法
 10
104.063907
 20
97.94857
  0
TEXT
  7
TextStyle03
  8
寸法
  6
CONTINUOUS
 10
112.45625
 20
98.3
  1
20
 40
3.0
 72
     5
 11
115.64375
 21
98.3
  0
ENDBLK
  0
BLOCK
  2
*DIM_0051
 70
    65
 10
0.0
 20
0.0
  0
LINE
  8
寸法
  6
CONTINUOUS
 10
24.562483
 20
-19.551825
 11
24.562483
 21
97.94857
  0
LINE
  8
寸法
  6
CONTINUOUS
 10
104.063907
 20
97.94857
 11
24.562483
 21
97.94857
  0
POINT
  8
寸法
 10
24.562483
 20
97.94857
  0
TEXT
  7
TextStyle03
  8
寸法
  6
CONTINUOUS
 10
61.01875
 20
98.3
  1
79.5
 40
3.0
 72
     5
 11
67.58125
 21
98.3
  0
ENDBLK
  0
BLOCK
  2
*DIM_0052
 70
    65
 10
0.0
 20
0.0
  0
LINE
  8
寸法
  6
CONTINUOUS
 10
20.063923
 20
-1.0518
 11
20.063923
 21
97.94857
  0
LINE
  8
寸法
  6
CONTINUOUS
 10
24.562483
 20
97.94857
 11
20.063923
 21
97.94857
  0
POINT
  8
寸法
 10
20.063923
 20
97.94857
  0
TEXT
  7
TextStyle03
  8
寸法
  6
CONTINUOUS
 10
19.8625
 20
98.3
  1
4.5
 40
3.0
 72
     5
 11
24.7375
 21
98.3
  0
ENDBLK
  0
BLOCK
  2
*DIM_0053
 70
    65
 10
0.0
 20
0.0
  0
LINE
  8
寸法
  6
CONTINUOUS
 10
-61.936097
 20
23.23905
 11
-61.936097
 21
97.94857
  0
LINE
  8
寸法
  6
CONTINUOUS
 10
20.063923
 20
97.94857
 11
-61.936097
 21
97.94857
  0
POINT
  8
寸法
 10
-61.936097
 20
97.94857
  0
TEXT
  7
TextStyle03
  8
寸法
  6
CONTINUOUS
 10
-22.54375
 20
98.3
  1
82
 40
3.0
 72
     5
 11
-19.35625
 21
98.3
  0
ENDBLK
  0
BLOCK
  2
*DIM_0054
 70
    65
 10
0.0
 20
0.0
  0
LINE
  8
寸法
  6
CONTINUOUS
 10
-71.4361
 20
87.43905
 11
-71.4361
 21
97.94857
  0
LINE
  8
寸法
  6
CONTINUOUS
 10
-61.936097
 20
97.94857
 11
-71.4361
 21
97.94857
  0
POINT
  8
寸法
 10
-71.4361
 20
97.94857
  0
TEXT
  7
TextStyle03
  8
寸法
  6
CONTINUOUS
 10
-69.1375
 20
98.3
  1
9.5
 40
3.0
 72
     5
 11
-64.2625
 21
98.3
  0
ENDBLK
  0
BLOCK
  2
*DIM_0055
 70
    65
 10
0.0
 20
0.0
  0
LINE
  8
寸法
  6
CONTINUOUS
 10
-89.236105
 20
87.43905
 11
-89.236105
 21
97.94857
  0
LINE
  8
寸法
  6
CONTINUOUS
 10
-71.4361
 20
97.94857
 11
-89.236105
 21
97.94857
  0
POINT
  8
寸法
 10
-89.236105
 20
97.94857
  0
TEXT
  7
TextStyle03
  8
寸法
  6
CONTINUOUS
 10
-83.63125
 20
98.3
  1
17.8
 40
3.0
 72
     5
 11
-77.06875
 21
98.3
  0
ENDBLK
  0
BLOCK
  2
*DIM_0056
 70
    65
 10
0.0
 20
0.0
  0
LINE
  8
寸法
  6
CONTINUOUS
 10
-98.431075
 20
22.439048
 11
-98.431075
 21
97.94857
  0
LINE
  8
寸法
  6
CONTINUOUS
 10
-89.236105
 20
97.94857
 11
-98.431075
 21
97.94857
  0
POINT
  8
寸法
 10
-98.431075
 20
97.94857
  0
TEXT
  7
TextStyle03
  8
寸法
  6
CONTINUOUS
 10
-96.2875
 20
98.3
  1
9.2
 40
3.0
 72
     5
 11
-91.4125
 21
98.3
  0
ENDBLK
  0
BLOCK
  2
*DIM_0057
 70
    65
 10
0.0
 20
0.0
  0
LINE
  8
寸法
  6
CONTINUOUS
 10
-99.931075
 20
22.439048
 11
-99.931075
 21
97.94857
  0
LINE
  8
寸法
  6
CONTINUOUS
 10
-98.431075
 20
97.94857
 11
-99.931075
 21
97.94857
  0
POINT
  8
寸法
 10
-99.931075
 20
97.94857
  0
TEXT
  7
TextStyle03
  8
寸法
  6
CONTINUOUS
 10
-106.6875
 20
98.3
  1
1.5
 40
3.0
 72
     5
 11
-101.8125
 21
98.3
  0
ENDBLK
  0
BLOCK
  2
*GRP_0058
 70
    65
 10
0.0
 20
0.0
  0
POLYLINE
  8
寸法
  6
BYBLOCK
 62
     0
 66
     1
  0
VERTEX
  8
寸法
 10
-77.97683
 20
-38.019455
  0
VERTEX
  8
寸法
 10
-76.47683
 20
-35.42138
  0
VERTEX
  8
寸法
 10
-79.074905
 20
-36.92138
  0
SEQEND
  0
POLYLINE
  8
寸法
  6
BYBLOCK
 62
     0
 66
     1
  0
VERTEX
  8
寸法
 10
-76.47683
 20
-35.42138
  0
VERTEX
  8
寸法
 10
-92.230145
 20
-51.174695
  0
VERTEX
  8
寸法
 10
-92.230145
 20
-60.291193
  0
SEQEND
  0
ENDBLK
  0
BLOCK
  2
*GRP_0059
 70
    65
 10
0.0
 20
0.0
  0
POLYLINE
  8
寸法
  6
BYBLOCK
 62
     0
 66
     1
  0
VERTEX
  8
寸法
 10
-13.461435
 20
-66.523932
  0
VERTEX
  8
寸法
 10
-11.961435
 20
-63.925857
  0
VERTEX
  8
寸法
 10
-14.55951
 20
-65.425857
  0
SEQEND
  0
POLYLINE
  8
寸法
  6
BYBLOCK
 62
     0
 66
     1
  0
VERTEX
  8
寸法
 10
-11.961435
 20
-63.925857
  0
VERTEX
  8
寸法
 10
-19.738155
 20
-71.702578
  0
VERTEX
  8
寸法
 10
-19.738155
 20
-83.60495
  0
SEQEND
  0
ENDBLK
  0
BLOCK
  2
*GRP_0060
 70
    65
 10
0.0
 20
0.0
  0
POLYLINE
  8
寸法
  6
BYBLOCK
 62
     0
 66
     1
  0
VERTEX
  8
寸法
 10
34.892585
 20
-51.226645
  0
VERTEX
  8
寸法
 10
27.090352
 20
-54.083635
  0
VERTEX
  8
寸法
 10
27.090352
 20
-58.167568
  0
SEQEND
  0
ENDBLK
  0
BLOCK
  2
*GRP_0061
 70
    65
 10
0.0
 20
0.0
  0
POLYLINE
  8
寸法
  6
BYBLOCK
 62
     0
 66
     1
  0
VERTEX
  8
寸法
 10
101.572413
 20
-65.688862
  0
VERTEX
  8
寸法
 10
103.072413
 20
-63.090785
  0
VERTEX
  8
寸法
 10
100.474335
 20
-64.590785
  0
SEQEND
  0
POLYLINE
  8
寸法
  6
BYBLOCK
 62
     0
 66
     1
  0
VERTEX
  8
寸法
 10
103.072413
 20
-63.090785
  0
VERTEX
  8
寸法
 10
92.624657
 20
-73.53854
  0
VERTEX
  8
寸法
 10
92.624657
 20
-81.144505
  0
SEQEND
  0
ENDBLK
  0
BLOCK
  2
*GRP_0062
 70
    65
 10
0.0
 20
0.0
  0
POLYLINE
  8
寸法
  6
BYBLOCK
 62
     0
 66
     1
  0
VERTEX
  8
寸法
 10
-64.12204
 20
14.420695
  0
VERTEX
  8
寸法
 10
-65.62204
 20
11.82262
  0
VERTEX
  8
寸法
 10
-63.023965
 20
13.32262
  0
SEQEND
  0
POLYLINE
  8
寸法
  6
BYBLOCK
 62
     0
 66
     1
  0
VERTEX
  8
寸法
 10
-65.62204
 20
11.82262
  0
VERTEX
  8
寸法
 10
-53.981495
 20
23.463165
  0
VERTEX
  8
寸法
 10
-53.981495
 20
25.302303
  0
SEQEND
  0
ENDBLK
  0
BLOCK
  2
*GRP_0063
 70
    65
 10
0.0
 20
0.0
  0
LINE
  8
ゴム等
  6
DOT
 10
-88.436095
 20
-6.060973
 11
-63.436097
 21
-6.06095
  0
LINE
  8
ゴム等
  6
DOT
 10
-88.436095
 20
-6.060973
 11
-88.436095
 21
2.43904
  0
LINE
  8
ゴム等
  6
DOT
 10
-63.436097
 20
-6.06095
 11
-63.436097
 21
2.439062
  0
LINE
  8
ゴム等
  6
DOT
 10
-88.436095
 20
2.43904
 11
-63.436097
 21
2.439062
  0
ENDBLK
  0
BLOCK
  2
*DIM_0064
 70
    65
 10
0.0
 20
0.0
  0
LINE
  8
寸法
  6
CONTINUOUS
 10
-80.989115
 20
-57.560952
 11
-155.047145
 21
-57.560952
  0
LINE
  8
寸法
  6
CONTINUOUS
 10
30.244672
 20
-75.9518
 11
-155.047145
 21
-75.9518
  0
LINE
  8
寸法
  6
CONTINUOUS
 10
-155.047145
 20
-57.560952
 11
-155.047145
 21
-75.9518
  0
POINT
  8
寸法
 10
-155.047145
 20
-57.560952
  0
POINT
  8
寸法
 10
-155.047145
 20
-75.9518
  0
TEXT
  7
TextStyle03
  8
寸法
  6
CONTINUOUS
 10
-155.425
 20
-70.05625
  1
18.4
 40
3.0
 50
90.0
 72
     5
 11
-155.425
 21
-63.49375
  0
ENDBLK
  0
BLOCK
  2
*GRP_0065
 70
    65
 10
0.0
 20
0.0
  0
INSERT
  2
*GRP_0066
  8
補助線
  6
DOT
 10
0.0
 20
0.0
  0
INSERT
  2
*GRP_0067
  8
補助線
  6
DOT
 10
0.0
 20
0.0
  0
LINE
  8
St
  6
CONTINUOUS
 62
   127
 10
-12.686057
 20
-1.551807
 11
5.81393
 21
-1.551807
  0
LINE
  8
St
  6
CONTINUOUS
 62
   127
 10
-15.936078
 20
-19.551822
 11
-15.936078
 21
-25.351812
  0
LINE
  8
St
  6
CONTINUOUS
 62
   127
 10
-15.936078
 20
-25.351812
 11
9.063927
 21
-25.351812
  0
LINE
  8
St
  6
CONTINUOUS
 62
   127
 10
9.063927
 20
-19.551822
 11
9.063927
 21
-25.351812
  0
LINE
  8
St
  6
CONTINUOUS
 62
   127
 10
-15.936078
 20
-19.551822
 11
9.063927
 21
-19.551822
  0
LINE
  8
St
  6
CONTINUOUS
 62
   127
 10
4.337353
 20
-10.054115
 11
-11.209645
 21
-10.054115
  0
LINE
  8
St
  6
CONTINUOUS
 62
   127
 10
4.337353
 20
-9.054065
 11
-11.209645
 21
-9.054065
  0
LINE
  8
St
  6
CONTINUOUS
 62
   127
 10
-11.209645
 20
-9.054065
 11
-11.209645
 21
-10.054115
  0
LINE
  8
St
  6
CONTINUOUS
 62
   127
 10
4.337353
 20
-9.054065
 11
4.337353
 21
-10.054115
  0
LINE
  8
St
  6
CONTINUOUS
 62
   127
 10
-8.24734
 20
-5.054075
 11
-9.20953
 21
-5.404302
  0
LINE
  8
St
  6
CONTINUOUS
 62
   127
 10
1.375205
 20
-5.054075
 11
2.337395
 21
-5.404302
  0
LINE
  8
St
  6
CONTINUOUS
 62
   127
 10
-8.24734
 20
-5.054075
 11
1.375205
 21
-5.054075
  0
LINE
  8
St
  6
CONTINUOUS
 62
   127
 10
2.337395
 20
-5.404302
 11
2.337395
 21
-9.054065
  0
LINE
  8
St
  6
CONTINUOUS
 62
   127
 10
-0.549333
 20
-5.404302
 11
-0.549333
 21
-9.054065
  0
LINE
  8
St
  6
CONTINUOUS
 62
   127
 10
-9.20953
 20
-5.404302
 11
-9.20953
 21
-9.054065
  0
LINE
  8
St
  6
CONTINUOUS
 62
   127
 10
-6.322803
 20
-5.404302
 11
-6.322803
 21
-9.054065
  0
LINE
  8
St
  6
CONTINUOUS
 62
   127
 10
2.337395
 20
-9.054065
 11
-9.20953
 21
-9.054065
  0
LINE
  8
St
  6
CONTINUOUS
 62
   127
 10
-3.436067
 20
-19.05407
 11
1.313885
 21
-19.05407
  0
LINE
  8
St
  6
CONTINUOUS
 62
   127
 10
1.313885
 20
-19.05407
 11
0.81401
 21
-19.55402
  0
LINE
  8
St
  6
CONTINUOUS
 62
   127
 10
-3.436067
 20
-19.55402
 11
0.81401
 21
-19.55402
  0
LINE
  8
St
  6
CONTINUOUS
 62
   127
 10
1.313885
 20
-18.55412
 11
1.313885
 21
-19.05407
  0
LINE
  8
St
  6
CONTINUOUS
 62
   127
 10
14.063818
 20
-12.604572
 11
-3.436067
 21
-12.604572
  0
LINE
  8
St
  6
CONTINUOUS
 62
   127
 10
14.063818
 20
-17.503587
 11
-3.436067
 21
-17.503587
  0
LINE
  8
St
  6
CONTINUOUS
 62
   127
 10
-3.436067
 20
-11.05409
 11
1.313885
 21
-11.05409
  0
LINE
  8
St
  6
CONTINUOUS
 62
   127
 10
1.313885
 20
-11.05409
 11
0.81401
 21
-10.554065
  0
LINE
  8
St
  6
CONTINUOUS
 62
   127
 10
-3.436067
 20
-10.554065
 11
0.81401
 21
-10.554065
  0
LINE
  8
St
  6
CONTINUOUS
 62
   127
 10
1.313885
 20
-11.554047
 11
1.313885
 21
-11.05409
  0
LINE
  8
St
  6
CONTINUOUS
 62
   127
 10
14.063818
 20
-17.503587
 11
14.063818
 21
-18.054095
  0
LINE
  8
St
  6
CONTINUOUS
 62
   127
 10
13.563942
 20
-18.55412
 11
-3.436067
 21
-18.55412
  0
LINE
  8
St
  6
CONTINUOUS
 62
   127
 10
14.063818
 20
-12.604572
 11
14.063818
 21
-12.054072
  0
LINE
  8
St
  6
CONTINUOUS
 62
   127
 10
13.563942
 20
-11.554047
 11
-3.436067
 21
-11.554047
  0
LINE
  8
St
  6
CONTINUOUS
 62
   127
 10
-3.436067
 20
-19.05407
 11
-8.18602
 21
-19.05407
  0
LINE
  8
St
  6
CONTINUOUS
 62
   127
 10
-8.18602
 20
-19.05407
 11
-7.686145
 21
-19.55402
  0
LINE
  8
St
  6
CONTINUOUS
 62
   127
 10
-3.436067
 20
-19.55402
 11
-7.686145
 21
-19.55402
  0
LINE
  8
St
  6
CONTINUOUS
 62
   127
 10
-8.18602
 20
-18.55412
 11
-8.18602
 21
-19.05407
  0
LINE
  8
St
  6
CONTINUOUS
 62
   127
 10
-20.936103
 20
-12.604572
 11
-3.436067
 21
-12.604572
  0
LINE
  8
St
  6
CONTINUOUS
 62
   127
 10
-20.936103
 20
-17.503587
 11
-3.436067
 21
-17.503587
  0
LINE
  8
St
  6
CONTINUOUS
 62
   127
 10
-3.436067
 20
-11.05409
 11
-8.18602
 21
-11.05409
  0
LINE
  8
St
  6
CONTINUOUS
 62
   127
 10
-8.18602
 20
-11.05409
 11
-7.686145
 21
-10.554065
  0
LINE
  8
St
  6
CONTINUOUS
 62
   127
 10
-3.436067
 20
-10.554065
 11
-7.686145
 21
-10.554065
  0
LINE
  8
St
  6
CONTINUOUS
 62
   127
 10
-8.18602
 20
-11.554047
 11
-8.18602
 21
-11.05409
  0
LINE
  8
St
  6
CONTINUOUS
 62
   127
 10
-20.936103
 20
-17.503587
 11
-20.936103
 21
-18.054095
  0
LINE
  8
St
  6
CONTINUOUS
 62
   127
 10
-20.43607
 20
-18.55412
 11
-3.436067
 21
-18.55412
  0
LINE
  8
St
  6
CONTINUOUS
 62
   127
 10
-20.936103
 20
-12.604572
 11
-20.936103
 21
-12.054072
  0
LINE
  8
St
  6
CONTINUOUS
 62
   127
 10
-20.43607
 20
-11.554047
 11
-3.436067
 21
-11.554047
  0
LINE
  8
St
  6
CONTINUOUS
 62
   127
 10
-12.686057
 20
-1.551807
 11
-12.686057
 21
-11.554047
  0
LINE
  8
St
  6
CONTINUOUS
 62
   127
 10
-12.686057
 20
-18.55412
 11
-12.686057
 21
-19.551822
  0
LINE
  8
St
  6
CONTINUOUS
 62
   127
 10
5.81393
 20
-1.551807
 11
5.81393
 21
-11.554047
  0
LINE
  8
St
  6
CONTINUOUS
 62
   127
 10
5.81393
 20
-18.55412
 11
5.81393
 21
-19.551822
  0
LINE
  8
St
  6
CONTINUOUS
 62
   127
 10
-10.186053
 20
-30.78653
 11
-10.186053
 21
-30.194772
  0
LINE
  8
St
  6
CONTINUOUS
 62
   127
 10
3.31394
 20
-30.78653
 11
3.31394
 21
-30.194772
  0
LINE
  8
St
  6
CONTINUOUS
 62
   127
 10
66.315042
 20
-1.551807
 11
84.81503
 21
-1.551807
  0
LINE
  8
St
  6
CONTINUOUS
 62
   127
 10
70.565015
 20
36.852693
 11
70.565015
 21
26.452698
  0
LINE
  8
St
  6
CONTINUOUS
 62
   127
 10
71.315007
 20
37.602685
 11
71.315007
 21
26.452698
  0
LINE
  8
St
  6
CONTINUOUS
 62
   127
 10
79.565022
 20
37.85272
 11
71.56502
 21
37.85272
  0
LINE
  8
St
  6
CONTINUOUS
 62
   127
 10
80.565027
 20
36.852693
 11
70.565015
 21
36.852693
  0
LINE
  8
St
  6
CONTINUOUS
 62
   127
 10
79.815035
 20
37.602685
 11
79.815035
 21
26.452698
  0
LINE
  8
St
  6
CONTINUOUS
 62
   127
 10
80.565027
 20
36.852693
 11
80.565027
 21
26.452698
  0
LINE
  8
St
  6
CONTINUOUS
 62
   127
 10
80.565027
 20
36.852693
 11
79.565022
 21
37.85272
  0
LINE
  8
St
  6
CONTINUOUS
 62
   127
 10
70.565015
 20
36.852693
 11
71.56502
 21
37.85272
  0
LINE
  8
St
  6
CONTINUOUS
 62
   127
 10
63.065015
 20
-19.551822
 11
63.065015
 21
-25.351812
  0
LINE
  8
St
  6
CONTINUOUS
 62
   127
 10
63.065015
 20
-25.351812
 11
88.065027
 21
-25.351812
  0
LINE
  8
St
  6
CONTINUOUS
 62
   127
 10
88.065027
 20
-19.551822
 11
88.065027
 21
-25.351812
  0
LINE
  8
St
  6
CONTINUOUS
 62
   127
 10
63.065015
 20
-19.551822
 11
88.065027
 21
-19.551822
  0
LINE
  8
St
  6
CONTINUOUS
 62
   127
 10
83.338452
 20
-10.054115
 11
67.791462
 21
-10.054115
  0
LINE
  8
St
  6
CONTINUOUS
 62
   127
 10
83.338452
 20
-9.054065
 11
67.791462
 21
-9.054065
  0
LINE
  8
St
  6
CONTINUOUS
 62
   127
 10
67.791462
 20
-9.054065
 11
67.791462
 21
-10.054115
  0
LINE
  8
St
  6
CONTINUOUS
 62
   127
 10
83.338452
 20
-9.054065
 11
83.338452
 21
-10.054115
  0
LINE
  8
St
  6
CONTINUOUS
 62
   127
 10
70.753767
 20
-5.054075
 11
69.79157
 21
-5.404302
  0
LINE
  8
St
  6
CONTINUOUS
 62
   127
 10
80.376305
 20
-5.054075
 11
81.338502
 21
-5.404302
  0
LINE
  8
St
  6
CONTINUOUS
 62
   127
 10
70.753767
 20
-5.054075
 11
80.376305
 21
-5.054075
  0
LINE
  8
St
  6
CONTINUOUS
 62
   127
 10
81.338502
 20
-5.404302
 11
81.338502
 21
-9.054065
  0
LINE
  8
St
  6
CONTINUOUS
 62
   127
 10
78.451767
 20
-5.404302
 11
78.451767
 21
-9.054065
  0
LINE
  8
St
  6
CONTINUOUS
 62
   127
 10
69.79157
 20
-5.404302
 11
69.79157
 21
-9.054065
  0
LINE
  8
St
  6
CONTINUOUS
 62
   127
 10
72.678305
 20
-5.404302
 11
72.678305
 21
-9.054065
  0
LINE
  8
St
  6
CONTINUOUS
 62
   127
 10
81.338502
 20
-9.054065
 11
69.79157
 21
-9.054065
  0
LINE
  8
St
  6
CONTINUOUS
 62
   127
 10
75.565033
 20
-19.05407
 11
80.314992
 21
-19.05407
  0
LINE
  8
St
  6
CONTINUOUS
 62
   127
 10
80.314992
 20
-19.05407
 11
79.81511
 21
-19.55402
  0
LINE
  8
St
  6
CONTINUOUS
 62
   127
 10
75.565033
 20
-19.55402
 11
79.81511
 21
-19.55402
  0
LINE
  8
St
  6
CONTINUOUS
 62
   127
 10
80.314992
 20
-18.55412
 11
80.314992
 21
-19.05407
  0
LINE
  8
St
  6
CONTINUOUS
 62
   127
 10
93.064918
 20
-12.604572
 11
75.565033
 21
-12.604572
  0
LINE
  8
St
  6
CONTINUOUS
 62
   127
 10
93.064918
 20
-17.503587
 11
75.565033
 21
-17.503587
  0
LINE
  8
St
  6
CONTINUOUS
 62
   127
 10
75.565033
 20
-11.05409
 11
80.314992
 21
-11.05409
  0
LINE
  8
St
  6
CONTINUOUS
 62
   127
 10
80.314992
 20
-11.05409
 11
79.81511
 21
-10.554065
  0
LINE
  8
St
  6
CONTINUOUS
 62
   127
 10
75.565033
 20
-10.554065
 11
79.81511
 21
-10.554065
  0
LINE
  8
St
  6
CONTINUOUS
 62
   127
 10
80.314992
 20
-11.554047
 11
80.314992
 21
-11.05409
  0
LINE
  8
St
  6
CONTINUOUS
 62
   127
 10
93.064918
 20
-17.503587
 11
93.064918
 21
-18.054095
  0
LINE
  8
St
  6
CONTINUOUS
 62
   127
 10
92.565042
 20
-18.55412
 11
75.565033
 21
-18.55412
  0
LINE
  8
St
  6
CONTINUOUS
 62
   127
 10
93.064918
 20
-12.604572
 11
93.064918
 21
-12.054072
  0
LINE
  8
St
  6
CONTINUOUS
 62
   127
 10
92.565042
 20
-11.554047
 11
75.565033
 21
-11.554047
  0
LINE
  8
St
  6
CONTINUOUS
 62
   127
 10
75.565033
 20
-19.05407
 11
70.81508
 21
-19.05407
  0
LINE
  8
St
  6
CONTINUOUS
 62
   127
 10
70.81508
 20
-19.05407
 11
71.314963
 21
-19.55402
  0
LINE
  8
St
  6
CONTINUOUS
 62
   127
 10
75.565033
 20
-19.55402
 11
71.314963
 21
-19.55402
  0
LINE
  8
St
  6
CONTINUOUS
 62
   127
 10
70.81508
 20
-18.55412
 11
70.81508
 21
-19.05407
  0
LINE
  8
St
  6
CONTINUOUS
 62
   127
 10
58.065005
 20
-12.604572
 11
75.565033
 21
-12.604572
  0
LINE
  8
St
  6
CONTINUOUS
 62
   127
 10
58.065005
 20
-17.503587
 11
75.565033
 21
-17.503587
  0
LINE
  8
St
  6
CONTINUOUS
 62
   127
 10
75.565033
 20
-11.05409
 11
70.81508
 21
-11.05409
  0
LINE
  8
St
  6
CONTINUOUS
 62
   127
 10
70.81508
 20
-11.05409
 11
71.314963
 21
-10.554065
  0
LINE
  8
St
  6
CONTINUOUS
 62
   127
 10
75.565033
 20
-10.554065
 11
71.314963
 21
-10.554065
  0
LINE
  8
St
  6
CONTINUOUS
 62
   127
 10
70.81508
 20
-11.554047
 11
70.81508
 21
-11.05409
  0
LINE
  8
St
  6
CONTINUOUS
 62
   127
 10
58.065005
 20
-17.503587
 11
58.065005
 21
-18.054095
  0
LINE
  8
St
  6
CONTINUOUS
 62
   127
 10
58.56503
 20
-18.55412
 11
75.565033
 21
-18.55412
  0
LINE
  8
St
  6
CONTINUOUS
 62
   127
 10
58.065005
 20
-12.604572
 11
58.065005
 21
-12.054072
  0
LINE
  8
St
  6
CONTINUOUS
 62
   127
 10
58.56503
 20
-11.554047
 11
75.565033
 21
-11.554047
  0
LINE
  8
St
  6
CONTINUOUS
 62
   127
 10
66.315042
 20
-1.551807
 11
66.315042
 21
-11.554047
  0
LINE
  8
St
  6
CONTINUOUS
 62
   127
 10
66.315042
 20
-18.55412
 11
66.315042
 21
-19.551822
  0
LINE
  8
St
  6
CONTINUOUS
 62
   127
 10
84.81503
 20
-1.551807
 11
84.81503
 21
-11.554047
  0
LINE
  8
St
  6
CONTINUOUS
 62
   127
 10
84.81503
 20
-18.55412
 11
84.81503
 21
-19.551822
  0
LINE
  8
St
  6
CONTINUOUS
 62
   127
 10
68.815048
 20
-30.78653
 11
68.815048
 21
-30.194772
  0
LINE
  8
St
  6
CONTINUOUS
 62
   127
 10
82.315048
 20
-30.78653
 11
82.315048
 21
-30.194772
  0
LINE
  8
St
  6
CONTINUOUS
 62
   127
 10
-10.086063
 20
-30.73202
 11
-10.086063
 21
-25.351812
  0
LINE
  8
St
  6
CONTINUOUS
 62
   127
 10
3.213927
 20
-30.73202
 11
3.213927
 21
-25.351812
  0
LINE
  8
St
  6
CONTINUOUS
 62
   127
 10
68.915037
 20
-30.73202
 11
68.915037
 21
-25.351812
  0
LINE
  8
St
  6
CONTINUOUS
 62
   127
 10
82.215027
 20
-30.73202
 11
82.215027
 21
-25.351812
  0
LINE
  8
St
  6
CONTINUOUS
 62
   127
 10
16.564145
 20
3.948183
 11
16.564145
 21
1.4482
  0
LINE
  8
St
  6
CONTINUOUS
 62
   127
 10
-23.435837
 20
1.4482
 11
16.564145
 21
1.4482
  0
LINE
  8
St
  6
CONTINUOUS
 62
   127
 10
-23.435837
 20
3.948183
 11
-23.435837
 21
1.4482
  0
LINE
  8
St
  6
CONTINUOUS
 62
   127
 10
6.564163
 20
3.948183
 11
6.564163
 21
23.948215
  0
LINE
  8
St
  6
DOT
 62
   127
 10
3.564155
 20
3.948183
 11
3.564155
 21
23.948215
  0
LINE
  8
St
  6
CONTINUOUS
 62
   127
 10
-13.435855
 20
3.948183
 11
-13.435855
 21
23.948215
  0
LINE
  8
St
  6
DOT
 62
   127
 10
-10.43587
 20
3.948183
 11
-10.43587
 21
23.948215
  0
LINE
  8
St
  6
CONTINUOUS
 62
   127
 10
9.064145
 20
2.44834
 11
14.06414
 21
2.44834
  0
LINE
  8
St
  6
CONTINUOUS
 62
   127
 10
13.357033
 20
2.44834
 11
13.357033
 21
10.948345
  0
LINE
  8
St
  6
CONTINUOUS
 62
   127
 10
9.77129
 20
2.44834
 11
9.77129
 21
10.948345
  0
LINE
  8
St
  6
CONTINUOUS
 62
   127
 10
9.064145
 20
10.24123
 11
14.06414
 21
10.24123
  0
LINE
  8
St
  6
CONTINUOUS
 62
   127
 10
14.06414
 20
10.24123
 11
13.357033
 21
10.948345
  0
LINE
  8
St
  6
CONTINUOUS
 62
   127
 10
14.06414
 20
2.44834
 11
14.06414
 21
10.24123
  0
LINE
  8
St
  6
CONTINUOUS
 62
   127
 10
9.064145
 20
2.44834
 11
9.064145
 21
10.24123
  0
LINE
  8
St
  6
CONTINUOUS
 62
   127
 10
9.064145
 20
10.24123
 11
9.77129
 21
10.948345
  0
LINE
  8
St
  6
CONTINUOUS
 62
   127
 10
9.77129
 20
10.948345
 11
13.357033
 21
10.948345
  0
LINE
  8
St
  6
CONTINUOUS
 62
   127
 10
-15.93586
 20
2.44834
 11
-20.935855
 21
2.44834
  0
LINE
  8
St
  6
CONTINUOUS
 62
   127
 10
-20.22871
 20
2.44834
 11
-20.22871
 21
10.948345
  0
LINE
  8
St
  6
CONTINUOUS
 62
   127
 10
-16.642968
 20
2.44834
 11
-16.642968
 21
10.948345
  0
LINE
  8
St
  6
CONTINUOUS
 62
   127
 10
-15.93586
 20
10.24123
 11
-20.935855
 21
10.24123
  0
LINE
  8
St
  6
CONTINUOUS
 62
   127
 10
-20.935855
 20
10.24123
 11
-20.22871
 21
10.948345
  0
LINE
  8
St
  6
CONTINUOUS
 62
   127
 10
-20.935855
 20
2.44834
 11
-20.935855
 21
10.24123
  0
LINE
  8
St
  6
CONTINUOUS
 62
   127
 10
-15.93586
 20
2.44834
 11
-15.93586
 21
10.24123
  0
LINE
  8
St
  6
CONTINUOUS
 62
   127
 10
-15.93586
 20
10.24123
 11
-16.642968
 21
10.948345
  0
LINE
  8
St
  6
CONTINUOUS
 62
   127
 10
-16.642968
 20
10.948345
 11
-20.22871
 21
10.948345
  0
LINE
  8
St
  6
CONTINUOUS
 62
   127
 10
95.565013
 20
33.24109
 11
94.857905
 21
33.948198
  0
LINE
  8
St
  6
CONTINUOUS
 62
   127
 10
90.565048
 20
33.24109
 11
91.272155
 21
33.948198
  0
LINE
  8
St
  6
CONTINUOUS
 62
   127
 10
89.06504
 20
13.948202
 11
97.06502
 21
13.948202
  0
LINE
  8
St
  6
CONTINUOUS
 62
   127
 10
89.06504
 20
13.948202
 11
89.06504
 21
18.948198
  0
LINE
  8
St
  6
CONTINUOUS
 62
   127
 10
97.06502
 20
13.948202
 11
97.06502
 21
18.948198
  0
LINE
  8
St
  6
CONTINUOUS
 62
   127
 10
60.56501
 20
33.24109
 11
55.565045
 21
33.24109
  0
LINE
  8
St
  6
CONTINUOUS
 62
   127
 10
55.565045
 20
33.24109
 11
56.272153
 21
33.948198
  0
LINE
  8
St
  6
CONTINUOUS
 62
   127
 10
60.56501
 20
33.24109
 11
59.857902
 21
33.948198
  0
LINE
  8
St
  6
CONTINUOUS
 62
   127
 10
59.857902
 20
33.948198
 11
56.272153
 21
33.948198
  0
LINE
  8
St
  6
CONTINUOUS
 62
   127
 10
62.065018
 20
13.948202
 11
54.065037
 21
13.948202
  0
LINE
  8
St
  6
CONTINUOUS
 62
   127
 10
62.065018
 20
13.948202
 11
62.065018
 21
18.948198
  0
LINE
  8
St
  6
CONTINUOUS
 62
   127
 10
54.065037
 20
13.948202
 11
54.065037
 21
18.948198
  0
LINE
  8
St
  6
DOT
 62
   127
 10
88.065252
 20
46.248205
 11
88.065252
 21
48.948198
  0
LINE
  8
St
  6
DOT
 62
   127
 10
63.065263
 20
46.248205
 11
63.065263
 21
48.948198
  0
LINE
  8
St
  6
CONTINUOUS
 62
   127
 10
68.665003
 20
26.448198
 11
82.465018
 21
26.448198
  0
LINE
  8
St
  6
DOT
 62
   127
 10
87.06527
 20
28.948202
 11
87.06527
 21
31.648195
  0
LINE
  8
St
  6
DOT
 62
   127
 10
64.065245
 20
28.948202
 11
64.065245
 21
31.648195
  0
LINE
  8
St
  6
DOT
 62
   127
 10
6.564163
 20
3.948168
 11
6.564163
 21
6.648183
  0
LINE
  8
St
  6
DOT
 62
   127
 10
6.564163
 20
21.2482
 11
6.564163
 21
23.948185
  0
LINE
  8
St
  6
DOT
 62
   127
 10
-13.435855
 20
3.948168
 11
-13.435855
 21
6.648183
  0
LINE
  8
St
  6
DOT
 62
   127
 10
-13.435855
 20
21.2482
 11
-13.435855
 21
23.948185
  0
LINE
  8
St
  6
CONTINUOUS
 62
   127
 10
16.564145
 20
3.948183
 11
-23.435837
 21
3.948183
  0
LINE
  8
St
  6
CONTINUOUS
 62
   127
 10
-13.435855
 20
23.948215
 11
6.564163
 21
23.948215
  0
LINE
  8
St
  6
CONTINUOUS
 62
   127
 10
63.565033
 20
-1.051805
 11
63.565033
 21
1.4482
  0
LINE
  8
St
  6
CONTINUOUS
 62
   127
 10
87.56504
 20
1.4482
 11
63.565033
 21
1.4482
  0
LINE
  8
St
  6
CONTINUOUS
 62
   127
 10
87.56504
 20
-1.051805
 11
87.56504
 21
1.4482
  0
LINE
  8
St
  6
CONTINUOUS
 62
   127
 10
87.56504
 20
-1.051805
 11
63.565033
 21
-1.051805
  0
LINE
  8
St
  6
DOT
 62
   127
 10
83.065033
 20
-1.051805
 11
83.065033
 21
1.4482
  0
LINE
  8
St
  6
DOT
 62
   127
 10
68.065033
 20
-1.051805
 11
68.065033
 21
1.4482
  0
LINE
  8
St
  6
CONTINUOUS
 62
   127
 10
-15.436067
 20
-1.051805
 11
-15.436067
 21
1.4482
  0
LINE
  8
St
  6
CONTINUOUS
 62
   127
 10
8.563933
 20
1.4482
 11
-15.436067
 21
1.4482
  0
LINE
  8
St
  6
CONTINUOUS
 62
   127
 10
8.563933
 20
-1.051805
 11
8.563933
 21
1.4482
  0
LINE
  8
St
  6
CONTINUOUS
 62
   127
 10
8.563933
 20
-1.051805
 11
-15.436067
 21
-1.051805
  0
LINE
  8
St
  6
DOT
 62
   127
 10
4.063933
 20
-1.051805
 11
4.063933
 21
1.4482
  0
LINE
  8
St
  6
DOT
 62
   127
 10
-10.936067
 20
-1.051805
 11
-10.936067
 21
1.4482
  0
LINE
  8
St
  6
CONTINUOUS
 62
   127
 10
-15.436067
 20
23.948185
 11
-15.436067
 21
26.448198
  0
LINE
  8
St
  6
CONTINUOUS
 62
   127
 10
8.563933
 20
26.448198
 11
-15.436067
 21
26.448198
  0
LINE
  8
St
  6
CONTINUOUS
 62
   127
 10
8.563933
 20
23.948185
 11
8.563933
 21
26.448198
  0
LINE
  8
St
  6
CONTINUOUS
 62
   127
 10
8.563933
 20
23.948185
 11
-15.436067
 21
23.948185
  0
LINE
  8
St
  6
DOT
 62
   127
 10
4.063933
 20
23.948185
 11
4.063933
 21
26.448198
  0
LINE
  8
St
  6
DOT
 62
   127
 10
-10.936067
 20
23.948185
 11
-10.936067
 21
26.448198
  0
LINE
  8
St
  6
CONTINUOUS
 62
   127
 10
-14.436063
 20
26.452698
 11
-14.436063
 21
27.952705
  0
LINE
  8
St
  6
CONTINUOUS
 62
   127
 10
7.563935
 20
27.952705
 11
-14.436063
 21
27.952705
  0
LINE
  8
St
  6
CONTINUOUS
 62
   127
 10
7.563935
 20
26.452698
 11
7.563935
 21
27.952705
  0
LINE
  8
St
  6
CONTINUOUS
 62
   127
 10
7.563935
 20
26.452698
 11
-14.436063
 21
26.452698
  0
LINE
  8
St
  6
DOT
 62
   127
 10
-8.686067
 20
26.452698
 11
-8.686067
 21
27.952705
  0
LINE
  8
St
  6
DOT
 62
   127
 10
1.813925
 20
26.452698
 11
1.813925
 21
27.952705
  0
LINE
  8
St
  6
DASHDOTX2
 62
   127
 10
-3.436067
 20
-43.05182
 11
-3.436067
 21
37.85272
  0
LINE
  8
St
  6
DASHDOTX2
 62
   127
 10
75.565033
 20
-43.05182
 11
75.565033
 21
37.85272
  0
LINE
  8
St
  6
CONTINUOUS
 62
   127
 10
85.365035
 20
33.741063
 11
84.657928
 21
34.4482
  0
LINE
  8
St
  6
CONTINUOUS
 62
   127
 10
66.472137
 20
34.4482
 11
65.76503
 21
33.741063
  0
LINE
  8
St
  6
CONTINUOUS
 62
   127
 10
71.125677
 20
33.741063
 11
70.418592
 21
34.4482
  0
LINE
  8
St
  6
CONTINUOUS
 62
   127
 10
80.065025
 20
33.741063
 11
79.357925
 21
34.4482
  0
LINE
  8
St
  6
CONTINUOUS
 62
   127
 10
71.125677
 20
33.741063
 11
71.832815
 21
34.4482
  0
LINE
  8
St
  6
CONTINUOUS
 62
   127
 10
80.065025
 20
33.741063
 11
79.357925
 21
34.4482
  0
LINE
  8
St
  6
CONTINUOUS
 62
   127
 10
80.065025
 20
33.741063
 11
80.772133
 21
34.4482
  0
LINE
  8
St
  6
CONTINUOUS
 62
   127
 10
68.315037
 20
34.948202
 11
68.315037
 21
36.368477
  0
LINE
  8
St
  6
CONTINUOUS
 62
   127
 10
67.815035
 20
34.4482
 11
66.472137
 21
34.4482
  0
LINE
  8
St
  6
CONTINUOUS
 62
   127
 10
82.815035
 20
34.948202
 11
82.815035
 21
36.368477
  0
LINE
  8
St
  6
CONTINUOUS
 62
   127
 10
83.315037
 20
34.4482
 11
84.657928
 21
34.4482
  0
LINE
  8
St
  6
CONTINUOUS
 62
   127
 10
83.315037
 20
34.4482
 11
67.815035
 21
34.4482
  0
LINE
  8
St
  6
CONTINUOUS
 62
   127
 10
66.472137
 20
26.448198
 11
65.76503
 21
27.155305
  0
LINE
  8
St
  6
CONTINUOUS
 62
   127
 10
65.76503
 20
33.741063
 11
65.76503
 21
27.155305
  0
LINE
  8
St
  6
CONTINUOUS
 62
   127
 10
85.365035
 20
33.741063
 11
85.365035
 21
27.155305
  0
LINE
  8
St
  6
CONTINUOUS
 62
   127
 10
84.657928
 20
26.448198
 11
85.365035
 21
27.155305
  0
LINE
  8
St
  6
CONTINUOUS
 62
   127
 10
66.472137
 20
26.448198
 11
84.657928
 21
26.448198
  0
LINE
  8
St
  6
CONTINUOUS
 62
   127
 10
71.125677
 20
27.155305
 11
70.418592
 21
26.448168
  0
LINE
  8
St
  6
CONTINUOUS
 62
   127
 10
80.065025
 20
27.155305
 11
79.357925
 21
26.448168
  0
LINE
  8
St
  6
CONTINUOUS
 62
   127
 10
71.125677
 20
27.155305
 11
71.832815
 21
26.448168
  0
LINE
  8
St
  6
CONTINUOUS
 62
   127
 10
80.065025
 20
27.155305
 11
79.357925
 21
26.448168
  0
LINE
  8
St
  6
CONTINUOUS
 62
   127
 10
80.065025
 20
27.155305
 11
80.772133
 21
26.448168
  0
LINE
  8
St
  6
CONTINUOUS
 62
   127
 10
71.125677
 20
33.741063
 11
71.125677
 21
27.155305
  0
LINE
  8
St
  6
CONTINUOUS
 62
   127
 10
80.065025
 20
33.741063
 11
80.065025
 21
27.155305
  0
LINE
  8
St
  6
DASHDOTX2
 62
   127
 10
75.565033
 20
41.9482
 11
75.565033
 21
26.448198
  0
LINE
  8
St
  6
CONTINUOUS
 62
   127
 10
6.363935
 20
35.24107
 11
5.656827
 21
35.9482
  0
LINE
  8
St
  6
CONTINUOUS
 62
   127
 10
-12.528963
 20
35.9482
 11
-13.23607
 21
35.24107
  0
LINE
  8
St
  6
CONTINUOUS
 62
   127
 10
-7.875422
 20
35.24107
 11
-8.582507
 21
35.9482
  0
LINE
  8
St
  6
CONTINUOUS
 62
   127
 10
1.063925
 20
35.24107
 11
0.356825
 21
35.9482
  0
LINE
  8
St
  6
CONTINUOUS
 62
   127
 10
-7.875422
 20
35.24107
 11
-7.168285
 21
35.9482
  0
LINE
  8
St
  6
CONTINUOUS
 62
   127
 10
1.063925
 20
35.24107
 11
0.356825
 21
35.9482
  0
LINE
  8
St
  6
CONTINUOUS
 62
   127
 10
1.063925
 20
35.24107
 11
1.771033
 21
35.9482
  0
LINE
  8
St
  6
CONTINUOUS
 62
   127
 10
-10.686063
 20
36.448202
 11
-10.686063
 21
37.868485
  0
LINE
  8
St
  6
CONTINUOUS
 62
   127
 10
-11.186065
 20
35.9482
 11
-12.528963
 21
35.9482
  0
LINE
  8
St
  6
CONTINUOUS
 62
   127
 10
3.813935
 20
36.448202
 11
3.813935
 21
37.868485
  0
LINE
  8
St
  6
CONTINUOUS
 62
   127
 10
4.313938
 20
35.9482
 11
5.656827
 21
35.9482
  0
LINE
  8
St
  6
CONTINUOUS
 62
   127
 10
4.313938
 20
35.9482
 11
-11.186065
 21
35.9482
  0
LINE
  8
St
  6
CONTINUOUS
 62
   127
 10
-12.528963
 20
27.948198
 11
-13.23607
 21
28.655313
  0
LINE
  8
St
  6
CONTINUOUS
 62
   127
 10
-13.23607
 20
35.24107
 11
-13.23607
 21
28.655313
  0
LINE
  8
St
  6
CONTINUOUS
 62
   127
 10
6.363935
 20
35.24107
 11
6.363935
 21
28.655313
  0
LINE
  8
St
  6
CONTINUOUS
 62
   127
 10
5.656827
 20
27.948198
 11
6.363935
 21
28.655313
  0
LINE
  8
St
  6
CONTINUOUS
 62
   127
 10
-12.528963
 20
27.948198
 11
5.656827
 21
27.948198
  0
LINE
  8
St
  6
CONTINUOUS
 62
   127
 10
-7.875422
 20
28.655313
 11
-8.582507
 21
27.948175
  0
LINE
  8
St
  6
CONTINUOUS
 62
   127
 10
1.063925
 20
28.655313
 11
0.356825
 21
27.948175
  0
LINE
  8
St
  6
CONTINUOUS
 62
   127
 10
-7.875422
 20
28.655313
 11
-7.168285
 21
27.948175
  0
LINE
  8
St
  6
CONTINUOUS
 62
   127
 10
1.063925
 20
28.655313
 11
0.356825
 21
27.948175
  0
LINE
  8
St
  6
CONTINUOUS
 62
   127
 10
1.063925
 20
28.655313
 11
1.771033
 21
27.948175
  0
LINE
  8
St
  6
CONTINUOUS
 62
   127
 10
-7.875422
 20
35.24107
 11
-7.875422
 21
28.655313
  0
LINE
  8
St
  6
CONTINUOUS
 62
   127
 10
1.063925
 20
35.24107
 11
1.063925
 21
28.655313
  0
LINE
  8
St
  6
DASHDOTX2
 62
   127
 10
-3.436067
 20
43.4482
 11
-3.436067
 21
27.948198
  0
LINE
  8
St
  6
CONTINUOUS
 62
   127
 10
97.06502
 20
18.948198
 11
89.06504
 21
18.948198
  0
LINE
  8
St
  6
CONTINUOUS
 62
   127
 10
62.065018
 20
18.948198
 11
54.065037
 21
18.948198
  0
LINE
  8
St
  6
CONTINUOUS
 62
   127
 10
-14.93566
 20
1.448163
 11
-15.93586
 21
2.44834
  0
LINE
  8
St
  6
CONTINUOUS
 62
   127
 10
-14.93566
 20
1.448163
 11
-21.936032
 21
1.448163
  0
LINE
  8
St
  6
CONTINUOUS
 62
   127
 10
-21.936032
 20
1.448163
 11
-20.935855
 21
2.44834
  0
LINE
  8
St
  6
CONTINUOUS
 62
   127
 10
15.064325
 20
1.448163
 11
14.06414
 21
2.44834
  0
LINE
  8
St
  6
CONTINUOUS
 62
   127
 10
8.063945
 20
1.448163
 11
15.064325
 21
1.448163
  0
LINE
  8
St
  6
CONTINUOUS
 62
   127
 10
8.063945
 20
1.448163
 11
9.064145
 21
2.44834
  0
LINE
  8
St
  6
DASHDOT
 62
   127
 10
11.564157
 20
1.448163
 11
11.564157
 21
10.948345
  0
LINE
  8
St
  6
DASHDOT
 62
   127
 10
-18.435858
 20
1.448163
 11
-18.435858
 21
10.948345
  0
LINE
  8
St
  6
DOT
 62
   127
 10
65.06504
 20
26.44822
 11
86.065055
 21
26.44822
  0
LINE
  8
St
  6
DOT
 62
   127
 10
82.565022
 20
1.4482
 11
82.565022
 21
26.44822
  0
LINE
  8
St
  6
DOT
 62
   127
 10
68.564998
 20
1.4482
 11
68.564998
 21
26.44822
  0
LINE
  8
St
  6
CONTINUOUS
 62
   127
 10
98.065033
 20
18.948198
 11
98.065033
 21
28.948202
  0
LINE
  8
St
  6
CONTINUOUS
 62
   127
 10
98.065033
 20
18.948198
 11
53.065033
 21
18.948198
  0
LINE
  8
St
  6
CONTINUOUS
 62
   127
 10
53.065033
 20
18.948198
 11
53.065033
 21
28.948202
  0
LINE
  8
St
  6
CONTINUOUS
 62
   127
 10
98.065033
 20
28.948202
 11
53.065033
 21
28.948202
  0
LINE
  8
St
  6
CONTINUOUS
 62
   127
 10
57.56504
 20
1.4482
 11
93.565033
 21
1.4482
  0
LINE
  8
St
  6
CONTINUOUS
 62
   127
 10
93.565033
 20
1.4482
 11
93.565033
 21
18.948198
  0
LINE
  8
St
  6
CONTINUOUS
 62
   127
 10
57.56504
 20
1.4482
 11
57.56504
 21
18.948198
  0
LINE
  8
St
  6
DOT
 62
   127
 10
55.315033
 20
18.948198
 11
55.315033
 21
28.948202
  0
LINE
  8
St
  6
DOT
 62
   127
 10
60.815037
 20
18.948198
 11
60.815037
 21
28.948202
  0
LINE
  8
St
  6
DOT
 62
   127
 10
90.315035
 20
18.948198
 11
90.315035
 21
28.948202
  0
LINE
  8
St
  6
DOT
 62
   127
 10
95.815025
 20
18.948198
 11
95.815025
 21
28.948202
  0
LINE
  8
St
  6
DASHDOTX2
 62
   127
 10
58.065027
 20
16.948187
 11
58.065027
 21
30.948213
  0
LINE
  8
St
  6
DASHDOTX2
 62
   127
 10
93.06503
 20
16.948187
 11
93.06503
 21
30.948213
  0
LINE
  8
St
  6
DOTX2
 62
   127
 10
63.06503
 20
1.4482
 11
63.06503
 21
18.948198
  0
LINE
  8
St
  6
DOTX2
 62
   127
 10
88.065027
 20
1.4482
 11
88.065027
 21
18.948198
  0
LINE
  8
St
  6
CONTINUOUS
 62
   127
 10
55.565045
 20
18.948198
 11
55.565045
 21
33.24109
  0
LINE
  8
St
  6
CONTINUOUS
 62
   127
 10
59.857902
 20
18.948198
 11
59.857902
 21
33.24109
  0
LINE
  8
St
  6
CONTINUOUS
 62
   127
 10
60.56501
 20
18.948198
 11
60.56501
 21
33.24109
  0
LINE
  8
St
  6
CONTINUOUS
 62
   127
 10
56.272153
 20
18.948198
 11
56.272153
 21
33.948198
  0
LINE
  8
St
  6
DASHDOT
 62
   127
 10
58.065027
 20
13.948202
 11
58.065027
 21
33.948198
  0
LINE
  8
St
  6
CONTINUOUS
 62
   127
 10
90.565048
 20
18.948198
 11
90.565048
 21
33.24109
  0
LINE
  8
St
  6
CONTINUOUS
 62
   127
 10
95.565013
 20
18.948198
 11
95.565013
 21
33.24109
  0
LINE
  8
St
  6
CONTINUOUS
 62
   127
 10
90.565048
 20
33.24109
 11
95.565013
 21
33.24109
  0
LINE
  8
St
  6
CONTINUOUS
 62
   127
 10
94.857905
 20
18.948198
 11
94.857905
 21
33.948198
  0
LINE
  8
St
  6
CONTINUOUS
 62
   127
 10
91.272155
 20
18.948198
 11
91.272155
 21
33.948198
  0
LINE
  8
St
  6
CONTINUOUS
 62
   127
 10
91.272155
 20
33.948198
 11
94.857905
 21
33.948198
  0
LINE
  8
St
  6
DASHDOT
 62
   127
 10
93.06503
 20
13.948202
 11
93.06503
 21
33.948198
  0
LINE
  8
St
  6
DOT
 62
   127
 10
-10.436065
 20
-4.551807
 11
3.56393
 21
-4.551807
  0
LINE
  8
St
  6
DOT
 62
   127
 10
-10.436065
 20
-4.551807
 11
-10.436065
 21
-1.551807
  0
LINE
  8
St
  6
DOT
 62
   127
 10
3.56393
 20
-4.551807
 11
3.56393
 21
-1.551807
  0
LINE
  8
St
  6
DOT
 62
   127
 10
-8.436063
 20
-4.551807
 11
-8.436063
 21
-56.128513
  0
LINE
  8
St
  6
DOT
 62
   127
 10
1.563927
 20
-4.551807
 11
1.563927
 21
-56.128513
  0
LINE
  8
St
  6
DOT
 62
   127
 10
68.565035
 20
-4.551807
 11
82.56503
 21
-4.551807
  0
LINE
  8
St
  6
DOT
 62
   127
 10
68.565035
 20
-4.551807
 11
68.565035
 21
-1.551807
  0
LINE
  8
St
  6
DOT
 62
   127
 10
82.56503
 20
-4.551807
 11
82.56503
 21
-1.551807
  0
LINE
  8
St
  6
DOT
 62
   127
 10
70.565045
 20
-4.551807
 11
70.565045
 21
-56.128513
  0
LINE
  8
St
  6
DOT
 62
   127
 10
80.565027
 20
-4.551807
 11
80.565027
 21
-56.128513
  0
LINE
  8
St
  6
CONTINUOUS
 62
   127
 10
68.665003
 20
-4.551807
 11
68.665003
 21
26.448198
  0
LINE
  8
St
  6
CONTINUOUS
 62
   127
 10
82.465018
 20
26.448198
 11
82.465018
 21
-4.551807
  0
LINE
  8
St
  6
CONTINUOUS
 62
   127
 10
68.665003
 20
-4.551807
 11
82.465018
 21
-4.551807
  0
LINE
  8
St
  6
CONTINUOUS
 62
   127
 10
79.565022
 20
-52.551807
 11
71.56502
 21
-52.551807
  0
LINE
  8
St
  6
CONTINUOUS
 62
   127
 10
80.565027
 20
-51.55178
 11
70.565015
 21
-51.55178
  0
LINE
  8
St
  6
CONTINUOUS
 62
   127
 10
80.565027
 20
-51.55178
 11
79.565022
 21
-52.551807
  0
LINE
  8
St
  6
CONTINUOUS
 62
   127
 10
70.565015
 20
-51.55178
 11
71.56502
 21
-52.551807
  0
LINE
  8
St
  6
CONTINUOUS
 62
   127
 10
80.565042
 20
-27.551795
 11
70.56503
 21
-27.551795
  0
LINE
  8
St
  6
CONTINUOUS
 62
   127
 10
70.565015
 20
-51.55178
 11
70.565015
 21
-4.551807
  0
LINE
  8
St
  6
CONTINUOUS
 62
   127
 10
80.565027
 20
-51.55178
 11
80.565027
 21
-4.551807
  0
LINE
  8
St
  6
CONTINUOUS
 62
   127
 10
79.815035
 20
-52.301765
 11
79.815035
 21
-27.551795
  0
LINE
  8
St
  6
CONTINUOUS
 62
   127
 10
71.315007
 20
-52.301765
 11
71.315007
 21
-27.551795
  0
LINE
  8
St
  6
CONTINUOUS
 62
   127
 10
-8.436085
 20
36.852693
 11
-8.436085
 21
26.452698
  0
LINE
  8
St
  6
CONTINUOUS
 62
   127
 10
-7.686092
 20
37.602685
 11
-7.686092
 21
26.452698
  0
LINE
  8
St
  6
CONTINUOUS
 62
   127
 10
0.563923
 20
37.85272
 11
-7.43608
 21
37.85272
  0
LINE
  8
St
  6
CONTINUOUS
 62
   127
 10
1.563927
 20
36.852693
 11
-8.436085
 21
36.852693
  0
LINE
  8
St
  6
CONTINUOUS
 62
   127
 10
0.813935
 20
37.602685
 11
0.813935
 21
26.452698
  0
LINE
  8
St
  6
CONTINUOUS
 62
   127
 10
1.563927
 20
36.852693
 11
1.563927
 21
26.452698
  0
LINE
  8
St
  6
CONTINUOUS
 62
   127
 10
1.563927
 20
36.852693
 11
0.563923
 21
37.85272
  0
LINE
  8
St
  6
CONTINUOUS
 62
   127
 10
-8.436085
 20
36.852693
 11
-7.43608
 21
37.85272
  0
LINE
  8
St
  6
CONTINUOUS
 62
   127
 10
-10.336097
 20
26.448198
 11
3.463918
 21
26.448198
  0
LINE
  8
St
  6
CONTINUOUS
 62
   127
 10
-10.336097
 20
-4.551807
 11
-10.336097
 21
26.448198
  0
LINE
  8
St
  6
CONTINUOUS
 62
   127
 10
3.463918
 20
26.448198
 11
3.463918
 21
-4.551807
  0
LINE
  8
St
  6
CONTINUOUS
 62
   127
 10
-10.336097
 20
-4.551807
 11
3.463918
 21
-4.551807
  0
LINE
  8
St
  6
CONTINUOUS
 62
   127
 10
0.563923
 20
-52.551807
 11
-7.43608
 21
-52.551807
  0
LINE
  8
St
  6
CONTINUOUS
 62
   127
 10
1.563927
 20
-51.55178
 11
-8.436085
 21
-51.55178
  0
LINE
  8
St
  6
CONTINUOUS
 62
   127
 10
1.563927
 20
-51.55178
 11
0.563923
 21
-52.551807
  0
LINE
  8
St
  6
CONTINUOUS
 62
   127
 10
-8.436085
 20
-51.55178
 11
-7.43608
 21
-52.551807
  0
LINE
  8
St
  6
CONTINUOUS
 62
   127
 10
1.563935
 20
-27.551795
 11
-8.43607
 21
-27.551795
  0
LINE
  8
St
  6
CONTINUOUS
 62
   127
 10
-8.436085
 20
-51.55178
 11
-8.436085
 21
-4.551807
  0
LINE
  8
St
  6
CONTINUOUS
 62
   127
 10
1.563927
 20
-51.55178
 11
1.563927
 21
-4.551807
  0
LINE
  8
St
  6
CONTINUOUS
 62
   127
 10
0.813935
 20
-52.301765
 11
0.813935
 21
-27.551795
  0
LINE
  8
St
  6
CONTINUOUS
 62
   127
 10
-7.686092
 20
-52.301765
 11
-7.686092
 21
-27.551795
  0
LINE
  8
St
  6
CONTINUOUS
 62
   127
 10
87.990042
 20
28.948202
 11
87.990042
 21
31.94821
  0
LINE
  8
St
  6
DOT
 62
   127
 10
86.065055
 20
26.44822
 11
86.065055
 21
31.94821
  0
LINE
  8
St
  6
CONTINUOUS
 62
   127
 10
63.140045
 20
28.948202
 11
63.140045
 21
31.94821
  0
LINE
  8
St
  6
CONTINUOUS
 62
   127
 10
87.990042
 20
31.94821
 11
63.140045
 21
31.94821
  0
LINE
  8
St
  6
DOT
 62
   127
 10
65.06504
 20
26.44822
 11
65.06504
 21
31.94821
  0
CIRCLE
  8
St
  6
CONTINUOUS
 62
   127
 10
-3.436067
 20
-43.05182
 40
13.999995
  0
ARC
  8
St
  6
CONTINUOUS
 62
   127
 10
-7.766314
 20
-8.203427
 40
3.149353
 50
62.71606
 51
89.994507
  0
ARC
  8
St
  6
CONTINUOUS
 62
   127
 10
-3.436068
 20
-17.126107
 40
12.072068
 50
76.159304
 51
103.829709
  0
ARC
  8
St
  6
CONTINUOUS
 62
   127
 10
0.89403
 20
-8.203427
 40
3.149353
 50
89.994522
 51
117.272969
  0
ARC
  8
St
  6
CONTINUOUS
 62
   127
 10
14.563991
 20
-15.054071
 40
2.5
 50
101.531655
 51
258.460121
  0
ARC
  8
St
  6
CONTINUOUS
 62
   127
 10
13.563939
 20
-18.054081
 40
0.5
 50
269.997253
 51
359.998627
  0
ARC
  8
St
  6
CONTINUOUS
 62
   127
 10
13.563939
 20
-12.054061
 40
0.5
 50
359.998627
 51
449.994507
  0
ARC
  8
St
  6
CONTINUOUS
 62
   127
 10
-21.436127
 20
-15.054071
 40
2.5
 50
281.534401
 51
438.457374
  0
ARC
  8
St
  6
CONTINUOUS
 62
   127
 10
-20.436075
 20
-18.054081
 40
0.5
 50
179.99588
 51
269.997253
  0
ARC
  8
St
  6
CONTINUOUS
 62
   127
 10
-20.436075
 20
-12.054061
 40
0.5
 50
89.994507
 51
179.99588
  0
ARC
  8
St
  6
CONTINUOUS
 62
   127
 10
-3.436068
 20
-43.039985
 40
15.249999
 50
119.435859
 51
420.558663
  0
ARC
  8
St
  6
CONTINUOUS
 62
   127
 10
3.813944
 20
-30.194765
 40
0.5
 50
60.558663
 51
179.99588
  0
ARC
  8
St
  6
CONTINUOUS
 62
   127
 10
-10.686061
 20
-30.194765
 40
0.5
 50
359.998642
 51
479.435874
  0
CIRCLE
  8
St
  6
CONTINUOUS
 62
   127
 10
75.565033
 20
-43.05182
 40
13.999995
  0
ARC
  8
St
  6
CONTINUOUS
 62
   127
 10
71.234788
 20
-8.203427
 40
3.149353
 50
62.71606
 51
89.994507
  0
ARC
  8
St
  6
CONTINUOUS
 62
   127
 10
75.565034
 20
-17.126107
 40
12.072068
 50
76.159304
 51
103.829709
  0
ARC
  8
St
  6
CONTINUOUS
 62
   127
 10
79.895132
 20
-8.203427
 40
3.149353
 50
89.994522
 51
117.272969
  0
ARC
  8
St
  6
CONTINUOUS
 62
   127
 10
93.565093
 20
-15.054071
 40
2.5
 50
101.531655
 51
258.460121
  0
ARC
  8
St
  6
CONTINUOUS
 62
   127
 10
92.565041
 20
-18.054081
 40
0.5
 50
269.997253
 51
359.998627
  0
ARC
  8
St
  6
CONTINUOUS
 62
   127
 10
92.565041
 20
-12.054061
 40
0.5
 50
359.998627
 51
449.994507
  0
ARC
  8
St
  6
CONTINUOUS
 62
   127
 10
57.564975
 20
-15.054071
 40
2.5
 50
281.534401
 51
438.457374
  0
ARC
  8
St
  6
CONTINUOUS
 62
   127
 10
58.565027
 20
-18.054081
 40
0.5
 50
179.99588
 51
269.997253
  0
ARC
  8
St
  6
CONTINUOUS
 62
   127
 10
58.565027
 20
-12.054061
 40
0.5
 50
89.994507
 51
179.99588
  0
ARC
  8
St
  6
CONTINUOUS
 62
   127
 10
75.565034
 20
-43.039985
 40
15.249999
 50
119.435859
 51
420.558663
  0
ARC
  8
St
  6
CONTINUOUS
 62
   127
 10
82.815046
 20
-30.194765
 40
0.5
 50
60.558663
 51
179.99588
  0
ARC
  8
St
  6
CONTINUOUS
 62
   127
 10
68.315047
 20
-30.194765
 40
0.5
 50
359.998642
 51
479.435874
  0
ARC
  8
St
  6
CONTINUOUS
 62
   127
 10
75.565034
 20
34.448208
 40
7.5
 50
14.833936
 51
165.160571
  0
ARC
  8
St
  6
CONTINUOUS
 62
   127
 10
67.815033
 20
34.94821
 40
0.5
 50
269.997253
 51
359.998627
  0
ARC
  8
St
  6
CONTINUOUS
 62
   127
 10
83.315035
 20
34.94821
 40
0.5
 50
179.99588
 51
269.997253
  0
ARC
  8
St
  6
CONTINUOUS
 62
   127
 10
-3.436068
 20
35.948213
 40
7.5
 50
14.833936
 51
165.160571
  0
ARC
  8
St
  6
CONTINUOUS
 62
   127
 10
-11.186069
 20
36.448214
 40
0.5
 50
269.997253
 51
359.998627
  0
ARC
  8
St
  6
CONTINUOUS
 62
   127
 10
4.313933
 20
36.448214
 40
0.5
 50
179.99588
 51
269.997253
  0
ARC
  8
St
  6
CONTINUOUS
 10
95.56523
 20
43.948208
 40
5.0
 50
0.0
 51
90.0
  0
LINE
  8
St
  6
CONTINUOUS
 62
   127
 10
100.565232
 20
33.948205
 11
100.565232
 21
43.948195
  0
ARC
  8
St
  6
CONTINUOUS
 10
95.56523
 20
33.948213
 40
5.0
 50
270.0
 51
360.0
  0
LINE
  8
St
  6
CONTINUOUS
 62
   127
 10
55.565255
 20
48.948198
 11
95.56523
 21
48.948198
  0
ARC
  8
St
  6
CONTINUOUS
 10
55.56525
 20
43.948208
 40
5.0
 50
90.0
 51
180.0
  0
LINE
  8
St
  6
CONTINUOUS
 62
   127
 10
50.565252
 20
33.948205
 11
50.565252
 21
43.948195
  0
LINE
  8
St
  6
CONTINUOUS
 62
   127
 10
55.565255
 20
28.948202
 11
95.56523
 21
28.948202
  0
ARC
  8
St
  6
CONTINUOUS
 10
55.56525
 20
33.948213
 40
5.0
 50
180.0
 51
270.0
  0
ARC
  8
St
  6
CONTINUOUS
 10
55.565235
 20
33.948205
 40
2.3
 50
180.0
 51
270.0
  0
LINE
  8
St
  6
CONTINUOUS
 62
   127
 10
53.265237
 20
33.948198
 11
53.265237
 21
43.948202
  0
ARC
  8
St
  6
CONTINUOUS
 10
55.565235
 20
43.948215
 40
2.3
 50
90.0
 51
180.0
  0
LINE
  8
St
  6
CONTINUOUS
 62
   127
 10
55.56524
 20
46.248205
 11
95.565222
 21
46.248205
  0
ARC
  8
St
  6
CONTINUOUS
 10
95.565222
 20
43.948215
 40
2.3
 50
0.0
 51
90.0
  0
LINE
  8
St
  6
CONTINUOUS
 62
   127
 10
97.865225
 20
33.948198
 11
97.865225
 21
43.948202
  0
LINE
  8
St
  6
CONTINUOUS
 62
   127
 10
55.56524
 20
31.648195
 11
95.565222
 21
31.648195
  0
ARC
  8
St
  6
CONTINUOUS
 10
95.565222
 20
33.948205
 40
2.3
 50
270.0
 51
360.0
  0
ARC
  8
St
  6
CONTINUOUS
 10
16.56416
 20
8.948178
 40
5.0
 50
-90.0
 51
0.0
  0
LINE
  8
St
  6
CONTINUOUS
 62
   127
 10
21.564163
 20
8.94817
 11
21.564163
 21
18.948183
  0
ARC
  8
St
  6
CONTINUOUS
 10
16.56416
 20
18.948195
 40
5.0
 50
0.0
 51
90.0
  0
LINE
  8
St
  6
CONTINUOUS
 62
   127
 10
-23.435852
 20
23.948185
 11
16.56416
 21
23.948185
  0
ARC
  8
St
  6
CONTINUOUS
 10
-23.435858
 20
18.948195
 40
5.0
 50
90.0
 51
180.0
  0
LINE
  8
St
  6
CONTINUOUS
 62
   127
 10
-28.435855
 20
8.94817
 11
-28.435855
 21
18.948183
  0
LINE
  8
St
  6
CONTINUOUS
 62
   127
 10
-23.435852
 20
3.948168
 11
16.56416
 21
3.948168
  0
ARC
  8
St
  6
CONTINUOUS
 10
-23.435858
 20
8.948178
 40
5.0
 50
180.0
 51
270.0
  0
ARC
  8
St
  6
CONTINUOUS
 10
-23.435865
 20
8.948193
 40
2.3
 50
180.0
 51
270.0
  0
LINE
  8
St
  6
CONTINUOUS
 62
   127
 10
-25.735862
 20
8.948185
 11
-25.735862
 21
18.948198
  0
ARC
  8
St
  6
CONTINUOUS
 10
-23.435865
 20
18.94821
 40
2.3
 50
90.0
 51
180.0
  0
LINE
  8
St
  6
CONTINUOUS
 62
   127
 10
-23.43586
 20
6.648183
 11
16.564175
 21
6.648183
  0
ARC
  8
St
  6
CONTINUOUS
 10
16.564175
 20
8.948193
 40
2.3
 50
-90.0
 51
0.0
  0
LINE
  8
St
  6
CONTINUOUS
 62
   127
 10
18.864178
 20
8.948185
 11
18.864178
 21
18.948198
  0
LINE
  8
St
  6
CONTINUOUS
 62
   127
 10
-23.43586
 20
21.2482
 11
16.564175
 21
21.2482
  0
ARC
  8
St
  6
CONTINUOUS
 10
16.564175
 20
18.94821
 40
2.3
 50
0.0
 51
90.0
  0
LINE
  8
St
  6
DASHDOT
 10
36.064692
 20
48.948198
 11
36.064692
 21
3.948183
  0
LINE
  8
St
  6
DOT
 62
   127
 10
55.56524
 20
3.948175
 11
95.565222
 21
3.948175
  0
ARC
  8
St
  6
DOT
 10
55.565225
 20
8.94817
 40
5.0
 50
180.0
 51
270.0
  0
LINE
  8
St
  6
DOT
 62
   127
 10
50.565222
 20
8.948163
 11
50.565222
 21
18.948175
  0
ARC
  8
St
  6
DOT
 10
55.565225
 20
18.948188
 40
5.0
 50
90.0
 51
180.0
  0
LINE
  8
St
  6
DOT
 62
   127
 10
95.565237
 20
23.948178
 11
55.565225
 21
23.948178
  0
ARC
  8
St
  6
DOT
 10
95.565243
 20
18.948188
 40
5.0
 50
0.0
 51
90.0
  0
LINE
  8
St
  6
DOT
 62
   127
 10
100.56524
 20
8.948163
 11
100.56524
 21
18.948175
  0
ARC
  8
St
  6
DOT
 10
95.565243
 20
8.94817
 40
5.0
 50
-90.0
 51
0.0
  0
ARC
  8
St
  6
DOT
 10
95.56525
 20
8.948185
 40
2.3
 50
270.0
 51
360.0
  0
LINE
  8
St
  6
DOT
 62
   127
 10
97.865248
 20
8.948178
 11
97.865248
 21
18.94819
  0
ARC
  8
St
  6
DOT
 10
95.56525
 20
18.948203
 40
2.3
 50
0.0
 51
90.0
  0
LINE
  8
St
  6
DOT
 62
   127
 10
95.565245
 20
6.648175
 11
55.56521
 21
6.648175
  0
ARC
  8
St
  6
DOT
 10
55.56521
 20
8.948185
 40
2.3
 50
180.0
 51
270.0
  0
LINE
  8
St
  6
DOT
 62
   127
 10
53.265207
 20
8.948178
 11
53.265207
 21
18.94819
  0
LINE
  8
St
  6
DOT
 62
   127
 10
95.565245
 20
21.248193
 11
55.56521
 21
21.248193
  0
ARC
  8
St
  6
DOT
 10
55.56521
 20
18.948203
 40
2.3
 50
90.0
 51
180.0
  0
LINE
  8
St
  6
DOT
 62
   127
 10
16.564145
 20
28.948187
 11
-23.435837
 21
28.948187
  0
ARC
  8
St
  6
DOT
 10
16.56416
 20
33.948183
 40
5.0
 50
-90.0
 51
0.0
  0
LINE
  8
St
  6
DOT
 62
   127
 10
21.564163
 20
33.948175
 11
21.564163
 21
43.948187
  0
ARC
  8
St
  6
DOT
 10
16.56416
 20
43.9482
 40
5.0
 50
0.0
 51
90.0
  0
LINE
  8
St
  6
DOT
 62
   127
 10
-23.435852
 20
48.94819
 11
16.56416
 21
48.94819
  0
ARC
  8
St
  6
DOT
 10
-23.435858
 20
43.9482
 40
5.0
 50
90.0
 51
180.0
  0
LINE
  8
St
  6
DOT
 62
   127
 10
-28.435855
 20
33.948175
 11
-28.435855
 21
43.948187
  0
ARC
  8
St
  6
DOT
 10
-23.435858
 20
33.948183
 40
5.0
 50
180.0
 51
270.0
  0
ARC
  8
St
  6
DOT
 10
-23.435865
 20
33.948198
 40
2.3
 50
180.0
 51
270.0
  0
LINE
  8
St
  6
DOT
 62
   127
 10
-25.735862
 20
33.94819
 11
-25.735862
 21
43.948202
  0
ARC
  8
St
  6
DOT
 10
-23.435865
 20
43.948215
 40
2.3
 50
90.0
 51
180.0
  0
LINE
  8
St
  6
DOT
 62
   127
 10
-23.43586
 20
31.648187
 11
16.564175
 21
31.648187
  0
ARC
  8
St
  6
DOT
 10
16.564175
 20
33.948198
 40
2.3
 50
-90.0
 51
0.0
  0
LINE
  8
St
  6
DOT
 62
   127
 10
18.864178
 20
33.94819
 11
18.864178
 21
43.948202
  0
LINE
  8
St
  6
DOT
 62
   127
 10
-23.43586
 20
46.248205
 11
16.564175
 21
46.248205
  0
ARC
  8
St
  6
DOT
 10
16.564175
 20
43.948215
 40
2.3
 50
0.0
 51
90.0
  0
LINE
  8
St
  6
DOT
 10
55.315033
 20
48.948198
 11
16.56416
 21
48.948198
  0
LINE
  8
St
  6
DOT
 10
55.315033
 20
28.948202
 11
16.579145
 21
28.948202
  0
LINE
  8
St
  6
DOT
 10
16.564145
 20
3.948183
 11
55.552993
 21
3.948183
  0
LINE
  8
St
  6
DOT
 10
16.564145
 20
23.948185
 11
55.565225
 21
23.948185
  0
ENDBLK
  0
BLOCK
  2
*GRP_0066
 70
    65
 10
0.0
 20
0.0
  0
LINE
  8
補助線
  6
BYBLOCK
 62
     0
 10
75.565033
 20
-41.55182
 11
75.565033
 21
-44.55182
  0
LINE
  8
補助線
  6
BYBLOCK
 62
     0
 10
77.065033
 20
-43.05182
 11
74.065033
 21
-43.05182
  0
ENDBLK
  0
BLOCK
  2
*GRP_0067
 70
    65
 10
0.0
 20
0.0
  0
LINE
  8
補助線
  6
BYBLOCK
 62
     0
 10
-3.436067
 20
-41.55182
 11
-3.436067
 21
-44.55182
  0
LINE
  8
補助線
  6
BYBLOCK
 62
     0
 10
-1.936067
 20
-43.05182
 11
-4.936067
 21
-43.05182
  0
ENDBLK
  0
BLOCK
  2
*GRP_0068
 70
    65
 10
0.0
 20
0.0
  0
POLYLINE
  8
寸法
  6
CONTINUOUS
 66
     1
  0
VERTEX
  8
寸法
 10
63.68319
 20
55.451875
  0
VERTEX
  8
寸法
 10
34.326867
 20
63.255595
  0
VERTEX
  8
寸法
 10
34.326867
 20
69.888425
  0
SEQEND
  0
ENDBLK
  0
BLOCK
  2
*GRP_0069
 70
    65
 10
0.0
 20
0.0
  0
LINE
  8
寸法
  6
CONTINUOUS
 10
34.326867
 20
63.255595
 11
10.562687
 21
53.872015
  0
ENDBLK
  0
BLOCK
  2
M8横
 70
    64
 10
-88.370132
 20
140.837665
  0
LINE
  8
ボルト／ビス
 10
-95.870132
 20
140.837665
 11
-80.870132
 21
140.837665
  0
LINE
  8
ボルト／ビス
 10
-80.870132
 20
145.837665
 11
-81.370132
 21
146.337665
  0
POLYLINE
  8
ボルト／ビス
 66
     1
  0
VERTEX
  8
ボルト／ビス
 10
-84.120132
 20
146.337665
  0
VERTEX
  8
ボルト／ビス
 10
-84.620132
 20
145.837665
  0
VERTEX
  8
ボルト／ビス
 10
-85.120132
 20
146.337665
  0
SEQEND
  0
POLYLINE
  8
ボルト／ビス
 66
     1
  0
VERTEX
  8
ボルト／ビス
 10
-91.620132
 20
146.337665
  0
VERTEX
  8
ボルト／ビス
 10
-92.120132
 20
145.837665
  0
VERTEX
  8
ボルト／ビス
 10
-92.620132
 20
146.337665
  0
SEQEND
  0
LINE
  8
ボルト／ビス
 10
-95.370132
 20
146.337665
 11
-95.870132
 21
145.837665
  0
LINE
  8
ボルト／ビス
 10
-95.870132
 20
140.837665
 11
-95.870132
 21
145.837665
  0
LINE
  8
ボルト／ビス
 10
-80.870132
 20
140.837665
 11
-80.870132
 21
145.837665
  0
LINE
  8
ボルト／ビス
 10
-95.370132
 20
146.337665
 11
-81.370132
 21
146.337665
  0
LINE
  8
ボルト／ビス
 10
-84.620132
 20
140.837665
 11
-84.620132
 21
145.837665
  0
LINE
  8
ボルト／ビス
 10
-92.120132
 20
140.837665
 11
-92.120132
 21
145.837665
  0
ENDBLK
  0
BLOCK
  2
M8横横
 70
    64
 10
-129.398
 20
116.440225
  0
LINE
  8
ボルト／ビス
 10
-135.89319
 20
121.440225
 11
-135.39319
 21
121.940225
  0
LINE
  8
ボルト／ビス
 10
-123.40281
 20
121.940225
 11
-122.90281
 21
121.440225
  0
POLYLINE
  8
ボルト／ビス
 66
     1
  0
VERTEX
  8
ボルト／ビス
 10
-129.898
 20
121.940225
  0
VERTEX
  8
ボルト／ビス
 10
-129.398
 20
121.440225
  0
VERTEX
  8
ボルト／ビス
 10
-128.898
 20
121.940225
  0
SEQEND
  0
LINE
  8
ボルト／ビス
 10
-135.89319
 20
116.440225
 11
-122.90281
 21
116.440225
  0
LINE
  8
ボルト／ビス
 10
-129.398
 20
116.440225
 11
-129.398
 21
121.440225
  0
LINE
  8
ボルト／ビス
 10
-135.39319
 20
121.940225
 11
-123.40281
 21
121.940225
  0
LINE
  8
ボルト／ビス
 10
-122.90281
 20
116.440225
 11
-122.90281
 21
121.440225
  0
LINE
  8
ボルト／ビス
 10
-135.89319
 20
116.440225
 11
-135.89319
 21
121.440225
  0
ENDBLK
  0
ENDSEC
  0
SECTION
  2
ENTITIES
  0
POLYLINE
  8
通り芯
  6
CONTINUOUS
 66
     1
 70
     1
  0
VERTEX
  8
通り芯
 10
-210.0
 20
-148.5
  0
VERTEX
  8
通り芯
 10
210.0
 20
-148.5
  0
VERTEX
  8
通り芯
 10
210.0
 20
148.5
  0
VERTEX
  8
通り芯
 10
-210.0
 20
148.5
  0
SEQEND
  0
INSERT
  2
*GRP_0002
  8
補助線
  6
CONTINUOUS
 10
0.0
 20
0.0
  0
INSERT
  2
*GRP_0003
  8
補助線
  6
CONTINUOUS
 10
0.0
 20
0.0
  0
INSERT
  2
*GRP_0001
  8
型材断面
  6
CONTINUOUS
 10
0.0
 20
0.0
  0
INSERT
  2
*GRP_0004
  8
型材断面
  6
CONTINUOUS
 62
    47
 10
0.0
 20
0.0
  0
INSERT
  2
*GRP_0005
  8
型材断面
  6
CONTINUOUS
 62
    47
 10
0.0
 20
0.0
  0
INSERT
  2
*GRP_0006
  8
型材断面
  6
CONTINUOUS
 62
    47
 10
0.0
 20
0.0
  0
LINE
  8
型材断面
  6
CONTINUOUS
 62
    47
 10
104.647242
 20
-6.0518
 11
103.81391
 21
-4.551807
  0
LINE
  8
型材断面
  6
CONTINUOUS
 62
    47
 10
108.980585
 20
-6.0518
 11
109.81391
 21
-4.551807
  0
LINE
  8
型材断面
  6
CONTINUOUS
 62
    47
 10
109.188912
 20
-5.6768
 11
104.438907
 21
-5.6768
  0
LINE
  8
型材断面
  6
CONTINUOUS
 62
    47
 10
109.397248
 20
-5.3018
 11
104.230573
 21
-5.3018
  0
LINE
  8
型材断面
  6
CONTINUOUS
 62
    47
 10
109.605582
 20
-4.9268
 11
104.022237
 21
-4.9268
  0
LINE
  8
型材断面
  6
CONTINUOUS
 62
    47
 10
38.396532
 20
-26.051825
 11
37.563192
 21
-24.551825
  0
LINE
  8
型材断面
  6
CONTINUOUS
 62
    47
 10
42.729867
 20
-26.051825
 11
43.563192
 21
-24.551825
  0
LINE
  8
型材断面
  6
CONTINUOUS
 62
    47
 10
42.938195
 20
-25.676825
 11
38.188198
 21
-25.676825
  0
LINE
  8
型材断面
  6
CONTINUOUS
 62
    47
 10
43.14653
 20
-25.301825
 11
37.979862
 21
-25.301825
  0
LINE
  8
型材断面
  6
CONTINUOUS
 62
    47
 10
43.354858
 20
-24.926825
 11
37.771528
 21
-24.926825
  0
LINE
  8
型材断面
  6
CONTINUOUS
 62
    47
 10
26.062483
 20
-26.051825
 11
24.562483
 21
-26.051825
  0
ARC
  8
型材断面
  6
CONTINUOUS
 62
    47
 10
50.563929
 20
-24.551817
 40
1.5
 50
270.0
 51
360.0
  0
LINE
  8
型材断面
  6
CONTINUOUS
 62
    47
 10
24.562483
 20
-26.051825
 11
52.063925
 21
-26.051825
  0
LINE
  8
型材断面
  6
CONTINUOUS
 62
    47
 10
52.063925
 20
-26.051825
 11
52.063925
 21
-6.0518
  0
LINE
  8
型材断面
  6
CONTINUOUS
 62
    47
 10
50.563925
 20
-24.551825
 11
24.562483
 21
-24.551825
  0
LINE
  8
型材断面
  6
CONTINUOUS
 62
    47
 10
24.562483
 20
-24.551825
 11
24.562483
 21
-26.051825
  0
ARC
  8
型材断面
  6
CONTINUOUS
 62
    47
 10
52.063924
 20
-6.051801
 40
1.5
 50
90.0
 51
180.0
  0
LINE
  8
型材断面
  6
CONTINUOUS
 62
    47
 10
50.563925
 20
-24.551825
 11
50.563925
 21
-4.5518
  0
LINE
  8
型材断面
  6
CONTINUOUS
 62
    47
 10
122.563903
 20
-6.0518
 11
52.063925
 21
-6.0518
  0
LINE
  8
型材断面
  6
CONTINUOUS
 62
    47
 10
122.563903
 20
-4.5518
 11
50.563925
 21
-4.5518
  0
LINE
  8
型材断面
  6
CONTINUOUS
 10
62.06393
 20
-6.0518
 11
62.06393
 21
-4.5518
  0
LINE
  8
型材断面
  6
CONTINUOUS
 62
    47
 10
62.06393
 20
-5.6768
 11
89.06393
 21
-5.6768
  0
LINE
  8
型材断面
  6
CONTINUOUS
 62
    47
 10
62.06393
 20
-5.3018
 11
89.06393
 21
-5.3018
  0
LINE
  8
型材断面
  6
CONTINUOUS
 62
    47
 10
62.06393
 20
-4.9268
 11
89.06393
 21
-4.9268
  0
LINE
  8
型材断面
  6
CONTINUOUS
 10
89.06393
 20
-4.5518
 11
89.06393
 21
-6.0518
  0
INSERT
  2
*GRP_0007
  8
型材断面
  6
CONTINUOUS
 62
    63
 10
0.0
 20
0.0
  0
ARC
  8
型材断面
  6
CONTINUOUS
 10
-24.436087
 20
-75.725007
 40
0.695595
 50
0.0
 51
0.0
  0
LINE
  8
型材断面
  6
CONTINUOUS
 62
    47
 10
23.063923
 20
-52.45181
 11
23.897248
 21
-50.95181
  0
LINE
  8
型材断面
  6
CONTINUOUS
 62
    47
 10
29.063923
 20
-52.45181
 11
28.230582
 21
-50.95181
  0
LINE
  8
型材断面
  6
CONTINUOUS
 62
    47
 10
23.27225
 20
-52.07681
 11
28.855588
 21
-52.07681
  0
LINE
  8
型材断面
  6
CONTINUOUS
 62
    47
 10
23.480585
 20
-51.70181
 11
28.647252
 21
-51.70181
  0
LINE
  8
型材断面
  6
CONTINUOUS
 62
    47
 10
23.68892
 20
-51.32681
 11
28.438918
 21
-51.32681
  0
INSERT
  2
*GRP_0008
  8
型材断面
  6
CONTINUOUS
 62
    47
 10
0.0
 20
0.0
  0
LINE
  8
型材断面
  6
CONTINUOUS
 62
    47
 10
-14.936072
 20
-6.0518
 11
-14.936072
 21
-7.5518
  0
LINE
  8
型材断面
  6
CONTINUOUS
 62
    47
 10
8.06393
 20
-6.0518
 11
8.06393
 21
-7.5518
  0
LINE
  8
型材断面
  6
CONTINUOUS
 62
    47
 10
8.06393
 20
-7.1768
 11
-14.936072
 21
-7.1768
  0
LINE
  8
型材断面
  6
CONTINUOUS
 62
    47
 10
8.06393
 20
-6.8018
 11
-14.936072
 21
-6.8018
  0
LINE
  8
型材断面
  6
CONTINUOUS
 62
    47
 10
8.06393
 20
-6.4268
 11
-14.936072
 21
-6.4268
  0
LINE
  8
型材断面
  6
CONTINUOUS
 62
    47
 10
-32.102733
 20
-7.5518
 11
-32.936072
 21
-6.0518
  0
LINE
  8
型材断面
  6
CONTINUOUS
 62
    47
 10
-27.769398
 20
-7.5518
 11
-26.936072
 21
-6.0518
  0
LINE
  8
型材断面
  6
CONTINUOUS
 62
    47
 10
-32.311067
 20
-7.1768
 11
-27.56107
 21
-7.1768
  0
LINE
  8
型材断面
  6
CONTINUOUS
 62
    47
 10
-32.519402
 20
-6.8018
 11
-27.352735
 21
-6.8018
  0
LINE
  8
型材断面
  6
CONTINUOUS
 62
    47
 10
-32.727737
 20
-6.4268
 11
-27.1444
 21
-6.4268
  0
LINE
  8
型材断面
  6
CONTINUOUS
 62
    47
 10
27.81392
 20
-49.45181
 11
27.81392
 21
-50.95181
  0
LINE
  8
型材断面
  6
CONTINUOUS
 62
    47
 10
24.313918
 20
-49.45181
 11
24.313918
 21
-50.95181
  0
LINE
  8
型材断面
  6
CONTINUOUS
 62
    47
 10
24.313918
 20
-49.82681
 11
27.81392
 21
-49.82681
  0
LINE
  8
型材断面
  6
CONTINUOUS
 62
    47
 10
24.313918
 20
-50.57681
 11
27.81392
 21
-50.57681
  0
LINE
  8
型材断面
  6
CONTINUOUS
 62
    47
 10
24.313918
 20
-50.20181
 11
27.81392
 21
-50.20181
  0
LINE
  8
型材断面
  6
DASHDOT
 62
    47
 10
26.063923
 20
-52.45181
 11
26.063923
 21
-45.809675
  0
LINE
  8
型材断面
  6
DASHDOT
 62
    47
 10
-29.936072
 20
-3.675177
 11
-29.936072
 21
-10.051805
  0
INSERT
  2
*GRP_0009
  8
型材断面
  6
CONTINUOUS
 62
    63
 10
0.0
 20
0.0
  0
LINE
  8
型材断面
  6
CONTINUOUS
 62
    63
 10
53.563925
 20
-19.5518
 11
57.56393
 21
-19.5518
  0
LINE
  8
型材断面
  6
CONTINUOUS
 62
    63
 10
93.56393
 20
-17.3018
 11
97.563935
 21
-17.3018
  0
LINE
  8
型材断面
  6
CONTINUOUS
 62
    63
 10
93.56393
 20
-21.8018
 11
97.563935
 21
-21.8018
  0
LINE
  8
型材断面
  6
CONTINUOUS
 62
    63
 10
53.563925
 20
-14.551805
 11
56.863925
 21
-17.051803
  0
LINE
  8
型材断面
  6
CONTINUOUS
 62
    63
 10
56.863925
 20
-22.051805
 11
56.863925
 21
-17.051803
  0
LINE
  8
型材断面
  6
CONTINUOUS
 62
    63
 10
53.563925
 20
-24.551803
 11
56.863925
 21
-22.051805
  0
LINE
  8
型材断面
  6
CONTINUOUS
 62
    63
 10
56.203925
 20
-16.5518
 11
56.203925
 21
-22.5518
  0
LINE
  8
型材断面
  6
CONTINUOUS
 62
    63
 10
31.850592
 20
-34.05182
 11
26.062483
 21
-34.05182
  0
LINE
  8
型材断面
  6
CONTINUOUS
 62
    63
 10
40.563192
 20
-29.051825
 11
40.563192
 21
-26.051825
  0
LINE
  8
型材断面
  6
CONTINUOUS
 62
    63
 10
119.563903
 20
-52.551778
 11
122.563903
 21
-52.551778
  0
LINE
  8
型材断面
  6
CONTINUOUS
 62
    63
 10
54.223925
 20
-24.0518
 11
54.223925
 21
-15.0518
  0
LINE
  8
型材断面
  6
CONTINUOUS
 62
    63
 10
54.883925
 20
-23.551805
 11
54.883925
 21
-15.551803
  0
LINE
  8
型材断面
  6
CONTINUOUS
 62
    63
 10
55.543925
 20
-23.051803
 11
55.543925
 21
-16.051805
  0
LINE
  8
型材断面
  6
CONTINUOUS
 62
    63
 10
94.563927
 20
-21.8018
 11
94.563927
 21
-17.3018
  0
LINE
  8
型材断面
  6
CONTINUOUS
 62
    63
 10
95.563933
 20
-21.8018
 11
95.563933
 21
-17.3018
  0
LINE
  8
型材断面
  6
CONTINUOUS
 62
    63
 10
96.563938
 20
-21.8018
 11
96.563938
 21
-17.3018
  0
LINE
  8
型材断面
  6
CONTINUOUS
 62
    63
 10
-31.68607
 20
-10.051805
 11
-31.68607
 21
-7.5518
  0
LINE
  8
型材断面
  6
CONTINUOUS
 62
    63
 10
-28.186067
 20
-10.051805
 11
-28.186067
 21
-7.5518
  0
LINE
  8
型材断面
  6
CONTINUOUS
 62
    63
 10
-28.186067
 20
-9.4268
 11
-31.68607
 21
-9.4268
  0
LINE
  8
型材断面
  6
CONTINUOUS
 62
    63
 10
-28.186067
 20
-8.801803
 11
-31.68607
 21
-8.801803
  0
LINE
  8
型材断面
  6
CONTINUOUS
 62
    63
 10
-28.186067
 20
-8.176805
 11
-31.68607
 21
-8.176805
  0
LINE
  8
型材断面
  6
CONTINUOUS
 62
    63
 10
18.563923
 20
-19.5518
 11
12.563915
 21
-19.5518
  0
LINE
  8
型材断面
  6
CONTINUOUS
 62
    63
 10
15.263923
 20
-22.301803
 11
18.563923
 21
-24.551803
  0
LINE
  8
型材断面
  6
CONTINUOUS
 62
    63
 10
15.263923
 20
-16.801805
 11
18.563923
 21
-14.551805
  0
LINE
  8
型材断面
  6
CONTINUOUS
 62
    63
 10
15.263923
 20
-22.301803
 11
15.263923
 21
-16.801805
  0
LINE
  8
型材断面
  6
CONTINUOUS
 62
    63
 10
-21.436067
 20
-17.20133
 11
-21.436067
 21
-12.90233
  0
LINE
  8
型材断面
  6
CONTINUOUS
 62
    63
 10
-21.436067
 20
-17.4518
 11
-25.436072
 21
-17.4518
  0
LINE
  8
型材断面
  6
CONTINUOUS
 62
    63
 10
-21.436067
 20
-21.6518
 11
-25.436072
 21
-21.6518
  0
LINE
  8
型材断面
  6
CONTINUOUS
 62
    63
 10
-22.061072
 20
-21.6518
 11
-22.061072
 21
-17.4518
  0
LINE
  8
型材断面
  6
CONTINUOUS
 62
    63
 10
-22.68607
 20
-21.6518
 11
-22.68607
 21
-17.4518
  0
LINE
  8
型材断面
  6
CONTINUOUS
 62
    63
 10
-23.311067
 20
-21.6518
 11
-23.311067
 21
-17.4518
  0
LINE
  8
型材断面
  6
CONTINUOUS
 62
    63
 10
-23.936072
 20
-21.6518
 11
-23.936072
 21
-17.4518
  0
LINE
  8
型材断面
  6
CONTINUOUS
 62
    63
 10
-24.56107
 20
-21.6518
 11
-24.56107
 21
-17.4518
  0
LINE
  8
型材断面
  6
CONTINUOUS
 62
    63
 10
15.923922
 20
-22.751803
 11
15.923922
 21
-16.351805
  0
LINE
  8
型材断面
  6
CONTINUOUS
 62
    63
 10
16.583922
 20
-23.201803
 11
16.583922
 21
-15.901805
  0
LINE
  8
型材断面
  6
CONTINUOUS
 62
    63
 10
17.243923
 20
-23.651803
 11
17.243923
 21
-15.451805
  0
LINE
  8
型材断面
  6
CONTINUOUS
 62
    63
 10
17.903923
 20
-24.101803
 11
17.903923
 21
-15.001805
  0
LINE
  8
型材断面
  6
CONTINUOUS
 62
    47
 10
122.563903
 20
-4.5518
 11
122.563903
 21
-6.0518
  0
INSERT
  2
*GRP_0010
  8
型材断面
  6
CONTINUOUS
 10
0.0
 20
0.0
  0
INSERT
  2
*GRP_0011
  8
型材断面
  6
CONTINUOUS
 10
0.0
 20
0.0
  0
LINE
  8
型材断面
  6
CONTINUOUS
 10
-69.9361
 20
18.239042
 11
-69.9361
 21
16.739042
  0
LINE
  8
型材断面
  6
CONTINUOUS
 10
-63.436097
 20
16.73905
 11
-63.436097
 21
-6.06095
  0
ARC
  8
型材断面
  6
CONTINUOUS
 10
-63.436103
 20
-6.060954
 40
1.5
 50
270.0
 51
360.0
  0
LINE
  8
型材断面
  6
CONTINUOUS
 10
-69.9361
 20
16.739042
 11
-63.436097
 21
16.73905
  0
ARC
  8
型材断面
  6
CONTINUOUS
 10
-63.436103
 20
16.739043
 40
1.5
 50
0.0
 51
90.000015
  0
LINE
  8
型材断面
  6
CONTINUOUS
 10
-69.9361
 20
18.239042
 11
-61.936097
 21
18.23905
  0
LINE
  8
型材断面
  6
CONTINUOUS
 62
    47
 10
-61.936097
 20
18.23905
 11
-61.936097
 21
-7.56095
  0
LINE
  8
型材断面
  6
CONTINUOUS
 10
-74.931077
 20
-18.06095
 11
-73.431077
 21
-18.06095
  0
ARC
  8
型材断面
  6
CONTINUOUS
 10
-73.43108
 20
-7.560952
 40
1.5
 50
90.0
 51
180.0
  0
LINE
  8
型材断面
  6
CONTINUOUS
 10
-74.931077
 20
-18.06095
 11
-74.931077
 21
-6.06095
  0
LINE
  8
型材断面
  6
CONTINUOUS
 10
-63.436097
 20
-6.06095
 11
-74.931077
 21
-6.06095
  0
LINE
  8
型材断面
  6
CONTINUOUS
 10
-62.931077
 20
-57.560952
 11
-62.931077
 21
-56.060952
  0
LINE
  8
型材断面
  6
CONTINUOUS
 10
-76.431077
 20
-56.060952
 11
-62.931077
 21
-56.060952
  0
LINE
  8
型材断面
  6
CONTINUOUS
 10
-76.431077
 20
-57.560952
 11
-62.931077
 21
-57.560952
  0
ARC
  8
型材断面
  6
CONTINUOUS
 10
-76.43108
 20
-56.060954
 40
1.5
 50
180.0
 51
270.0
  0
LINE
  8
型材断面
  6
CONTINUOUS
 10
-77.931077
 20
-56.060952
 11
-77.931077
 21
-7.56095
  0
ARC
  8
型材断面
  6
CONTINUOUS
 10
-77.93108
 20
-7.560952
 40
1.5
 50
0.0
 51
90.0
  0
LINE
  8
型材断面
  6
CONTINUOUS
 10
-76.431077
 20
-56.060952
 11
-76.431077
 21
-6.06095
  0
LINE
  8
型材断面
  6
CONTINUOUS
 10
-99.931075
 20
17.439048
 11
-98.431075
 21
17.439048
  0
ARC
  8
型材断面
  6
CONTINUOUS
 10
-98.43108
 20
-6.060952
 40
1.5
 50
180.0
 51
270.0
  0
ARC
  8
型材断面
  6
CONTINUOUS
 10
-98.43108
 20
-6.060952
 40
1.5
 50
180.0
 51
270.0
  0
LINE
  8
型材断面
  6
CONTINUOUS
 10
-98.431075
 20
17.439048
 11
-98.431075
 21
-6.06095
  0
LINE
  8
型材断面
  6
CONTINUOUS
 10
-76.431077
 20
-6.06095
 11
-98.431075
 21
-6.06095
  0
LINE
  8
型材断面
  6
CONTINUOUS
 10
-99.931075
 20
17.439048
 11
-99.931075
 21
-7.5518
  0
LINE
  8
型材断面
  6
CONTINUOUS
 10
-77.931077
 20
-7.56095
 11
-99.931075
 21
-7.56095
  0
LINE
  8
型材断面
  6
DASHDOT
 10
-48.436097
 20
-7.560958
 11
132.165883
 21
-7.560958
  0
LINE
  8
型材断面
  6
DOT
 10
-86.58085
 20
-27.551803
 11
-82.93108
 21
-27.551803
  0
POLYLINE
  8
型材断面
  6
CONTINUOUS
 66
     1
  0
VERTEX
  8
型材断面
 10
-155.047145
 20
76.872382
  0
VERTEX
  8
型材断面
 10
-156.836302
 20
70.30933
  0
VERTEX
  8
型材断面
 10
-155.047145
 20
70.30933
  0
SEQEND
  0
POLYLINE
  8
型材断面
  6
CONTINUOUS
 66
     1
  0
VERTEX
  8
型材断面
 10
-155.047145
 20
74.203135
  0
VERTEX
  8
型材断面
 10
-156.836302
 20
67.640083
  0
VERTEX
  8
型材断面
 10
-155.047145
 20
67.640083
  0
SEQEND
  0
LINE
  8
型材断面
  6
CONTINUOUS
 10
-155.047145
 20
-7.5518
 11
-155.047145
 21
76.872382
  0
INSERT
  2
*GRP_0012
  8
ガラス
  6
CONTINUOUS
 10
0.0
 20
0.0
  0
INSERT
  2
*GRP_0013
  8
ガラス
  6
CONTINUOUS
 10
0.0
 20
0.0
  0
INSERT
  2
*GRP_0014
  8
ガラス
  6
CONTINUOUS
 10
0.0
 20
0.0
  0
INSERT
  2
*GRP_0015
  8
ガラス
  6
CONTINUOUS
 10
0.0
 20
0.0
  0
INSERT
  2
*GRP_0016
  8
ガラス
  6
CONTINUOUS
 10
0.0
 20
0.0
  0
INSERT
  2
*GRP_0017
  8
ガラス
  6
CONTINUOUS
 10
0.0
 20
0.0
  0
INSERT
  2
*GRP_0018
  8
ガラス
  6
CONTINUOUS
 10
0.0
 20
0.0
  0
LINE
  8
ガラス
  6
CONTINUOUS
 10
-89.236105
 20
2.439053
 11
-71.4361
 21
2.439053
  0
LINE
  8
ガラス
  6
CONTINUOUS
 10
-78.236103
 20
8.439053
 11
-84.236103
 21
8.439053
  0
LINE
  8
ガラス
  6
CONTINUOUS
 10
-78.236103
 20
8.439053
 11
-84.236103
 21
2.439053
  0
LINE
  8
ガラス
  6
CONTINUOUS
 10
-84.236103
 20
8.439053
 11
-78.236103
 21
2.439053
  0
LINE
  8
ガラス
  6
CONTINUOUS
 10
-71.936103
 20
82.43905
 11
-71.936103
 21
2.439053
  0
LINE
  8
ガラス
  6
CONTINUOUS
 10
-71.4361
 20
82.43905
 11
-71.4361
 21
2.439053
  0
LINE
  8
ガラス
  6
CONTINUOUS
 10
-77.7361
 20
82.43905
 11
-77.7361
 21
2.439053
  0
LINE
  8
ガラス
  6
CONTINUOUS
 10
-78.236103
 20
82.43905
 11
-78.236103
 21
2.439053
  0
LINE
  8
ガラス
  6
CONTINUOUS
 10
-84.736105
 20
82.43905
 11
-84.736105
 21
2.439053
  0
LINE
  8
ガラス
  6
CONTINUOUS
 10
-84.236103
 20
82.43905
 11
-84.236103
 21
2.439053
  0
LINE
  8
ガラス
  6
CONTINUOUS
 10
-89.236105
 20
82.43905
 11
-89.236105
 21
2.439053
  0
LINE
  8
ガラス
  6
CONTINUOUS
 10
-88.736103
 20
82.43905
 11
-88.736103
 21
2.439053
  0
INSERT
  2
*GRP_0019
  8
ゴム等
  6
CONTINUOUS
 10
0.0
 20
0.0
  0
INSERT
  2
*GRP_0020
  8
ゴム等
  6
CONTINUOUS
 10
0.0
 20
0.0
  0
INSERT
  2
*GRP_0063
  8
ゴム等
  6
DASHDOT
 10
0.0
 20
0.0
  0
INSERT
  2
*GRP_0021
  8
ボルト／ビス
  6
CONTINUOUS
 10
0.0
 20
0.0
  0
INSERT
  2
*GRP_0022
  8
ボルト／ビス
  6
CONTINUOUS
 10
0.0
 20
0.0
  0
INSERT
  2
*GRP_0023
  8
ボルト／ビス
  6
CONTINUOUS
 10
0.0
 20
0.0
  0
INSERT
  2
*GRP_0024
  8
ボルト／ビス
  6
CONTINUOUS
 10
0.0
 20
0.0
  0
INSERT
  2
*GRP_0025
  8
ボルト／ビス
  6
CONTINUOUS
 10
0.0
 20
0.0
  0
INSERT
  2
*GRP_0026
  8
ボルト／ビス
  6
CONTINUOUS
 10
0.0
 20
0.0
  0
CIRCLE
  8
ボルト／ビス
  6
CONTINUOUS
 10
75.56393
 20
-43.051805
 40
11.499998
  0
CIRCLE
  8
ボルト／ビス
  6
CONTINUOUS
 10
-3.436067
 20
-43.05182
 40
11.499998
  0
INSERT
  2
*GRP_0027
  8
ボルト／ビス
  6
CONTINUOUS
 10
0.0
 20
0.0
  0
INSERT
  2
*GRP_0028
  8
ボルト／ビス
  6
CONTINUOUS
 10
0.0
 20
0.0
  0
INSERT
  2
*GRP_0029
  8
ボルト／ビス
  6
CONTINUOUS
 10
0.0
 20
0.0
  0
INSERT
  2
*GRP_0030
  8
ボルト／ビス
  6
CONTINUOUS
 10
0.0
 20
0.0
  0
INSERT
  2
*GRP_0031
  8
ボルト／ビス
  6
CONTINUOUS
 10
0.0
 20
0.0
  0
TEXT
  7
TextStyle03
  8
文字
  6
CONTINUOUS
 10
-155.3
 20
26.2
  1
呼称寸法
 40
4.0
 50
90.0
 72
     5
 11
-155.3
 21
43.7
  0
TEXT
  7
TextStyle03
  8
文字
  6
CONTINUOUS
 10
-90.525
 20
-78.05
  1
TKR-1701
 40
4.0
 50
90.0
 72
     5
 11
-90.525
 21
-60.3
  0
TEXT
  7
TextStyle03
  8
文字
  6
CONTINUOUS
 10
-17.475
 20
-99.675
  1
TK-1130
 40
4.0
 50
90.0
 72
     5
 11
-17.475
 21
-84.175
  0
TEXT
  7
TextStyle03
  8
文字
  6
CONTINUOUS
 10
29.2
 20
-75.975
  1
TKR-1108
 40
4.0
 50
90.0
 72
     5
 11
29.2
 21
-58.225
  0
TEXT
  7
TextStyle03
  8
文字
  6
CONTINUOUS
 10
94.525
 20
-97.275
  1
TK-1128
 40
4.0
 50
90.0
 72
     5
 11
94.525
 21
-81.775
  0
TEXT
  7
TextStyle03
  8
文字
  6
CONTINUOUS
 10
-52.175
 20
25.975
  1
TKR-1204S
 40
4.0
 50
90.0
 72
     5
 11
-52.175
 21
45.975
  0
TEXT
  7
TextStyle03
  8
文字
  6
CONTINUOUS
 10
62.675
 20
123.1
  1
シリーズ：ＳＴＦＦ
 40
5.0
 72
     5
 11
112.675
 21
123.1
  0
TEXT
  7
TextStyle03
  8
文字
  6
CONTINUOUS
 10
62.675
 20
117.475
  1
　　　　　（固定）　
 40
5.0
 72
     5
 11
118.3
 21
117.475
  0
TEXT
  7
TextStyle03
  8
文字
  6
CONTINUOUS
 10
62.675
 20
111.85
  1
図面名　：下枠断面詳細図（アーム側）
 40
5.0
 72
     5
 11
163.3
 21
111.85
  0
TEXT
  7
TextStyle03
  8
文字
  6
CONTINUOUS
 10
35.425
 20
71.4
  1
バランスステー
 40
3.0
 50
90.0
 72
     5
 11
35.425
 21
94.65
  0
INSERT
  2
*DIM_0032
  8
寸法
  6
CONTINUOUS
 10
0.0
 20
0.0
  0
INSERT
  2
*DIM_0033
  8
寸法
  6
CONTINUOUS
 10
0.0
 20
0.0
  0
INSERT
  2
*DIM_0034
  8
寸法
  6
CONTINUOUS
 10
0.0
 20
0.0
  0
INSERT
  2
*DIM_0035
  8
寸法
  6
CONTINUOUS
 10
0.0
 20
0.0
  0
INSERT
  2
*DIM_0036
  8
寸法
  6
CONTINUOUS
 10
0.0
 20
0.0
  0
INSERT
  2
*DIM_0037
  8
寸法
  6
CONTINUOUS
 10
0.0
 20
0.0
  0
INSERT
  2
*DIM_0038
  8
寸法
  6
CONTINUOUS
 10
0.0
 20
0.0
  0
INSERT
  2
*DIM_0039
  8
寸法
  6
CONTINUOUS
 10
0.0
 20
0.0
  0
INSERT
  2
*DIM_0040
  8
寸法
  6
CONTINUOUS
 10
0.0
 20
0.0
  0
INSERT
  2
*DIM_0041
  8
寸法
  6
CONTINUOUS
 10
0.0
 20
0.0
  0
INSERT
  2
*DIM_0042
  8
寸法
  6
CONTINUOUS
 10
0.0
 20
0.0
  0
INSERT
  2
*DIM_0049
  8
寸法
  6
CONTINUOUS
 10
0.0
 20
0.0
  0
INSERT
  2
*DIM_0050
  8
寸法
  6
CONTINUOUS
 10
0.0
 20
0.0
  0
INSERT
  2
*DIM_0051
  8
寸法
  6
CONTINUOUS
 10
0.0
 20
0.0
  0
INSERT
  2
*DIM_0052
  8
寸法
  6
CONTINUOUS
 10
0.0
 20
0.0
  0
INSERT
  2
*DIM_0053
  8
寸法
  6
CONTINUOUS
 10
0.0
 20
0.0
  0
INSERT
  2
*DIM_0054
  8
寸法
  6
CONTINUOUS
 10
0.0
 20
0.0
  0
INSERT
  2
*DIM_0055
  8
寸法
  6
CONTINUOUS
 10
0.0
 20
0.0
  0
INSERT
  2
*DIM_0056
  8
寸法
  6
CONTINUOUS
 10
0.0
 20
0.0
  0
INSERT
  2
*DIM_0057
  8
寸法
  6
CONTINUOUS
 10
0.0
 20
0.0
  0
INSERT
  2
*GRP_0058
  8
寸法
  6
CONTINUOUS
 10
0.0
 20
0.0
  0
INSERT
  2
*GRP_0059
  8
寸法
  6
CONTINUOUS
 10
0.0
 20
0.0
  0
INSERT
  2
*GRP_0060
  8
寸法
  6
CONTINUOUS
 10
0.0
 20
0.0
  0
INSERT
  2
*GRP_0061
  8
寸法
  6
CONTINUOUS
 10
0.0
 20
0.0
  0
INSERT
  2
*GRP_0062
  8
寸法
  6
CONTINUOUS
 10
0.0
 20
0.0
  0
INSERT
  2
*DIM_0064
  8
寸法
  6
CONTINUOUS
 10
0.0
 20
0.0
  0
INSERT
  2
*GRP_0068
  8
寸法
  6
CONTINUOUS
 10
0.0
 20
0.0
  0
INSERT
  2
*GRP_0069
  8
寸法
  6
CONTINUOUS
 10
0.0
 20
0.0
  0
INSERT
  2
*HAT_0002
  8
ﾊｯﾁﾝｸﾞ
 10
0.0
 20
0.0
  0
INSERT
  2
*GRP_0043
  8
別途部材
  6
CONTINUOUS
 10
0.0
 20
0.0
  0
INSERT
  2
*GRP_0044
  8
別途部材
  6
CONTINUOUS
 10
0.0
 20
0.0
  0
ARC
  8
St
  6
CONTINUOUS
 10
-24.436087
 20
-76.420602
 40
0.695595
 50
0.0
 51
0.0
  0
LINE
  8
St
  6
CONTINUOUS
 62
    47
 10
120.563907
 20
-4.5518
 11
120.563907
 21
-6.0518
  0
LINE
  8
St
  6
CONTINUOUS
 62
    47
 10
120.988168
 20
-6.0518
 11
120.563907
 21
-5.62754
  0
LINE
  8
St
  6
CONTINUOUS
 62
    47
 10
121.412435
 20
-6.0518
 11
120.563907
 21
-5.203273
  0
LINE
  8
St
  6
CONTINUOUS
 62
    47
 10
121.836695
 20
-6.0518
 11
120.563907
 21
-4.779013
  0
LINE
  8
St
  6
CONTINUOUS
 62
    47
 10
122.260962
 20
-6.0518
 11
120.760962
 21
-4.5518
  0
LINE
  8
St
  6
CONTINUOUS
 62
    47
 10
122.563903
 20
-5.93048
 11
121.185223
 21
-4.5518
  0
LINE
  8
St
  6
CONTINUOUS
 62
    47
 10
122.563903
 20
-5.50622
 11
121.609483
 21
-4.5518
  0
LINE
  8
St
  6
CONTINUOUS
 62
    47
 10
122.563903
 20
-5.081952
 11
122.033757
 21
-4.5518
  0
LINE
  8
St
  6
CONTINUOUS
 62
    47
 10
122.563903
 20
-4.657693
 11
122.458017
 21
-4.5518
  0
INSERT
  2
*GRP_0045
  8
St
  6
CONTINUOUS
 62
   127
 10
0.0
 20
0.0
  0
INSERT
  2
*HAT_0003
  8
St
 10
0.0
 20
0.0
  0
INSERT
  2
*GRP_0046
  8
St
  6
CONTINUOUS
 10
0.0
 20
0.0
  0
INSERT
  2
*GRP_0065
  8
St
  6
CONTINUOUS
 10
0.0
 20
0.0
  0
LINE
  8
St
  6
DOT
 10
-20.43607
 20
23.948185
 11
-20.43607
 21
108.134685
  0
LINE
  8
St
  6
DOT
 10
13.563935
 20
23.948185
 11
13.563935
 21
108.134685
  0
LINE
  8
St
  6
DOT
 10
58.56503
 20
48.948198
 11
58.56503
 21
108.134685
  0
LINE
  8
St
  6
DOT
 10
92.565035
 20
48.948198
 11
92.565035
 21
108.134685
  0
LINE
  8
その他部品等
  6
CONTINUOUS
 10
-98.431075
 20
17.439048
 11
-89.236105
 21
17.439048
  0
LINE
  8
その他部品等
  6
CONTINUOUS
 10
-98.431075
 20
7.439055
 11
-89.236105
 21
7.439055
  0
LINE
  8
その他部品等
  6
CONTINUOUS
 10
-98.431075
 20
2.439053
 11
-89.236105
 21
2.439053
  0
LINE
  8
その他部品等
  6
CONTINUOUS
 10
-89.236105
 20
7.439055
 11
-98.431075
 21
2.439053
  0
ENDSEC
  0
EOF
