  0
SECTION
  2
HEADER
  9
$EXTMIN
 10
-210.0
 20
-148.5
  9
$EXTMAX
 10
210.0
 20
148.5
  9
$PDMODE
 70
    32
  9
$PDSIZE
 40
1.5
  9
$LTSCALE
 40
10.0
  0
ENDSEC
  0
SECTION
  2
TABLES
  0
TABLE
  2
LTYPE
 70
    15
  0
LTYPE
  2
CONTINUOUS
 70
    64
  3
実線
 72
    65
 73
     0
 40
0.0
  0
LTYPE
  2
DASHED
 70
    64
  3
破線A
 72
    65
 73
     2
 40
0.6
 49
0.4
 49
-0.2
  0
LTYPE
  2
DASHEDX2
 70
    64
  3
破線B
 72
    65
 73
     2
 40
1.3
 49
0.9
 49
-0.4
  0
LTYPE
  2
DASHDOT
 70
    64
  3
１点鎖線A
 72
    65
 73
     4
 40
0.5375
 49
0.375
 49
-0.05
 49
0.0625
 49
-0.05
  0
LTYPE
  2
DASHDOTX2
 70
    64
  3
１点鎖線B
 72
    65
 73
     4
 40
1.075
 49
0.75
 49
-0.1
 49
0.125
 49
-0.1
  0
LTYPE
  2
DIVIDE2
 70
    64
  3
２点鎖線A
 72
    65
 73
     6
 40
0.5125
 49
0.3
 49
-0.0375
 49
0.05
 49
-0.0375
 49
0.05
 49
-0.0375
  0
LTYPE
  2
DIVIDE
 70
    64
  3
２点鎖線B
 72
    65
 73
     6
 40
1.05
 49
0.55
 49
-0.1
 49
0.1
 49
-0.1
 49
0.1
 49
-0.1
  0
LTYPE
  2
DOT
 70
    64
  3
点線A
 72
    65
 73
     2
 40
0.1125
 49
0.0625
 49
-0.05
  0
LTYPE
  2
DOTX2
 70
    64
  3
点線B
 72
    65
 73
     2
 40
0.275
 49
0.15
 49
-0.125
  0
LTYPE
  2
CONTINUOUS
 70
    64
  3
実線
 72
    65
 73
     0
 40
0.0
  0
LTYPE
  2
CONTINUOUS
 70
    64
  3
実線
 72
    65
 73
     0
 40
0.0
  0
LTYPE
  2
CONTINUOUS
 70
    64
  3
実線
 72
    65
 73
     0
 40
0.0
  0
LTYPE
  2
CONTINUOUS
 70
    64
  3
実線
 72
    65
 73
     0
 40
0.0
  0
LTYPE
  2
CONTINUOUS
 70
    64
  3
実線
 72
    65
 73
     0
 40
0.0
  0
LTYPE
  2
CONTINUOUS
 70
    64
  3
実線
 72
    65
 73
     0
 40
0.0
  0
ENDTAB
  0
TABLE
  2
LAYER
 70
    34
  0
LAYER
  2
通り芯
 70
     0
 62
    15
  6
CONTINUOUS
  0
LAYER
  2
補助線
 70
     0
 62
    16
  6
DOT
  0
LAYER
  2
躯体
 70
     0
 62
    31
  6
CONTINUOUS
  0
LAYER
  2
型材
 70
     0
 62
    32
  6
CONTINUOUS
  0
LAYER
  2
型材断面
 70
     0
 62
    47
  6
CONTINUOUS
  0
LAYER
  2
ガラス
 70
     0
 62
    48
  6
CONTINUOUS
  0
LAYER
  2
ゴム等
 70
     0
 62
    63
  6
CONTINUOUS
  0
LAYER
  2
ボルト／ビス
 70
     0
 62
    64
  6
CONTINUOUS
  0
LAYER
  2
文字
 70
     0
 62
    79
  6
CONTINUOUS
  0
LAYER
  2
寸法
 70
     0
 62
    80
  6
CONTINUOUS
  0
LAYER
  2
ﾊｯﾁﾝｸﾞ
 70
     0
 62
    95
  6
CONTINUOUS
  0
LAYER
  2
別途部材
 70
     0
 62
    96
  6
CONTINUOUS
  0
LAYER
  2
曲げ物
 70
     0
 62
   111
  6
CONTINUOUS
  0
LAYER
  2
鉄骨等
 70
     0
 62
   112
  6
CONTINUOUS
  0
LAYER
  2
St
 70
     0
 62
   127
  6
CONTINUOUS
  0
LAYER
  2
その他部品等
 70
     0
 62
   128
  6
CONTINUOUS
  0
LAYER
  2
ｶﾞｽｹｯﾄ
 70
     0
 62
   143
  6
CONTINUOUS
  0
LAYER
  2
ｽｹｯﾁ
 70
     0
 62
    14
  6
CONTINUOUS
  0
LAYER
  2
0
 70
     0
 62
    17
  6
CONTINUOUS
  0
LAYER
  2
1
 70
     0
 62
    30
  6
CONTINUOUS
  0
LAYER
  2
4
 70
     0
 62
    33
  6
CONTINUOUS
  0
LAYER
  2
ﾚｲﾔ3
 70
     0
 62
    46
  6
CONTINUOUS
  0
LAYER
  2
外形線
 70
     0
 62
    49
  6
CONTINUOUS
  0
LAYER
  2
部品
 70
     0
 62
    14
  6
CONTINUOUS
  0
LAYER
  2
サッシ芯
 70
     0
 62
    17
  6
DASHDOTX2
  0
LAYER
  2
寸法線
 70
     0
 62
    62
  6
CONTINUOUS
  0
LAYER
  2
姿図外形線
 70
     0
 62
    65
  6
CONTINUOUS
  0
LAYER
  2
姿補助線
 70
     0
 62
    30
  6
CONTINUOUS
  0
LAYER
  2
透視線
 70
     0
 62
    78
  6
DOT
  0
LAYER
  2
用紙
 70
     0
 62
    81
  6
CONTINUOUS
  0
LAYER
  2
実線図枠
 70
     0
 62
    94
  6
CONTINUOUS
  0
LAYER
  2
補助図枠
 70
     0
 62
    97
  6
CONTINUOUS
  0
LAYER
  2
建具記号
 70
     0
 62
   110
  6
CONTINUOUS
  0
LAYER
  2
補助文字
 70
     0
 62
   113
  6
CONTINUOUS
  0
ENDTAB
  0
TABLE
  2
STYLE
 70
    10
  0
STYLE
  2
STANDARD
 70
     0
 40
1.0
 41
1.0
 42
1.0
 50
0.0
 71
     0
  3
TXT
  4
BIGFONT
  0
STYLE
  2
TATE
 70
     4
 40
1.0
 41
1.0
 42
1.0
 50
0.0
 71
     0
  3
TXT
  4
BIGFONT
  0
STYLE
  2
TextStyle03
 70
     0
 40
1.0
 41
1.0
 42
1.0
 50
0.0
 71
     0
  3
MONOTXT
  4
BIGFONT
  0
STYLE
  2
TextStyle04
 70
     0
 40
1.0
 41
1.0
 42
1.0
 50
0.0
 71
     0
  3
MONOTXT
  4
BIGFONT
  0
STYLE
  2
TextStyle05
 70
     0
 40
1.0
 41
1.0
 42
1.0
 50
0.0
 71
     0
  3
MONOTXT
  4
BIGFONT
  0
STYLE
  2
TextStyle06
 70
     0
 40
1.0
 41
1.0
 42
1.0
 50
0.0
 71
     0
  3
MONOTXT
  4
BIGFONT
  0
STYLE
  2
TextStyle07
 70
     0
 40
1.0
 41
1.0
 42
1.0
 50
0.0
 71
     0
  3
MONOTXT
  4
BIGFONT
  0
STYLE
  2
TextStyle08
 70
     0
 40
1.0
 41
1.0
 42
1.0
 50
0.0
 71
     0
  3
MONOTXT
  4
BIGFONT
  0
STYLE
  2
TextStyle09
 70
     0
 40
1.0
 41
1.0
 42
1.0
 50
0.0
 71
     0
  3
MONOTXT
  4
BIGFONT
  0
STYLE
  2
TextStyle10
 70
     0
 40
1.0
 41
1.0
 42
1.0
 50
0.0
 71
     0
  3
MONOTXT
  4
BIGFONT
  0
ENDTAB
  0
ENDSEC
  0
SECTION
  2
BLOCKS
  0
BLOCK
  2
*GRP_0001
 70
    65
 10
0.0
 20
0.0
  0
LINE
  8
型材断面
  6
CONTINUOUS
 10
195.0
 20
133.5
 11
195.0
 21
-133.5
  0
LINE
  8
型材断面
  6
CONTINUOUS
 10
195.0
 20
-133.5
 11
-185.0
 21
-133.5
  0
LINE
  8
型材断面
  6
CONTINUOUS
 10
-185.0
 20
-133.5
 11
-185.0
 21
133.5
  0
LINE
  8
型材断面
  6
CONTINUOUS
 10
195.0
 20
133.5
 11
-185.0
 21
133.5
  0
LINE
  8
型材断面
  6
CONTINUOUS
 10
145.0
 20
-133.5
 11
145.0
 21
-118.5
  0
LINE
  8
型材断面
  6
CONTINUOUS
 10
195.0
 20
-118.5
 11
145.0
 21
-118.5
  0
ENDBLK
  0
BLOCK
  2
*GRP_0002
 70
    65
 10
0.0
 20
0.0
  0
INSERT
  2
M8横
  8
ゴム等
  6
CONTINUOUS
 10
-3.436805
 20
-70.297288
 50
180.0
 41
0.033333
 42
-0.033333
  0
LINE
  8
ボルト／ビス
  6
CONTINUOUS
 10
-3.570137
 20
-70.087288
 11
-3.553473
 21
-70.070622
  0
LINE
  8
ボルト／ビス
  6
CONTINUOUS
 10
-3.320137
 20
-70.070622
 11
-3.303473
 21
-70.087288
  0
LINE
  8
ボルト／ビス
  6
CONTINUOUS
 10
-3.303473
 20
-70.087288
 11
-3.570137
 21
-70.087288
  0
LINE
  8
ボルト／ビス
  6
CONTINUOUS
 10
-3.320137
 20
-70.070622
 11
-3.553473
 21
-70.070622
  0
LINE
  8
ボルト／ビス
  6
CONTINUOUS
 10
-3.553473
 20
-70.070622
 11
-3.553473
 21
-70.113952
  0
LINE
  8
ボルト／ビス
  6
CONTINUOUS
 10
-3.570137
 20
-70.087288
 11
-3.570137
 21
-70.113952
  0
LINE
  8
ボルト／ビス
  6
CONTINUOUS
 10
-3.303473
 20
-70.087288
 11
-3.303473
 21
-70.113952
  0
LINE
  8
ボルト／ビス
  6
CONTINUOUS
 10
-3.320137
 20
-70.070622
 11
-3.320137
 21
-70.113952
  0
LINE
  8
ボルト／ビス
  6
CONTINUOUS
 10
-3.070137
 20
-70.297288
 11
-3.803473
 21
-70.297288
  0
LINE
  8
ボルト／ビス
  6
CONTINUOUS
 10
-3.853473
 20
-70.337288
 11
-3.853473
 21
-70.42062
  0
LINE
  8
ボルト／ビス
  6
CONTINUOUS
 10
-3.853473
 20
-70.42062
 11
-3.020137
 21
-70.42062
  0
LINE
  8
ボルト／ビス
  6
CONTINUOUS
 10
-3.020137
 20
-70.42062
 11
-3.020137
 21
-70.337288
  0
LINE
  8
ボルト／ビス
  6
CONTINUOUS
 10
-3.853473
 20
-70.337288
 11
-3.020137
 21
-70.337288
  0
LINE
  8
ボルト／ビス
  6
CONTINUOUS
 10
-3.070137
 20
-70.297288
 11
-3.070137
 21
-70.337288
  0
LINE
  8
ボルト／ビス
  6
CONTINUOUS
 10
-3.803473
 20
-70.297288
 11
-3.803473
 21
-70.337288
  0
LINE
  8
ボルト／ビス
  6
CONTINUOUS
 10
-3.436805
 20
-70.347288
 11
-3.436805
 21
-70.297288
  0
ENDBLK
  0
BLOCK
  2
*GRP_0003
 70
    65
 10
0.0
 20
0.0
  0
LINE
  8
ボルト／ビス
  6
CONTINUOUS
 10
-3.230138
 20
-69.437453
 11
-3.230138
 21
-69.370788
  0
LINE
  8
ボルト／ビス
  6
CONTINUOUS
 10
-3.230138
 20
-69.370788
 11
-3.96347
 21
-69.370788
  0
LINE
  8
ボルト／ビス
  6
CONTINUOUS
 10
-3.96347
 20
-69.370788
 11
-3.96347
 21
-69.437453
  0
LINE
  8
ボルト／ビス
  6
CONTINUOUS
 10
-3.230138
 20
-69.437453
 11
-3.96347
 21
-69.437453
  0
LINE
  8
ボルト／ビス
  6
CONTINUOUS
 10
-3.296803
 20
-69.337453
 11
-3.296803
 21
-69.370788
  0
LINE
  8
ボルト／ビス
  6
CONTINUOUS
 10
-3.296803
 20
-69.337453
 11
-3.896803
 21
-69.337453
  0
LINE
  8
ボルト／ビス
  6
CONTINUOUS
 10
-3.896803
 20
-69.337453
 11
-3.896803
 21
-69.370788
  0
LINE
  8
ボルト／ビス
  6
CONTINUOUS
 62
    64
 10
-3.436427
 20
-69.137453
 11
-3.404353
 21
-69.149128
  0
ARC
  8
ボルト／ビス
  6
CONTINUOUS
 62
    64
 10
-3.452466
 20
-69.242431
 40
0.104978
 50
90.0
 51
117.278033
  0
ARC
  8
ボルト／ビス
  6
CONTINUOUS
 62
    64
 10
-3.596804
 20
-69.539855
 40
0.402402
 50
76.165015
 51
103.834998
  0
LINE
  8
ボルト／ビス
  6
CONTINUOUS
 62
    64
 10
-3.757178
 20
-69.137453
 11
-3.789253
 21
-69.149128
  0
ARC
  8
ボルト／ビス
  6
CONTINUOUS
 62
    64
 10
-3.741142
 20
-69.242431
 40
0.104978
 50
62.721967
 51
90.0
  0
LINE
  8
ボルト／ビス
  6
CONTINUOUS
 62
    64
 10
-3.436427
 20
-69.137453
 11
-3.757178
 21
-69.137453
  0
LINE
  8
ボルト／ビス
  6
CONTINUOUS
 62
    64
 10
-3.789253
 20
-69.149128
 11
-3.789253
 21
-69.270788
  0
LINE
  8
ボルト／ビス
  6
CONTINUOUS
 62
    64
 10
-3.693027
 20
-69.149128
 11
-3.693027
 21
-69.270788
  0
LINE
  8
ボルト／ビス
  6
CONTINUOUS
 62
    64
 10
-3.404353
 20
-69.149128
 11
-3.404353
 21
-69.270788
  0
LINE
  8
ボルト／ビス
  6
CONTINUOUS
 62
    64
 10
-3.500577
 20
-69.149128
 11
-3.500577
 21
-69.270788
  0
LINE
  8
ボルト／ビス
  6
CONTINUOUS
 10
-3.404353
 20
-69.270788
 11
-3.789253
 21
-69.270788
  0
LINE
  8
ボルト／ビス
  6
CONTINUOUS
 10
-3.396803
 20
-69.270788
 11
-3.396803
 21
-69.337453
  0
LINE
  8
ボルト／ビス
  6
CONTINUOUS
 10
-3.396803
 20
-69.270788
 11
-3.796803
 21
-69.270788
  0
LINE
  8
ボルト／ビス
  6
CONTINUOUS
 10
-3.796803
 20
-69.270788
 11
-3.796803
 21
-69.337453
  0
ENDBLK
  0
BLOCK
  2
*GRP_0004
 70
    65
 10
0.0
 20
0.0
  0
INSERT
  2
M8横
  8
ゴム等
  6
CONTINUOUS
 10
-71.75619
 20
-70.297288
 41
0.033333
 42
0.033333
  0
LINE
  8
ボルト／ビス
  6
CONTINUOUS
 10
-71.622858
 20
-70.087288
 11
-71.639523
 21
-70.070622
  0
LINE
  8
ボルト／ビス
  6
CONTINUOUS
 10
-71.872858
 20
-70.070622
 11
-71.889523
 21
-70.087288
  0
LINE
  8
ボルト／ビス
  6
CONTINUOUS
 10
-71.889523
 20
-70.087288
 11
-71.622858
 21
-70.087288
  0
LINE
  8
ボルト／ビス
  6
CONTINUOUS
 10
-71.872858
 20
-70.070622
 11
-71.639523
 21
-70.070622
  0
LINE
  8
ボルト／ビス
  6
CONTINUOUS
 10
-71.639523
 20
-70.070622
 11
-71.639523
 21
-70.113952
  0
LINE
  8
ボルト／ビス
  6
CONTINUOUS
 10
-71.622858
 20
-70.087288
 11
-71.622858
 21
-70.113952
  0
LINE
  8
ボルト／ビス
  6
CONTINUOUS
 10
-71.889523
 20
-70.087288
 11
-71.889523
 21
-70.113952
  0
LINE
  8
ボルト／ビス
  6
CONTINUOUS
 10
-71.872858
 20
-70.070622
 11
-71.872858
 21
-70.113952
  0
LINE
  8
ボルト／ビス
  6
CONTINUOUS
 10
-72.122858
 20
-70.297288
 11
-71.389523
 21
-70.297288
  0
LINE
  8
ボルト／ビス
  6
CONTINUOUS
 10
-71.339523
 20
-70.337288
 11
-71.339523
 21
-70.42062
  0
LINE
  8
ボルト／ビス
  6
CONTINUOUS
 10
-71.339523
 20
-70.42062
 11
-72.172858
 21
-70.42062
  0
LINE
  8
ボルト／ビス
  6
CONTINUOUS
 10
-72.172858
 20
-70.42062
 11
-72.172858
 21
-70.337288
  0
LINE
  8
ボルト／ビス
  6
CONTINUOUS
 10
-71.339523
 20
-70.337288
 11
-72.172858
 21
-70.337288
  0
LINE
  8
ボルト／ビス
  6
CONTINUOUS
 10
-72.122858
 20
-70.297288
 11
-72.122858
 21
-70.337288
  0
LINE
  8
ボルト／ビス
  6
CONTINUOUS
 10
-71.389523
 20
-70.297288
 11
-71.389523
 21
-70.337288
  0
LINE
  8
ボルト／ビス
  6
CONTINUOUS
 10
-71.75619
 20
-70.347288
 11
-71.75619
 21
-70.297288
  0
ENDBLK
  0
BLOCK
  2
*GRP_0005
 70
    65
 10
0.0
 20
0.0
  0
LINE
  8
ボルト／ビス
  6
CONTINUOUS
 10
-71.962857
 20
-69.437453
 11
-71.962857
 21
-69.370788
  0
LINE
  8
ボルト／ビス
  6
CONTINUOUS
 10
-71.962857
 20
-69.370788
 11
-71.229525
 21
-69.370788
  0
LINE
  8
ボルト／ビス
  6
CONTINUOUS
 10
-71.229525
 20
-69.370788
 11
-71.229525
 21
-69.437453
  0
LINE
  8
ボルト／ビス
  6
CONTINUOUS
 10
-71.962857
 20
-69.437453
 11
-71.229525
 21
-69.437453
  0
LINE
  8
ボルト／ビス
  6
CONTINUOUS
 10
-71.896192
 20
-69.337453
 11
-71.896192
 21
-69.370788
  0
LINE
  8
ボルト／ビス
  6
CONTINUOUS
 10
-71.896192
 20
-69.337453
 11
-71.296192
 21
-69.337453
  0
LINE
  8
ボルト／ビス
  6
CONTINUOUS
 10
-71.296192
 20
-69.337453
 11
-71.296192
 21
-69.370788
  0
LINE
  8
ボルト／ビス
  6
CONTINUOUS
 62
    64
 10
-71.756567
 20
-69.137453
 11
-71.788642
 21
-69.149128
  0
ARC
  8
ボルト／ビス
  6
CONTINUOUS
 62
    64
 10
-71.74053
 20
-69.242431
 40
0.104978
 50
62.721967
 51
90.0
  0
ARC
  8
ボルト／ビス
  6
CONTINUOUS
 62
    64
 10
-71.596193
 20
-69.539855
 40
0.402402
 50
76.165002
 51
103.834985
  0
LINE
  8
ボルト／ビス
  6
CONTINUOUS
 62
    64
 10
-71.435818
 20
-69.137453
 11
-71.403743
 21
-69.149128
  0
ARC
  8
ボルト／ビス
  6
CONTINUOUS
 62
    64
 10
-71.451855
 20
-69.242431
 40
0.104978
 50
90.0
 51
117.278033
  0
LINE
  8
ボルト／ビス
  6
CONTINUOUS
 62
    64
 10
-71.756567
 20
-69.137453
 11
-71.435818
 21
-69.137453
  0
LINE
  8
ボルト／ビス
  6
CONTINUOUS
 62
    64
 10
-71.403743
 20
-69.149128
 11
-71.403743
 21
-69.270788
  0
LINE
  8
ボルト／ビス
  6
CONTINUOUS
 62
    64
 10
-71.499967
 20
-69.149128
 11
-71.499967
 21
-69.270788
  0
LINE
  8
ボルト／ビス
  6
CONTINUOUS
 62
    64
 10
-71.788642
 20
-69.149128
 11
-71.788642
 21
-69.270788
  0
LINE
  8
ボルト／ビス
  6
CONTINUOUS
 62
    64
 10
-71.692418
 20
-69.149128
 11
-71.692418
 21
-69.270788
  0
LINE
  8
ボルト／ビス
  6
CONTINUOUS
 10
-71.788642
 20
-69.270788
 11
-71.403743
 21
-69.270788
  0
LINE
  8
ボルト／ビス
  6
CONTINUOUS
 10
-71.796192
 20
-69.270788
 11
-71.796192
 21
-69.337453
  0
LINE
  8
ボルト／ビス
  6
CONTINUOUS
 10
-71.796192
 20
-69.270788
 11
-71.396192
 21
-69.270788
  0
LINE
  8
ボルト／ビス
  6
CONTINUOUS
 10
-71.396192
 20
-69.270788
 11
-71.396192
 21
-69.337453
  0
ENDBLK
  0
BLOCK
  2
*DIM_0006
 70
    65
 10
0.0
 20
0.0
  0
LINE
  8
寸法
  6
CONTINUOUS
 10
0.736835
 20
-68.70412
 11
19.355307
 21
-68.70412
  0
LINE
  8
寸法
  6
CONTINUOUS
 10
2.703197
 20
-76.17062
 11
19.355307
 21
-76.17062
  0
LINE
  8
寸法
  6
CONTINUOUS
 10
19.355307
 20
-68.70412
 11
19.355307
 21
-76.17062
  0
POINT
  8
寸法
 10
19.355307
 20
-68.70412
  0
POINT
  8
寸法
 10
19.355307
 20
-76.17062
  0
TEXT
  7
TextStyle03
  8
寸法
  6
CONTINUOUS
 10
18.975
 20
-74.8875
  1
224
 40
3.0
 50
90.0
 72
     5
 11
18.975
 21
-70.0125
  0
ENDBLK
  0
BLOCK
  2
*GRP_0007
 70
    65
 10
0.0
 20
0.0
  0
INSERT
  2
M8横
  8
ゴム等
  6
CONTINUOUS
 10
163.336003
 20
27.710297
 50
90.0
 41
0.033333
 42
0.033333
  0
LINE
  8
ボルト／ビス
  6
CONTINUOUS
 10
163.126005
 20
27.843633
 11
163.109338
 21
27.826965
  0
LINE
  8
ボルト／ビス
  6
CONTINUOUS
 10
163.109338
 20
27.593633
 11
163.126005
 21
27.576965
  0
LINE
  8
ボルト／ビス
  6
CONTINUOUS
 10
163.126005
 20
27.576965
 11
163.126005
 21
27.843633
  0
LINE
  8
ボルト／ビス
  6
CONTINUOUS
 10
163.109338
 20
27.593633
 11
163.109338
 21
27.826965
  0
LINE
  8
ボルト／ビス
  6
CONTINUOUS
 10
163.109338
 20
27.826965
 11
163.15267
 21
27.826965
  0
LINE
  8
ボルト／ビス
  6
CONTINUOUS
 10
163.126005
 20
27.843633
 11
163.15267
 21
27.843633
  0
LINE
  8
ボルト／ビス
  6
CONTINUOUS
 10
163.126005
 20
27.576965
 11
163.15267
 21
27.576965
  0
LINE
  8
ボルト／ビス
  6
CONTINUOUS
 10
163.109338
 20
27.593633
 11
163.15267
 21
27.593633
  0
LINE
  8
ボルト／ビス
  6
CONTINUOUS
 10
163.336003
 20
27.343633
 11
163.336003
 21
28.076965
  0
LINE
  8
ボルト／ビス
  6
CONTINUOUS
 10
163.376002
 20
28.126965
 11
163.459335
 21
28.126965
  0
LINE
  8
ボルト／ビス
  6
CONTINUOUS
 10
163.459335
 20
28.126965
 11
163.459335
 21
27.293633
  0
LINE
  8
ボルト／ビス
  6
CONTINUOUS
 10
163.459335
 20
27.293633
 11
163.376002
 21
27.293633
  0
LINE
  8
ボルト／ビス
  6
CONTINUOUS
 10
163.376002
 20
28.126965
 11
163.376002
 21
27.293633
  0
LINE
  8
ボルト／ビス
  6
CONTINUOUS
 10
163.336003
 20
27.343633
 11
163.376002
 21
27.343633
  0
LINE
  8
ボルト／ビス
  6
CONTINUOUS
 10
163.336003
 20
28.076965
 11
163.376002
 21
28.076965
  0
LINE
  8
ボルト／ビス
  6
CONTINUOUS
 10
163.386002
 20
27.710297
 11
163.336003
 21
27.710297
  0
ENDBLK
  0
BLOCK
  2
*GRP_0008
 70
    65
 10
0.0
 20
0.0
  0
LINE
  8
ボルト／ビス
  6
CONTINUOUS
 10
162.47617
 20
27.50363
 11
162.409503
 21
27.50363
  0
LINE
  8
ボルト／ビス
  6
CONTINUOUS
 10
162.409503
 20
27.50363
 11
162.409503
 21
28.236962
  0
LINE
  8
ボルト／ビス
  6
CONTINUOUS
 10
162.409503
 20
28.236962
 11
162.47617
 21
28.236962
  0
LINE
  8
ボルト／ビス
  6
CONTINUOUS
 10
162.47617
 20
27.50363
 11
162.47617
 21
28.236962
  0
LINE
  8
ボルト／ビス
  6
CONTINUOUS
 10
162.37617
 20
27.570298
 11
162.409503
 21
27.570298
  0
LINE
  8
ボルト／ビス
  6
CONTINUOUS
 10
162.37617
 20
27.570298
 11
162.37617
 21
28.170298
  0
LINE
  8
ボルト／ビス
  6
CONTINUOUS
 10
162.37617
 20
28.170298
 11
162.409503
 21
28.170298
  0
LINE
  8
ボルト／ビス
  6
CONTINUOUS
 62
    64
 10
162.17617
 20
27.709922
 11
162.187845
 21
27.677847
  0
ARC
  8
ボルト／ビス
  6
CONTINUOUS
 62
    64
 10
162.281149
 20
27.725964
 40
0.104978
 50
152.721967
 51
180.0
  0
ARC
  8
ボルト／ビス
  6
CONTINUOUS
 62
    64
 10
162.578573
 20
27.870302
 40
0.402402
 50
166.165002
 51
193.834985
  0
LINE
  8
ボルト／ビス
  6
CONTINUOUS
 62
    64
 10
162.17617
 20
28.030673
 11
162.187845
 21
28.062747
  0
ARC
  8
ボルト／ビス
  6
CONTINUOUS
 62
    64
 10
162.281149
 20
28.014639
 40
0.104978
 50
180.0
 51
207.278033
  0
LINE
  8
ボルト／ビス
  6
CONTINUOUS
 62
    64
 10
162.17617
 20
27.709922
 11
162.17617
 21
28.030673
  0
LINE
  8
ボルト／ビス
  6
CONTINUOUS
 62
    64
 10
162.187845
 20
28.062747
 11
162.309503
 21
28.062747
  0
LINE
  8
ボルト／ビス
  6
CONTINUOUS
 62
    64
 10
162.187845
 20
27.966523
 11
162.309503
 21
27.966523
  0
LINE
  8
ボルト／ビス
  6
CONTINUOUS
 62
    64
 10
162.187845
 20
27.677847
 11
162.309503
 21
27.677847
  0
LINE
  8
ボルト／ビス
  6
CONTINUOUS
 62
    64
 10
162.187845
 20
27.774072
 11
162.309503
 21
27.774072
  0
LINE
  8
ボルト／ビス
  6
CONTINUOUS
 10
162.309503
 20
27.677847
 11
162.309503
 21
28.062747
  0
LINE
  8
ボルト／ビス
  6
CONTINUOUS
 10
162.309503
 20
27.670298
 11
162.37617
 21
27.670298
  0
LINE
  8
ボルト／ビス
  6
CONTINUOUS
 10
162.309503
 20
27.670298
 11
162.309503
 21
28.070298
  0
LINE
  8
ボルト／ビス
  6
CONTINUOUS
 10
162.309503
 20
28.070298
 11
162.37617
 21
28.070298
  0
ENDBLK
  0
BLOCK
  2
*DIM_0009
 70
    65
 10
0.0
 20
0.0
  0
LINE
  8
寸法
  6
CONTINUOUS
 10
161.248695
 20
26.256963
 11
142.14273
 21
26.256963
  0
LINE
  8
寸法
  6
CONTINUOUS
 10
142.14273
 20
28.536658
 11
142.14273
 21
26.256963
  0
POINT
  8
寸法
 10
142.14273
 20
28.536658
  0
POINT
  8
寸法
 10
142.14273
 20
26.256963
  0
TEXT
  7
TextStyle03
  8
寸法
  6
CONTINUOUS
 10
141.75
 20
17.34375
  1
68.4
 40
3.0
 50
90.0
 72
     5
 11
141.75
 21
23.90625
  0
ENDBLK
  0
BLOCK
  2
*DIM_0010
 70
    65
 10
0.0
 20
0.0
  0
LINE
  8
寸法
  6
CONTINUOUS
 10
169.209335
 20
21.570298
 11
169.209335
 21
13.661277
  0
LINE
  8
寸法
  6
CONTINUOUS
 10
161.742835
 20
23.536658
 11
161.742835
 21
13.661277
  0
LINE
  8
寸法
  6
CONTINUOUS
 10
169.209335
 20
13.661277
 11
161.742835
 21
13.661277
  0
POINT
  8
寸法
 10
169.209335
 20
13.661277
  0
POINT
  8
寸法
 10
161.742835
 20
13.661277
  0
TEXT
  7
TextStyle03
  8
寸法
  6
CONTINUOUS
 10
163.0375
 20
14.025
  1
224
 40
3.0
 72
     5
 11
167.9125
 21
14.025
  0
ENDBLK
  0
BLOCK
  2
*GRP_0011
 70
    65
 10
0.0
 20
0.0
  0
INSERT
  2
M8横
  8
ゴム等
  6
CONTINUOUS
 10
163.336003
 20
72.696352
 50
270.0
 41
0.033333
 42
-0.033333
  0
LINE
  8
ボルト／ビス
  6
CONTINUOUS
 10
163.126005
 20
72.56302
 11
163.109338
 21
72.579688
  0
LINE
  8
ボルト／ビス
  6
CONTINUOUS
 10
163.109338
 20
72.81302
 11
163.126005
 21
72.829688
  0
LINE
  8
ボルト／ビス
  6
CONTINUOUS
 10
163.126005
 20
72.829688
 11
163.126005
 21
72.56302
  0
LINE
  8
ボルト／ビス
  6
CONTINUOUS
 10
163.109338
 20
72.81302
 11
163.109338
 21
72.579688
  0
LINE
  8
ボルト／ビス
  6
CONTINUOUS
 10
163.109338
 20
72.579688
 11
163.15267
 21
72.579688
  0
LINE
  8
ボルト／ビス
  6
CONTINUOUS
 10
163.126005
 20
72.56302
 11
163.15267
 21
72.56302
  0
LINE
  8
ボルト／ビス
  6
CONTINUOUS
 10
163.126005
 20
72.829688
 11
163.15267
 21
72.829688
  0
LINE
  8
ボルト／ビス
  6
CONTINUOUS
 10
163.109338
 20
72.81302
 11
163.15267
 21
72.81302
  0
LINE
  8
ボルト／ビス
  6
CONTINUOUS
 10
163.336003
 20
73.06302
 11
163.336003
 21
72.329688
  0
LINE
  8
ボルト／ビス
  6
CONTINUOUS
 10
163.376002
 20
72.279687
 11
163.459335
 21
72.279687
  0
LINE
  8
ボルト／ビス
  6
CONTINUOUS
 10
163.459335
 20
72.279687
 11
163.459335
 21
73.11302
  0
LINE
  8
ボルト／ビス
  6
CONTINUOUS
 10
163.459335
 20
73.11302
 11
163.376002
 21
73.11302
  0
LINE
  8
ボルト／ビス
  6
CONTINUOUS
 10
163.376002
 20
72.279687
 11
163.376002
 21
73.11302
  0
LINE
  8
ボルト／ビス
  6
CONTINUOUS
 10
163.336003
 20
73.06302
 11
163.376002
 21
73.06302
  0
LINE
  8
ボルト／ビス
  6
CONTINUOUS
 10
163.336003
 20
72.329688
 11
163.376002
 21
72.329688
  0
LINE
  8
ボルト／ビス
  6
CONTINUOUS
 10
163.386002
 20
72.696352
 11
163.336003
 21
72.696352
  0
ENDBLK
  0
BLOCK
  2
*GRP_0012
 70
    65
 10
0.0
 20
0.0
  0
LINE
  8
ボルト／ビス
  6
CONTINUOUS
 10
162.47617
 20
72.903023
 11
162.409503
 21
72.903023
  0
LINE
  8
ボルト／ビス
  6
CONTINUOUS
 10
162.409503
 20
72.903023
 11
162.409503
 21
72.169687
  0
LINE
  8
ボルト／ビス
  6
CONTINUOUS
 10
162.409503
 20
72.169687
 11
162.47617
 21
72.169687
  0
LINE
  8
ボルト／ビス
  6
CONTINUOUS
 10
162.47617
 20
72.903023
 11
162.47617
 21
72.169687
  0
LINE
  8
ボルト／ビス
  6
CONTINUOUS
 10
162.37617
 20
72.836355
 11
162.409503
 21
72.836355
  0
LINE
  8
ボルト／ビス
  6
CONTINUOUS
 10
162.37617
 20
72.836355
 11
162.37617
 21
72.236355
  0
LINE
  8
ボルト／ビス
  6
CONTINUOUS
 10
162.37617
 20
72.236355
 11
162.409503
 21
72.236355
  0
LINE
  8
ボルト／ビス
  6
CONTINUOUS
 62
    64
 10
162.17617
 20
72.69673
 11
162.187845
 21
72.728805
  0
ARC
  8
ボルト／ビス
  6
CONTINUOUS
 62
    64
 10
162.281149
 20
72.680698
 40
0.104978
 50
180.0
 51
207.278033
  0
ARC
  8
ボルト／ビス
  6
CONTINUOUS
 62
    64
 10
162.578573
 20
72.536361
 40
0.402402
 50
166.165015
 51
193.834998
  0
LINE
  8
ボルト／ビス
  6
CONTINUOUS
 62
    64
 10
162.17617
 20
72.37598
 11
162.187845
 21
72.343905
  0
ARC
  8
ボルト／ビス
  6
CONTINUOUS
 62
    64
 10
162.281149
 20
72.392023
 40
0.104978
 50
152.721967
 51
180.0
  0
LINE
  8
ボルト／ビス
  6
CONTINUOUS
 62
    64
 10
162.17617
 20
72.69673
 11
162.17617
 21
72.37598
  0
LINE
  8
ボルト／ビス
  6
CONTINUOUS
 62
    64
 10
162.187845
 20
72.343905
 11
162.309503
 21
72.343905
  0
LINE
  8
ボルト／ビス
  6
CONTINUOUS
 62
    64
 10
162.187845
 20
72.44013
 11
162.309503
 21
72.44013
  0
LINE
  8
ボルト／ビス
  6
CONTINUOUS
 62
    64
 10
162.187845
 20
72.728805
 11
162.309503
 21
72.728805
  0
LINE
  8
ボルト／ビス
  6
CONTINUOUS
 62
    64
 10
162.187845
 20
72.63258
 11
162.309503
 21
72.63258
  0
LINE
  8
ボルト／ビス
  6
CONTINUOUS
 10
162.309503
 20
72.728805
 11
162.309503
 21
72.343905
  0
LINE
  8
ボルト／ビス
  6
CONTINUOUS
 10
162.309503
 20
72.736355
 11
162.37617
 21
72.736355
  0
LINE
  8
ボルト／ビス
  6
CONTINUOUS
 10
162.309503
 20
72.736355
 11
162.309503
 21
72.336355
  0
LINE
  8
ボルト／ビス
  6
CONTINUOUS
 10
162.309503
 20
72.336355
 11
162.37617
 21
72.336355
  0
ENDBLK
  0
BLOCK
  2
*DIM_0013
 70
    65
 10
0.0
 20
0.0
  0
LINE
  8
寸法
  6
CONTINUOUS
 10
161.248695
 20
74.149688
 11
142.14273
 21
74.149688
  0
LINE
  8
寸法
  6
CONTINUOUS
 10
142.14273
 20
71.869993
 11
142.14273
 21
74.149688
  0
POINT
  8
寸法
 10
142.14273
 20
71.869993
  0
POINT
  8
寸法
 10
142.14273
 20
74.149688
  0
TEXT
  7
TextStyle03
  8
寸法
  6
CONTINUOUS
 10
141.75
 20
76.46875
  1
68.4
 40
3.0
 50
90.0
 72
     5
 11
141.75
 21
83.03125
  0
ENDBLK
  0
BLOCK
  2
*DIM_0014
 70
    65
 10
0.0
 20
0.0
  0
LINE
  8
寸法
  6
CONTINUOUS
 10
142.14273
 20
71.869993
 11
142.14273
 21
28.536658
  0
POINT
  8
寸法
 10
142.14273
 20
71.869993
  0
POINT
  8
寸法
 10
142.14273
 20
28.536658
  0
TEXT
  7
TextStyle03
  8
寸法
  6
CONTINUOUS
 10
141.75
 20
38.48125
  1
呼称寸法　1300
 40
3.0
 50
90.0
 72
     5
 11
141.75
 21
61.91875
  0
ENDBLK
  0
BLOCK
  2
*DIM_0015
 70
    65
 10
0.0
 20
0.0
  0
LINE
  8
寸法
  6
BYBLOCK
 62
     0
 10
-54.263165
 20
24.90653
 11
-54.263165
 21
19.848795
  0
LINE
  8
寸法
  6
BYBLOCK
 62
     0
 10
-20.92983
 20
24.90653
 11
-20.92983
 21
19.848795
  0
LINE
  8
寸法
  6
BYBLOCK
 62
     0
 10
-54.263165
 20
19.848795
 11
-20.92983
 21
19.848795
  0
POINT
  8
寸法
 62
     0
 10
-54.263165
 20
19.848795
  0
POINT
  8
寸法
 62
     0
 10
-20.92983
 20
19.848795
  0
TEXT
  7
TextStyle03
  8
寸法
  6
CONTINUOUS
 62
     0
 10
-40.85625
 20
20.2
  1
1000
 40
3.0
 72
     5
 11
-34.29375
 21
20.2
  0
ENDBLK
  0
BLOCK
  2
*DIM_0016
 70
    65
 10
0.0
 20
0.0
  0
LINE
  8
寸法
  6
BYBLOCK
 62
     0
 10
-0.633037
 20
67.96999
 11
6.144255
 21
67.96999
  0
LINE
  8
寸法
  6
BYBLOCK
 62
     0
 10
6.144255
 20
71.86999
 11
6.144255
 21
67.96999
  0
POINT
  8
寸法
 62
     0
 10
6.144255
 20
71.86999
  0
POINT
  8
寸法
 62
     0
 10
6.144255
 20
67.96999
  0
TEXT
  7
TextStyle03
  8
寸法
  6
CONTINUOUS
 62
     0
 10
5.85
 20
72.5375
  1
117
 40
3.0
 50
90.0
 72
     5
 11
5.85
 21
77.4125
  0
ENDBLK
  0
BLOCK
  2
*DIM_0017
 70
    65
 10
0.0
 20
0.0
  0
LINE
  8
寸法
  6
BYBLOCK
 62
     0
 10
-0.633037
 20
32.43666
 11
6.144255
 21
32.43666
  0
LINE
  8
寸法
  6
BYBLOCK
 62
     0
 10
6.144255
 20
28.53666
 11
6.144255
 21
32.43666
  0
POINT
  8
寸法
 62
     0
 10
6.144255
 20
28.53666
  0
POINT
  8
寸法
 62
     0
 10
6.144255
 20
32.43666
  0
TEXT
  7
TextStyle03
  8
寸法
  6
CONTINUOUS
 62
     0
 10
6.275
 20
22.5875
  1
117
 40
3.0
 50
90.0
 72
     5
 11
6.275
 21
27.4625
  0
ENDBLK
  0
BLOCK
  2
*DIM_0018
 70
    65
 10
0.0
 20
0.0
  0
LINE
  8
寸法
  6
BYBLOCK
 62
     0
 10
-73.929832
 20
38.536658
 11
-102.874997
 21
38.536658
  0
LINE
  8
寸法
  6
BYBLOCK
 62
     0
 10
-73.929832
 20
61.869993
 11
-102.874997
 21
61.869993
  0
LINE
  8
寸法
  6
BYBLOCK
 62
     0
 10
-102.874997
 20
38.536658
 11
-102.874997
 21
61.869993
  0
POINT
  8
寸法
 62
     0
 10
-102.874997
 20
38.536658
  0
POINT
  8
寸法
 62
     0
 10
-102.874997
 20
61.869993
  0
TEXT
  7
TextStyle03
  8
寸法
  6
CONTINUOUS
 62
     0
 10
-103.25
 20
47.7375
  1
700
 40
3.0
 50
90.0
 72
     5
 11
-103.25
 21
52.6125
  0
ENDBLK
  0
BLOCK
  2
*DIM_0019
 70
    65
 10
0.0
 20
0.0
  0
LINE
  8
寸法
  6
BYBLOCK
 62
     0
 10
-60.92983
 20
74.86999
 11
-60.92983
 21
103.79761
  0
LINE
  8
寸法
  6
BYBLOCK
 62
     0
 10
-37.596497
 20
74.86999
 11
-37.596497
 21
103.79761
  0
LINE
  8
寸法
  6
BYBLOCK
 62
     0
 10
-60.92983
 20
103.79761
 11
-37.596497
 21
103.79761
  0
POINT
  8
寸法
 62
     0
 10
-60.92983
 20
103.79761
  0
POINT
  8
寸法
 62
     0
 10
-37.596497
 20
103.79761
  0
TEXT
  7
TextStyle03
  8
寸法
  6
CONTINUOUS
 62
     0
 10
-51.6875
 20
104.15
  1
700
 40
3.0
 72
     5
 11
-46.8125
 21
104.15
  0
ENDBLK
  0
BLOCK
  2
*DIM_0020
 70
    65
 10
0.0
 20
0.0
  0
LINE
  8
寸法
  6
BYBLOCK
 62
     0
 10
-14.263165
 20
74.86999
 11
-14.263165
 21
103.79761
  0
LINE
  8
寸法
  6
BYBLOCK
 62
     0
 10
-37.596497
 20
103.79761
 11
-14.263165
 21
103.79761
  0
POINT
  8
寸法
 62
     0
 10
-14.263165
 20
103.79761
  0
TEXT
  7
TextStyle03
  8
寸法
  6
CONTINUOUS
 62
     0
 10
-28.3625
 20
104.15
  1
700
 40
3.0
 72
     5
 11
-23.4875
 21
104.15
  0
ENDBLK
  0
BLOCK
  2
*GRP_0021
 70
    65
 10
0.0
 20
0.0
  0
LINE
  8
型材断面
  6
DOT
 10
-2.596497
 20
-56.60412
 11
-2.646497
 21
-56.60412
  0
LINE
  8
型材断面
  6
DOT
 10
-4.263165
 20
-56.10412
 11
-4.263165
 21
-55.370788
  0
LINE
  8
型材断面
  6
DOT
 10
-4.21347
 20
-57.087288
 11
-2.766802
 21
-57.087288
  0
LINE
  8
型材断面
  6
DOT
 10
-2.766802
 20
-57.537288
 11
-2.766802
 21
-57.087288
  0
LINE
  8
型材断面
  6
DOT
 62
    47
 10
-2.03347
 20
-60.20998
 11
-1.98347
 21
-60.20998
  0
LINE
  8
型材断面
  6
DOT
 62
    47
 10
-1.98347
 20
-60.20998
 11
-1.98347
 21
-59.876645
  0
LINE
  8
型材断面
  6
DOT
 62
    47
 10
-1.98347
 20
-59.876645
 11
-2.766802
 21
-59.776645
  0
LINE
  8
型材断面
  6
DOT
 62
    47
 10
-2.766802
 20
-59.37062
 11
-2.766802
 21
-59.776645
  0
LINE
  8
型材断面
  6
DOT
 62
    47
 10
-2.296803
 20
-59.37062
 11
-2.296803
 21
-57.537288
  0
LINE
  8
型材断面
  6
DOT
 10
-2.596497
 20
-56.60412
 11
-2.596497
 21
-56.10412
  0
LINE
  8
型材断面
  6
DOT
 10
-4.21347
 20
-57.087288
 11
-4.21347
 21
-56.60412
  0
INSERT
  2
*GRP_0022
  8
型材断面
  6
DOT
 10
0.0
 20
0.0
  0
INSERT
  2
*GRP_0023
  8
型材断面
  6
DOT
 10
0.0
 20
0.0
  0
LINE
  8
型材断面
  6
DOT
 10
-1.98347
 20
-60.20998
 11
-37.596497
 21
-60.20998
  0
LINE
  8
型材断面
  6
DOT
 10
-1.98347
 20
-59.876645
 11
-37.596497
 21
-59.876645
  0
LINE
  8
型材断面
  6
DOT
 10
-2.766802
 20
-59.776645
 11
-37.596497
 21
-59.776645
  0
LINE
  8
型材断面
  6
DOT
 10
-2.296803
 20
-59.37062
 11
-37.596497
 21
-59.37062
  0
LINE
  8
型材断面
  6
DOT
 10
-2.596497
 20
-56.60412
 11
-37.596497
 21
-56.60412
  0
LINE
  8
型材断面
  6
DOT
 10
-4.263165
 20
-55.370788
 11
-37.596497
 21
-55.370788
  0
LINE
  8
型材断面
  6
DOT
 10
-2.596497
 20
-56.10412
 11
-37.596497
 21
-56.10412
  0
LINE
  8
型材断面
  6
DOT
 10
-2.766802
 20
-57.087288
 11
-37.596497
 21
-57.087288
  0
LINE
  8
型材断面
  6
DOT
 10
-2.296803
 20
-57.537288
 11
-37.596497
 21
-57.537288
  0
LINE
  8
型材断面
  6
DOT
 10
-72.596497
 20
-56.60412
 11
-72.546497
 21
-56.60412
  0
LINE
  8
型材断面
  6
DOT
 10
-70.92983
 20
-56.10412
 11
-70.92983
 21
-55.370788
  0
LINE
  8
型材断面
  6
DOT
 10
-70.979525
 20
-57.087288
 11
-72.426192
 21
-57.087288
  0
LINE
  8
型材断面
  6
DOT
 10
-72.426192
 20
-57.537288
 11
-72.426192
 21
-57.087288
  0
LINE
  8
型材断面
  6
DOT
 62
    47
 10
-73.159525
 20
-60.20998
 11
-73.209525
 21
-60.20998
  0
LINE
  8
型材断面
  6
DOT
 62
    47
 10
-73.209525
 20
-60.20998
 11
-73.209525
 21
-59.876645
  0
LINE
  8
型材断面
  6
DOT
 62
    47
 10
-73.209525
 20
-59.876645
 11
-72.426192
 21
-59.776645
  0
LINE
  8
型材断面
  6
DOT
 62
    47
 10
-72.426192
 20
-59.37062
 11
-72.426192
 21
-59.776645
  0
LINE
  8
型材断面
  6
DOT
 62
    47
 10
-72.896192
 20
-59.37062
 11
-72.896192
 21
-57.537288
  0
LINE
  8
型材断面
  6
DOT
 10
-72.596497
 20
-56.60412
 11
-72.596497
 21
-56.10412
  0
LINE
  8
型材断面
  6
DOT
 10
-70.979525
 20
-57.087288
 11
-70.979525
 21
-56.60412
  0
INSERT
  2
*GRP_0024
  8
型材断面
  6
DOT
 10
0.0
 20
0.0
  0
INSERT
  2
*GRP_0025
  8
型材断面
  6
DOT
 10
0.0
 20
0.0
  0
LINE
  8
型材断面
  6
DOT
 10
-73.209525
 20
-60.20998
 11
-37.596497
 21
-60.20998
  0
LINE
  8
型材断面
  6
DOT
 10
-73.209525
 20
-59.876645
 11
-37.596497
 21
-59.876645
  0
LINE
  8
型材断面
  6
DOT
 10
-72.426192
 20
-59.776645
 11
-37.596497
 21
-59.776645
  0
LINE
  8
型材断面
  6
DOT
 10
-72.896192
 20
-59.37062
 11
-37.596497
 21
-59.37062
  0
LINE
  8
型材断面
  6
DOT
 10
-72.596497
 20
-56.60412
 11
-37.596497
 21
-56.60412
  0
LINE
  8
型材断面
  6
DOT
 10
-70.92983
 20
-55.370788
 11
-37.596497
 21
-55.370788
  0
LINE
  8
型材断面
  6
DOT
 10
-72.596497
 20
-56.10412
 11
-37.596497
 21
-56.10412
  0
LINE
  8
型材断面
  6
DOT
 10
-72.426192
 20
-57.087288
 11
-37.596497
 21
-57.087288
  0
LINE
  8
型材断面
  6
DOT
 10
-72.896192
 20
-57.537288
 11
-37.596497
 21
-57.537288
  0
ENDBLK
  0
BLOCK
  2
*GRP_0022
 70
    65
 10
0.0
 20
0.0
  0
INSERT
  2
M8横
  8
ゴム等
  6
DOT
 10
-3.436805
 20
-56.963955
 50
180.0
 41
0.033333
 42
-0.033333
  0
LINE
  8
ボルト／ビス
  6
DOT
 10
-3.570137
 20
-56.753955
 11
-3.553473
 21
-56.73729
  0
LINE
  8
ボルト／ビス
  6
DOT
 10
-3.320137
 20
-56.73729
 11
-3.303473
 21
-56.753955
  0
LINE
  8
ボルト／ビス
  6
DOT
 10
-3.303473
 20
-56.753955
 11
-3.570137
 21
-56.753955
  0
LINE
  8
ボルト／ビス
  6
DOT
 10
-3.320137
 20
-56.73729
 11
-3.553473
 21
-56.73729
  0
LINE
  8
ボルト／ビス
  6
DOT
 10
-3.553473
 20
-56.73729
 11
-3.553473
 21
-56.78062
  0
LINE
  8
ボルト／ビス
  6
DOT
 10
-3.570137
 20
-56.753955
 11
-3.570137
 21
-56.78062
  0
LINE
  8
ボルト／ビス
  6
DOT
 10
-3.303473
 20
-56.753955
 11
-3.303473
 21
-56.78062
  0
LINE
  8
ボルト／ビス
  6
DOT
 10
-3.320137
 20
-56.73729
 11
-3.320137
 21
-56.78062
  0
LINE
  8
ボルト／ビス
  6
DOT
 10
-3.070137
 20
-56.963955
 11
-3.803473
 21
-56.963955
  0
LINE
  8
ボルト／ビス
  6
DOT
 10
-3.853473
 20
-57.003955
 11
-3.853473
 21
-57.087288
  0
LINE
  8
ボルト／ビス
  6
DOT
 10
-3.853473
 20
-57.087288
 11
-3.020137
 21
-57.087288
  0
LINE
  8
ボルト／ビス
  6
DOT
 10
-3.020137
 20
-57.087288
 11
-3.020137
 21
-57.003955
  0
LINE
  8
ボルト／ビス
  6
DOT
 10
-3.853473
 20
-57.003955
 11
-3.020137
 21
-57.003955
  0
LINE
  8
ボルト／ビス
  6
DOT
 10
-3.070137
 20
-56.963955
 11
-3.070137
 21
-57.003955
  0
LINE
  8
ボルト／ビス
  6
DOT
 10
-3.803473
 20
-56.963955
 11
-3.803473
 21
-57.003955
  0
LINE
  8
ボルト／ビス
  6
DOT
 10
-3.436805
 20
-57.013955
 11
-3.436805
 21
-56.963955
  0
ENDBLK
  0
BLOCK
  2
*GRP_0023
 70
    65
 10
0.0
 20
0.0
  0
LINE
  8
ボルト／ビス
  6
DOT
 10
-3.230138
 20
-56.10412
 11
-3.230138
 21
-56.037455
  0
LINE
  8
ボルト／ビス
  6
DOT
 10
-3.230138
 20
-56.037455
 11
-3.96347
 21
-56.037455
  0
LINE
  8
ボルト／ビス
  6
DOT
 10
-3.96347
 20
-56.037455
 11
-3.96347
 21
-56.10412
  0
LINE
  8
ボルト／ビス
  6
DOT
 10
-3.230138
 20
-56.10412
 11
-3.96347
 21
-56.10412
  0
LINE
  8
ボルト／ビス
  6
DOT
 10
-3.296803
 20
-56.00412
 11
-3.296803
 21
-56.037455
  0
LINE
  8
ボルト／ビス
  6
DOT
 10
-3.296803
 20
-56.00412
 11
-3.896803
 21
-56.00412
  0
LINE
  8
ボルト／ビス
  6
DOT
 10
-3.896803
 20
-56.00412
 11
-3.896803
 21
-56.037455
  0
LINE
  8
ボルト／ビス
  6
DOT
 62
    64
 10
-3.436427
 20
-55.80412
 11
-3.404353
 21
-55.815795
  0
ARC
  8
ボルト／ビス
  6
DOT
 62
    64
 10
-3.452466
 20
-55.909098
 40
0.104978
 50
90.0
 51
117.278033
  0
ARC
  8
ボルト／ビス
  6
DOT
 62
    64
 10
-3.596804
 20
-56.206521
 40
0.402402
 50
76.165015
 51
103.834998
  0
LINE
  8
ボルト／ビス
  6
DOT
 62
    64
 10
-3.757178
 20
-55.80412
 11
-3.789253
 21
-55.815795
  0
ARC
  8
ボルト／ビス
  6
DOT
 62
    64
 10
-3.741142
 20
-55.909098
 40
0.104978
 50
62.721967
 51
90.0
  0
LINE
  8
ボルト／ビス
  6
DOT
 62
    64
 10
-3.436427
 20
-55.80412
 11
-3.757178
 21
-55.80412
  0
LINE
  8
ボルト／ビス
  6
DOT
 62
    64
 10
-3.789253
 20
-55.815795
 11
-3.789253
 21
-55.937455
  0
LINE
  8
ボルト／ビス
  6
DOT
 62
    64
 10
-3.693027
 20
-55.815795
 11
-3.693027
 21
-55.937455
  0
LINE
  8
ボルト／ビス
  6
DOT
 62
    64
 10
-3.404353
 20
-55.815795
 11
-3.404353
 21
-55.937455
  0
LINE
  8
ボルト／ビス
  6
DOT
 62
    64
 10
-3.500577
 20
-55.815795
 11
-3.500577
 21
-55.937455
  0
LINE
  8
ボルト／ビス
  6
DOT
 10
-3.404353
 20
-55.937455
 11
-3.789253
 21
-55.937455
  0
LINE
  8
ボルト／ビス
  6
DOT
 10
-3.396803
 20
-55.937455
 11
-3.396803
 21
-56.00412
  0
LINE
  8
ボルト／ビス
  6
DOT
 10
-3.396803
 20
-55.937455
 11
-3.796803
 21
-55.937455
  0
LINE
  8
ボルト／ビス
  6
DOT
 10
-3.796803
 20
-55.937455
 11
-3.796803
 21
-56.00412
  0
ENDBLK
  0
BLOCK
  2
*GRP_0024
 70
    65
 10
0.0
 20
0.0
  0
INSERT
  2
M8横
  8
ゴム等
  6
DOT
 10
-71.75619
 20
-56.963955
 41
0.033333
 42
0.033333
  0
LINE
  8
ボルト／ビス
  6
DOT
 10
-71.622858
 20
-56.753955
 11
-71.639523
 21
-56.73729
  0
LINE
  8
ボルト／ビス
  6
DOT
 10
-71.872858
 20
-56.73729
 11
-71.889523
 21
-56.753955
  0
LINE
  8
ボルト／ビス
  6
DOT
 10
-71.889523
 20
-56.753955
 11
-71.622858
 21
-56.753955
  0
LINE
  8
ボルト／ビス
  6
DOT
 10
-71.872858
 20
-56.73729
 11
-71.639523
 21
-56.73729
  0
LINE
  8
ボルト／ビス
  6
DOT
 10
-71.639523
 20
-56.73729
 11
-71.639523
 21
-56.78062
  0
LINE
  8
ボルト／ビス
  6
DOT
 10
-71.622858
 20
-56.753955
 11
-71.622858
 21
-56.78062
  0
LINE
  8
ボルト／ビス
  6
DOT
 10
-71.889523
 20
-56.753955
 11
-71.889523
 21
-56.78062
  0
LINE
  8
ボルト／ビス
  6
DOT
 10
-71.872858
 20
-56.73729
 11
-71.872858
 21
-56.78062
  0
LINE
  8
ボルト／ビス
  6
DOT
 10
-72.122858
 20
-56.963955
 11
-71.389523
 21
-56.963955
  0
LINE
  8
ボルト／ビス
  6
DOT
 10
-71.339523
 20
-57.003955
 11
-71.339523
 21
-57.087288
  0
LINE
  8
ボルト／ビス
  6
DOT
 10
-71.339523
 20
-57.087288
 11
-72.172858
 21
-57.087288
  0
LINE
  8
ボルト／ビス
  6
DOT
 10
-72.172858
 20
-57.087288
 11
-72.172858
 21
-57.003955
  0
LINE
  8
ボルト／ビス
  6
DOT
 10
-71.339523
 20
-57.003955
 11
-72.172858
 21
-57.003955
  0
LINE
  8
ボルト／ビス
  6
DOT
 10
-72.122858
 20
-56.963955
 11
-72.122858
 21
-57.003955
  0
LINE
  8
ボルト／ビス
  6
DOT
 10
-71.389523
 20
-56.963955
 11
-71.389523
 21
-57.003955
  0
LINE
  8
ボルト／ビス
  6
DOT
 10
-71.75619
 20
-57.013955
 11
-71.75619
 21
-56.963955
  0
ENDBLK
  0
BLOCK
  2
*GRP_0025
 70
    65
 10
0.0
 20
0.0
  0
LINE
  8
ボルト／ビス
  6
DOT
 10
-71.962857
 20
-56.10412
 11
-71.962857
 21
-56.037455
  0
LINE
  8
ボルト／ビス
  6
DOT
 10
-71.962857
 20
-56.037455
 11
-71.229525
 21
-56.037455
  0
LINE
  8
ボルト／ビス
  6
DOT
 10
-71.229525
 20
-56.037455
 11
-71.229525
 21
-56.10412
  0
LINE
  8
ボルト／ビス
  6
DOT
 10
-71.962857
 20
-56.10412
 11
-71.229525
 21
-56.10412
  0
LINE
  8
ボルト／ビス
  6
DOT
 10
-71.896192
 20
-56.00412
 11
-71.896192
 21
-56.037455
  0
LINE
  8
ボルト／ビス
  6
DOT
 10
-71.896192
 20
-56.00412
 11
-71.296192
 21
-56.00412
  0
LINE
  8
ボルト／ビス
  6
DOT
 10
-71.296192
 20
-56.00412
 11
-71.296192
 21
-56.037455
  0
LINE
  8
ボルト／ビス
  6
DOT
 62
    64
 10
-71.756567
 20
-55.80412
 11
-71.788642
 21
-55.815795
  0
ARC
  8
ボルト／ビス
  6
DOT
 62
    64
 10
-71.74053
 20
-55.909098
 40
0.104978
 50
62.721967
 51
90.0
  0
ARC
  8
ボルト／ビス
  6
DOT
 62
    64
 10
-71.596193
 20
-56.206521
 40
0.402402
 50
76.165002
 51
103.834985
  0
LINE
  8
ボルト／ビス
  6
DOT
 62
    64
 10
-71.435818
 20
-55.80412
 11
-71.403743
 21
-55.815795
  0
ARC
  8
ボルト／ビス
  6
DOT
 62
    64
 10
-71.451855
 20
-55.909098
 40
0.104978
 50
90.0
 51
117.278033
  0
LINE
  8
ボルト／ビス
  6
DOT
 62
    64
 10
-71.756567
 20
-55.80412
 11
-71.435818
 21
-55.80412
  0
LINE
  8
ボルト／ビス
  6
DOT
 62
    64
 10
-71.403743
 20
-55.815795
 11
-71.403743
 21
-55.937455
  0
LINE
  8
ボルト／ビス
  6
DOT
 62
    64
 10
-71.499967
 20
-55.815795
 11
-71.499967
 21
-55.937455
  0
LINE
  8
ボルト／ビス
  6
DOT
 62
    64
 10
-71.788642
 20
-55.815795
 11
-71.788642
 21
-55.937455
  0
LINE
  8
ボルト／ビス
  6
DOT
 62
    64
 10
-71.692418
 20
-55.815795
 11
-71.692418
 21
-55.937455
  0
LINE
  8
ボルト／ビス
  6
DOT
 10
-71.788642
 20
-55.937455
 11
-71.403743
 21
-55.937455
  0
LINE
  8
ボルト／ビス
  6
DOT
 10
-71.796192
 20
-55.937455
 11
-71.796192
 21
-56.00412
  0
LINE
  8
ボルト／ビス
  6
DOT
 10
-71.796192
 20
-55.937455
 11
-71.396192
 21
-55.937455
  0
LINE
  8
ボルト／ビス
  6
DOT
 10
-71.396192
 20
-55.937455
 11
-71.396192
 21
-56.00412
  0
ENDBLK
  0
BLOCK
  2
*GRP_0026
 70
    65
 10
0.0
 20
0.0
  0
LINE
  8
補助線
  6
BYBLOCK
 62
    64
 10
-67.538908
 20
-74.287565
 11
-67.654702
 21
-74.407435
  0
LINE
  8
補助線
  6
BYBLOCK
 62
    64
 10
-67.656743
 20
-74.2896
 11
-67.53687
 21
-74.405397
  0
LINE
  8
補助線
  6
BYBLOCK
 62
    64
 10
-59.826833
 20
-66.304208
 11
-59.942633
 21
-66.424078
  0
LINE
  8
補助線
  6
BYBLOCK
 62
    64
 10
-59.944668
 20
-66.306243
 11
-59.824798
 21
-66.42204
  0
LINE
  8
補助線
  6
BYBLOCK
 62
    64
 10
-52.23056
 20
-58.44072
 11
-52.114762
 21
-58.32085
  0
LINE
  8
補助線
  6
BYBLOCK
 62
    64
 10
-52.232597
 20
-58.322885
 11
-52.112725
 21
-58.438682
  0
LINE
  8
型材断面
  6
CONTINUOUS
 10
-68.427747
 20
-74.008258
 11
-68.415528
 21
-74.715258
  0
LINE
  8
型材断面
  6
CONTINUOUS
 10
-68.415528
 20
-74.715258
 11
-67.936045
 21
-75.178445
  0
LINE
  8
型材断面
  6
CONTINUOUS
 10
-67.936045
 20
-75.178445
 11
-67.229045
 21
-75.166225
  0
LINE
  8
型材断面
  6
CONTINUOUS
 10
-52.54042
 20
-57.56206
 11
-51.833417
 21
-57.549842
  0
LINE
  8
型材断面
  6
CONTINUOUS
 10
-51.833417
 20
-57.549842
 11
-51.353935
 21
-58.013028
  0
LINE
  8
型材断面
  6
CONTINUOUS
 10
-51.353935
 20
-58.013028
 11
-51.341715
 21
-58.72003
  0
LINE
  8
型材断面
  6
CONTINUOUS
 10
-68.427747
 20
-74.008258
 11
-52.54042
 21
-57.56206
  0
LINE
  8
型材断面
  6
CONTINUOUS
 10
-67.229045
 20
-75.166225
 11
-51.341715
 21
-58.72003
  0
CIRCLE
  8
ボルト／ビス
  6
CONTINUOUS
 10
-67.596805
 20
-74.3475
 40
0.250185
  0
CIRCLE
  8
ボルト／ビス
  6
CONTINUOUS
 10
-67.596805
 20
-74.3475
 40
0.301025
  0
LINE
  8
ボルト／ビス
  6
CONTINUOUS
 62
    64
 10
-67.83731
 20
-74.41642
 11
-67.776742
 21
-74.173678
  0
LINE
  8
ボルト／ビス
  6
CONTINUOUS
 62
    64
 10
-67.536237
 20
-74.104755
 11
-67.776742
 21
-74.173678
  0
LINE
  8
ボルト／ビス
  6
CONTINUOUS
 62
    64
 10
-67.657373
 20
-74.590245
 11
-67.416867
 21
-74.521323
  0
LINE
  8
ボルト／ビス
  6
CONTINUOUS
 62
    64
 10
-67.356297
 20
-74.27858
 11
-67.416867
 21
-74.521323
  0
LINE
  8
ボルト／ビス
  6
CONTINUOUS
 62
    64
 10
-67.83731
 20
-74.41642
 11
-67.657373
 21
-74.590245
  0
LINE
  8
ボルト／ビス
  6
CONTINUOUS
 62
    64
 10
-67.536237
 20
-74.104755
 11
-67.356297
 21
-74.27858
  0
CIRCLE
  8
ボルト／ビス
  6
CONTINUOUS
 62
    64
 10
-67.596805
 20
-74.3475
 40
0.216668
  0
CIRCLE
  8
ボルト／ビス
  6
CONTINUOUS
 10
-59.884732
 20
-66.364142
 40
0.250185
  0
CIRCLE
  8
ボルト／ビス
  6
CONTINUOUS
 10
-59.884732
 20
-66.364142
 40
0.301025
  0
LINE
  8
ボルト／ビス
  6
CONTINUOUS
 62
    64
 10
-60.125238
 20
-66.43306
 11
-60.064672
 21
-66.190318
  0
LINE
  8
ボルト／ビス
  6
CONTINUOUS
 62
    64
 10
-59.824165
 20
-66.121397
 11
-60.064672
 21
-66.190318
  0
LINE
  8
ボルト／ビス
  6
CONTINUOUS
 62
    64
 10
-59.9453
 20
-66.606887
 11
-59.704795
 21
-66.537965
  0
LINE
  8
ボルト／ビス
  6
CONTINUOUS
 62
    64
 10
-59.644225
 20
-66.295222
 11
-59.704795
 21
-66.537965
  0
LINE
  8
ボルト／ビス
  6
CONTINUOUS
 62
    64
 10
-60.125238
 20
-66.43306
 11
-59.9453
 21
-66.606887
  0
LINE
  8
ボルト／ビス
  6
CONTINUOUS
 62
    64
 10
-59.824165
 20
-66.121397
 11
-59.644225
 21
-66.295222
  0
CIRCLE
  8
ボルト／ビス
  6
CONTINUOUS
 62
    64
 10
-59.884732
 20
-66.364142
 40
0.216668
  0
CIRCLE
  8
ボルト／ビス
  6
CONTINUOUS
 10
-52.17266
 20
-58.380785
 40
0.250185
  0
CIRCLE
  8
ボルト／ビス
  6
CONTINUOUS
 10
-52.17266
 20
-58.380785
 40
0.301025
  0
LINE
  8
ボルト／ビス
  6
CONTINUOUS
 62
    64
 10
-52.112093
 20
-58.13804
 11
-52.352597
 21
-58.206963
  0
LINE
  8
ボルト／ビス
  6
CONTINUOUS
 62
    64
 10
-52.413167
 20
-58.449705
 11
-52.352597
 21
-58.206963
  0
LINE
  8
ボルト／ビス
  6
CONTINUOUS
 62
    64
 10
-51.932155
 20
-58.311863
 11
-51.992723
 21
-58.554608
  0
LINE
  8
ボルト／ビス
  6
CONTINUOUS
 62
    64
 10
-52.233227
 20
-58.623528
 11
-51.992723
 21
-58.554608
  0
LINE
  8
ボルト／ビス
  6
CONTINUOUS
 62
    64
 10
-52.112093
 20
-58.13804
 11
-51.932155
 21
-58.311863
  0
LINE
  8
ボルト／ビス
  6
CONTINUOUS
 62
    64
 10
-52.413167
 20
-58.449705
 11
-52.233227
 21
-58.623528
  0
CIRCLE
  8
ボルト／ビス
  6
CONTINUOUS
 62
    64
 10
-52.17266
 20
-58.380785
 40
0.216668
  0
ENDBLK
  0
BLOCK
  2
*GRP_0027
 70
    65
 10
0.0
 20
0.0
  0
LINE
  8
補助線
  6
BYBLOCK
 62
    64
 10
-52.230558
 20
-74.287565
 11
-52.114762
 21
-74.407435
  0
LINE
  8
補助線
  6
BYBLOCK
 62
    64
 10
-52.112723
 20
-74.2896
 11
-52.232595
 21
-74.405397
  0
LINE
  8
補助線
  6
BYBLOCK
 62
    64
 10
-59.942633
 20
-66.304208
 11
-59.826833
 21
-66.424078
  0
LINE
  8
補助線
  6
BYBLOCK
 62
    64
 10
-59.824798
 20
-66.306243
 11
-59.944668
 21
-66.42204
  0
LINE
  8
補助線
  6
BYBLOCK
 62
    64
 10
-67.538905
 20
-58.44072
 11
-67.654702
 21
-58.32085
  0
LINE
  8
補助線
  6
BYBLOCK
 62
    64
 10
-67.536867
 20
-58.322885
 11
-67.65674
 21
-58.438682
  0
LINE
  8
型材断面
  6
CONTINUOUS
 10
-51.341717
 20
-74.008258
 11
-51.353938
 21
-74.715258
  0
LINE
  8
型材断面
  6
CONTINUOUS
 10
-51.353938
 20
-74.715258
 11
-51.83342
 21
-75.178445
  0
LINE
  8
型材断面
  6
CONTINUOUS
 10
-51.83342
 20
-75.178445
 11
-52.54042
 21
-75.166225
  0
LINE
  8
型材断面
  6
CONTINUOUS
 10
-67.229045
 20
-57.56206
 11
-67.936048
 21
-57.549842
  0
LINE
  8
型材断面
  6
CONTINUOUS
 10
-67.936048
 20
-57.549842
 11
-68.41553
 21
-58.013028
  0
LINE
  8
型材断面
  6
CONTINUOUS
 10
-68.41553
 20
-58.013028
 11
-68.42775
 21
-58.72003
  0
LINE
  8
型材断面
  6
CONTINUOUS
 10
-51.341717
 20
-74.008258
 11
-67.229045
 21
-57.56206
  0
LINE
  8
型材断面
  6
CONTINUOUS
 10
-52.54042
 20
-75.166225
 11
-68.42775
 21
-58.72003
  0
CIRCLE
  8
ボルト／ビス
  6
CONTINUOUS
 10
-52.17266
 20
-74.3475
 40
0.250185
  0
CIRCLE
  8
ボルト／ビス
  6
CONTINUOUS
 10
-52.17266
 20
-74.3475
 40
0.301025
  0
LINE
  8
ボルト／ビス
  6
CONTINUOUS
 62
    64
 10
-51.932155
 20
-74.41642
 11
-51.992723
 21
-74.173678
  0
LINE
  8
ボルト／ビス
  6
CONTINUOUS
 62
    64
 10
-52.233227
 20
-74.104755
 11
-51.992723
 21
-74.173678
  0
LINE
  8
ボルト／ビス
  6
CONTINUOUS
 62
    64
 10
-52.112093
 20
-74.590245
 11
-52.352597
 21
-74.521323
  0
LINE
  8
ボルト／ビス
  6
CONTINUOUS
 62
    64
 10
-52.413167
 20
-74.27858
 11
-52.352597
 21
-74.521323
  0
LINE
  8
ボルト／ビス
  6
CONTINUOUS
 62
    64
 10
-51.932155
 20
-74.41642
 11
-52.112093
 21
-74.590245
  0
LINE
  8
ボルト／ビス
  6
CONTINUOUS
 62
    64
 10
-52.233227
 20
-74.104755
 11
-52.413167
 21
-74.27858
  0
CIRCLE
  8
ボルト／ビス
  6
CONTINUOUS
 62
    64
 10
-52.17266
 20
-74.3475
 40
0.216668
  0
CIRCLE
  8
ボルト／ビス
  6
CONTINUOUS
 10
-59.884732
 20
-66.364142
 40
0.250185
  0
CIRCLE
  8
ボルト／ビス
  6
CONTINUOUS
 10
-59.884732
 20
-66.364142
 40
0.301025
  0
LINE
  8
ボルト／ビス
  6
CONTINUOUS
 62
    64
 10
-59.644228
 20
-66.43306
 11
-59.704792
 21
-66.190318
  0
LINE
  8
ボルト／ビス
  6
CONTINUOUS
 62
    64
 10
-59.9453
 20
-66.121397
 11
-59.704792
 21
-66.190318
  0
LINE
  8
ボルト／ビス
  6
CONTINUOUS
 62
    64
 10
-59.824165
 20
-66.606887
 11
-60.06467
 21
-66.537965
  0
LINE
  8
ボルト／ビス
  6
CONTINUOUS
 62
    64
 10
-60.12524
 20
-66.295222
 11
-60.06467
 21
-66.537965
  0
LINE
  8
ボルト／ビス
  6
CONTINUOUS
 62
    64
 10
-59.644228
 20
-66.43306
 11
-59.824165
 21
-66.606887
  0
LINE
  8
ボルト／ビス
  6
CONTINUOUS
 62
    64
 10
-59.9453
 20
-66.121397
 11
-60.12524
 21
-66.295222
  0
CIRCLE
  8
ボルト／ビス
  6
CONTINUOUS
 62
    64
 10
-59.884732
 20
-66.364142
 40
0.216668
  0
CIRCLE
  8
ボルト／ビス
  6
CONTINUOUS
 10
-67.596805
 20
-58.380785
 40
0.250185
  0
CIRCLE
  8
ボルト／ビス
  6
CONTINUOUS
 10
-67.596805
 20
-58.380785
 40
0.301025
  0
LINE
  8
ボルト／ビス
  6
CONTINUOUS
 62
    64
 10
-67.657373
 20
-58.13804
 11
-67.416867
 21
-58.206963
  0
LINE
  8
ボルト／ビス
  6
CONTINUOUS
 62
    64
 10
-67.356297
 20
-58.449705
 11
-67.416867
 21
-58.206963
  0
LINE
  8
ボルト／ビス
  6
CONTINUOUS
 62
    64
 10
-67.83731
 20
-58.311863
 11
-67.776742
 21
-58.554608
  0
LINE
  8
ボルト／ビス
  6
CONTINUOUS
 62
    64
 10
-67.536237
 20
-58.623528
 11
-67.776742
 21
-58.554608
  0
LINE
  8
ボルト／ビス
  6
CONTINUOUS
 62
    64
 10
-67.657373
 20
-58.13804
 11
-67.83731
 21
-58.311863
  0
LINE
  8
ボルト／ビス
  6
CONTINUOUS
 62
    64
 10
-67.356297
 20
-58.449705
 11
-67.536237
 21
-58.623528
  0
CIRCLE
  8
ボルト／ビス
  6
CONTINUOUS
 62
    64
 10
-67.596805
 20
-58.380785
 40
0.216668
  0
ENDBLK
  0
BLOCK
  2
*GRP_0028
 70
    65
 10
0.0
 20
0.0
  0
LINE
  8
補助線
  6
BYBLOCK
 62
    64
 10
-7.654702
 20
-74.287565
 11
-7.538908
 21
-74.407435
  0
LINE
  8
補助線
  6
BYBLOCK
 62
    64
 10
-7.536867
 20
-74.2896
 11
-7.65674
 21
-74.405397
  0
LINE
  8
補助線
  6
BYBLOCK
 62
    64
 10
-15.366777
 20
-66.304208
 11
-15.250978
 21
-66.424078
  0
LINE
  8
補助線
  6
BYBLOCK
 62
    64
 10
-15.248942
 20
-66.306243
 11
-15.368812
 21
-66.42204
  0
LINE
  8
補助線
  6
BYBLOCK
 62
    64
 10
-22.96305
 20
-58.44072
 11
-23.078848
 21
-58.32085
  0
LINE
  8
補助線
  6
BYBLOCK
 62
    64
 10
-22.961013
 20
-58.322885
 11
-23.080885
 21
-58.438682
  0
LINE
  8
型材断面
  6
CONTINUOUS
 10
-6.765863
 20
-74.008258
 11
-6.778082
 21
-74.715258
  0
LINE
  8
型材断面
  6
CONTINUOUS
 10
-6.778082
 20
-74.715258
 11
-7.257565
 21
-75.178445
  0
LINE
  8
型材断面
  6
CONTINUOUS
 10
-7.257565
 20
-75.178445
 11
-7.964565
 21
-75.166225
  0
LINE
  8
型材断面
  6
CONTINUOUS
 10
-22.65319
 20
-57.56206
 11
-23.360192
 21
-57.549842
  0
LINE
  8
型材断面
  6
CONTINUOUS
 10
-23.360192
 20
-57.549842
 11
-23.839675
 21
-58.013028
  0
LINE
  8
型材断面
  6
CONTINUOUS
 10
-23.839675
 20
-58.013028
 11
-23.851895
 21
-58.72003
  0
LINE
  8
型材断面
  6
CONTINUOUS
 10
-6.765863
 20
-74.008258
 11
-22.65319
 21
-57.56206
  0
LINE
  8
型材断面
  6
CONTINUOUS
 10
-7.964565
 20
-75.166225
 11
-23.851895
 21
-58.72003
  0
CIRCLE
  8
ボルト／ビス
  6
CONTINUOUS
 10
-7.596805
 20
-74.3475
 40
0.250185
  0
CIRCLE
  8
ボルト／ビス
  6
CONTINUOUS
 10
-7.596805
 20
-74.3475
 40
0.301025
  0
LINE
  8
ボルト／ビス
  6
CONTINUOUS
 62
    64
 10
-7.3563
 20
-74.41642
 11
-7.416867
 21
-74.173678
  0
LINE
  8
ボルト／ビス
  6
CONTINUOUS
 62
    64
 10
-7.657373
 20
-74.104755
 11
-7.416867
 21
-74.173678
  0
LINE
  8
ボルト／ビス
  6
CONTINUOUS
 62
    64
 10
-7.536237
 20
-74.590245
 11
-7.776743
 21
-74.521323
  0
LINE
  8
ボルト／ビス
  6
CONTINUOUS
 62
    64
 10
-7.837313
 20
-74.27858
 11
-7.776743
 21
-74.521323
  0
LINE
  8
ボルト／ビス
  6
CONTINUOUS
 62
    64
 10
-7.3563
 20
-74.41642
 11
-7.536237
 21
-74.590245
  0
LINE
  8
ボルト／ビス
  6
CONTINUOUS
 62
    64
 10
-7.657373
 20
-74.104755
 11
-7.837313
 21
-74.27858
  0
CIRCLE
  8
ボルト／ビス
  6
CONTINUOUS
 62
    64
 10
-7.596805
 20
-74.3475
 40
0.216668
  0
CIRCLE
  8
ボルト／ビス
  6
CONTINUOUS
 10
-15.308878
 20
-66.364142
 40
0.250185
  0
CIRCLE
  8
ボルト／ビス
  6
CONTINUOUS
 10
-15.308878
 20
-66.364142
 40
0.301025
  0
LINE
  8
ボルト／ビス
  6
CONTINUOUS
 62
    64
 10
-15.068372
 20
-66.43306
 11
-15.128938
 21
-66.190318
  0
LINE
  8
ボルト／ビス
  6
CONTINUOUS
 62
    64
 10
-15.369445
 20
-66.121397
 11
-15.128938
 21
-66.190318
  0
LINE
  8
ボルト／ビス
  6
CONTINUOUS
 62
    64
 10
-15.24831
 20
-66.606887
 11
-15.488815
 21
-66.537965
  0
LINE
  8
ボルト／ビス
  6
CONTINUOUS
 62
    64
 10
-15.549385
 20
-66.295222
 11
-15.488815
 21
-66.537965
  0
LINE
  8
ボルト／ビス
  6
CONTINUOUS
 62
    64
 10
-15.068372
 20
-66.43306
 11
-15.24831
 21
-66.606887
  0
LINE
  8
ボルト／ビス
  6
CONTINUOUS
 62
    64
 10
-15.369445
 20
-66.121397
 11
-15.549385
 21
-66.295222
  0
CIRCLE
  8
ボルト／ビス
  6
CONTINUOUS
 62
    64
 10
-15.308878
 20
-66.364142
 40
0.216668
  0
CIRCLE
  8
ボルト／ビス
  6
CONTINUOUS
 10
-23.02095
 20
-58.380785
 40
0.250185
  0
CIRCLE
  8
ボルト／ビス
  6
CONTINUOUS
 10
-23.02095
 20
-58.380785
 40
0.301025
  0
LINE
  8
ボルト／ビス
  6
CONTINUOUS
 62
    64
 10
-23.081517
 20
-58.13804
 11
-22.841013
 21
-58.206963
  0
LINE
  8
ボルト／ビス
  6
CONTINUOUS
 62
    64
 10
-22.780443
 20
-58.449705
 11
-22.841013
 21
-58.206963
  0
LINE
  8
ボルト／ビス
  6
CONTINUOUS
 62
    64
 10
-23.261455
 20
-58.311863
 11
-23.200888
 21
-58.554608
  0
LINE
  8
ボルト／ビス
  6
CONTINUOUS
 62
    64
 10
-22.960383
 20
-58.623528
 11
-23.200888
 21
-58.554608
  0
LINE
  8
ボルト／ビス
  6
CONTINUOUS
 62
    64
 10
-23.081517
 20
-58.13804
 11
-23.261455
 21
-58.311863
  0
LINE
  8
ボルト／ビス
  6
CONTINUOUS
 62
    64
 10
-22.780443
 20
-58.449705
 11
-22.960383
 21
-58.623528
  0
CIRCLE
  8
ボルト／ビス
  6
CONTINUOUS
 62
    64
 10
-23.02095
 20
-58.380785
 40
0.216668
  0
ENDBLK
  0
BLOCK
  2
*GRP_0029
 70
    65
 10
0.0
 20
0.0
  0
LINE
  8
補助線
  6
BYBLOCK
 62
    64
 10
-22.963052
 20
-74.287565
 11
-23.078848
 21
-74.407435
  0
LINE
  8
補助線
  6
BYBLOCK
 62
    64
 10
-23.080887
 20
-74.2896
 11
-22.961015
 21
-74.405397
  0
LINE
  8
補助線
  6
BYBLOCK
 62
    64
 10
-15.250978
 20
-66.304208
 11
-15.366777
 21
-66.424078
  0
LINE
  8
補助線
  6
BYBLOCK
 62
    64
 10
-15.368812
 20
-66.306243
 11
-15.248942
 21
-66.42204
  0
LINE
  8
補助線
  6
BYBLOCK
 62
    64
 10
-7.654705
 20
-58.44072
 11
-7.538908
 21
-58.32085
  0
LINE
  8
補助線
  6
BYBLOCK
 62
    64
 10
-7.656743
 20
-58.322885
 11
-7.53687
 21
-58.438682
  0
LINE
  8
型材断面
  6
CONTINUOUS
 10
-23.851893
 20
-74.008258
 11
-23.839672
 21
-74.715258
  0
LINE
  8
型材断面
  6
CONTINUOUS
 10
-23.839672
 20
-74.715258
 11
-23.36019
 21
-75.178445
  0
LINE
  8
型材断面
  6
CONTINUOUS
 10
-23.36019
 20
-75.178445
 11
-22.65319
 21
-75.166225
  0
LINE
  8
型材断面
  6
CONTINUOUS
 10
-7.964565
 20
-57.56206
 11
-7.257563
 21
-57.549842
  0
LINE
  8
型材断面
  6
CONTINUOUS
 10
-7.257563
 20
-57.549842
 11
-6.77808
 21
-58.013028
  0
LINE
  8
型材断面
  6
CONTINUOUS
 10
-6.77808
 20
-58.013028
 11
-6.76586
 21
-58.72003
  0
LINE
  8
型材断面
  6
CONTINUOUS
 10
-23.851893
 20
-74.008258
 11
-7.964565
 21
-57.56206
  0
LINE
  8
型材断面
  6
CONTINUOUS
 10
-22.65319
 20
-75.166225
 11
-6.76586
 21
-58.72003
  0
CIRCLE
  8
ボルト／ビス
  6
CONTINUOUS
 10
-23.02095
 20
-74.3475
 40
0.250185
  0
CIRCLE
  8
ボルト／ビス
  6
CONTINUOUS
 10
-23.02095
 20
-74.3475
 40
0.301025
  0
LINE
  8
ボルト／ビス
  6
CONTINUOUS
 62
    64
 10
-23.261455
 20
-74.41642
 11
-23.200888
 21
-74.173678
  0
LINE
  8
ボルト／ビス
  6
CONTINUOUS
 62
    64
 10
-22.960383
 20
-74.104755
 11
-23.200888
 21
-74.173678
  0
LINE
  8
ボルト／ビス
  6
CONTINUOUS
 62
    64
 10
-23.081517
 20
-74.590245
 11
-22.841013
 21
-74.521323
  0
LINE
  8
ボルト／ビス
  6
CONTINUOUS
 62
    64
 10
-22.780443
 20
-74.27858
 11
-22.841013
 21
-74.521323
  0
LINE
  8
ボルト／ビス
  6
CONTINUOUS
 62
    64
 10
-23.261455
 20
-74.41642
 11
-23.081517
 21
-74.590245
  0
LINE
  8
ボルト／ビス
  6
CONTINUOUS
 62
    64
 10
-22.960383
 20
-74.104755
 11
-22.780443
 21
-74.27858
  0
CIRCLE
  8
ボルト／ビス
  6
CONTINUOUS
 62
    64
 10
-23.02095
 20
-74.3475
 40
0.216668
  0
CIRCLE
  8
ボルト／ビス
  6
CONTINUOUS
 10
-15.308878
 20
-66.364142
 40
0.250185
  0
CIRCLE
  8
ボルト／ビス
  6
CONTINUOUS
 10
-15.308878
 20
-66.364142
 40
0.301025
  0
LINE
  8
ボルト／ビス
  6
CONTINUOUS
 62
    64
 10
-15.549382
 20
-66.43306
 11
-15.488818
 21
-66.190318
  0
LINE
  8
ボルト／ビス
  6
CONTINUOUS
 62
    64
 10
-15.24831
 20
-66.121397
 11
-15.488818
 21
-66.190318
  0
LINE
  8
ボルト／ビス
  6
CONTINUOUS
 62
    64
 10
-15.369445
 20
-66.606887
 11
-15.12894
 21
-66.537965
  0
LINE
  8
ボルト／ビス
  6
CONTINUOUS
 62
    64
 10
-15.06837
 20
-66.295222
 11
-15.12894
 21
-66.537965
  0
LINE
  8
ボルト／ビス
  6
CONTINUOUS
 62
    64
 10
-15.549382
 20
-66.43306
 11
-15.369445
 21
-66.606887
  0
LINE
  8
ボルト／ビス
  6
CONTINUOUS
 62
    64
 10
-15.24831
 20
-66.121397
 11
-15.06837
 21
-66.295222
  0
CIRCLE
  8
ボルト／ビス
  6
CONTINUOUS
 62
    64
 10
-15.308878
 20
-66.364142
 40
0.216668
  0
CIRCLE
  8
ボルト／ビス
  6
CONTINUOUS
 10
-7.596805
 20
-58.380785
 40
0.250185
  0
CIRCLE
  8
ボルト／ビス
  6
CONTINUOUS
 10
-7.596805
 20
-58.380785
 40
0.301025
  0
LINE
  8
ボルト／ビス
  6
CONTINUOUS
 62
    64
 10
-7.536237
 20
-58.13804
 11
-7.776743
 21
-58.206963
  0
LINE
  8
ボルト／ビス
  6
CONTINUOUS
 62
    64
 10
-7.837313
 20
-58.449705
 11
-7.776743
 21
-58.206963
  0
LINE
  8
ボルト／ビス
  6
CONTINUOUS
 62
    64
 10
-7.3563
 20
-58.311863
 11
-7.416867
 21
-58.554608
  0
LINE
  8
ボルト／ビス
  6
CONTINUOUS
 62
    64
 10
-7.657373
 20
-58.623528
 11
-7.416867
 21
-58.554608
  0
LINE
  8
ボルト／ビス
  6
CONTINUOUS
 62
    64
 10
-7.536237
 20
-58.13804
 11
-7.3563
 21
-58.311863
  0
LINE
  8
ボルト／ビス
  6
CONTINUOUS
 62
    64
 10
-7.837313
 20
-58.449705
 11
-7.657373
 21
-58.623528
  0
CIRCLE
  8
ボルト／ビス
  6
CONTINUOUS
 62
    64
 10
-7.596805
 20
-58.380785
 40
0.216668
  0
ENDBLK
  0
BLOCK
  2
*DIM_0030
 70
    65
 10
0.0
 20
0.0
  0
LINE
  8
寸法
  6
CONTINUOUS
 10
0.736835
 20
-68.70412
 11
19.355307
 21
-68.70412
  0
LINE
  8
寸法
  6
CONTINUOUS
 10
0.736835
 20
-55.370788
 11
19.355307
 21
-55.370788
  0
LINE
  8
寸法
  6
CONTINUOUS
 10
19.355307
 20
-68.70412
 11
19.355307
 21
-55.370788
  0
POINT
  8
寸法
 10
19.355307
 20
-68.70412
  0
POINT
  8
寸法
 10
19.355307
 20
-55.370788
  0
TEXT
  7
TextStyle03
  8
寸法
  6
CONTINUOUS
 10
22.35
 20
-71.14375
  1
上昇328以上
 40
3.0
 50
90.0
 72
     5
 11
22.35
 21
-52.95625
  0
ENDBLK
  0
BLOCK
  2
*DIM_0031
 70
    65
 10
0.0
 20
0.0
  0
LINE
  8
寸法
  6
CONTINUOUS
 10
-73.209525
 20
-68.209977
 11
-73.209525
 21
-32.437345
  0
LINE
  8
寸法
  6
CONTINUOUS
 10
-70.92983
 20
-32.437345
 11
-73.209525
 21
-32.437345
  0
POINT
  8
寸法
 10
-70.92983
 20
-32.437345
  0
POINT
  8
寸法
 10
-73.209525
 20
-32.437345
  0
TEXT
  7
TextStyle03
  8
寸法
  6
CONTINUOUS
 10
-82.10625
 20
-32.075
  1
68.4
 40
3.0
 72
     5
 11
-75.54375
 21
-32.075
  0
ENDBLK
  0
BLOCK
  2
*DIM_0032
 70
    65
 10
0.0
 20
0.0
  0
LINE
  8
寸法
  6
CONTINUOUS
 10
-1.98347
 20
-68.209977
 11
-1.98347
 21
-32.437345
  0
LINE
  8
寸法
  6
CONTINUOUS
 10
-4.263165
 20
-32.437345
 11
-1.98347
 21
-32.437345
  0
POINT
  8
寸法
 10
-4.263165
 20
-32.437345
  0
POINT
  8
寸法
 10
-1.98347
 20
-32.437345
  0
TEXT
  7
TextStyle03
  8
寸法
  6
CONTINUOUS
 10
0.34375
 20
-32.075
  1
68.4
 40
3.0
 72
     5
 11
6.90625
 21
-32.075
  0
ENDBLK
  0
BLOCK
  2
*DIM_0033
 70
    65
 10
0.0
 20
0.0
  0
LINE
  8
寸法
  6
CONTINUOUS
 10
-4.263165
 20
-32.437345
 11
-70.92983
 21
-32.437345
  0
POINT
  8
寸法
 10
-4.263165
 20
-32.437345
  0
POINT
  8
寸法
 10
-70.92983
 20
-32.437345
  0
TEXT
  7
TextStyle03
  8
寸法
  6
CONTINUOUS
 10
-49.31875
 20
-32.075
  1
呼称寸法　2000
 40
3.0
 72
     5
 11
-25.88125
 21
-32.075
  0
ENDBLK
  0
BLOCK
  2
*DIM_0034
 70
    65
 10
0.0
 20
0.0
  0
LINE
  8
寸法
  6
CONTINUOUS
 10
119.535602
 20
-30.491227
 11
119.535602
 21
-19.756887
  0
LINE
  8
寸法
  6
CONTINUOUS
 10
151.86227
 20
-30.491227
 11
151.86227
 21
-19.756887
  0
LINE
  8
寸法
  6
CONTINUOUS
 10
119.535602
 20
-19.756887
 11
151.86227
 21
-19.756887
  0
POINT
  8
寸法
 10
119.535602
 20
-19.756887
  0
POINT
  8
寸法
 10
151.86227
 20
-19.756887
  0
TEXT
  7
TextStyle03
  8
寸法
  6
CONTINUOUS
 10
131.55
 20
-19.4
  1
969.8
 40
3.0
 72
     5
 11
139.8
 21
-19.4
  0
ENDBLK
  0
BLOCK
  2
*DIM_0035
 70
    65
 10
0.0
 20
0.0
  0
LINE
  8
寸法
  6
CONTINUOUS
 10
156.86227
 20
-35.491227
 11
170.563313
 21
-35.491227
  0
LINE
  8
寸法
  6
CONTINUOUS
 10
156.86227
 20
-78.157895
 11
170.563313
 21
-78.157895
  0
LINE
  8
寸法
  6
CONTINUOUS
 10
170.563313
 20
-35.491227
 11
170.563313
 21
-78.157895
  0
POINT
  8
寸法
 10
170.563313
 20
-35.491227
  0
POINT
  8
寸法
 10
170.563313
 20
-78.157895
  0
TEXT
  7
TextStyle03
  8
寸法
  6
CONTINUOUS
 10
170.175
 20
-60.10625
  1
1280
 40
3.0
 50
90.0
 72
     5
 11
170.175
 21
-53.54375
  0
ENDBLK
  0
BLOCK
  2
M8横
 70
    64
 10
-88.370132
 20
140.837665
  0
LINE
  8
ボルト／ビス
 10
-95.870132
 20
140.837665
 11
-80.870132
 21
140.837665
  0
LINE
  8
ボルト／ビス
 10
-80.870132
 20
145.837665
 11
-81.370132
 21
146.337665
  0
POLYLINE
  8
ボルト／ビス
 66
     1
  0
VERTEX
  8
ボルト／ビス
 10
-84.120132
 20
146.337665
  0
VERTEX
  8
ボルト／ビス
 10
-84.620132
 20
145.837665
  0
VERTEX
  8
ボルト／ビス
 10
-85.120132
 20
146.337665
  0
SEQEND
  0
POLYLINE
  8
ボルト／ビス
 66
     1
  0
VERTEX
  8
ボルト／ビス
 10
-91.620132
 20
146.337665
  0
VERTEX
  8
ボルト／ビス
 10
-92.120132
 20
145.837665
  0
VERTEX
  8
ボルト／ビス
 10
-92.620132
 20
146.337665
  0
SEQEND
  0
LINE
  8
ボルト／ビス
 10
-95.370132
 20
146.337665
 11
-95.870132
 21
145.837665
  0
LINE
  8
ボルト／ビス
 10
-95.870132
 20
140.837665
 11
-95.870132
 21
145.837665
  0
LINE
  8
ボルト／ビス
 10
-80.870132
 20
140.837665
 11
-80.870132
 21
145.837665
  0
LINE
  8
ボルト／ビス
 10
-95.370132
 20
146.337665
 11
-81.370132
 21
146.337665
  0
LINE
  8
ボルト／ビス
 10
-84.620132
 20
140.837665
 11
-84.620132
 21
145.837665
  0
LINE
  8
ボルト／ビス
 10
-92.120132
 20
140.837665
 11
-92.120132
 21
145.837665
  0
ENDBLK
  0
ENDSEC
  0
SECTION
  2
ENTITIES
  0
POLYLINE
  8
通り芯
  6
CONTINUOUS
 66
     1
 70
     1
  0
VERTEX
  8
通り芯
 10
-210.0
 20
-148.5
  0
VERTEX
  8
通り芯
 10
210.0
 20
-148.5
  0
VERTEX
  8
通り芯
 10
210.0
 20
148.5
  0
VERTEX
  8
通り芯
 10
-210.0
 20
148.5
  0
SEQEND
  0
INSERT
  2
*GRP_0001
  8
型材断面
  6
CONTINUOUS
 10
0.0
 20
0.0
  0
LINE
  8
型材断面
  6
CONTINUOUS
 10
-2.596497
 20
-69.937453
 11
-2.646497
 21
-69.937453
  0
LINE
  8
型材断面
  6
CONTINUOUS
 10
-4.263165
 20
-69.437453
 11
-4.263165
 21
-68.70412
  0
LINE
  8
型材断面
  6
CONTINUOUS
 62
    47
 10
-2.86347
 20
-76.67062
 11
-2.91347
 21
-76.67062
  0
LINE
  8
型材断面
  6
CONTINUOUS
 62
    47
 10
-2.86347
 20
-76.67062
 11
-2.86347
 21
-76.17062
  0
LINE
  8
型材断面
  6
CONTINUOUS
 10
-4.21347
 20
-70.42062
 11
-2.766802
 21
-70.42062
  0
LINE
  8
型材断面
  6
CONTINUOUS
 10
-2.766802
 20
-70.87062
 11
-2.766802
 21
-70.42062
  0
LINE
  8
型材断面
  6
CONTINUOUS
 62
    47
 10
-2.03347
 20
-73.543312
 11
-1.98347
 21
-73.543312
  0
LINE
  8
型材断面
  6
CONTINUOUS
 62
    47
 10
-1.98347
 20
-73.543312
 11
-1.98347
 21
-73.209977
  0
LINE
  8
型材断面
  6
CONTINUOUS
 62
    47
 10
-1.98347
 20
-73.209977
 11
-2.766802
 21
-73.109977
  0
LINE
  8
型材断面
  6
CONTINUOUS
 62
    47
 10
-2.766802
 20
-72.703953
 11
-2.766802
 21
-73.109977
  0
LINE
  8
型材断面
  6
CONTINUOUS
 62
    47
 10
-2.296803
 20
-72.703953
 11
-2.296803
 21
-70.87062
  0
LINE
  8
型材断面
  6
CONTINUOUS
 10
-2.596497
 20
-69.937453
 11
-2.596497
 21
-69.437453
  0
LINE
  8
型材断面
  6
CONTINUOUS
 10
-4.21347
 20
-70.42062
 11
-4.21347
 21
-69.937453
  0
LINE
  8
型材断面
  6
CONTINUOUS
 62
    47
 10
-2.296803
 20
-76.17062
 11
-2.296803
 21
-73.543312
  0
INSERT
  2
*GRP_0002
  8
型材断面
  6
DOT
 10
0.0
 20
0.0
  0
INSERT
  2
*GRP_0003
  8
型材断面
  6
DOT
 10
0.0
 20
0.0
  0
LINE
  8
型材断面
  6
CONTINUOUS
 10
-2.296803
 20
-76.17062
 11
-37.596497
 21
-76.17062
  0
LINE
  8
型材断面
  6
CONTINUOUS
 10
-2.86347
 20
-76.67062
 11
-37.596497
 21
-76.67062
  0
LINE
  8
型材断面
  6
CONTINUOUS
 10
-1.98347
 20
-73.543312
 11
-37.596497
 21
-73.543312
  0
LINE
  8
型材断面
  6
CONTINUOUS
 10
-1.98347
 20
-73.209977
 11
-37.596497
 21
-73.209977
  0
LINE
  8
型材断面
  6
CONTINUOUS
 10
-2.766802
 20
-73.109977
 11
-37.596497
 21
-73.109977
  0
LINE
  8
型材断面
  6
CONTINUOUS
 10
-2.296803
 20
-72.703953
 11
-37.596497
 21
-72.703953
  0
LINE
  8
型材断面
  6
CONTINUOUS
 10
-2.596497
 20
-69.937453
 11
-37.596497
 21
-69.937453
  0
LINE
  8
型材断面
  6
CONTINUOUS
 10
-4.263165
 20
-68.70412
 11
-37.596497
 21
-68.70412
  0
LINE
  8
型材断面
  6
CONTINUOUS
 10
-2.596497
 20
-69.437453
 11
-37.596497
 21
-69.437453
  0
LINE
  8
型材断面
  6
CONTINUOUS
 10
-2.766802
 20
-70.42062
 11
-37.596497
 21
-70.42062
  0
LINE
  8
型材断面
  6
CONTINUOUS
 10
-2.296803
 20
-70.87062
 11
-37.596497
 21
-70.87062
  0
LINE
  8
型材断面
  6
CONTINUOUS
 10
-72.596497
 20
-69.937453
 11
-72.546497
 21
-69.937453
  0
LINE
  8
型材断面
  6
CONTINUOUS
 10
-70.92983
 20
-69.437453
 11
-70.92983
 21
-68.70412
  0
LINE
  8
型材断面
  6
CONTINUOUS
 62
    47
 10
-72.329525
 20
-76.67062
 11
-72.279525
 21
-76.67062
  0
LINE
  8
型材断面
  6
CONTINUOUS
 62
    47
 10
-72.329525
 20
-76.67062
 11
-72.329525
 21
-76.17062
  0
LINE
  8
型材断面
  6
CONTINUOUS
 10
-70.979525
 20
-70.42062
 11
-72.426192
 21
-70.42062
  0
LINE
  8
型材断面
  6
CONTINUOUS
 10
-72.426192
 20
-70.87062
 11
-72.426192
 21
-70.42062
  0
LINE
  8
型材断面
  6
CONTINUOUS
 62
    47
 10
-73.159525
 20
-73.543312
 11
-73.209525
 21
-73.543312
  0
LINE
  8
型材断面
  6
CONTINUOUS
 62
    47
 10
-73.209525
 20
-73.543312
 11
-73.209525
 21
-73.209977
  0
LINE
  8
型材断面
  6
CONTINUOUS
 62
    47
 10
-73.209525
 20
-73.209977
 11
-72.426192
 21
-73.109977
  0
LINE
  8
型材断面
  6
CONTINUOUS
 62
    47
 10
-72.426192
 20
-72.703953
 11
-72.426192
 21
-73.109977
  0
LINE
  8
型材断面
  6
CONTINUOUS
 62
    47
 10
-72.896192
 20
-72.703953
 11
-72.896192
 21
-70.87062
  0
LINE
  8
型材断面
  6
CONTINUOUS
 10
-72.596497
 20
-69.937453
 11
-72.596497
 21
-69.437453
  0
LINE
  8
型材断面
  6
CONTINUOUS
 10
-70.979525
 20
-70.42062
 11
-70.979525
 21
-69.937453
  0
LINE
  8
型材断面
  6
CONTINUOUS
 62
    47
 10
-72.896192
 20
-76.17062
 11
-72.896192
 21
-73.543312
  0
INSERT
  2
*GRP_0004
  8
型材断面
  6
DOT
 10
0.0
 20
0.0
  0
INSERT
  2
*GRP_0005
  8
型材断面
  6
DOT
 10
0.0
 20
0.0
  0
LINE
  8
型材断面
  6
CONTINUOUS
 10
-72.896192
 20
-76.17062
 11
-37.596497
 21
-76.17062
  0
LINE
  8
型材断面
  6
CONTINUOUS
 10
-72.329525
 20
-76.67062
 11
-37.596497
 21
-76.67062
  0
LINE
  8
型材断面
  6
CONTINUOUS
 10
-73.209525
 20
-73.543312
 11
-37.596497
 21
-73.543312
  0
LINE
  8
型材断面
  6
CONTINUOUS
 10
-73.209525
 20
-73.209977
 11
-37.596497
 21
-73.209977
  0
LINE
  8
型材断面
  6
CONTINUOUS
 10
-72.426192
 20
-73.109977
 11
-37.596497
 21
-73.109977
  0
LINE
  8
型材断面
  6
CONTINUOUS
 10
-72.896192
 20
-72.703953
 11
-37.596497
 21
-72.703953
  0
LINE
  8
型材断面
  6
CONTINUOUS
 10
-72.596497
 20
-69.937453
 11
-37.596497
 21
-69.937453
  0
LINE
  8
型材断面
  6
CONTINUOUS
 10
-70.92983
 20
-68.70412
 11
-37.596497
 21
-68.70412
  0
LINE
  8
型材断面
  6
CONTINUOUS
 10
-72.596497
 20
-69.437453
 11
-37.596497
 21
-69.437453
  0
LINE
  8
型材断面
  6
CONTINUOUS
 10
-72.426192
 20
-70.42062
 11
-37.596497
 21
-70.42062
  0
LINE
  8
型材断面
  6
CONTINUOUS
 10
-72.896192
 20
-70.87062
 11
-37.596497
 21
-70.87062
  0
LINE
  8
型材断面
  6
CONTINUOUS
 10
-5.096497
 20
50.619993
 11
-4.263165
 21
50.619993
  0
LINE
  8
型材断面
  6
CONTINUOUS
 10
-5.096497
 20
49.786658
 11
-4.263165
 21
49.786658
  0
LINE
  8
型材断面
  6
CONTINUOUS
 10
-70.096497
 20
49.786658
 11
-70.92983
 21
49.786658
  0
LINE
  8
型材断面
  6
CONTINUOUS
 10
-70.096497
 20
50.619993
 11
-70.92983
 21
50.619993
  0
LINE
  8
型材断面
  6
DASHDOT
 10
172.29227
 20
50.203325
 11
-70.92983
 21
50.203325
  0
POLYLINE
  8
型材断面
  6
CONTINUOUS
 66
     1
 70
     1
  0
VERTEX
  8
型材断面
 10
20.695927
 20
-94.850355
  0
VERTEX
  8
型材断面
 10
-27.982748
 20
-94.850355
  0
VERTEX
  8
型材断面
 10
-27.982748
 20
-111.19502
  0
VERTEX
  8
型材断面
 10
20.695927
 20
-111.19502
  0
SEQEND
  0
LINE
  8
型材断面
  6
CONTINUOUS
 10
-5.096497
 20
29.36999
 11
-1.98347
 21
26.256963
  0
LINE
  8
型材断面
  6
CONTINUOUS
 10
-5.096497
 20
29.36999
 11
-5.096497
 21
49.786658
  0
LINE
  8
型材断面
  6
CONTINUOUS
 10
-70.096497
 20
29.36999
 11
-73.209525
 21
26.256963
  0
LINE
  8
型材断面
  6
CONTINUOUS
 10
-70.096497
 20
29.36999
 11
-70.096497
 21
49.786658
  0
LINE
  8
型材断面
  6
CONTINUOUS
 10
-4.263165
 20
28.536658
 11
-70.92983
 21
28.536658
  0
LINE
  8
型材断面
  6
CONTINUOUS
 10
-2.296803
 20
26.570295
 11
-72.896192
 21
26.570295
  0
LINE
  8
型材断面
  6
CONTINUOUS
 10
-1.98347
 20
26.256963
 11
-73.209525
 21
26.256963
  0
LINE
  8
型材断面
  6
CONTINUOUS
 10
-2.596497
 20
26.86999
 11
-72.596497
 21
26.86999
  0
LINE
  8
型材断面
  6
CONTINUOUS
 10
162.97617
 20
26.869993
 11
162.97617
 21
26.919993
  0
LINE
  8
型材断面
  6
CONTINUOUS
 10
162.47617
 20
28.536658
 11
161.742835
 21
28.536658
  0
LINE
  8
型材断面
  6
CONTINUOUS
 62
    47
 10
169.709335
 20
27.136962
 11
169.709335
 21
27.186962
  0
LINE
  8
型材断面
  6
CONTINUOUS
 62
    47
 10
169.709335
 20
27.136962
 11
169.209335
 21
27.136962
  0
LINE
  8
型材断面
  6
CONTINUOUS
 10
163.459335
 20
28.486962
 11
163.459335
 21
27.040298
  0
LINE
  8
型材断面
  6
CONTINUOUS
 10
163.909335
 20
27.040298
 11
163.459335
 21
27.040298
  0
LINE
  8
型材断面
  6
CONTINUOUS
 62
    47
 10
166.582028
 20
26.306963
 11
166.582028
 21
26.256963
  0
LINE
  8
型材断面
  6
CONTINUOUS
 62
    47
 10
166.582028
 20
26.256963
 11
166.248695
 21
26.256963
  0
LINE
  8
型材断面
  6
CONTINUOUS
 62
    47
 10
166.248695
 20
26.256963
 11
166.148695
 21
27.040298
  0
LINE
  8
型材断面
  6
CONTINUOUS
 62
    47
 10
165.74267
 20
27.040298
 11
166.148695
 21
27.040298
  0
LINE
  8
型材断面
  6
CONTINUOUS
 62
    47
 10
165.74267
 20
26.570298
 11
163.909335
 21
26.570298
  0
LINE
  8
型材断面
  6
CONTINUOUS
 10
162.97617
 20
26.869993
 11
162.47617
 21
26.869993
  0
LINE
  8
型材断面
  6
CONTINUOUS
 10
163.459335
 20
28.486962
 11
162.97617
 21
28.486962
  0
LINE
  8
型材断面
  6
CONTINUOUS
 62
    47
 10
169.209335
 20
26.570298
 11
166.582028
 21
26.570298
  0
INSERT
  2
*GRP_0007
  8
型材断面
  6
DOT
 10
0.0
 20
0.0
  0
INSERT
  2
*GRP_0008
  8
型材断面
  6
DOT
 10
0.0
 20
0.0
  0
LINE
  8
型材断面
  6
CONTINUOUS
 10
169.209335
 20
26.570298
 11
169.209335
 21
50.203325
  0
LINE
  8
型材断面
  6
CONTINUOUS
 10
169.709335
 20
27.136962
 11
169.709335
 21
50.203325
  0
LINE
  8
型材断面
  6
CONTINUOUS
 10
166.582028
 20
26.256963
 11
166.582028
 21
50.203325
  0
LINE
  8
型材断面
  6
CONTINUOUS
 10
166.248695
 20
26.256963
 11
166.248695
 21
50.203325
  0
LINE
  8
型材断面
  6
CONTINUOUS
 10
166.148695
 20
27.040298
 11
166.148695
 21
50.203325
  0
LINE
  8
型材断面
  6
CONTINUOUS
 10
165.74267
 20
26.570298
 11
165.74267
 21
50.203325
  0
LINE
  8
型材断面
  6
CONTINUOUS
 10
162.97617
 20
26.869993
 11
162.97617
 21
50.203325
  0
LINE
  8
型材断面
  6
CONTINUOUS
 10
161.742835
 20
28.536658
 11
161.742835
 21
50.203325
  0
LINE
  8
型材断面
  6
CONTINUOUS
 10
162.47617
 20
26.869993
 11
162.47617
 21
50.203325
  0
LINE
  8
型材断面
  6
CONTINUOUS
 10
163.459335
 20
27.040298
 11
163.459335
 21
50.203325
  0
LINE
  8
型材断面
  6
CONTINUOUS
 10
163.909335
 20
26.570298
 11
163.909335
 21
50.203325
  0
LINE
  8
型材断面
  6
DASHDOT
 10
172.29227
 20
28.536658
 11
-4.263165
 21
28.536658
  0
LINE
  8
型材断面
  6
DASHDOT
 10
-70.92983
 20
-79.253555
 11
-70.92983
 21
28.536658
  0
LINE
  8
型材断面
  6
DASHDOT
 10
-4.263165
 20
-79.253555
 11
-4.263165
 21
28.536658
  0
LINE
  8
型材断面
  6
CONTINUOUS
 10
-36.346497
 20
30.203322
 11
-38.846497
 21
30.203322
  0
LINE
  8
型材断面
  6
CONTINUOUS
 10
-5.096497
 20
71.03666
 11
-1.98347
 21
74.149688
  0
LINE
  8
型材断面
  6
CONTINUOUS
 10
-5.096497
 20
50.619993
 11
-5.096497
 21
71.03666
  0
LINE
  8
型材断面
  6
CONTINUOUS
 10
-70.096497
 20
71.03666
 11
-73.209525
 21
74.149688
  0
LINE
  8
型材断面
  6
CONTINUOUS
 10
-70.096497
 20
50.619993
 11
-70.096497
 21
71.03666
  0
LINE
  8
型材断面
  6
CONTINUOUS
 10
-4.263165
 20
71.869993
 11
-70.92983
 21
71.869993
  0
LINE
  8
型材断面
  6
CONTINUOUS
 10
-2.296803
 20
73.836355
 11
-72.896192
 21
73.836355
  0
LINE
  8
型材断面
  6
CONTINUOUS
 10
-1.98347
 20
74.149688
 11
-73.209525
 21
74.149688
  0
LINE
  8
型材断面
  6
CONTINUOUS
 10
-2.596497
 20
73.53666
 11
-72.596497
 21
73.53666
  0
LINE
  8
型材断面
  6
CONTINUOUS
 10
162.97617
 20
73.53666
 11
162.97617
 21
73.48666
  0
LINE
  8
型材断面
  6
CONTINUOUS
 10
162.47617
 20
71.869993
 11
161.742835
 21
71.869993
  0
LINE
  8
型材断面
  6
CONTINUOUS
 62
    47
 10
169.709335
 20
73.269687
 11
169.709335
 21
73.219687
  0
LINE
  8
型材断面
  6
CONTINUOUS
 62
    47
 10
169.709335
 20
73.269687
 11
169.209335
 21
73.269687
  0
LINE
  8
型材断面
  6
CONTINUOUS
 10
163.459335
 20
71.919687
 11
163.459335
 21
73.366355
  0
LINE
  8
型材断面
  6
CONTINUOUS
 10
163.909335
 20
73.366355
 11
163.459335
 21
73.366355
  0
LINE
  8
型材断面
  6
CONTINUOUS
 62
    47
 10
166.582028
 20
74.099688
 11
166.582028
 21
74.149688
  0
LINE
  8
型材断面
  6
CONTINUOUS
 62
    47
 10
166.582028
 20
74.149688
 11
166.248695
 21
74.149688
  0
LINE
  8
型材断面
  6
CONTINUOUS
 62
    47
 10
166.248695
 20
74.149688
 11
166.148695
 21
73.366355
  0
LINE
  8
型材断面
  6
CONTINUOUS
 62
    47
 10
165.74267
 20
73.366355
 11
166.148695
 21
73.366355
  0
LINE
  8
型材断面
  6
CONTINUOUS
 62
    47
 10
165.74267
 20
73.836355
 11
163.909335
 21
73.836355
  0
LINE
  8
型材断面
  6
CONTINUOUS
 10
162.97617
 20
73.53666
 11
162.47617
 21
73.53666
  0
LINE
  8
型材断面
  6
CONTINUOUS
 10
163.459335
 20
71.919687
 11
162.97617
 21
71.919687
  0
LINE
  8
型材断面
  6
CONTINUOUS
 62
    47
 10
169.209335
 20
73.836355
 11
166.582028
 21
73.836355
  0
INSERT
  2
*GRP_0011
  8
型材断面
  6
DOT
 10
0.0
 20
0.0
  0
INSERT
  2
*GRP_0012
  8
型材断面
  6
DOT
 10
0.0
 20
0.0
  0
LINE
  8
型材断面
  6
CONTINUOUS
 10
169.209335
 20
73.836355
 11
169.209335
 21
50.203325
  0
LINE
  8
型材断面
  6
CONTINUOUS
 10
169.709335
 20
73.269687
 11
169.709335
 21
50.203325
  0
LINE
  8
型材断面
  6
CONTINUOUS
 10
166.582028
 20
74.149688
 11
166.582028
 21
50.203325
  0
LINE
  8
型材断面
  6
CONTINUOUS
 10
166.248695
 20
74.149688
 11
166.248695
 21
50.203325
  0
LINE
  8
型材断面
  6
CONTINUOUS
 10
166.148695
 20
73.366355
 11
166.148695
 21
50.203325
  0
LINE
  8
型材断面
  6
CONTINUOUS
 10
165.74267
 20
73.836355
 11
165.74267
 21
50.203325
  0
LINE
  8
型材断面
  6
CONTINUOUS
 10
162.97617
 20
73.53666
 11
162.97617
 21
50.203325
  0
LINE
  8
型材断面
  6
CONTINUOUS
 10
161.742835
 20
71.869993
 11
161.742835
 21
50.203325
  0
LINE
  8
型材断面
  6
CONTINUOUS
 10
162.47617
 20
73.53666
 11
162.47617
 21
50.203325
  0
LINE
  8
型材断面
  6
CONTINUOUS
 10
163.459335
 20
73.366355
 11
163.459335
 21
50.203325
  0
LINE
  8
型材断面
  6
CONTINUOUS
 10
163.909335
 20
73.836355
 11
163.909335
 21
50.203325
  0
LINE
  8
型材断面
  6
DASHDOT
 10
172.29227
 20
71.869993
 11
-4.263165
 21
71.869993
  0
LINE
  8
型材断面
  6
DASHDOT
 10
-37.596497
 20
-79.253555
 11
-37.596497
 21
71.869993
  0
LINE
  8
型材断面
  6
CONTINUOUS
 10
-36.346497
 20
70.203327
 11
-38.846497
 21
70.203327
  0
LINE
  8
型材断面
  6
CONTINUOUS
 10
-4.263165
 20
28.536658
 11
-4.263165
 21
71.869993
  0
LINE
  8
型材断面
  6
CONTINUOUS
 10
-2.296803
 20
26.570295
 11
-2.296803
 21
73.836355
  0
LINE
  8
型材断面
  6
CONTINUOUS
 10
-1.98347
 20
26.256963
 11
-1.98347
 21
74.149688
  0
LINE
  8
型材断面
  6
CONTINUOUS
 10
-2.596497
 20
26.86999
 11
-2.596497
 21
73.53666
  0
LINE
  8
型材断面
  6
CONTINUOUS
 10
-70.92983
 20
28.536658
 11
-70.92983
 21
71.869993
  0
LINE
  8
型材断面
  6
CONTINUOUS
 10
-72.896192
 20
26.570295
 11
-72.896192
 21
73.836355
  0
LINE
  8
型材断面
  6
CONTINUOUS
 10
-73.209525
 20
26.256963
 11
-73.209525
 21
74.149688
  0
LINE
  8
型材断面
  6
CONTINUOUS
 10
-72.596497
 20
26.86999
 11
-72.596497
 21
73.53666
  0
LINE
  8
型材断面
  6
CONTINUOUS
 10
-36.346497
 20
30.203322
 11
-36.346497
 21
70.203327
  0
LINE
  8
型材断面
  6
CONTINUOUS
 10
-37.346497
 20
30.203322
 11
-37.346497
 21
70.203327
  0
LINE
  8
型材断面
  6
CONTINUOUS
 10
-37.846497
 20
30.203322
 11
-37.846497
 21
70.203327
  0
LINE
  8
型材断面
  6
CONTINUOUS
 10
-38.846497
 20
30.203322
 11
-38.846497
 21
70.203327
  0
LINE
  8
型材断面
  6
CONTINUOUS
 10
-54.679832
 20
29.36999
 11
-54.679832
 21
28.536658
  0
LINE
  8
型材断面
  6
CONTINUOUS
 10
-53.846497
 20
29.36999
 11
-53.846497
 21
28.536658
  0
LINE
  8
型材断面
  6
CONTINUOUS
 10
-54.679832
 20
29.36999
 11
-70.096497
 21
29.36999
  0
LINE
  8
型材断面
  6
CONTINUOUS
 10
-20.513163
 20
29.36999
 11
-20.513163
 21
28.536658
  0
LINE
  8
型材断面
  6
CONTINUOUS
 10
-21.346497
 20
29.36999
 11
-21.346497
 21
28.536658
  0
LINE
  8
型材断面
  6
CONTINUOUS
 10
-20.513163
 20
29.36999
 11
-5.096497
 21
29.36999
  0
LINE
  8
型材断面
  6
CONTINUOUS
 10
-53.846497
 20
29.36999
 11
-21.346497
 21
29.36999
  0
LINE
  8
型材断面
  6
CONTINUOUS
 10
-54.679832
 20
71.03666
 11
-54.679832
 21
71.869993
  0
LINE
  8
型材断面
  6
CONTINUOUS
 10
-53.846497
 20
71.03666
 11
-53.846497
 21
71.869993
  0
LINE
  8
型材断面
  6
CONTINUOUS
 10
-54.679832
 20
71.03666
 11
-70.096497
 21
71.03666
  0
LINE
  8
型材断面
  6
CONTINUOUS
 10
-20.513163
 20
71.03666
 11
-20.513163
 21
71.869993
  0
LINE
  8
型材断面
  6
CONTINUOUS
 10
-21.346497
 20
71.03666
 11
-21.346497
 21
71.869993
  0
LINE
  8
型材断面
  6
CONTINUOUS
 10
-20.513163
 20
71.03666
 11
-5.096497
 21
71.03666
  0
LINE
  8
型材断面
  6
CONTINUOUS
 10
-53.846497
 20
71.03666
 11
-21.346497
 21
71.03666
  0
POLYLINE
  8
型材断面
  6
CONTINUOUS
 66
     1
 70
     1
  0
VERTEX
  8
型材断面
 10
-28.114988
 20
81.645915
  0
VERTEX
  8
型材断面
 10
-46.886917
 20
81.645915
  0
VERTEX
  8
型材断面
 10
-46.886917
 20
86.382757
  0
VERTEX
  8
型材断面
 10
-28.114988
 20
86.382757
  0
SEQEND
  0
POLYLINE
  8
型材断面
  6
CONTINUOUS
 66
     1
 70
     1
  0
VERTEX
  8
型材断面
 10
-28.114988
 20
18.760735
  0
VERTEX
  8
型材断面
 10
-46.886917
 20
18.760735
  0
VERTEX
  8
型材断面
 10
-46.886917
 20
14.023892
  0
VERTEX
  8
型材断面
 10
-28.114988
 20
14.023892
  0
SEQEND
  0
LINE
  8
型材断面
  6
CONTINUOUS
 10
-73.559962
 20
50.203325
 11
-76.15047
 21
51.698955
  0
LINE
  8
型材断面
  6
CONTINUOUS
 10
-73.559962
 20
50.203325
 11
-76.15047
 21
48.707695
  0
LINE
  8
型材断面
  6
CONTINUOUS
 10
-76.15047
 20
48.707695
 11
-76.15047
 21
51.698955
  0
LINE
  8
型材断面
  6
CONTINUOUS
 10
-54.263165
 20
74.50012
 11
-55.758795
 21
77.090627
  0
LINE
  8
型材断面
  6
CONTINUOUS
 10
-54.263165
 20
74.50012
 11
-52.767535
 21
77.090627
  0
LINE
  8
型材断面
  6
CONTINUOUS
 10
-52.767535
 20
77.090627
 11
-55.758795
 21
77.090627
  0
LINE
  8
型材断面
  6
CONTINUOUS
 10
-111.78204
 20
109.847463
 11
-111.185985
 21
107.256955
  0
LINE
  8
型材断面
  6
CONTINUOUS
 10
-111.78204
 20
109.847463
 11
-112.378097
 21
107.256955
  0
LINE
  8
型材断面
  6
CONTINUOUS
 10
-112.378097
 20
107.256955
 11
-111.185985
 21
107.256955
  0
LINE
  8
型材断面
  6
CONTINUOUS
 10
-117.804627
 20
103.978062
 11
-71.56285
 21
103.978062
  0
LINE
  8
型材断面
  6
CONTINUOUS
 10
-111.78204
 20
116.377338
 11
-113.27767
 21
113.78683
  0
LINE
  8
型材断面
  6
CONTINUOUS
 10
-111.78204
 20
116.377338
 11
-110.28641
 21
113.78683
  0
LINE
  8
型材断面
  6
CONTINUOUS
 10
-110.28641
 20
113.78683
 11
-113.27767
 21
113.78683
  0
LINE
  8
型材断面
  6
CONTINUOUS
 10
-117.804627
 20
112.848235
 11
-71.56285
 21
112.848235
  0
LINE
  8
型材断面
  6
CONTINUOUS
 10
-117.804627
 20
98.19003
 11
-71.56285
 21
98.19003
  0
LINE
  8
型材断面
  6
CONTINUOUS
 10
-54.263165
 20
25.90653
 11
-55.758795
 21
23.316022
  0
LINE
  8
型材断面
  6
CONTINUOUS
 10
-54.263165
 20
25.90653
 11
-52.767535
 21
23.316022
  0
LINE
  8
型材断面
  6
CONTINUOUS
 10
-52.767535
 20
23.316022
 11
-55.758795
 21
23.316022
  0
LINE
  8
型材断面
  6
CONTINUOUS
 10
-1.633032
 20
50.203325
 11
0.957475
 21
51.698955
  0
LINE
  8
型材断面
  6
CONTINUOUS
 10
-1.633032
 20
50.203325
 11
0.957475
 21
48.707695
  0
LINE
  8
型材断面
  6
CONTINUOUS
 10
0.957475
 20
48.707695
 11
0.957475
 21
51.698955
  0
LINE
  8
型材断面
  6
CONTINUOUS
 10
-20.92983
 20
74.50012
 11
-19.4342
 21
77.090627
  0
LINE
  8
型材断面
  6
CONTINUOUS
 10
-20.92983
 20
74.50012
 11
-22.42546
 21
77.090627
  0
LINE
  8
型材断面
  6
CONTINUOUS
 10
-22.42546
 20
77.090627
 11
-19.4342
 21
77.090627
  0
LINE
  8
型材断面
  6
CONTINUOUS
 10
-20.92983
 20
25.90653
 11
-19.4342
 21
23.316022
  0
LINE
  8
型材断面
  6
CONTINUOUS
 10
-20.92983
 20
25.90653
 11
-22.42546
 21
23.316022
  0
LINE
  8
型材断面
  6
CONTINUOUS
 10
-22.42546
 20
23.316022
 11
-19.4342
 21
23.316022
  0
LINE
  8
型材断面
  6
CONTINUOUS
 10
-1.633037
 20
67.96999
 11
0.95747
 21
67.373933
  0
LINE
  8
型材断面
  6
CONTINUOUS
 10
-1.633037
 20
67.96999
 11
0.95747
 21
68.566048
  0
LINE
  8
型材断面
  6
CONTINUOUS
 10
0.95747
 20
68.566048
 11
0.95747
 21
67.373933
  0
LINE
  8
型材断面
  6
CONTINUOUS
 10
-1.633037
 20
32.43666
 11
0.95747
 21
33.032718
  0
LINE
  8
型材断面
  6
CONTINUOUS
 10
-1.633037
 20
32.43666
 11
0.95747
 21
31.840603
  0
LINE
  8
型材断面
  6
CONTINUOUS
 10
0.95747
 20
31.840603
 11
0.95747
 21
33.032718
  0
LINE
  8
型材断面
  6
CONTINUOUS
 10
-73.559958
 20
67.96999
 11
-76.150465
 21
67.373933
  0
LINE
  8
型材断面
  6
CONTINUOUS
 10
-73.559958
 20
67.96999
 11
-76.150465
 21
68.566048
  0
LINE
  8
型材断面
  6
CONTINUOUS
 10
-76.150465
 20
68.566048
 11
-76.150465
 21
67.373933
  0
LINE
  8
型材断面
  6
CONTINUOUS
 10
-73.559958
 20
32.43666
 11
-76.150465
 21
33.032718
  0
LINE
  8
型材断面
  6
CONTINUOUS
 10
-73.559958
 20
32.43666
 11
-76.150465
 21
31.840603
  0
LINE
  8
型材断面
  6
CONTINUOUS
 10
-76.150465
 20
31.840603
 11
-76.150465
 21
33.032718
  0
LINE
  8
型材断面
  6
CONTINUOUS
 10
-117.804627
 20
92.401997
 11
-71.56285
 21
92.401997
  0
INSERT
  2
*GRP_0021
  8
型材断面
  6
DOT
 10
0.0
 20
0.0
  0
INSERT
  2
*GRP_0026
  8
型材断面
  6
CONTINUOUS
 10
0.0
 20
0.0
  0
INSERT
  2
*GRP_0027
  8
型材断面
  6
CONTINUOUS
 10
0.0
 20
0.0
  0
INSERT
  2
*GRP_0028
  8
型材断面
  6
CONTINUOUS
 10
0.0
 20
0.0
  0
INSERT
  2
*GRP_0029
  8
型材断面
  6
CONTINUOUS
 10
0.0
 20
0.0
  0
LINE
  8
型材断面
  6
CONTINUOUS
 10
138.30418
 20
-13.96517
 11
118.075078
 21
-13.96517
  0
POLYLINE
  8
ガラス
  6
CONTINUOUS
 66
     1
 70
     1
  0
VERTEX
  8
ガラス
 10
151.86227
 20
-35.491227
  0
VERTEX
  8
ガラス
 10
119.535602
 20
-35.491227
  0
VERTEX
  8
ガラス
 10
119.535602
 20
-78.157895
  0
VERTEX
  8
ガラス
 10
151.86227
 20
-78.157895
  0
SEQEND
  0
TEXT
  7
TextStyle03
  8
文字
  6
CONTINUOUS
 10
-23.65
 20
-100.575
  1
※トップライト枠高さ寸法
 40
3.0
 72
     5
 11
16.475
 21
-100.575
  0
TEXT
  7
TextStyle03
  8
文字
  6
CONTINUOUS
 10
-23.65
 20
-103.95
  1
　シングルガラス：214
 40
3.0
 72
     5
 11
11.6
 21
-103.95
  0
TEXT
  7
TextStyle03
  8
文字
  6
CONTINUOUS
 10
-23.65
 20
-107.325
  1
　ペアガラス：224
 40
3.0
 72
     5
 11
4.85
 21
-107.325
  0
TEXT
  7
TextStyle03
  8
文字
  6
CONTINUOUS
 10
78.1
 20
125.25
  1
シリーズ：ＳＴＤＬ
 40
5.0
 72
     5
 11
128.1
 21
125.25
  0
TEXT
  7
TextStyle03
  8
文字
  6
CONTINUOUS
 10
78.1
 20
119.625
  1
　　　　　（上下可動）1300×2000タイプ
 40
5.0
 72
     5
 11
184.35
 21
119.625
  0
TEXT
  7
TextStyle03
  8
文字
  6
CONTINUOUS
 10
78.1
 20
114.0
  1
図面名　：外観姿図
 40
5.0
 72
     5
 11
128.1
 21
114.0
  0
TEXT
  7
TextStyle03
  8
文字
  6
CONTINUOUS
 10
78.1
 20
108.375
  1
　　　　　　
 40
5.0
 72
     5
 11
111.225
 21
108.375
  0
TEXT
  7
TextStyle03
  8
文字
  6
CONTINUOUS
 10
-45.825
 20
82.325
  1
可動装置側
 40
3.0
 72
     5
 11
-29.325
 21
82.325
  0
TEXT
  7
TextStyle03
  8
文字
  6
CONTINUOUS
 10
-45.825
 20
15.05
  1
可動装置側
 40
3.0
 72
     5
 11
-29.325
 21
15.05
  0
TEXT
  7
TextStyle03
  8
文字
  6
CONTINUOUS
 10
-108.45
 20
39.1
  1
アンカーピッチ
 40
3.0
 50
90.0
 72
     5
 11
-108.45
 21
62.35
  0
TEXT
  7
TextStyle03
  8
文字
  6
CONTINUOUS
 10
-109.025
 20
108.45
  1
はケーシング位置を示す
 40
3.0
 72
     5
 11
-72.275
 21
108.45
  0
TEXT
  7
TextStyle03
  8
文字
  6
CONTINUOUS
 10
-109.025
 20
105.075
  1
４ヶ所中1ヶ所に設定
 40
3.0
 72
     5
 11
-77.3375
 21
105.075
  0
TEXT
  7
TextStyle03
  8
文字
  6
CONTINUOUS
 10
-109.025
 20
113.975
  1
は排水穴位置を示す
 40
3.0
 72
     5
 11
-79.025
 21
113.975
  0
TEXT
  7
TextStyle03
  8
文字
  6
CONTINUOUS
 10
-63.475
 20
108.7
  1
アンカーピッチ
 40
3.0
 72
     5
 11
-40.225
 21
108.7
  0
TEXT
  7
TextStyle03
  8
文字
  6
CONTINUOUS
 10
-112.75
 20
99.1
  1
アンカー数量　１０ヶ所
 40
3.0
 72
     5
 11
-76.0
 21
99.1
  0
TEXT
  7
TextStyle03
  8
文字
  6
CONTINUOUS
 10
-112.75
 20
93.325
  1
アームユニット数　４ヶ所
 40
3.0
 72
     5
 11
-72.625
 21
93.325
  0
TEXT
  7
TextStyle03
  8
文字
  6
CONTINUOUS
 10
138.1
 20
-75.2
  1
×２枚
 40
3.0
 72
     5
 11
147.85
 21
-75.2
  0
TEXT
  7
TextStyle03
  8
文字
  6
CONTINUOUS
 10
119.6
 20
-13.15
  1
ガラス寸法
 40
3.0
 72
     5
 11
136.1
 21
-13.15
  0
INSERT
  2
*DIM_0006
  8
寸法
  6
CONTINUOUS
 10
0.0
 20
0.0
  0
INSERT
  2
*DIM_0009
  8
寸法
  6
CONTINUOUS
 10
0.0
 20
0.0
  0
INSERT
  2
*DIM_0010
  8
寸法
  6
CONTINUOUS
 10
0.0
 20
0.0
  0
INSERT
  2
*DIM_0013
  8
寸法
  6
CONTINUOUS
 10
0.0
 20
0.0
  0
INSERT
  2
*DIM_0014
  8
寸法
  6
CONTINUOUS
 10
0.0
 20
0.0
  0
INSERT
  2
*DIM_0015
  8
寸法
  6
CONTINUOUS
 10
0.0
 20
0.0
  0
INSERT
  2
*DIM_0016
  8
寸法
  6
CONTINUOUS
 10
0.0
 20
0.0
  0
INSERT
  2
*DIM_0017
  8
寸法
  6
CONTINUOUS
 10
0.0
 20
0.0
  0
INSERT
  2
*DIM_0018
  8
寸法
  6
CONTINUOUS
 10
0.0
 20
0.0
  0
INSERT
  2
*DIM_0019
  8
寸法
  6
CONTINUOUS
 10
0.0
 20
0.0
  0
INSERT
  2
*DIM_0020
  8
寸法
  6
CONTINUOUS
 10
0.0
 20
0.0
  0
INSERT
  2
*DIM_0030
  8
寸法
  6
CONTINUOUS
 10
0.0
 20
0.0
  0
INSERT
  2
*DIM_0031
  8
寸法
  6
CONTINUOUS
 10
0.0
 20
0.0
  0
INSERT
  2
*DIM_0032
  8
寸法
  6
CONTINUOUS
 10
0.0
 20
0.0
  0
INSERT
  2
*DIM_0033
  8
寸法
  6
CONTINUOUS
 10
0.0
 20
0.0
  0
INSERT
  2
*DIM_0034
  8
寸法
  6
CONTINUOUS
 10
0.0
 20
0.0
  0
INSERT
  2
*DIM_0035
  8
寸法
  6
CONTINUOUS
 10
0.0
 20
0.0
  0
LINE
  8
曲げ物
  6
CONTINUOUS
 10
-18.50085
 20
52.128875
 11
-22.196162
 21
48.433562
  0
LINE
  8
曲げ物
  6
CONTINUOUS
 10
-19.20432
 20
50.592765
 11
-20.66005
 21
49.137035
  0
LINE
  8
曲げ物
  6
CONTINUOUS
 10
-20.03696
 20
51.425405
 11
-21.49269
 21
49.969675
  0
LINE
  8
曲げ物
  6
CONTINUOUS
 10
-51.85287
 20
52.128875
 11
-55.548182
 21
48.433562
  0
LINE
  8
曲げ物
  6
CONTINUOUS
 10
-52.55634
 20
50.592765
 11
-54.01207
 21
49.137035
  0
LINE
  8
曲げ物
  6
CONTINUOUS
 10
-53.38898
 20
51.425405
 11
-54.84471
 21
49.969675
  0
ENDSEC
  0
EOF
