  0
SECTION
  2
HEADER
  9
$EXTMIN
 10
-210.0
 20
-148.5
  9
$EXTMAX
 10
210.0
 20
148.5
  9
$PDMODE
 70
    32
  9
$PDSIZE
 40
1.5
  9
$LTSCALE
 40
10.0
  0
ENDSEC
  0
SECTION
  2
TABLES
  0
TABLE
  2
LTYPE
 70
    15
  0
LTYPE
  2
CONTINUOUS
 70
    64
  3
実線
 72
    65
 73
     0
 40
0.0
  0
LTYPE
  2
DASHED
 70
    64
  3
破線A
 72
    65
 73
     2
 40
0.6
 49
0.4
 49
-0.2
  0
LTYPE
  2
DASHEDX2
 70
    64
  3
破線B
 72
    65
 73
     2
 40
1.3
 49
0.9
 49
-0.4
  0
LTYPE
  2
DASHDOT
 70
    64
  3
１点鎖線A
 72
    65
 73
     4
 40
0.5375
 49
0.375
 49
-0.05
 49
0.0625
 49
-0.05
  0
LTYPE
  2
DASHDOTX2
 70
    64
  3
１点鎖線B
 72
    65
 73
     4
 40
1.075
 49
0.75
 49
-0.1
 49
0.125
 49
-0.1
  0
LTYPE
  2
DIVIDE2
 70
    64
  3
２点鎖線A
 72
    65
 73
     6
 40
0.5125
 49
0.3
 49
-0.0375
 49
0.05
 49
-0.0375
 49
0.05
 49
-0.0375
  0
LTYPE
  2
DIVIDE
 70
    64
  3
２点鎖線B
 72
    65
 73
     6
 40
1.05
 49
0.55
 49
-0.1
 49
0.1
 49
-0.1
 49
0.1
 49
-0.1
  0
LTYPE
  2
DOT
 70
    64
  3
点線A
 72
    65
 73
     2
 40
0.1125
 49
0.0625
 49
-0.05
  0
LTYPE
  2
DOTX2
 70
    64
  3
点線B
 72
    65
 73
     2
 40
0.275
 49
0.15
 49
-0.125
  0
LTYPE
  2
CONTINUOUS
 70
    64
  3
実線
 72
    65
 73
     0
 40
0.0
  0
LTYPE
  2
CONTINUOUS
 70
    64
  3
実線
 72
    65
 73
     0
 40
0.0
  0
LTYPE
  2
CONTINUOUS
 70
    64
  3
実線
 72
    65
 73
     0
 40
0.0
  0
LTYPE
  2
CONTINUOUS
 70
    64
  3
実線
 72
    65
 73
     0
 40
0.0
  0
LTYPE
  2
CONTINUOUS
 70
    64
  3
実線
 72
    65
 73
     0
 40
0.0
  0
LTYPE
  2
CONTINUOUS
 70
    64
  3
実線
 72
    65
 73
     0
 40
0.0
  0
ENDTAB
  0
TABLE
  2
LAYER
 70
    34
  0
LAYER
  2
通り芯
 70
     0
 62
    15
  6
CONTINUOUS
  0
LAYER
  2
補助線
 70
     0
 62
    16
  6
DOT
  0
LAYER
  2
躯体
 70
     0
 62
    31
  6
CONTINUOUS
  0
LAYER
  2
型材
 70
     0
 62
    32
  6
CONTINUOUS
  0
LAYER
  2
型材断面
 70
     0
 62
    47
  6
CONTINUOUS
  0
LAYER
  2
ガラス
 70
     0
 62
    48
  6
CONTINUOUS
  0
LAYER
  2
ゴム等
 70
     0
 62
    63
  6
CONTINUOUS
  0
LAYER
  2
ボルト／ビス
 70
     0
 62
    64
  6
CONTINUOUS
  0
LAYER
  2
文字
 70
     0
 62
    79
  6
CONTINUOUS
  0
LAYER
  2
寸法
 70
     0
 62
    80
  6
CONTINUOUS
  0
LAYER
  2
ﾊｯﾁﾝｸﾞ
 70
     0
 62
    95
  6
CONTINUOUS
  0
LAYER
  2
別途部材
 70
     0
 62
    96
  6
CONTINUOUS
  0
LAYER
  2
曲げ物
 70
     0
 62
   111
  6
CONTINUOUS
  0
LAYER
  2
鉄骨等
 70
     0
 62
   112
  6
CONTINUOUS
  0
LAYER
  2
St
 70
     0
 62
   127
  6
CONTINUOUS
  0
LAYER
  2
その他部品等
 70
     0
 62
   128
  6
CONTINUOUS
  0
LAYER
  2
ｶﾞｽｹｯﾄ
 70
     0
 62
   143
  6
CONTINUOUS
  0
LAYER
  2
ｽｹｯﾁ
 70
     0
 62
    14
  6
CONTINUOUS
  0
LAYER
  2
0
 70
     0
 62
    17
  6
CONTINUOUS
  0
LAYER
  2
1
 70
     0
 62
    30
  6
CONTINUOUS
  0
LAYER
  2
4
 70
     0
 62
    33
  6
CONTINUOUS
  0
LAYER
  2
ﾚｲﾔ3
 70
     0
 62
    46
  6
CONTINUOUS
  0
LAYER
  2
外形線
 70
     0
 62
    49
  6
CONTINUOUS
  0
LAYER
  2
部品
 70
     0
 62
    14
  6
CONTINUOUS
  0
LAYER
  2
サッシ芯
 70
     0
 62
    17
  6
DASHDOTX2
  0
LAYER
  2
寸法線
 70
     0
 62
    62
  6
CONTINUOUS
  0
LAYER
  2
姿図外形線
 70
     0
 62
    65
  6
CONTINUOUS
  0
LAYER
  2
姿補助線
 70
     0
 62
    30
  6
CONTINUOUS
  0
LAYER
  2
透視線
 70
     0
 62
    78
  6
DOT
  0
LAYER
  2
用紙
 70
     0
 62
    81
  6
CONTINUOUS
  0
LAYER
  2
実線図枠
 70
     0
 62
    94
  6
CONTINUOUS
  0
LAYER
  2
補助図枠
 70
     0
 62
    97
  6
CONTINUOUS
  0
LAYER
  2
建具記号
 70
     0
 62
   110
  6
CONTINUOUS
  0
LAYER
  2
補助文字
 70
     0
 62
   113
  6
CONTINUOUS
  0
ENDTAB
  0
TABLE
  2
STYLE
 70
    10
  0
STYLE
  2
STANDARD
 70
     0
 40
1.0
 41
1.0
 42
1.0
 50
0.0
 71
     0
  3
TXT
  4
BIGFONT
  0
STYLE
  2
TATE
 70
     4
 40
1.0
 41
1.0
 42
1.0
 50
0.0
 71
     0
  3
TXT
  4
BIGFONT
  0
STYLE
  2
TextStyle03
 70
     0
 40
1.0
 41
1.0
 42
1.0
 50
0.0
 71
     0
  3
MONOTXT
  4
BIGFONT
  0
STYLE
  2
TextStyle04
 70
     0
 40
1.0
 41
1.0
 42
1.0
 50
0.0
 71
     0
  3
MONOTXT
  4
BIGFONT
  0
STYLE
  2
TextStyle05
 70
     0
 40
1.0
 41
1.0
 42
1.0
 50
0.0
 71
     0
  3
MONOTXT
  4
BIGFONT
  0
STYLE
  2
TextStyle06
 70
     0
 40
1.0
 41
1.0
 42
1.0
 50
0.0
 71
     0
  3
MONOTXT
  4
BIGFONT
  0
STYLE
  2
TextStyle07
 70
     0
 40
1.0
 41
1.0
 42
1.0
 50
0.0
 71
     0
  3
MONOTXT
  4
BIGFONT
  0
STYLE
  2
TextStyle08
 70
     0
 40
1.0
 41
1.0
 42
1.0
 50
0.0
 71
     0
  3
MONOTXT
  4
BIGFONT
  0
STYLE
  2
TextStyle09
 70
     0
 40
1.0
 41
1.0
 42
1.0
 50
0.0
 71
     0
  3
MONOTXT
  4
BIGFONT
  0
STYLE
  2
TextStyle10
 70
     0
 40
1.0
 41
1.0
 42
1.0
 50
0.0
 71
     0
  3
MONOTXT
  4
BIGFONT
  0
ENDTAB
  0
ENDSEC
  0
SECTION
  2
BLOCKS
  0
BLOCK
  2
*GRP_0001
 70
    65
 10
0.0
 20
0.0
  0
LINE
  8
型材断面
  6
CONTINUOUS
 10
195.0
 20
133.5
 11
195.0
 21
-133.5
  0
LINE
  8
型材断面
  6
CONTINUOUS
 10
195.0
 20
-133.5
 11
-185.0
 21
-133.5
  0
LINE
  8
型材断面
  6
CONTINUOUS
 10
-185.0
 20
-133.5
 11
-185.0
 21
133.5
  0
LINE
  8
型材断面
  6
CONTINUOUS
 10
195.0
 20
133.5
 11
-185.0
 21
133.5
  0
LINE
  8
型材断面
  6
CONTINUOUS
 10
145.0
 20
-133.5
 11
145.0
 21
-118.5
  0
LINE
  8
型材断面
  6
CONTINUOUS
 10
195.0
 20
-118.5
 11
145.0
 21
-118.5
  0
ENDBLK
  0
BLOCK
  2
*GRP_0002
 70
    65
 10
0.0
 20
0.0
  0
INSERT
  2
M8横
  8
ゴム等
  6
CONTINUOUS
 10
163.336003
 20
27.710297
 50
90.0
 41
0.033333
 42
0.033333
  0
LINE
  8
ボルト／ビス
  6
CONTINUOUS
 10
163.126005
 20
27.843633
 11
163.109338
 21
27.826965
  0
LINE
  8
ボルト／ビス
  6
CONTINUOUS
 10
163.109338
 20
27.593633
 11
163.126005
 21
27.576965
  0
LINE
  8
ボルト／ビス
  6
CONTINUOUS
 10
163.126005
 20
27.576965
 11
163.126005
 21
27.843633
  0
LINE
  8
ボルト／ビス
  6
CONTINUOUS
 10
163.109338
 20
27.593633
 11
163.109338
 21
27.826965
  0
LINE
  8
ボルト／ビス
  6
CONTINUOUS
 10
163.109338
 20
27.826965
 11
163.15267
 21
27.826965
  0
LINE
  8
ボルト／ビス
  6
CONTINUOUS
 10
163.126005
 20
27.843633
 11
163.15267
 21
27.843633
  0
LINE
  8
ボルト／ビス
  6
CONTINUOUS
 10
163.126005
 20
27.576965
 11
163.15267
 21
27.576965
  0
LINE
  8
ボルト／ビス
  6
CONTINUOUS
 10
163.109338
 20
27.593633
 11
163.15267
 21
27.593633
  0
LINE
  8
ボルト／ビス
  6
CONTINUOUS
 10
163.336003
 20
27.343633
 11
163.336003
 21
28.076965
  0
LINE
  8
ボルト／ビス
  6
CONTINUOUS
 10
163.376002
 20
28.126965
 11
163.459335
 21
28.126965
  0
LINE
  8
ボルト／ビス
  6
CONTINUOUS
 10
163.459335
 20
28.126965
 11
163.459335
 21
27.293633
  0
LINE
  8
ボルト／ビス
  6
CONTINUOUS
 10
163.459335
 20
27.293633
 11
163.376002
 21
27.293633
  0
LINE
  8
ボルト／ビス
  6
CONTINUOUS
 10
163.376002
 20
28.126965
 11
163.376002
 21
27.293633
  0
LINE
  8
ボルト／ビス
  6
CONTINUOUS
 10
163.336003
 20
27.343633
 11
163.376002
 21
27.343633
  0
LINE
  8
ボルト／ビス
  6
CONTINUOUS
 10
163.336003
 20
28.076965
 11
163.376002
 21
28.076965
  0
LINE
  8
ボルト／ビス
  6
CONTINUOUS
 10
163.386002
 20
27.710297
 11
163.336003
 21
27.710297
  0
ENDBLK
  0
BLOCK
  2
*GRP_0003
 70
    65
 10
0.0
 20
0.0
  0
LINE
  8
ボルト／ビス
  6
CONTINUOUS
 10
162.47617
 20
27.50363
 11
162.409503
 21
27.50363
  0
LINE
  8
ボルト／ビス
  6
CONTINUOUS
 10
162.409503
 20
27.50363
 11
162.409503
 21
28.236962
  0
LINE
  8
ボルト／ビス
  6
CONTINUOUS
 10
162.409503
 20
28.236962
 11
162.47617
 21
28.236962
  0
LINE
  8
ボルト／ビス
  6
CONTINUOUS
 10
162.47617
 20
27.50363
 11
162.47617
 21
28.236962
  0
LINE
  8
ボルト／ビス
  6
CONTINUOUS
 10
162.37617
 20
27.570298
 11
162.409503
 21
27.570298
  0
LINE
  8
ボルト／ビス
  6
CONTINUOUS
 10
162.37617
 20
27.570298
 11
162.37617
 21
28.170298
  0
LINE
  8
ボルト／ビス
  6
CONTINUOUS
 10
162.37617
 20
28.170298
 11
162.409503
 21
28.170298
  0
LINE
  8
ボルト／ビス
  6
CONTINUOUS
 62
    64
 10
162.17617
 20
27.709922
 11
162.187845
 21
27.677847
  0
ARC
  8
ボルト／ビス
  6
CONTINUOUS
 62
    64
 10
162.281149
 20
27.725964
 40
0.104978
 50
152.721967
 51
180.0
  0
ARC
  8
ボルト／ビス
  6
CONTINUOUS
 62
    64
 10
162.578573
 20
27.870302
 40
0.402402
 50
166.165002
 51
193.834985
  0
LINE
  8
ボルト／ビス
  6
CONTINUOUS
 62
    64
 10
162.17617
 20
28.030673
 11
162.187845
 21
28.062747
  0
ARC
  8
ボルト／ビス
  6
CONTINUOUS
 62
    64
 10
162.281149
 20
28.014639
 40
0.104978
 50
180.0
 51
207.278033
  0
LINE
  8
ボルト／ビス
  6
CONTINUOUS
 62
    64
 10
162.17617
 20
27.709922
 11
162.17617
 21
28.030673
  0
LINE
  8
ボルト／ビス
  6
CONTINUOUS
 62
    64
 10
162.187845
 20
28.062747
 11
162.309503
 21
28.062747
  0
LINE
  8
ボルト／ビス
  6
CONTINUOUS
 62
    64
 10
162.187845
 20
27.966523
 11
162.309503
 21
27.966523
  0
LINE
  8
ボルト／ビス
  6
CONTINUOUS
 62
    64
 10
162.187845
 20
27.677847
 11
162.309503
 21
27.677847
  0
LINE
  8
ボルト／ビス
  6
CONTINUOUS
 62
    64
 10
162.187845
 20
27.774072
 11
162.309503
 21
27.774072
  0
LINE
  8
ボルト／ビス
  6
CONTINUOUS
 10
162.309503
 20
27.677847
 11
162.309503
 21
28.062747
  0
LINE
  8
ボルト／ビス
  6
CONTINUOUS
 10
162.309503
 20
27.670298
 11
162.37617
 21
27.670298
  0
LINE
  8
ボルト／ビス
  6
CONTINUOUS
 10
162.309503
 20
27.670298
 11
162.309503
 21
28.070298
  0
LINE
  8
ボルト／ビス
  6
CONTINUOUS
 10
162.309503
 20
28.070298
 11
162.37617
 21
28.070298
  0
ENDBLK
  0
BLOCK
  2
*DIM_0004
 70
    65
 10
0.0
 20
0.0
  0
LINE
  8
寸法
  6
CONTINUOUS
 10
161.248695
 20
26.256963
 11
142.14273
 21
26.256963
  0
LINE
  8
寸法
  6
CONTINUOUS
 10
142.14273
 20
28.536658
 11
142.14273
 21
26.256963
  0
POINT
  8
寸法
 10
142.14273
 20
28.536658
  0
POINT
  8
寸法
 10
142.14273
 20
26.256963
  0
TEXT
  7
TextStyle03
  8
寸法
  6
CONTINUOUS
 10
141.75
 20
17.34375
  1
68.4
 40
3.0
 50
90.0
 72
     5
 11
141.75
 21
23.90625
  0
ENDBLK
  0
BLOCK
  2
*DIM_0005
 70
    65
 10
0.0
 20
0.0
  0
LINE
  8
寸法
  6
CONTINUOUS
 10
169.209335
 20
21.570298
 11
169.209335
 21
13.661277
  0
LINE
  8
寸法
  6
CONTINUOUS
 10
161.742835
 20
23.536658
 11
161.742835
 21
13.661277
  0
LINE
  8
寸法
  6
CONTINUOUS
 10
169.209335
 20
13.661277
 11
161.742835
 21
13.661277
  0
POINT
  8
寸法
 10
169.209335
 20
13.661277
  0
POINT
  8
寸法
 10
161.742835
 20
13.661277
  0
TEXT
  7
TextStyle03
  8
寸法
  6
CONTINUOUS
 10
163.0375
 20
14.025
  1
224
 40
3.0
 72
     5
 11
167.9125
 21
14.025
  0
ENDBLK
  0
BLOCK
  2
*GRP_0006
 70
    65
 10
0.0
 20
0.0
  0
INSERT
  2
M8横
  8
ゴム等
  6
CONTINUOUS
 10
163.336003
 20
72.696352
 50
270.0
 41
0.033333
 42
-0.033333
  0
LINE
  8
ボルト／ビス
  6
CONTINUOUS
 10
163.126005
 20
72.56302
 11
163.109338
 21
72.579688
  0
LINE
  8
ボルト／ビス
  6
CONTINUOUS
 10
163.109338
 20
72.81302
 11
163.126005
 21
72.829688
  0
LINE
  8
ボルト／ビス
  6
CONTINUOUS
 10
163.126005
 20
72.829688
 11
163.126005
 21
72.56302
  0
LINE
  8
ボルト／ビス
  6
CONTINUOUS
 10
163.109338
 20
72.81302
 11
163.109338
 21
72.579688
  0
LINE
  8
ボルト／ビス
  6
CONTINUOUS
 10
163.109338
 20
72.579688
 11
163.15267
 21
72.579688
  0
LINE
  8
ボルト／ビス
  6
CONTINUOUS
 10
163.126005
 20
72.56302
 11
163.15267
 21
72.56302
  0
LINE
  8
ボルト／ビス
  6
CONTINUOUS
 10
163.126005
 20
72.829688
 11
163.15267
 21
72.829688
  0
LINE
  8
ボルト／ビス
  6
CONTINUOUS
 10
163.109338
 20
72.81302
 11
163.15267
 21
72.81302
  0
LINE
  8
ボルト／ビス
  6
CONTINUOUS
 10
163.336003
 20
73.06302
 11
163.336003
 21
72.329688
  0
LINE
  8
ボルト／ビス
  6
CONTINUOUS
 10
163.376002
 20
72.279687
 11
163.459335
 21
72.279687
  0
LINE
  8
ボルト／ビス
  6
CONTINUOUS
 10
163.459335
 20
72.279687
 11
163.459335
 21
73.11302
  0
LINE
  8
ボルト／ビス
  6
CONTINUOUS
 10
163.459335
 20
73.11302
 11
163.376002
 21
73.11302
  0
LINE
  8
ボルト／ビス
  6
CONTINUOUS
 10
163.376002
 20
72.279687
 11
163.376002
 21
73.11302
  0
LINE
  8
ボルト／ビス
  6
CONTINUOUS
 10
163.336003
 20
73.06302
 11
163.376002
 21
73.06302
  0
LINE
  8
ボルト／ビス
  6
CONTINUOUS
 10
163.336003
 20
72.329688
 11
163.376002
 21
72.329688
  0
LINE
  8
ボルト／ビス
  6
CONTINUOUS
 10
163.386002
 20
72.696352
 11
163.336003
 21
72.696352
  0
ENDBLK
  0
BLOCK
  2
*GRP_0007
 70
    65
 10
0.0
 20
0.0
  0
LINE
  8
ボルト／ビス
  6
CONTINUOUS
 10
162.47617
 20
72.903023
 11
162.409503
 21
72.903023
  0
LINE
  8
ボルト／ビス
  6
CONTINUOUS
 10
162.409503
 20
72.903023
 11
162.409503
 21
72.169687
  0
LINE
  8
ボルト／ビス
  6
CONTINUOUS
 10
162.409503
 20
72.169687
 11
162.47617
 21
72.169687
  0
LINE
  8
ボルト／ビス
  6
CONTINUOUS
 10
162.47617
 20
72.903023
 11
162.47617
 21
72.169687
  0
LINE
  8
ボルト／ビス
  6
CONTINUOUS
 10
162.37617
 20
72.836355
 11
162.409503
 21
72.836355
  0
LINE
  8
ボルト／ビス
  6
CONTINUOUS
 10
162.37617
 20
72.836355
 11
162.37617
 21
72.236355
  0
LINE
  8
ボルト／ビス
  6
CONTINUOUS
 10
162.37617
 20
72.236355
 11
162.409503
 21
72.236355
  0
LINE
  8
ボルト／ビス
  6
CONTINUOUS
 62
    64
 10
162.17617
 20
72.69673
 11
162.187845
 21
72.728805
  0
ARC
  8
ボルト／ビス
  6
CONTINUOUS
 62
    64
 10
162.281149
 20
72.680698
 40
0.104978
 50
180.0
 51
207.278033
  0
ARC
  8
ボルト／ビス
  6
CONTINUOUS
 62
    64
 10
162.578573
 20
72.536361
 40
0.402402
 50
166.165015
 51
193.834998
  0
LINE
  8
ボルト／ビス
  6
CONTINUOUS
 62
    64
 10
162.17617
 20
72.37598
 11
162.187845
 21
72.343905
  0
ARC
  8
ボルト／ビス
  6
CONTINUOUS
 62
    64
 10
162.281149
 20
72.392023
 40
0.104978
 50
152.721967
 51
180.0
  0
LINE
  8
ボルト／ビス
  6
CONTINUOUS
 62
    64
 10
162.17617
 20
72.69673
 11
162.17617
 21
72.37598
  0
LINE
  8
ボルト／ビス
  6
CONTINUOUS
 62
    64
 10
162.187845
 20
72.343905
 11
162.309503
 21
72.343905
  0
LINE
  8
ボルト／ビス
  6
CONTINUOUS
 62
    64
 10
162.187845
 20
72.44013
 11
162.309503
 21
72.44013
  0
LINE
  8
ボルト／ビス
  6
CONTINUOUS
 62
    64
 10
162.187845
 20
72.728805
 11
162.309503
 21
72.728805
  0
LINE
  8
ボルト／ビス
  6
CONTINUOUS
 62
    64
 10
162.187845
 20
72.63258
 11
162.309503
 21
72.63258
  0
LINE
  8
ボルト／ビス
  6
CONTINUOUS
 10
162.309503
 20
72.728805
 11
162.309503
 21
72.343905
  0
LINE
  8
ボルト／ビス
  6
CONTINUOUS
 10
162.309503
 20
72.736355
 11
162.37617
 21
72.736355
  0
LINE
  8
ボルト／ビス
  6
CONTINUOUS
 10
162.309503
 20
72.736355
 11
162.309503
 21
72.336355
  0
LINE
  8
ボルト／ビス
  6
CONTINUOUS
 10
162.309503
 20
72.336355
 11
162.37617
 21
72.336355
  0
ENDBLK
  0
BLOCK
  2
*DIM_0008
 70
    65
 10
0.0
 20
0.0
  0
LINE
  8
寸法
  6
CONTINUOUS
 10
161.248695
 20
74.149688
 11
142.14273
 21
74.149688
  0
LINE
  8
寸法
  6
CONTINUOUS
 10
142.14273
 20
71.869993
 11
142.14273
 21
74.149688
  0
POINT
  8
寸法
 10
142.14273
 20
71.869993
  0
POINT
  8
寸法
 10
142.14273
 20
74.149688
  0
TEXT
  7
TextStyle03
  8
寸法
  6
CONTINUOUS
 10
141.75
 20
76.46875
  1
68.4
 40
3.0
 50
90.0
 72
     5
 11
141.75
 21
83.03125
  0
ENDBLK
  0
BLOCK
  2
*DIM_0009
 70
    65
 10
0.0
 20
0.0
  0
LINE
  8
寸法
  6
CONTINUOUS
 10
142.14273
 20
71.869993
 11
142.14273
 21
28.536658
  0
POINT
  8
寸法
 10
142.14273
 20
71.869993
  0
POINT
  8
寸法
 10
142.14273
 20
28.536658
  0
TEXT
  7
TextStyle03
  8
寸法
  6
CONTINUOUS
 10
141.75
 20
38.48125
  1
呼称寸法　1300
 40
3.0
 50
90.0
 72
     5
 11
141.75
 21
61.91875
  0
ENDBLK
  0
BLOCK
  2
*GRP_0010
 70
    65
 10
0.0
 20
0.0
  0
INSERT
  2
M8横
  8
ゴム等
  6
CONTINUOUS
 10
13.22986
 20
-70.297288
 50
180.0
 41
0.033333
 42
-0.033333
  0
LINE
  8
ボルト／ビス
  6
CONTINUOUS
 10
13.096528
 20
-70.087288
 11
13.113192
 21
-70.070622
  0
LINE
  8
ボルト／ビス
  6
CONTINUOUS
 10
13.346528
 20
-70.070622
 11
13.363192
 21
-70.087288
  0
LINE
  8
ボルト／ビス
  6
CONTINUOUS
 10
13.363192
 20
-70.087288
 11
13.096528
 21
-70.087288
  0
LINE
  8
ボルト／ビス
  6
CONTINUOUS
 10
13.346528
 20
-70.070622
 11
13.113192
 21
-70.070622
  0
LINE
  8
ボルト／ビス
  6
CONTINUOUS
 10
13.113192
 20
-70.070622
 11
13.113192
 21
-70.113952
  0
LINE
  8
ボルト／ビス
  6
CONTINUOUS
 10
13.096528
 20
-70.087288
 11
13.096528
 21
-70.113952
  0
LINE
  8
ボルト／ビス
  6
CONTINUOUS
 10
13.363192
 20
-70.087288
 11
13.363192
 21
-70.113952
  0
LINE
  8
ボルト／ビス
  6
CONTINUOUS
 10
13.346528
 20
-70.070622
 11
13.346528
 21
-70.113952
  0
LINE
  8
ボルト／ビス
  6
CONTINUOUS
 10
13.596528
 20
-70.297288
 11
12.863192
 21
-70.297288
  0
LINE
  8
ボルト／ビス
  6
CONTINUOUS
 10
12.813192
 20
-70.337288
 11
12.813192
 21
-70.42062
  0
LINE
  8
ボルト／ビス
  6
CONTINUOUS
 10
12.813192
 20
-70.42062
 11
13.646528
 21
-70.42062
  0
LINE
  8
ボルト／ビス
  6
CONTINUOUS
 10
13.646528
 20
-70.42062
 11
13.646528
 21
-70.337288
  0
LINE
  8
ボルト／ビス
  6
CONTINUOUS
 10
12.813192
 20
-70.337288
 11
13.646528
 21
-70.337288
  0
LINE
  8
ボルト／ビス
  6
CONTINUOUS
 10
13.596528
 20
-70.297288
 11
13.596528
 21
-70.337288
  0
LINE
  8
ボルト／ビス
  6
CONTINUOUS
 10
12.863192
 20
-70.297288
 11
12.863192
 21
-70.337288
  0
LINE
  8
ボルト／ビス
  6
CONTINUOUS
 10
13.22986
 20
-70.347288
 11
13.22986
 21
-70.297288
  0
ENDBLK
  0
BLOCK
  2
*GRP_0011
 70
    65
 10
0.0
 20
0.0
  0
LINE
  8
ボルト／ビス
  6
CONTINUOUS
 10
13.436528
 20
-69.437453
 11
13.436528
 21
-69.370788
  0
LINE
  8
ボルト／ビス
  6
CONTINUOUS
 10
13.436528
 20
-69.370788
 11
12.703195
 21
-69.370788
  0
LINE
  8
ボルト／ビス
  6
CONTINUOUS
 10
12.703195
 20
-69.370788
 11
12.703195
 21
-69.437453
  0
LINE
  8
ボルト／ビス
  6
CONTINUOUS
 10
13.436528
 20
-69.437453
 11
12.703195
 21
-69.437453
  0
LINE
  8
ボルト／ビス
  6
CONTINUOUS
 10
13.369863
 20
-69.337453
 11
13.369863
 21
-69.370788
  0
LINE
  8
ボルト／ビス
  6
CONTINUOUS
 10
13.369863
 20
-69.337453
 11
12.769863
 21
-69.337453
  0
LINE
  8
ボルト／ビス
  6
CONTINUOUS
 10
12.769863
 20
-69.337453
 11
12.769863
 21
-69.370788
  0
LINE
  8
ボルト／ビス
  6
CONTINUOUS
 62
    64
 10
13.230237
 20
-69.137453
 11
13.262313
 21
-69.149128
  0
ARC
  8
ボルト／ビス
  6
CONTINUOUS
 62
    64
 10
13.214199
 20
-69.242431
 40
0.104978
 50
90.0
 51
117.278033
  0
ARC
  8
ボルト／ビス
  6
CONTINUOUS
 62
    64
 10
13.069861
 20
-69.539855
 40
0.402402
 50
76.165015
 51
103.834998
  0
LINE
  8
ボルト／ビス
  6
CONTINUOUS
 62
    64
 10
12.909488
 20
-69.137453
 11
12.877412
 21
-69.149128
  0
ARC
  8
ボルト／ビス
  6
CONTINUOUS
 62
    64
 10
12.925523
 20
-69.242431
 40
0.104978
 50
62.721967
 51
90.0
  0
LINE
  8
ボルト／ビス
  6
CONTINUOUS
 62
    64
 10
13.230237
 20
-69.137453
 11
12.909488
 21
-69.137453
  0
LINE
  8
ボルト／ビス
  6
CONTINUOUS
 62
    64
 10
12.877412
 20
-69.149128
 11
12.877412
 21
-69.270788
  0
LINE
  8
ボルト／ビス
  6
CONTINUOUS
 62
    64
 10
12.973638
 20
-69.149128
 11
12.973638
 21
-69.270788
  0
LINE
  8
ボルト／ビス
  6
CONTINUOUS
 62
    64
 10
13.262313
 20
-69.149128
 11
13.262313
 21
-69.270788
  0
LINE
  8
ボルト／ビス
  6
CONTINUOUS
 62
    64
 10
13.166087
 20
-69.149128
 11
13.166087
 21
-69.270788
  0
LINE
  8
ボルト／ビス
  6
CONTINUOUS
 10
13.262313
 20
-69.270788
 11
12.877412
 21
-69.270788
  0
LINE
  8
ボルト／ビス
  6
CONTINUOUS
 10
13.269863
 20
-69.270788
 11
13.269863
 21
-69.337453
  0
LINE
  8
ボルト／ビス
  6
CONTINUOUS
 10
13.269863
 20
-69.270788
 11
12.869863
 21
-69.270788
  0
LINE
  8
ボルト／ビス
  6
CONTINUOUS
 10
12.869863
 20
-69.270788
 11
12.869863
 21
-69.337453
  0
ENDBLK
  0
BLOCK
  2
*GRP_0012
 70
    65
 10
0.0
 20
0.0
  0
INSERT
  2
M8横
  8
ゴム等
  6
CONTINUOUS
 10
-88.422855
 20
-70.297288
 41
0.033333
 42
0.033333
  0
LINE
  8
ボルト／ビス
  6
CONTINUOUS
 10
-88.289523
 20
-70.087288
 11
-88.306188
 21
-70.070622
  0
LINE
  8
ボルト／ビス
  6
CONTINUOUS
 10
-88.539523
 20
-70.070622
 11
-88.556188
 21
-70.087288
  0
LINE
  8
ボルト／ビス
  6
CONTINUOUS
 10
-88.556188
 20
-70.087288
 11
-88.289523
 21
-70.087288
  0
LINE
  8
ボルト／ビス
  6
CONTINUOUS
 10
-88.539523
 20
-70.070622
 11
-88.306188
 21
-70.070622
  0
LINE
  8
ボルト／ビス
  6
CONTINUOUS
 10
-88.306188
 20
-70.070622
 11
-88.306188
 21
-70.113952
  0
LINE
  8
ボルト／ビス
  6
CONTINUOUS
 10
-88.289523
 20
-70.087288
 11
-88.289523
 21
-70.113952
  0
LINE
  8
ボルト／ビス
  6
CONTINUOUS
 10
-88.556188
 20
-70.087288
 11
-88.556188
 21
-70.113952
  0
LINE
  8
ボルト／ビス
  6
CONTINUOUS
 10
-88.539523
 20
-70.070622
 11
-88.539523
 21
-70.113952
  0
LINE
  8
ボルト／ビス
  6
CONTINUOUS
 10
-88.789523
 20
-70.297288
 11
-88.056188
 21
-70.297288
  0
LINE
  8
ボルト／ビス
  6
CONTINUOUS
 10
-88.006188
 20
-70.337288
 11
-88.006188
 21
-70.42062
  0
LINE
  8
ボルト／ビス
  6
CONTINUOUS
 10
-88.006188
 20
-70.42062
 11
-88.839523
 21
-70.42062
  0
LINE
  8
ボルト／ビス
  6
CONTINUOUS
 10
-88.839523
 20
-70.42062
 11
-88.839523
 21
-70.337288
  0
LINE
  8
ボルト／ビス
  6
CONTINUOUS
 10
-88.006188
 20
-70.337288
 11
-88.839523
 21
-70.337288
  0
LINE
  8
ボルト／ビス
  6
CONTINUOUS
 10
-88.789523
 20
-70.297288
 11
-88.789523
 21
-70.337288
  0
LINE
  8
ボルト／ビス
  6
CONTINUOUS
 10
-88.056188
 20
-70.297288
 11
-88.056188
 21
-70.337288
  0
LINE
  8
ボルト／ビス
  6
CONTINUOUS
 10
-88.422855
 20
-70.347288
 11
-88.422855
 21
-70.297288
  0
ENDBLK
  0
BLOCK
  2
*GRP_0013
 70
    65
 10
0.0
 20
0.0
  0
LINE
  8
ボルト／ビス
  6
CONTINUOUS
 10
-88.629522
 20
-69.437453
 11
-88.629522
 21
-69.370788
  0
LINE
  8
ボルト／ビス
  6
CONTINUOUS
 10
-88.629522
 20
-69.370788
 11
-87.89619
 21
-69.370788
  0
LINE
  8
ボルト／ビス
  6
CONTINUOUS
 10
-87.89619
 20
-69.370788
 11
-87.89619
 21
-69.437453
  0
LINE
  8
ボルト／ビス
  6
CONTINUOUS
 10
-88.629522
 20
-69.437453
 11
-87.89619
 21
-69.437453
  0
LINE
  8
ボルト／ビス
  6
CONTINUOUS
 10
-88.562857
 20
-69.337453
 11
-88.562857
 21
-69.370788
  0
LINE
  8
ボルト／ビス
  6
CONTINUOUS
 10
-88.562857
 20
-69.337453
 11
-87.962857
 21
-69.337453
  0
LINE
  8
ボルト／ビス
  6
CONTINUOUS
 10
-87.962857
 20
-69.337453
 11
-87.962857
 21
-69.370788
  0
LINE
  8
ボルト／ビス
  6
CONTINUOUS
 62
    64
 10
-88.423232
 20
-69.137453
 11
-88.455307
 21
-69.149128
  0
ARC
  8
ボルト／ビス
  6
CONTINUOUS
 62
    64
 10
-88.407195
 20
-69.242431
 40
0.104978
 50
62.721967
 51
90.0
  0
ARC
  8
ボルト／ビス
  6
CONTINUOUS
 62
    64
 10
-88.262858
 20
-69.539855
 40
0.402402
 50
76.165002
 51
103.834985
  0
LINE
  8
ボルト／ビス
  6
CONTINUOUS
 62
    64
 10
-88.102483
 20
-69.137453
 11
-88.070407
 21
-69.149128
  0
ARC
  8
ボルト／ビス
  6
CONTINUOUS
 62
    64
 10
-88.11852
 20
-69.242431
 40
0.104978
 50
90.0
 51
117.278033
  0
LINE
  8
ボルト／ビス
  6
CONTINUOUS
 62
    64
 10
-88.423232
 20
-69.137453
 11
-88.102483
 21
-69.137453
  0
LINE
  8
ボルト／ビス
  6
CONTINUOUS
 62
    64
 10
-88.070407
 20
-69.149128
 11
-88.070407
 21
-69.270788
  0
LINE
  8
ボルト／ビス
  6
CONTINUOUS
 62
    64
 10
-88.166633
 20
-69.149128
 11
-88.166633
 21
-69.270788
  0
LINE
  8
ボルト／ビス
  6
CONTINUOUS
 62
    64
 10
-88.455307
 20
-69.149128
 11
-88.455307
 21
-69.270788
  0
LINE
  8
ボルト／ビス
  6
CONTINUOUS
 62
    64
 10
-88.359083
 20
-69.149128
 11
-88.359083
 21
-69.270788
  0
LINE
  8
ボルト／ビス
  6
CONTINUOUS
 10
-88.455307
 20
-69.270788
 11
-88.070407
 21
-69.270788
  0
LINE
  8
ボルト／ビス
  6
CONTINUOUS
 10
-88.462857
 20
-69.270788
 11
-88.462857
 21
-69.337453
  0
LINE
  8
ボルト／ビス
  6
CONTINUOUS
 10
-88.462857
 20
-69.270788
 11
-88.062857
 21
-69.270788
  0
LINE
  8
ボルト／ビス
  6
CONTINUOUS
 10
-88.062857
 20
-69.270788
 11
-88.062857
 21
-69.337453
  0
ENDBLK
  0
BLOCK
  2
*DIM_0014
 70
    65
 10
0.0
 20
0.0
  0
LINE
  8
寸法
  6
BYBLOCK
 62
     0
 10
-70.92983
 20
24.90653
 11
-70.92983
 21
20.335637
  0
LINE
  8
寸法
  6
BYBLOCK
 62
     0
 10
-4.263165
 20
24.90653
 11
-4.263165
 21
20.335637
  0
LINE
  8
寸法
  6
BYBLOCK
 62
     0
 10
-70.92983
 20
20.335637
 11
-4.263165
 21
20.335637
  0
POINT
  8
寸法
 62
     0
 10
-70.92983
 20
20.335637
  0
POINT
  8
寸法
 62
     0
 10
-4.263165
 20
20.335637
  0
TEXT
  7
TextStyle03
  8
寸法
  6
CONTINUOUS
 62
     0
 10
-40.88125
 20
20.675
  1
2000
 40
3.0
 72
     5
 11
-34.31875
 21
20.675
  0
ENDBLK
  0
BLOCK
  2
*DIM_0015
 70
    65
 10
0.0
 20
0.0
  0
LINE
  8
寸法
  6
BYBLOCK
 62
     0
 10
16.03363
 20
67.96999
 11
22.810923
 21
67.96999
  0
LINE
  8
寸法
  6
BYBLOCK
 62
     0
 10
22.810923
 20
71.86999
 11
22.810923
 21
67.96999
  0
POINT
  8
寸法
 62
     0
 10
22.810923
 20
71.86999
  0
POINT
  8
寸法
 62
     0
 10
22.810923
 20
67.96999
  0
TEXT
  7
TextStyle03
  8
寸法
  6
CONTINUOUS
 62
     0
 10
22.5
 20
72.5375
  1
117
 40
3.0
 50
90.0
 72
     5
 11
22.5
 21
77.4125
  0
ENDBLK
  0
BLOCK
  2
*DIM_0016
 70
    65
 10
0.0
 20
0.0
  0
LINE
  8
寸法
  6
BYBLOCK
 62
     0
 10
16.03363
 20
32.43666
 11
22.810923
 21
32.43666
  0
LINE
  8
寸法
  6
BYBLOCK
 62
     0
 10
22.810923
 20
28.53666
 11
22.810923
 21
32.43666
  0
POINT
  8
寸法
 62
     0
 10
22.810923
 20
28.53666
  0
POINT
  8
寸法
 62
     0
 10
22.810923
 20
32.43666
  0
TEXT
  7
TextStyle03
  8
寸法
  6
CONTINUOUS
 62
     0
 10
22.925
 20
22.5875
  1
117
 40
3.0
 50
90.0
 72
     5
 11
22.925
 21
27.4625
  0
ENDBLK
  0
BLOCK
  2
*DIM_0017
 70
    65
 10
0.0
 20
0.0
  0
LINE
  8
寸法
  6
BYBLOCK
 62
     0
 10
-90.596497
 20
38.536658
 11
-119.541662
 21
38.536658
  0
LINE
  8
寸法
  6
BYBLOCK
 62
     0
 10
-90.596497
 20
61.869993
 11
-119.541662
 21
61.869993
  0
LINE
  8
寸法
  6
BYBLOCK
 62
     0
 10
-119.541662
 20
38.536658
 11
-119.541662
 21
61.869993
  0
POINT
  8
寸法
 62
     0
 10
-119.541662
 20
38.536658
  0
POINT
  8
寸法
 62
     0
 10
-119.541662
 20
61.869993
  0
TEXT
  7
TextStyle03
  8
寸法
  6
CONTINUOUS
 62
     0
 10
-119.9
 20
47.7375
  1
700
 40
3.0
 50
90.0
 72
     5
 11
-119.9
 21
52.6125
  0
ENDBLK
  0
BLOCK
  2
*DIM_0018
 70
    65
 10
0.0
 20
0.0
  0
LINE
  8
寸法
  6
BYBLOCK
 62
     0
 10
-77.596497
 20
74.86999
 11
-77.596497
 21
103.978062
  0
LINE
  8
寸法
  6
BYBLOCK
 62
     0
 10
-50.92983
 20
74.86999
 11
-50.92983
 21
103.978062
  0
LINE
  8
寸法
  6
BYBLOCK
 62
     0
 10
-77.596497
 20
103.978062
 11
-50.92983
 21
103.978062
  0
POINT
  8
寸法
 62
     0
 10
-77.596497
 20
103.978062
  0
POINT
  8
寸法
 62
     0
 10
-50.92983
 20
103.978062
  0
TEXT
  7
TextStyle03
  8
寸法
  6
CONTINUOUS
 62
     0
 10
-66.7125
 20
104.325
  1
800
 40
3.0
 72
     5
 11
-61.8375
 21
104.325
  0
ENDBLK
  0
BLOCK
  2
*DIM_0019
 70
    65
 10
0.0
 20
0.0
  0
LINE
  8
寸法
  6
BYBLOCK
 62
     0
 10
-24.263165
 20
74.86999
 11
-24.263165
 21
103.978062
  0
LINE
  8
寸法
  6
BYBLOCK
 62
     0
 10
-50.92983
 20
103.978062
 11
-24.263165
 21
103.978062
  0
POINT
  8
寸法
 62
     0
 10
-24.263165
 20
103.978062
  0
TEXT
  7
TextStyle03
  8
寸法
  6
CONTINUOUS
 62
     0
 10
-40.0375
 20
104.325
  1
800
 40
3.0
 72
     5
 11
-35.1625
 21
104.325
  0
ENDBLK
  0
BLOCK
  2
*DIM_0020
 70
    65
 10
0.0
 20
0.0
  0
LINE
  8
寸法
  6
BYBLOCK
 62
     0
 10
2.403502
 20
74.86999
 11
2.403502
 21
103.978062
  0
LINE
  8
寸法
  6
BYBLOCK
 62
     0
 10
-24.263165
 20
103.978062
 11
2.403502
 21
103.978062
  0
POINT
  8
寸法
 62
     0
 10
2.403502
 20
103.978062
  0
TEXT
  7
TextStyle03
  8
寸法
  6
CONTINUOUS
 62
     0
 10
-13.3625
 20
104.325
  1
800
 40
3.0
 72
     5
 11
-8.4875
 21
104.325
  0
ENDBLK
  0
BLOCK
  2
*GRP_0021
 70
    65
 10
0.0
 20
0.0
  0
LINE
  8
型材断面
  6
DOT
 10
14.070168
 20
-54.937453
 11
14.020168
 21
-54.937453
  0
LINE
  8
型材断面
  6
DOT
 10
12.4035
 20
-54.437453
 11
12.4035
 21
-53.70412
  0
LINE
  8
型材断面
  6
DOT
 10
12.453195
 20
-55.42062
 11
13.899863
 21
-55.42062
  0
LINE
  8
型材断面
  6
DOT
 10
13.899863
 20
-55.87062
 11
13.899863
 21
-55.42062
  0
LINE
  8
型材断面
  6
DOT
 62
    47
 10
14.633195
 20
-58.543312
 11
14.683195
 21
-58.543312
  0
LINE
  8
型材断面
  6
DOT
 62
    47
 10
14.683195
 20
-58.543312
 11
14.683195
 21
-58.209977
  0
LINE
  8
型材断面
  6
DOT
 62
    47
 10
14.683195
 20
-58.209977
 11
13.899863
 21
-58.109977
  0
LINE
  8
型材断面
  6
DOT
 62
    47
 10
13.899863
 20
-57.703953
 11
13.899863
 21
-58.109977
  0
LINE
  8
型材断面
  6
DOT
 62
    47
 10
14.369863
 20
-57.703953
 11
14.369863
 21
-55.87062
  0
LINE
  8
型材断面
  6
DOT
 10
14.070168
 20
-54.937453
 11
14.070168
 21
-54.437453
  0
LINE
  8
型材断面
  6
DOT
 10
12.453195
 20
-55.42062
 11
12.453195
 21
-54.937453
  0
INSERT
  2
*GRP_0022
  8
型材断面
  6
DOT
 10
0.0
 20
0.0
  0
INSERT
  2
*GRP_0023
  8
型材断面
  6
DOT
 10
0.0
 20
0.0
  0
LINE
  8
型材断面
  6
DOT
 10
14.683195
 20
-58.543312
 11
-37.596497
 21
-58.543312
  0
LINE
  8
型材断面
  6
DOT
 10
14.683195
 20
-58.209977
 11
-37.596497
 21
-58.209977
  0
LINE
  8
型材断面
  6
DOT
 10
13.899863
 20
-58.109977
 11
-37.596497
 21
-58.109977
  0
LINE
  8
型材断面
  6
DOT
 10
14.369863
 20
-57.703953
 11
-37.596497
 21
-57.703953
  0
LINE
  8
型材断面
  6
DOT
 10
14.070168
 20
-54.937453
 11
-37.596497
 21
-54.937453
  0
LINE
  8
型材断面
  6
DOT
 10
12.4035
 20
-53.70412
 11
-37.596497
 21
-53.70412
  0
LINE
  8
型材断面
  6
DOT
 10
14.070168
 20
-54.437453
 11
-37.596497
 21
-54.437453
  0
LINE
  8
型材断面
  6
DOT
 10
13.899863
 20
-55.42062
 11
-37.596497
 21
-55.42062
  0
LINE
  8
型材断面
  6
DOT
 10
14.369863
 20
-55.87062
 11
-37.596497
 21
-55.87062
  0
LINE
  8
型材断面
  6
DOT
 10
-89.263162
 20
-54.937453
 11
-89.213162
 21
-54.937453
  0
LINE
  8
型材断面
  6
DOT
 10
-87.596495
 20
-54.437453
 11
-87.596495
 21
-53.70412
  0
LINE
  8
型材断面
  6
DOT
 10
-87.64619
 20
-55.42062
 11
-89.092857
 21
-55.42062
  0
LINE
  8
型材断面
  6
DOT
 10
-89.092857
 20
-55.87062
 11
-89.092857
 21
-55.42062
  0
LINE
  8
型材断面
  6
DOT
 62
    47
 10
-89.82619
 20
-58.543312
 11
-89.87619
 21
-58.543312
  0
LINE
  8
型材断面
  6
DOT
 62
    47
 10
-89.87619
 20
-58.543312
 11
-89.87619
 21
-58.209977
  0
LINE
  8
型材断面
  6
DOT
 62
    47
 10
-89.87619
 20
-58.209977
 11
-89.092857
 21
-58.109977
  0
LINE
  8
型材断面
  6
DOT
 62
    47
 10
-89.092857
 20
-57.703953
 11
-89.092857
 21
-58.109977
  0
LINE
  8
型材断面
  6
DOT
 62
    47
 10
-89.562857
 20
-57.703953
 11
-89.562857
 21
-55.87062
  0
LINE
  8
型材断面
  6
DOT
 10
-89.263162
 20
-54.937453
 11
-89.263162
 21
-54.437453
  0
LINE
  8
型材断面
  6
DOT
 10
-87.64619
 20
-55.42062
 11
-87.64619
 21
-54.937453
  0
INSERT
  2
*GRP_0024
  8
型材断面
  6
DOT
 10
0.0
 20
0.0
  0
INSERT
  2
*GRP_0025
  8
型材断面
  6
DOT
 10
0.0
 20
0.0
  0
LINE
  8
型材断面
  6
DOT
 10
-89.87619
 20
-58.543312
 11
-37.596497
 21
-58.543312
  0
LINE
  8
型材断面
  6
DOT
 10
-89.87619
 20
-58.209977
 11
-37.596497
 21
-58.209977
  0
LINE
  8
型材断面
  6
DOT
 10
-89.092857
 20
-58.109977
 11
-37.596497
 21
-58.109977
  0
LINE
  8
型材断面
  6
DOT
 10
-89.562857
 20
-57.703953
 11
-37.596497
 21
-57.703953
  0
LINE
  8
型材断面
  6
DOT
 10
-89.263162
 20
-54.937453
 11
-37.596497
 21
-54.937453
  0
LINE
  8
型材断面
  6
DOT
 10
-87.596495
 20
-53.70412
 11
-37.596497
 21
-53.70412
  0
LINE
  8
型材断面
  6
DOT
 10
-89.263162
 20
-54.437453
 11
-37.596497
 21
-54.437453
  0
LINE
  8
型材断面
  6
DOT
 10
-89.092857
 20
-55.42062
 11
-37.596497
 21
-55.42062
  0
LINE
  8
型材断面
  6
DOT
 10
-89.562857
 20
-55.87062
 11
-37.596497
 21
-55.87062
  0
ENDBLK
  0
BLOCK
  2
*GRP_0022
 70
    65
 10
0.0
 20
0.0
  0
INSERT
  2
M8横
  8
ゴム等
  6
DOT
 10
13.22986
 20
-55.297288
 50
180.0
 41
0.033333
 42
-0.033333
  0
LINE
  8
ボルト／ビス
  6
DOT
 10
13.096528
 20
-55.087288
 11
13.113192
 21
-55.070622
  0
LINE
  8
ボルト／ビス
  6
DOT
 10
13.346528
 20
-55.070622
 11
13.363192
 21
-55.087288
  0
LINE
  8
ボルト／ビス
  6
DOT
 10
13.363192
 20
-55.087288
 11
13.096528
 21
-55.087288
  0
LINE
  8
ボルト／ビス
  6
DOT
 10
13.346528
 20
-55.070622
 11
13.113192
 21
-55.070622
  0
LINE
  8
ボルト／ビス
  6
DOT
 10
13.113192
 20
-55.070622
 11
13.113192
 21
-55.113952
  0
LINE
  8
ボルト／ビス
  6
DOT
 10
13.096528
 20
-55.087288
 11
13.096528
 21
-55.113952
  0
LINE
  8
ボルト／ビス
  6
DOT
 10
13.363192
 20
-55.087288
 11
13.363192
 21
-55.113952
  0
LINE
  8
ボルト／ビス
  6
DOT
 10
13.346528
 20
-55.070622
 11
13.346528
 21
-55.113952
  0
LINE
  8
ボルト／ビス
  6
DOT
 10
13.596528
 20
-55.297288
 11
12.863192
 21
-55.297288
  0
LINE
  8
ボルト／ビス
  6
DOT
 10
12.813192
 20
-55.337288
 11
12.813192
 21
-55.42062
  0
LINE
  8
ボルト／ビス
  6
DOT
 10
12.813192
 20
-55.42062
 11
13.646528
 21
-55.42062
  0
LINE
  8
ボルト／ビス
  6
DOT
 10
13.646528
 20
-55.42062
 11
13.646528
 21
-55.337288
  0
LINE
  8
ボルト／ビス
  6
DOT
 10
12.813192
 20
-55.337288
 11
13.646528
 21
-55.337288
  0
LINE
  8
ボルト／ビス
  6
DOT
 10
13.596528
 20
-55.297288
 11
13.596528
 21
-55.337288
  0
LINE
  8
ボルト／ビス
  6
DOT
 10
12.863192
 20
-55.297288
 11
12.863192
 21
-55.337288
  0
LINE
  8
ボルト／ビス
  6
DOT
 10
13.22986
 20
-55.347288
 11
13.22986
 21
-55.297288
  0
ENDBLK
  0
BLOCK
  2
*GRP_0023
 70
    65
 10
0.0
 20
0.0
  0
LINE
  8
ボルト／ビス
  6
DOT
 10
13.436528
 20
-54.437453
 11
13.436528
 21
-54.370788
  0
LINE
  8
ボルト／ビス
  6
DOT
 10
13.436528
 20
-54.370788
 11
12.703195
 21
-54.370788
  0
LINE
  8
ボルト／ビス
  6
DOT
 10
12.703195
 20
-54.370788
 11
12.703195
 21
-54.437453
  0
LINE
  8
ボルト／ビス
  6
DOT
 10
13.436528
 20
-54.437453
 11
12.703195
 21
-54.437453
  0
LINE
  8
ボルト／ビス
  6
DOT
 10
13.369863
 20
-54.337453
 11
13.369863
 21
-54.370788
  0
LINE
  8
ボルト／ビス
  6
DOT
 10
13.369863
 20
-54.337453
 11
12.769863
 21
-54.337453
  0
LINE
  8
ボルト／ビス
  6
DOT
 10
12.769863
 20
-54.337453
 11
12.769863
 21
-54.370788
  0
LINE
  8
ボルト／ビス
  6
DOT
 62
    64
 10
13.230237
 20
-54.137453
 11
13.262313
 21
-54.149128
  0
ARC
  8
ボルト／ビス
  6
DOT
 62
    64
 10
13.214199
 20
-54.242431
 40
0.104978
 50
90.0
 51
117.278033
  0
ARC
  8
ボルト／ビス
  6
DOT
 62
    64
 10
13.069861
 20
-54.539855
 40
0.402402
 50
76.165015
 51
103.834998
  0
LINE
  8
ボルト／ビス
  6
DOT
 62
    64
 10
12.909488
 20
-54.137453
 11
12.877412
 21
-54.149128
  0
ARC
  8
ボルト／ビス
  6
DOT
 62
    64
 10
12.925523
 20
-54.242431
 40
0.104978
 50
62.721967
 51
90.0
  0
LINE
  8
ボルト／ビス
  6
DOT
 62
    64
 10
13.230237
 20
-54.137453
 11
12.909488
 21
-54.137453
  0
LINE
  8
ボルト／ビス
  6
DOT
 62
    64
 10
12.877412
 20
-54.149128
 11
12.877412
 21
-54.270788
  0
LINE
  8
ボルト／ビス
  6
DOT
 62
    64
 10
12.973638
 20
-54.149128
 11
12.973638
 21
-54.270788
  0
LINE
  8
ボルト／ビス
  6
DOT
 62
    64
 10
13.262313
 20
-54.149128
 11
13.262313
 21
-54.270788
  0
LINE
  8
ボルト／ビス
  6
DOT
 62
    64
 10
13.166087
 20
-54.149128
 11
13.166087
 21
-54.270788
  0
LINE
  8
ボルト／ビス
  6
DOT
 10
13.262313
 20
-54.270788
 11
12.877412
 21
-54.270788
  0
LINE
  8
ボルト／ビス
  6
DOT
 10
13.269863
 20
-54.270788
 11
13.269863
 21
-54.337453
  0
LINE
  8
ボルト／ビス
  6
DOT
 10
13.269863
 20
-54.270788
 11
12.869863
 21
-54.270788
  0
LINE
  8
ボルト／ビス
  6
DOT
 10
12.869863
 20
-54.270788
 11
12.869863
 21
-54.337453
  0
ENDBLK
  0
BLOCK
  2
*GRP_0024
 70
    65
 10
0.0
 20
0.0
  0
INSERT
  2
M8横
  8
ゴム等
  6
DOT
 10
-88.422855
 20
-55.297288
 41
0.033333
 42
0.033333
  0
LINE
  8
ボルト／ビス
  6
DOT
 10
-88.289523
 20
-55.087288
 11
-88.306188
 21
-55.070622
  0
LINE
  8
ボルト／ビス
  6
DOT
 10
-88.539523
 20
-55.070622
 11
-88.556188
 21
-55.087288
  0
LINE
  8
ボルト／ビス
  6
DOT
 10
-88.556188
 20
-55.087288
 11
-88.289523
 21
-55.087288
  0
LINE
  8
ボルト／ビス
  6
DOT
 10
-88.539523
 20
-55.070622
 11
-88.306188
 21
-55.070622
  0
LINE
  8
ボルト／ビス
  6
DOT
 10
-88.306188
 20
-55.070622
 11
-88.306188
 21
-55.113952
  0
LINE
  8
ボルト／ビス
  6
DOT
 10
-88.289523
 20
-55.087288
 11
-88.289523
 21
-55.113952
  0
LINE
  8
ボルト／ビス
  6
DOT
 10
-88.556188
 20
-55.087288
 11
-88.556188
 21
-55.113952
  0
LINE
  8
ボルト／ビス
  6
DOT
 10
-88.539523
 20
-55.070622
 11
-88.539523
 21
-55.113952
  0
LINE
  8
ボルト／ビス
  6
DOT
 10
-88.789523
 20
-55.297288
 11
-88.056188
 21
-55.297288
  0
LINE
  8
ボルト／ビス
  6
DOT
 10
-88.006188
 20
-55.337288
 11
-88.006188
 21
-55.42062
  0
LINE
  8
ボルト／ビス
  6
DOT
 10
-88.006188
 20
-55.42062
 11
-88.839523
 21
-55.42062
  0
LINE
  8
ボルト／ビス
  6
DOT
 10
-88.839523
 20
-55.42062
 11
-88.839523
 21
-55.337288
  0
LINE
  8
ボルト／ビス
  6
DOT
 10
-88.006188
 20
-55.337288
 11
-88.839523
 21
-55.337288
  0
LINE
  8
ボルト／ビス
  6
DOT
 10
-88.789523
 20
-55.297288
 11
-88.789523
 21
-55.337288
  0
LINE
  8
ボルト／ビス
  6
DOT
 10
-88.056188
 20
-55.297288
 11
-88.056188
 21
-55.337288
  0
LINE
  8
ボルト／ビス
  6
DOT
 10
-88.422855
 20
-55.347288
 11
-88.422855
 21
-55.297288
  0
ENDBLK
  0
BLOCK
  2
*GRP_0025
 70
    65
 10
0.0
 20
0.0
  0
LINE
  8
ボルト／ビス
  6
DOT
 10
-88.629522
 20
-54.437453
 11
-88.629522
 21
-54.370788
  0
LINE
  8
ボルト／ビス
  6
DOT
 10
-88.629522
 20
-54.370788
 11
-87.89619
 21
-54.370788
  0
LINE
  8
ボルト／ビス
  6
DOT
 10
-87.89619
 20
-54.370788
 11
-87.89619
 21
-54.437453
  0
LINE
  8
ボルト／ビス
  6
DOT
 10
-88.629522
 20
-54.437453
 11
-87.89619
 21
-54.437453
  0
LINE
  8
ボルト／ビス
  6
DOT
 10
-88.562857
 20
-54.337453
 11
-88.562857
 21
-54.370788
  0
LINE
  8
ボルト／ビス
  6
DOT
 10
-88.562857
 20
-54.337453
 11
-87.962857
 21
-54.337453
  0
LINE
  8
ボルト／ビス
  6
DOT
 10
-87.962857
 20
-54.337453
 11
-87.962857
 21
-54.370788
  0
LINE
  8
ボルト／ビス
  6
DOT
 62
    64
 10
-88.423232
 20
-54.137453
 11
-88.455307
 21
-54.149128
  0
ARC
  8
ボルト／ビス
  6
DOT
 62
    64
 10
-88.407195
 20
-54.242431
 40
0.104978
 50
62.721967
 51
90.0
  0
ARC
  8
ボルト／ビス
  6
DOT
 62
    64
 10
-88.262858
 20
-54.539855
 40
0.402402
 50
76.165002
 51
103.834985
  0
LINE
  8
ボルト／ビス
  6
DOT
 62
    64
 10
-88.102483
 20
-54.137453
 11
-88.070407
 21
-54.149128
  0
ARC
  8
ボルト／ビス
  6
DOT
 62
    64
 10
-88.11852
 20
-54.242431
 40
0.104978
 50
90.0
 51
117.278033
  0
LINE
  8
ボルト／ビス
  6
DOT
 62
    64
 10
-88.423232
 20
-54.137453
 11
-88.102483
 21
-54.137453
  0
LINE
  8
ボルト／ビス
  6
DOT
 62
    64
 10
-88.070407
 20
-54.149128
 11
-88.070407
 21
-54.270788
  0
LINE
  8
ボルト／ビス
  6
DOT
 62
    64
 10
-88.166633
 20
-54.149128
 11
-88.166633
 21
-54.270788
  0
LINE
  8
ボルト／ビス
  6
DOT
 62
    64
 10
-88.455307
 20
-54.149128
 11
-88.455307
 21
-54.270788
  0
LINE
  8
ボルト／ビス
  6
DOT
 62
    64
 10
-88.359083
 20
-54.149128
 11
-88.359083
 21
-54.270788
  0
LINE
  8
ボルト／ビス
  6
DOT
 10
-88.455307
 20
-54.270788
 11
-88.070407
 21
-54.270788
  0
LINE
  8
ボルト／ビス
  6
DOT
 10
-88.462857
 20
-54.270788
 11
-88.462857
 21
-54.337453
  0
LINE
  8
ボルト／ビス
  6
DOT
 10
-88.462857
 20
-54.270788
 11
-88.062857
 21
-54.270788
  0
LINE
  8
ボルト／ビス
  6
DOT
 10
-88.062857
 20
-54.270788
 11
-88.062857
 21
-54.337453
  0
ENDBLK
  0
BLOCK
  2
*DIM_0026
 70
    65
 10
0.0
 20
0.0
  0
LINE
  8
寸法
  6
CONTINUOUS
 10
17.4035
 20
-68.70412
 11
36.021973
 21
-68.70412
  0
LINE
  8
寸法
  6
CONTINUOUS
 10
19.369863
 20
-76.17062
 11
36.021973
 21
-76.17062
  0
LINE
  8
寸法
  6
CONTINUOUS
 10
36.021973
 20
-68.70412
 11
36.021973
 21
-76.17062
  0
POINT
  8
寸法
 10
36.021973
 20
-68.70412
  0
POINT
  8
寸法
 10
36.021973
 20
-76.17062
  0
TEXT
  7
TextStyle03
  8
寸法
  6
CONTINUOUS
 10
35.625
 20
-74.8875
  1
224
 40
3.0
 50
90.0
 72
     5
 11
35.625
 21
-70.0125
  0
ENDBLK
  0
BLOCK
  2
*DIM_0027
 70
    65
 10
0.0
 20
0.0
  0
LINE
  8
寸法
  6
CONTINUOUS
 10
17.4035
 20
-68.70412
 11
36.021973
 21
-68.70412
  0
LINE
  8
寸法
  6
CONTINUOUS
 10
17.4035
 20
-53.70412
 11
36.021973
 21
-53.70412
  0
LINE
  8
寸法
  6
CONTINUOUS
 10
36.021973
 20
-68.70412
 11
36.021973
 21
-53.70412
  0
POINT
  8
寸法
 10
36.021973
 20
-68.70412
  0
POINT
  8
寸法
 10
36.021973
 20
-53.70412
  0
TEXT
  7
TextStyle03
  8
寸法
  6
CONTINUOUS
 10
39.0
 20
-70.31875
  1
上昇388以上
 40
3.0
 50
90.0
 72
     5
 11
39.0
 21
-52.13125
  0
ENDBLK
  0
BLOCK
  2
*DIM_0028
 70
    65
 10
0.0
 20
0.0
  0
LINE
  8
寸法
  6
CONTINUOUS
 10
14.683195
 20
-68.209977
 11
14.683195
 21
-32.437345
  0
LINE
  8
寸法
  6
CONTINUOUS
 10
12.4035
 20
-32.437345
 11
14.683195
 21
-32.437345
  0
POINT
  8
寸法
 10
12.4035
 20
-32.437345
  0
POINT
  8
寸法
 10
14.683195
 20
-32.437345
  0
TEXT
  7
TextStyle03
  8
寸法
  6
CONTINUOUS
 10
16.99375
 20
-32.075
  1
68.4
 40
3.0
 72
     5
 11
23.55625
 21
-32.075
  0
ENDBLK
  0
BLOCK
  2
*DIM_0029
 70
    65
 10
0.0
 20
0.0
  0
LINE
  8
寸法
  6
CONTINUOUS
 10
-89.87619
 20
-68.209977
 11
-89.87619
 21
-32.437345
  0
LINE
  8
寸法
  6
CONTINUOUS
 10
-87.596495
 20
-32.437345
 11
-89.87619
 21
-32.437345
  0
POINT
  8
寸法
 10
-87.596495
 20
-32.437345
  0
POINT
  8
寸法
 10
-89.87619
 20
-32.437345
  0
TEXT
  7
TextStyle03
  8
寸法
  6
CONTINUOUS
 10
-98.78125
 20
-32.075
  1
68.4
 40
3.0
 72
     5
 11
-92.21875
 21
-32.075
  0
ENDBLK
  0
BLOCK
  2
*DIM_0030
 70
    65
 10
0.0
 20
0.0
  0
LINE
  8
寸法
  6
CONTINUOUS
 10
12.4035
 20
-32.437345
 11
-87.596495
 21
-32.437345
  0
POINT
  8
寸法
 10
12.4035
 20
-32.437345
  0
POINT
  8
寸法
 10
-87.596495
 20
-32.437345
  0
TEXT
  7
TextStyle03
  8
寸法
  6
CONTINUOUS
 10
-49.31875
 20
-32.075
  1
呼称寸法　3000
 40
3.0
 72
     5
 11
-25.88125
 21
-32.075
  0
ENDBLK
  0
BLOCK
  2
*GRP_0031
 70
    65
 10
0.0
 20
0.0
  0
LINE
  8
補助線
  6
BYBLOCK
 62
    64
 10
-84.197533
 20
-74.296548
 11
-84.329418
 21
-74.398452
  0
LINE
  8
補助線
  6
BYBLOCK
 62
    64
 10
-84.314427
 20
-74.281557
 11
-84.212522
 21
-74.413443
  0
LINE
  8
補助線
  6
BYBLOCK
 62
    64
 10
-72.786907
 20
-65.479857
 11
-72.918793
 21
-65.58176
  0
LINE
  8
補助線
  6
BYBLOCK
 62
    64
 10
-72.903802
 20
-65.464865
 11
-72.8019
 21
-65.59675
  0
LINE
  8
補助線
  6
BYBLOCK
 62
    64
 10
-61.508165
 20
-56.76507
 11
-61.376285
 21
-56.663165
  0
LINE
  8
補助線
  6
BYBLOCK
 62
    64
 10
-61.493178
 20
-56.648172
 11
-61.391275
 21
-56.78006
  0
LINE
  8
型材断面
  6
CONTINUOUS
 10
-85.03676
 20
-73.891885
 11
-85.126703
 21
-74.59325
  0
LINE
  8
型材断面
  6
CONTINUOUS
 10
-85.126703
 20
-74.59325
 11
-84.719088
 21
-75.120788
  0
LINE
  8
型材断面
  6
CONTINUOUS
 10
-84.719088
 20
-75.120788
 11
-84.017725
 21
-75.210728
  0
LINE
  8
型材断面
  6
CONTINUOUS
 10
-61.687975
 20
-55.85089
 11
-60.986612
 21
-55.940833
  0
LINE
  8
型材断面
  6
CONTINUOUS
 10
-60.986612
 20
-55.940833
 11
-60.578997
 21
-56.46837
  0
LINE
  8
型材断面
  6
CONTINUOUS
 10
-60.578997
 20
-56.46837
 11
-60.66894
 21
-57.169735
  0
LINE
  8
型材断面
  6
CONTINUOUS
 10
-84.017725
 20
-75.210728
 11
-60.66894
 21
-57.169735
  0
LINE
  8
型材断面
  6
CONTINUOUS
 10
-85.03676
 20
-73.891885
 11
-61.687975
 21
-55.85089
  0
CIRCLE
  8
ボルト／ビス
  6
CONTINUOUS
 10
-84.263475
 20
-74.3475
 40
0.250185
  0
CIRCLE
  8
ボルト／ビス
  6
CONTINUOUS
 10
-84.263475
 20
-74.3475
 40
0.301025
  0
LINE
  8
ボルト／ビス
  6
CONTINUOUS
 62
    64
 10
-84.51141
 20
-74.38099
 11
-84.416445
 21
-74.149528
  0
LINE
  8
ボルト／ビス
  6
CONTINUOUS
 62
    64
 10
-84.16851
 20
-74.116038
 11
-84.416445
 21
-74.149528
  0
LINE
  8
ボルト／ビス
  6
CONTINUOUS
 62
    64
 10
-84.35844
 20
-74.578963
 11
-84.110505
 21
-74.545472
  0
LINE
  8
ボルト／ビス
  6
CONTINUOUS
 62
    64
 10
-84.01554
 20
-74.31401
 11
-84.110505
 21
-74.545472
  0
LINE
  8
ボルト／ビス
  6
CONTINUOUS
 62
    64
 10
-84.51141
 20
-74.38099
 11
-84.35844
 21
-74.578963
  0
LINE
  8
ボルト／ビス
  6
CONTINUOUS
 62
    64
 10
-84.16851
 20
-74.116038
 11
-84.01554
 21
-74.31401
  0
CIRCLE
  8
ボルト／ビス
  6
CONTINUOUS
 62
    64
 10
-84.263475
 20
-74.3475
 40
0.216668
  0
CIRCLE
  8
ボルト／ビス
  6
CONTINUOUS
 10
-72.85285
 20
-65.53081
 40
0.250185
  0
CIRCLE
  8
ボルト／ビス
  6
CONTINUOUS
 10
-72.85285
 20
-65.53081
 40
0.301025
  0
LINE
  8
ボルト／ビス
  6
CONTINUOUS
 62
    64
 10
-73.100785
 20
-65.564297
 11
-73.00582
 21
-65.332838
  0
LINE
  8
ボルト／ビス
  6
CONTINUOUS
 62
    64
 10
-72.757885
 20
-65.299348
 11
-73.00582
 21
-65.332838
  0
LINE
  8
ボルト／ビス
  6
CONTINUOUS
 62
    64
 10
-72.947818
 20
-65.76227
 11
-72.699882
 21
-65.72878
  0
LINE
  8
ボルト／ビス
  6
CONTINUOUS
 62
    64
 10
-72.604915
 20
-65.49732
 11
-72.699882
 21
-65.72878
  0
LINE
  8
ボルト／ビス
  6
CONTINUOUS
 62
    64
 10
-73.100785
 20
-65.564297
 11
-72.947818
 21
-65.76227
  0
LINE
  8
ボルト／ビス
  6
CONTINUOUS
 62
    64
 10
-72.757885
 20
-65.299348
 11
-72.604915
 21
-65.49732
  0
CIRCLE
  8
ボルト／ビス
  6
CONTINUOUS
 62
    64
 10
-72.85285
 20
-65.53081
 40
0.216668
  0
CIRCLE
  8
ボルト／ビス
  6
CONTINUOUS
 10
-61.442227
 20
-56.714117
 40
0.250185
  0
CIRCLE
  8
ボルト／ビス
  6
CONTINUOUS
 10
-61.442227
 20
-56.714117
 40
0.301025
  0
LINE
  8
ボルト／ビス
  6
CONTINUOUS
 62
    64
 10
-61.34726
 20
-56.482655
 11
-61.595193
 21
-56.516145
  0
LINE
  8
ボルト／ビス
  6
CONTINUOUS
 62
    64
 10
-61.690157
 20
-56.747607
 11
-61.595193
 21
-56.516145
  0
LINE
  8
ボルト／ビス
  6
CONTINUOUS
 62
    64
 10
-61.194293
 20
-56.680627
 11
-61.289257
 21
-56.91209
  0
LINE
  8
ボルト／ビス
  6
CONTINUOUS
 62
    64
 10
-61.537193
 20
-56.94558
 11
-61.289257
 21
-56.91209
  0
LINE
  8
ボルト／ビス
  6
CONTINUOUS
 62
    64
 10
-61.34726
 20
-56.482655
 11
-61.194293
 21
-56.680627
  0
LINE
  8
ボルト／ビス
  6
CONTINUOUS
 62
    64
 10
-61.690157
 20
-56.747607
 11
-61.537193
 21
-56.94558
  0
CIRCLE
  8
ボルト／ビス
  6
CONTINUOUS
 62
    64
 10
-61.442227
 20
-56.714117
 40
0.216668
  0
ENDBLK
  0
BLOCK
  2
*GRP_0032
 70
    65
 10
0.0
 20
0.0
  0
LINE
  8
補助線
  6
BYBLOCK
 62
    64
 10
-61.508168
 20
-74.296548
 11
-61.376282
 21
-74.398452
  0
LINE
  8
補助線
  6
BYBLOCK
 62
    64
 10
-61.391273
 20
-74.281557
 11
-61.493178
 21
-74.413443
  0
LINE
  8
補助線
  6
BYBLOCK
 62
    64
 10
-72.918793
 20
-65.479857
 11
-72.786907
 21
-65.58176
  0
LINE
  8
補助線
  6
BYBLOCK
 62
    64
 10
-72.801897
 20
-65.464865
 11
-72.9038
 21
-65.59675
  0
LINE
  8
補助線
  6
BYBLOCK
 62
    64
 10
-84.197535
 20
-56.76507
 11
-84.329415
 21
-56.663165
  0
LINE
  8
補助線
  6
BYBLOCK
 62
    64
 10
-84.212522
 20
-56.648172
 11
-84.314425
 21
-56.78006
  0
LINE
  8
型材断面
  6
CONTINUOUS
 10
-60.66894
 20
-73.891885
 11
-60.578997
 21
-74.59325
  0
LINE
  8
型材断面
  6
CONTINUOUS
 10
-60.578997
 20
-74.59325
 11
-60.986612
 21
-75.120788
  0
LINE
  8
型材断面
  6
CONTINUOUS
 10
-60.986612
 20
-75.120788
 11
-61.687975
 21
-75.210728
  0
LINE
  8
型材断面
  6
CONTINUOUS
 10
-84.017725
 20
-55.85089
 11
-84.719088
 21
-55.940833
  0
LINE
  8
型材断面
  6
CONTINUOUS
 10
-84.719088
 20
-55.940833
 11
-85.126703
 21
-56.46837
  0
LINE
  8
型材断面
  6
CONTINUOUS
 10
-85.126703
 20
-56.46837
 11
-85.03676
 21
-57.169735
  0
LINE
  8
型材断面
  6
CONTINUOUS
 10
-61.687975
 20
-75.210728
 11
-85.03676
 21
-57.169735
  0
LINE
  8
型材断面
  6
CONTINUOUS
 10
-60.66894
 20
-73.891885
 11
-84.017725
 21
-55.85089
  0
CIRCLE
  8
ボルト／ビス
  6
CONTINUOUS
 10
-61.442225
 20
-74.3475
 40
0.250185
  0
CIRCLE
  8
ボルト／ビス
  6
CONTINUOUS
 10
-61.442225
 20
-74.3475
 40
0.301025
  0
LINE
  8
ボルト／ビス
  6
CONTINUOUS
 62
    64
 10
-61.19429
 20
-74.38099
 11
-61.289255
 21
-74.149528
  0
LINE
  8
ボルト／ビス
  6
CONTINUOUS
 62
    64
 10
-61.53719
 20
-74.116038
 11
-61.289255
 21
-74.149528
  0
LINE
  8
ボルト／ビス
  6
CONTINUOUS
 62
    64
 10
-61.34726
 20
-74.578963
 11
-61.595195
 21
-74.545472
  0
LINE
  8
ボルト／ビス
  6
CONTINUOUS
 62
    64
 10
-61.69016
 20
-74.31401
 11
-61.595195
 21
-74.545472
  0
LINE
  8
ボルト／ビス
  6
CONTINUOUS
 62
    64
 10
-61.19429
 20
-74.38099
 11
-61.34726
 21
-74.578963
  0
LINE
  8
ボルト／ビス
  6
CONTINUOUS
 62
    64
 10
-61.53719
 20
-74.116038
 11
-61.69016
 21
-74.31401
  0
CIRCLE
  8
ボルト／ビス
  6
CONTINUOUS
 62
    64
 10
-61.442225
 20
-74.3475
 40
0.216668
  0
CIRCLE
  8
ボルト／ビス
  6
CONTINUOUS
 10
-72.85285
 20
-65.53081
 40
0.250185
  0
CIRCLE
  8
ボルト／ビス
  6
CONTINUOUS
 10
-72.85285
 20
-65.53081
 40
0.301025
  0
LINE
  8
ボルト／ビス
  6
CONTINUOUS
 62
    64
 10
-72.604915
 20
-65.564297
 11
-72.69988
 21
-65.332838
  0
LINE
  8
ボルト／ビス
  6
CONTINUOUS
 62
    64
 10
-72.947815
 20
-65.299348
 11
-72.69988
 21
-65.332838
  0
LINE
  8
ボルト／ビス
  6
CONTINUOUS
 62
    64
 10
-72.757882
 20
-65.76227
 11
-73.005818
 21
-65.72878
  0
LINE
  8
ボルト／ビス
  6
CONTINUOUS
 62
    64
 10
-73.100785
 20
-65.49732
 11
-73.005818
 21
-65.72878
  0
LINE
  8
ボルト／ビス
  6
CONTINUOUS
 62
    64
 10
-72.604915
 20
-65.564297
 11
-72.757882
 21
-65.76227
  0
LINE
  8
ボルト／ビス
  6
CONTINUOUS
 62
    64
 10
-72.947815
 20
-65.299348
 11
-73.100785
 21
-65.49732
  0
CIRCLE
  8
ボルト／ビス
  6
CONTINUOUS
 62
    64
 10
-72.85285
 20
-65.53081
 40
0.216668
  0
CIRCLE
  8
ボルト／ビス
  6
CONTINUOUS
 10
-84.263472
 20
-56.714117
 40
0.250185
  0
CIRCLE
  8
ボルト／ビス
  6
CONTINUOUS
 10
-84.263472
 20
-56.714117
 40
0.301025
  0
LINE
  8
ボルト／ビス
  6
CONTINUOUS
 62
    64
 10
-84.35844
 20
-56.482655
 11
-84.110508
 21
-56.516145
  0
LINE
  8
ボルト／ビス
  6
CONTINUOUS
 62
    64
 10
-84.015542
 20
-56.747607
 11
-84.110508
 21
-56.516145
  0
LINE
  8
ボルト／ビス
  6
CONTINUOUS
 62
    64
 10
-84.511408
 20
-56.680627
 11
-84.416442
 21
-56.91209
  0
LINE
  8
ボルト／ビス
  6
CONTINUOUS
 62
    64
 10
-84.168508
 20
-56.94558
 11
-84.416442
 21
-56.91209
  0
LINE
  8
ボルト／ビス
  6
CONTINUOUS
 62
    64
 10
-84.35844
 20
-56.482655
 11
-84.511408
 21
-56.680627
  0
LINE
  8
ボルト／ビス
  6
CONTINUOUS
 62
    64
 10
-84.015542
 20
-56.747607
 11
-84.168508
 21
-56.94558
  0
CIRCLE
  8
ボルト／ビス
  6
CONTINUOUS
 62
    64
 10
-84.263472
 20
-56.714117
 40
0.216668
  0
ENDBLK
  0
BLOCK
  2
*GRP_0033
 70
    65
 10
0.0
 20
0.0
  0
LINE
  8
補助線
  6
BYBLOCK
 62
    64
 10
9.003917
 20
-74.296548
 11
9.135802
 21
-74.398452
  0
LINE
  8
補助線
  6
BYBLOCK
 62
    64
 10
9.120812
 20
-74.281557
 11
9.018908
 21
-74.413443
  0
LINE
  8
補助線
  6
BYBLOCK
 62
    64
 10
-2.406707
 20
-65.479857
 11
-2.274823
 21
-65.58176
  0
LINE
  8
補助線
  6
BYBLOCK
 62
    64
 10
-2.289812
 20
-65.464865
 11
-2.391715
 21
-65.59675
  0
LINE
  8
補助線
  6
BYBLOCK
 62
    64
 10
-13.68545
 20
-56.76507
 11
-13.81733
 21
-56.663165
  0
LINE
  8
補助線
  6
BYBLOCK
 62
    64
 10
-13.700438
 20
-56.648172
 11
-13.80234
 21
-56.78006
  0
LINE
  8
型材断面
  6
CONTINUOUS
 10
9.843145
 20
-73.891885
 11
9.933087
 21
-74.59325
  0
LINE
  8
型材断面
  6
CONTINUOUS
 10
9.933087
 20
-74.59325
 11
9.525473
 21
-75.120788
  0
LINE
  8
型材断面
  6
CONTINUOUS
 10
9.525473
 20
-75.120788
 11
8.82411
 21
-75.210728
  0
LINE
  8
型材断面
  6
CONTINUOUS
 10
-13.50564
 20
-55.85089
 11
-14.207002
 21
-55.940833
  0
LINE
  8
型材断面
  6
CONTINUOUS
 10
-14.207002
 20
-55.940833
 11
-14.614617
 21
-56.46837
  0
LINE
  8
型材断面
  6
CONTINUOUS
 10
-14.614617
 20
-56.46837
 11
-14.524675
 21
-57.169735
  0
LINE
  8
型材断面
  6
CONTINUOUS
 10
8.82411
 20
-75.210728
 11
-14.524675
 21
-57.169735
  0
LINE
  8
型材断面
  6
CONTINUOUS
 10
9.843145
 20
-73.891885
 11
-13.50564
 21
-55.85089
  0
CIRCLE
  8
ボルト／ビス
  6
CONTINUOUS
 10
9.06986
 20
-74.3475
 40
0.250185
  0
CIRCLE
  8
ボルト／ビス
  6
CONTINUOUS
 10
9.06986
 20
-74.3475
 40
0.301025
  0
LINE
  8
ボルト／ビス
  6
CONTINUOUS
 62
    64
 10
9.317795
 20
-74.38099
 11
9.22283
 21
-74.149528
  0
LINE
  8
ボルト／ビス
  6
CONTINUOUS
 62
    64
 10
8.974895
 20
-74.116038
 11
9.22283
 21
-74.149528
  0
LINE
  8
ボルト／ビス
  6
CONTINUOUS
 62
    64
 10
9.164825
 20
-74.578963
 11
8.91689
 21
-74.545472
  0
LINE
  8
ボルト／ビス
  6
CONTINUOUS
 62
    64
 10
8.821925
 20
-74.31401
 11
8.91689
 21
-74.545472
  0
LINE
  8
ボルト／ビス
  6
CONTINUOUS
 62
    64
 10
9.317795
 20
-74.38099
 11
9.164825
 21
-74.578963
  0
LINE
  8
ボルト／ビス
  6
CONTINUOUS
 62
    64
 10
8.974895
 20
-74.116038
 11
8.821925
 21
-74.31401
  0
CIRCLE
  8
ボルト／ビス
  6
CONTINUOUS
 62
    64
 10
9.06986
 20
-74.3475
 40
0.216668
  0
CIRCLE
  8
ボルト／ビス
  6
CONTINUOUS
 10
-2.340765
 20
-65.53081
 40
0.250185
  0
CIRCLE
  8
ボルト／ビス
  6
CONTINUOUS
 10
-2.340765
 20
-65.53081
 40
0.301025
  0
LINE
  8
ボルト／ビス
  6
CONTINUOUS
 62
    64
 10
-2.09283
 20
-65.564297
 11
-2.187795
 21
-65.332838
  0
LINE
  8
ボルト／ビス
  6
CONTINUOUS
 62
    64
 10
-2.43573
 20
-65.299348
 11
-2.187795
 21
-65.332838
  0
LINE
  8
ボルト／ビス
  6
CONTINUOUS
 62
    64
 10
-2.245798
 20
-65.76227
 11
-2.493732
 21
-65.72878
  0
LINE
  8
ボルト／ビス
  6
CONTINUOUS
 62
    64
 10
-2.5887
 20
-65.49732
 11
-2.493732
 21
-65.72878
  0
LINE
  8
ボルト／ビス
  6
CONTINUOUS
 62
    64
 10
-2.09283
 20
-65.564297
 11
-2.245798
 21
-65.76227
  0
LINE
  8
ボルト／ビス
  6
CONTINUOUS
 62
    64
 10
-2.43573
 20
-65.299348
 11
-2.5887
 21
-65.49732
  0
CIRCLE
  8
ボルト／ビス
  6
CONTINUOUS
 62
    64
 10
-2.340765
 20
-65.53081
 40
0.216668
  0
CIRCLE
  8
ボルト／ビス
  6
CONTINUOUS
 10
-13.751387
 20
-56.714117
 40
0.250185
  0
CIRCLE
  8
ボルト／ビス
  6
CONTINUOUS
 10
-13.751387
 20
-56.714117
 40
0.301025
  0
LINE
  8
ボルト／ビス
  6
CONTINUOUS
 62
    64
 10
-13.846355
 20
-56.482655
 11
-13.598423
 21
-56.516145
  0
LINE
  8
ボルト／ビス
  6
CONTINUOUS
 62
    64
 10
-13.503457
 20
-56.747607
 11
-13.598423
 21
-56.516145
  0
LINE
  8
ボルト／ビス
  6
CONTINUOUS
 62
    64
 10
-13.999323
 20
-56.680627
 11
-13.904357
 21
-56.91209
  0
LINE
  8
ボルト／ビス
  6
CONTINUOUS
 62
    64
 10
-13.656423
 20
-56.94558
 11
-13.904357
 21
-56.91209
  0
LINE
  8
ボルト／ビス
  6
CONTINUOUS
 62
    64
 10
-13.846355
 20
-56.482655
 11
-13.999323
 21
-56.680627
  0
LINE
  8
ボルト／ビス
  6
CONTINUOUS
 62
    64
 10
-13.503457
 20
-56.747607
 11
-13.656423
 21
-56.94558
  0
CIRCLE
  8
ボルト／ビス
  6
CONTINUOUS
 62
    64
 10
-13.751387
 20
-56.714117
 40
0.216668
  0
ENDBLK
  0
BLOCK
  2
*GRP_0034
 70
    65
 10
0.0
 20
0.0
  0
LINE
  8
補助線
  6
BYBLOCK
 62
    64
 10
-13.685448
 20
-74.296548
 11
-13.817332
 21
-74.398452
  0
LINE
  8
補助線
  6
BYBLOCK
 62
    64
 10
-13.802343
 20
-74.281557
 11
-13.700438
 21
-74.413443
  0
LINE
  8
補助線
  6
BYBLOCK
 62
    64
 10
-2.274823
 20
-65.479857
 11
-2.406707
 21
-65.58176
  0
LINE
  8
補助線
  6
BYBLOCK
 62
    64
 10
-2.391717
 20
-65.464865
 11
-2.289815
 21
-65.59675
  0
LINE
  8
補助線
  6
BYBLOCK
 62
    64
 10
9.00392
 20
-56.76507
 11
9.1358
 21
-56.663165
  0
LINE
  8
補助線
  6
BYBLOCK
 62
    64
 10
9.018908
 20
-56.648172
 11
9.12081
 21
-56.78006
  0
LINE
  8
型材断面
  6
CONTINUOUS
 10
-14.524675
 20
-73.891885
 11
-14.614617
 21
-74.59325
  0
LINE
  8
型材断面
  6
CONTINUOUS
 10
-14.614617
 20
-74.59325
 11
-14.207002
 21
-75.120788
  0
LINE
  8
型材断面
  6
CONTINUOUS
 10
-14.207002
 20
-75.120788
 11
-13.50564
 21
-75.210728
  0
LINE
  8
型材断面
  6
CONTINUOUS
 10
8.82411
 20
-55.85089
 11
9.525473
 21
-55.940833
  0
LINE
  8
型材断面
  6
CONTINUOUS
 10
9.525473
 20
-55.940833
 11
9.933087
 21
-56.46837
  0
LINE
  8
型材断面
  6
CONTINUOUS
 10
9.933087
 20
-56.46837
 11
9.843145
 21
-57.169735
  0
LINE
  8
型材断面
  6
CONTINUOUS
 10
-13.50564
 20
-75.210728
 11
9.843145
 21
-57.169735
  0
LINE
  8
型材断面
  6
CONTINUOUS
 10
-14.524675
 20
-73.891885
 11
8.82411
 21
-55.85089
  0
CIRCLE
  8
ボルト／ビス
  6
CONTINUOUS
 10
-13.75139
 20
-74.3475
 40
0.250185
  0
CIRCLE
  8
ボルト／ビス
  6
CONTINUOUS
 10
-13.75139
 20
-74.3475
 40
0.301025
  0
LINE
  8
ボルト／ビス
  6
CONTINUOUS
 62
    64
 10
-13.999325
 20
-74.38099
 11
-13.90436
 21
-74.149528
  0
LINE
  8
ボルト／ビス
  6
CONTINUOUS
 62
    64
 10
-13.656425
 20
-74.116038
 11
-13.90436
 21
-74.149528
  0
LINE
  8
ボルト／ビス
  6
CONTINUOUS
 62
    64
 10
-13.846355
 20
-74.578963
 11
-13.59842
 21
-74.545472
  0
LINE
  8
ボルト／ビス
  6
CONTINUOUS
 62
    64
 10
-13.503455
 20
-74.31401
 11
-13.59842
 21
-74.545472
  0
LINE
  8
ボルト／ビス
  6
CONTINUOUS
 62
    64
 10
-13.999325
 20
-74.38099
 11
-13.846355
 21
-74.578963
  0
LINE
  8
ボルト／ビス
  6
CONTINUOUS
 62
    64
 10
-13.656425
 20
-74.116038
 11
-13.503455
 21
-74.31401
  0
CIRCLE
  8
ボルト／ビス
  6
CONTINUOUS
 62
    64
 10
-13.75139
 20
-74.3475
 40
0.216668
  0
CIRCLE
  8
ボルト／ビス
  6
CONTINUOUS
 10
-2.340765
 20
-65.53081
 40
0.250185
  0
CIRCLE
  8
ボルト／ビス
  6
CONTINUOUS
 10
-2.340765
 20
-65.53081
 40
0.301025
  0
LINE
  8
ボルト／ビス
  6
CONTINUOUS
 62
    64
 10
-2.5887
 20
-65.564297
 11
-2.493735
 21
-65.332838
  0
LINE
  8
ボルト／ビス
  6
CONTINUOUS
 62
    64
 10
-2.2458
 20
-65.299348
 11
-2.493735
 21
-65.332838
  0
LINE
  8
ボルト／ビス
  6
CONTINUOUS
 62
    64
 10
-2.435732
 20
-65.76227
 11
-2.187798
 21
-65.72878
  0
LINE
  8
ボルト／ビス
  6
CONTINUOUS
 62
    64
 10
-2.09283
 20
-65.49732
 11
-2.187798
 21
-65.72878
  0
LINE
  8
ボルト／ビス
  6
CONTINUOUS
 62
    64
 10
-2.5887
 20
-65.564297
 11
-2.435732
 21
-65.76227
  0
LINE
  8
ボルト／ビス
  6
CONTINUOUS
 62
    64
 10
-2.2458
 20
-65.299348
 11
-2.09283
 21
-65.49732
  0
CIRCLE
  8
ボルト／ビス
  6
CONTINUOUS
 62
    64
 10
-2.340765
 20
-65.53081
 40
0.216668
  0
CIRCLE
  8
ボルト／ビス
  6
CONTINUOUS
 10
9.069858
 20
-56.714117
 40
0.250185
  0
CIRCLE
  8
ボルト／ビス
  6
CONTINUOUS
 10
9.069858
 20
-56.714117
 40
0.301025
  0
LINE
  8
ボルト／ビス
  6
CONTINUOUS
 62
    64
 10
9.164825
 20
-56.482655
 11
8.916892
 21
-56.516145
  0
LINE
  8
ボルト／ビス
  6
CONTINUOUS
 62
    64
 10
8.821927
 20
-56.747607
 11
8.916892
 21
-56.516145
  0
LINE
  8
ボルト／ビス
  6
CONTINUOUS
 62
    64
 10
9.317792
 20
-56.680627
 11
9.222827
 21
-56.91209
  0
LINE
  8
ボルト／ビス
  6
CONTINUOUS
 62
    64
 10
8.974892
 20
-56.94558
 11
9.222827
 21
-56.91209
  0
LINE
  8
ボルト／ビス
  6
CONTINUOUS
 62
    64
 10
9.164825
 20
-56.482655
 11
9.317792
 21
-56.680627
  0
LINE
  8
ボルト／ビス
  6
CONTINUOUS
 62
    64
 10
8.821927
 20
-56.747607
 11
8.974892
 21
-56.94558
  0
CIRCLE
  8
ボルト／ビス
  6
CONTINUOUS
 62
    64
 10
9.069858
 20
-56.714117
 40
0.216668
  0
ENDBLK
  0
BLOCK
  2
*DIM_0035
 70
    65
 10
0.0
 20
0.0
  0
LINE
  8
寸法
  6
CONTINUOUS
 10
115.397833
 20
-23.594942
 11
115.397833
 21
-12.69195
  0
LINE
  8
寸法
  6
CONTINUOUS
 10
147.611168
 20
-23.594942
 11
147.611168
 21
-12.69195
  0
LINE
  8
寸法
  6
CONTINUOUS
 10
115.397833
 20
-12.69195
 11
147.611168
 21
-12.69195
  0
POINT
  8
寸法
 10
115.397833
 20
-12.69195
  0
POINT
  8
寸法
 10
147.611168
 20
-12.69195
  0
TEXT
  7
TextStyle03
  8
寸法
  6
CONTINUOUS
 10
127.375
 20
-12.325
  1
966.4
 40
3.0
 72
     5
 11
135.625
 21
-12.325
  0
ENDBLK
  0
BLOCK
  2
*DIM_0036
 70
    65
 10
0.0
 20
0.0
  0
LINE
  8
寸法
  6
CONTINUOUS
 10
152.611168
 20
-28.594942
 11
167.178173
 21
-28.594942
  0
LINE
  8
寸法
  6
CONTINUOUS
 10
152.611168
 20
-71.26161
 11
167.178173
 21
-71.26161
  0
LINE
  8
寸法
  6
CONTINUOUS
 10
167.178173
 20
-28.594942
 11
167.178173
 21
-71.26161
  0
POINT
  8
寸法
 10
167.178173
 20
-28.594942
  0
POINT
  8
寸法
 10
167.178173
 20
-71.26161
  0
TEXT
  7
TextStyle03
  8
寸法
  6
CONTINUOUS
 10
166.8
 20
-53.23125
  1
1280
 40
3.0
 50
90.0
 72
     5
 11
166.8
 21
-46.66875
  0
ENDBLK
  0
BLOCK
  2
M8横
 70
    64
 10
-88.370132
 20
140.837665
  0
LINE
  8
ボルト／ビス
 10
-95.870132
 20
140.837665
 11
-80.870132
 21
140.837665
  0
LINE
  8
ボルト／ビス
 10
-80.870132
 20
145.837665
 11
-81.370132
 21
146.337665
  0
POLYLINE
  8
ボルト／ビス
 66
     1
  0
VERTEX
  8
ボルト／ビス
 10
-84.120132
 20
146.337665
  0
VERTEX
  8
ボルト／ビス
 10
-84.620132
 20
145.837665
  0
VERTEX
  8
ボルト／ビス
 10
-85.120132
 20
146.337665
  0
SEQEND
  0
POLYLINE
  8
ボルト／ビス
 66
     1
  0
VERTEX
  8
ボルト／ビス
 10
-91.620132
 20
146.337665
  0
VERTEX
  8
ボルト／ビス
 10
-92.120132
 20
145.837665
  0
VERTEX
  8
ボルト／ビス
 10
-92.620132
 20
146.337665
  0
SEQEND
  0
LINE
  8
ボルト／ビス
 10
-95.370132
 20
146.337665
 11
-95.870132
 21
145.837665
  0
LINE
  8
ボルト／ビス
 10
-95.870132
 20
140.837665
 11
-95.870132
 21
145.837665
  0
LINE
  8
ボルト／ビス
 10
-80.870132
 20
140.837665
 11
-80.870132
 21
145.837665
  0
LINE
  8
ボルト／ビス
 10
-95.370132
 20
146.337665
 11
-81.370132
 21
146.337665
  0
LINE
  8
ボルト／ビス
 10
-84.620132
 20
140.837665
 11
-84.620132
 21
145.837665
  0
LINE
  8
ボルト／ビス
 10
-92.120132
 20
140.837665
 11
-92.120132
 21
145.837665
  0
ENDBLK
  0
ENDSEC
  0
SECTION
  2
ENTITIES
  0
POLYLINE
  8
通り芯
  6
CONTINUOUS
 66
     1
 70
     1
  0
VERTEX
  8
通り芯
 10
-210.0
 20
-148.5
  0
VERTEX
  8
通り芯
 10
210.0
 20
-148.5
  0
VERTEX
  8
通り芯
 10
210.0
 20
148.5
  0
VERTEX
  8
通り芯
 10
-210.0
 20
148.5
  0
SEQEND
  0
INSERT
  2
*GRP_0001
  8
型材断面
  6
CONTINUOUS
 10
0.0
 20
0.0
  0
POLYLINE
  8
型材断面
  6
CONTINUOUS
 66
     1
 70
     1
  0
VERTEX
  8
型材断面
 10
20.695927
 20
-94.850355
  0
VERTEX
  8
型材断面
 10
-27.982748
 20
-94.850355
  0
VERTEX
  8
型材断面
 10
-27.982748
 20
-111.19502
  0
VERTEX
  8
型材断面
 10
20.695927
 20
-111.19502
  0
SEQEND
  0
LINE
  8
型材断面
  6
CONTINUOUS
 10
162.97617
 20
26.869993
 11
162.97617
 21
26.919993
  0
LINE
  8
型材断面
  6
CONTINUOUS
 10
162.47617
 20
28.536658
 11
161.742835
 21
28.536658
  0
LINE
  8
型材断面
  6
CONTINUOUS
 62
    47
 10
169.709335
 20
27.136962
 11
169.709335
 21
27.186962
  0
LINE
  8
型材断面
  6
CONTINUOUS
 62
    47
 10
169.709335
 20
27.136962
 11
169.209335
 21
27.136962
  0
LINE
  8
型材断面
  6
CONTINUOUS
 10
163.459335
 20
28.486962
 11
163.459335
 21
27.040298
  0
LINE
  8
型材断面
  6
CONTINUOUS
 10
163.909335
 20
27.040298
 11
163.459335
 21
27.040298
  0
LINE
  8
型材断面
  6
CONTINUOUS
 62
    47
 10
166.582028
 20
26.306963
 11
166.582028
 21
26.256963
  0
LINE
  8
型材断面
  6
CONTINUOUS
 62
    47
 10
166.582028
 20
26.256963
 11
166.248695
 21
26.256963
  0
LINE
  8
型材断面
  6
CONTINUOUS
 62
    47
 10
166.248695
 20
26.256963
 11
166.148695
 21
27.040298
  0
LINE
  8
型材断面
  6
CONTINUOUS
 62
    47
 10
165.74267
 20
27.040298
 11
166.148695
 21
27.040298
  0
LINE
  8
型材断面
  6
CONTINUOUS
 62
    47
 10
165.74267
 20
26.570298
 11
163.909335
 21
26.570298
  0
LINE
  8
型材断面
  6
CONTINUOUS
 10
162.97617
 20
26.869993
 11
162.47617
 21
26.869993
  0
LINE
  8
型材断面
  6
CONTINUOUS
 10
163.459335
 20
28.486962
 11
162.97617
 21
28.486962
  0
LINE
  8
型材断面
  6
CONTINUOUS
 62
    47
 10
169.209335
 20
26.570298
 11
166.582028
 21
26.570298
  0
INSERT
  2
*GRP_0002
  8
型材断面
  6
DOT
 10
0.0
 20
0.0
  0
INSERT
  2
*GRP_0003
  8
型材断面
  6
DOT
 10
0.0
 20
0.0
  0
LINE
  8
型材断面
  6
CONTINUOUS
 10
169.209335
 20
26.570298
 11
169.209335
 21
50.203325
  0
LINE
  8
型材断面
  6
CONTINUOUS
 10
169.709335
 20
27.136962
 11
169.709335
 21
50.203325
  0
LINE
  8
型材断面
  6
CONTINUOUS
 10
166.582028
 20
26.256963
 11
166.582028
 21
50.203325
  0
LINE
  8
型材断面
  6
CONTINUOUS
 10
166.248695
 20
26.256963
 11
166.248695
 21
50.203325
  0
LINE
  8
型材断面
  6
CONTINUOUS
 10
166.148695
 20
27.040298
 11
166.148695
 21
50.203325
  0
LINE
  8
型材断面
  6
CONTINUOUS
 10
165.74267
 20
26.570298
 11
165.74267
 21
50.203325
  0
LINE
  8
型材断面
  6
CONTINUOUS
 10
162.97617
 20
26.869993
 11
162.97617
 21
50.203325
  0
LINE
  8
型材断面
  6
CONTINUOUS
 10
161.742835
 20
28.536658
 11
161.742835
 21
50.203325
  0
LINE
  8
型材断面
  6
CONTINUOUS
 10
162.47617
 20
26.869993
 11
162.47617
 21
50.203325
  0
LINE
  8
型材断面
  6
CONTINUOUS
 10
163.459335
 20
27.040298
 11
163.459335
 21
50.203325
  0
LINE
  8
型材断面
  6
CONTINUOUS
 10
163.909335
 20
26.570298
 11
163.909335
 21
50.203325
  0
LINE
  8
型材断面
  6
CONTINUOUS
 10
162.97617
 20
73.53666
 11
162.97617
 21
73.48666
  0
LINE
  8
型材断面
  6
CONTINUOUS
 10
162.47617
 20
71.869993
 11
161.742835
 21
71.869993
  0
LINE
  8
型材断面
  6
CONTINUOUS
 62
    47
 10
169.709335
 20
73.269687
 11
169.709335
 21
73.219687
  0
LINE
  8
型材断面
  6
CONTINUOUS
 62
    47
 10
169.709335
 20
73.269687
 11
169.209335
 21
73.269687
  0
LINE
  8
型材断面
  6
CONTINUOUS
 10
163.459335
 20
71.919687
 11
163.459335
 21
73.366355
  0
LINE
  8
型材断面
  6
CONTINUOUS
 10
163.909335
 20
73.366355
 11
163.459335
 21
73.366355
  0
LINE
  8
型材断面
  6
CONTINUOUS
 62
    47
 10
166.582028
 20
74.099688
 11
166.582028
 21
74.149688
  0
LINE
  8
型材断面
  6
CONTINUOUS
 62
    47
 10
166.582028
 20
74.149688
 11
166.248695
 21
74.149688
  0
LINE
  8
型材断面
  6
CONTINUOUS
 62
    47
 10
166.248695
 20
74.149688
 11
166.148695
 21
73.366355
  0
LINE
  8
型材断面
  6
CONTINUOUS
 62
    47
 10
165.74267
 20
73.366355
 11
166.148695
 21
73.366355
  0
LINE
  8
型材断面
  6
CONTINUOUS
 62
    47
 10
165.74267
 20
73.836355
 11
163.909335
 21
73.836355
  0
LINE
  8
型材断面
  6
CONTINUOUS
 10
162.97617
 20
73.53666
 11
162.47617
 21
73.53666
  0
LINE
  8
型材断面
  6
CONTINUOUS
 10
163.459335
 20
71.919687
 11
162.97617
 21
71.919687
  0
LINE
  8
型材断面
  6
CONTINUOUS
 62
    47
 10
169.209335
 20
73.836355
 11
166.582028
 21
73.836355
  0
INSERT
  2
*GRP_0006
  8
型材断面
  6
DOT
 10
0.0
 20
0.0
  0
INSERT
  2
*GRP_0007
  8
型材断面
  6
DOT
 10
0.0
 20
0.0
  0
LINE
  8
型材断面
  6
CONTINUOUS
 10
169.209335
 20
73.836355
 11
169.209335
 21
50.203325
  0
LINE
  8
型材断面
  6
CONTINUOUS
 10
169.709335
 20
73.269687
 11
169.709335
 21
50.203325
  0
LINE
  8
型材断面
  6
CONTINUOUS
 10
166.582028
 20
74.149688
 11
166.582028
 21
50.203325
  0
LINE
  8
型材断面
  6
CONTINUOUS
 10
166.248695
 20
74.149688
 11
166.248695
 21
50.203325
  0
LINE
  8
型材断面
  6
CONTINUOUS
 10
166.148695
 20
73.366355
 11
166.148695
 21
50.203325
  0
LINE
  8
型材断面
  6
CONTINUOUS
 10
165.74267
 20
73.836355
 11
165.74267
 21
50.203325
  0
LINE
  8
型材断面
  6
CONTINUOUS
 10
162.97617
 20
73.53666
 11
162.97617
 21
50.203325
  0
LINE
  8
型材断面
  6
CONTINUOUS
 10
161.742835
 20
71.869993
 11
161.742835
 21
50.203325
  0
LINE
  8
型材断面
  6
CONTINUOUS
 10
162.47617
 20
73.53666
 11
162.47617
 21
50.203325
  0
LINE
  8
型材断面
  6
CONTINUOUS
 10
163.459335
 20
73.366355
 11
163.459335
 21
50.203325
  0
LINE
  8
型材断面
  6
CONTINUOUS
 10
163.909335
 20
73.836355
 11
163.909335
 21
50.203325
  0
LINE
  8
型材断面
  6
DASHDOT
 10
-37.596497
 20
-79.253555
 11
-37.596497
 21
71.869993
  0
LINE
  8
型材断面
  6
CONTINUOUS
 10
14.070168
 20
-69.937453
 11
14.020168
 21
-69.937453
  0
LINE
  8
型材断面
  6
CONTINUOUS
 10
12.4035
 20
-69.437453
 11
12.4035
 21
-68.70412
  0
LINE
  8
型材断面
  6
CONTINUOUS
 62
    47
 10
13.803195
 20
-76.67062
 11
13.753195
 21
-76.67062
  0
LINE
  8
型材断面
  6
CONTINUOUS
 62
    47
 10
13.803195
 20
-76.67062
 11
13.803195
 21
-76.17062
  0
LINE
  8
型材断面
  6
CONTINUOUS
 10
12.453195
 20
-70.42062
 11
13.899863
 21
-70.42062
  0
LINE
  8
型材断面
  6
CONTINUOUS
 10
13.899863
 20
-70.87062
 11
13.899863
 21
-70.42062
  0
LINE
  8
型材断面
  6
CONTINUOUS
 62
    47
 10
14.633195
 20
-73.543312
 11
14.683195
 21
-73.543312
  0
LINE
  8
型材断面
  6
CONTINUOUS
 62
    47
 10
14.683195
 20
-73.543312
 11
14.683195
 21
-73.209977
  0
LINE
  8
型材断面
  6
CONTINUOUS
 62
    47
 10
14.683195
 20
-73.209977
 11
13.899863
 21
-73.109977
  0
LINE
  8
型材断面
  6
CONTINUOUS
 62
    47
 10
13.899863
 20
-72.703953
 11
13.899863
 21
-73.109977
  0
LINE
  8
型材断面
  6
CONTINUOUS
 62
    47
 10
14.369863
 20
-72.703953
 11
14.369863
 21
-70.87062
  0
LINE
  8
型材断面
  6
CONTINUOUS
 10
14.070168
 20
-69.937453
 11
14.070168
 21
-69.437453
  0
LINE
  8
型材断面
  6
CONTINUOUS
 10
12.453195
 20
-70.42062
 11
12.453195
 21
-69.937453
  0
LINE
  8
型材断面
  6
CONTINUOUS
 62
    47
 10
14.369863
 20
-76.17062
 11
14.369863
 21
-73.543312
  0
INSERT
  2
*GRP_0010
  8
型材断面
  6
DOT
 10
0.0
 20
0.0
  0
INSERT
  2
*GRP_0011
  8
型材断面
  6
DOT
 10
0.0
 20
0.0
  0
LINE
  8
型材断面
  6
CONTINUOUS
 10
14.369863
 20
-76.17062
 11
-37.596497
 21
-76.17062
  0
LINE
  8
型材断面
  6
CONTINUOUS
 10
13.803195
 20
-76.67062
 11
-37.596497
 21
-76.67062
  0
LINE
  8
型材断面
  6
CONTINUOUS
 10
14.683195
 20
-73.543312
 11
-37.596497
 21
-73.543312
  0
LINE
  8
型材断面
  6
CONTINUOUS
 10
14.683195
 20
-73.209977
 11
-37.596497
 21
-73.209977
  0
LINE
  8
型材断面
  6
CONTINUOUS
 10
13.899863
 20
-73.109977
 11
-37.596497
 21
-73.109977
  0
LINE
  8
型材断面
  6
CONTINUOUS
 10
14.369863
 20
-72.703953
 11
-37.596497
 21
-72.703953
  0
LINE
  8
型材断面
  6
CONTINUOUS
 10
14.070168
 20
-69.937453
 11
-37.596497
 21
-69.937453
  0
LINE
  8
型材断面
  6
CONTINUOUS
 10
12.4035
 20
-68.70412
 11
-37.596497
 21
-68.70412
  0
LINE
  8
型材断面
  6
CONTINUOUS
 10
14.070168
 20
-69.437453
 11
-37.596497
 21
-69.437453
  0
LINE
  8
型材断面
  6
CONTINUOUS
 10
13.899863
 20
-70.42062
 11
-37.596497
 21
-70.42062
  0
LINE
  8
型材断面
  6
CONTINUOUS
 10
14.369863
 20
-70.87062
 11
-37.596497
 21
-70.87062
  0
LINE
  8
型材断面
  6
CONTINUOUS
 10
11.570168
 20
50.619993
 11
12.4035
 21
50.619993
  0
LINE
  8
型材断面
  6
CONTINUOUS
 10
11.570168
 20
49.786658
 11
12.4035
 21
49.786658
  0
LINE
  8
型材断面
  6
CONTINUOUS
 10
11.570168
 20
29.36999
 11
14.683195
 21
26.256963
  0
LINE
  8
型材断面
  6
CONTINUOUS
 10
11.570168
 20
29.36999
 11
11.570168
 21
49.786658
  0
LINE
  8
型材断面
  6
DASHDOT
 10
172.29227
 20
28.536658
 11
12.4035
 21
28.536658
  0
LINE
  8
型材断面
  6
DASHDOT
 10
12.4035
 20
-79.253555
 11
12.4035
 21
28.536658
  0
LINE
  8
型材断面
  6
CONTINUOUS
 10
11.570168
 20
71.03666
 11
14.683195
 21
74.149688
  0
LINE
  8
型材断面
  6
CONTINUOUS
 10
11.570168
 20
50.619993
 11
11.570168
 21
71.03666
  0
LINE
  8
型材断面
  6
DASHDOT
 10
172.29227
 20
71.869993
 11
12.4035
 21
71.869993
  0
LINE
  8
型材断面
  6
CONTINUOUS
 10
12.4035
 20
28.536658
 11
12.4035
 21
71.869993
  0
LINE
  8
型材断面
  6
CONTINUOUS
 10
14.369863
 20
26.570295
 11
14.369863
 21
73.836355
  0
LINE
  8
型材断面
  6
CONTINUOUS
 10
14.683195
 20
26.256963
 11
14.683195
 21
74.149688
  0
LINE
  8
型材断面
  6
CONTINUOUS
 10
14.070168
 20
26.86999
 11
14.070168
 21
73.53666
  0
LINE
  8
型材断面
  6
CONTINUOUS
 10
-89.263162
 20
-69.937453
 11
-89.213162
 21
-69.937453
  0
LINE
  8
型材断面
  6
CONTINUOUS
 10
-87.596495
 20
-69.437453
 11
-87.596495
 21
-68.70412
  0
LINE
  8
型材断面
  6
CONTINUOUS
 62
    47
 10
-88.99619
 20
-76.67062
 11
-88.94619
 21
-76.67062
  0
LINE
  8
型材断面
  6
CONTINUOUS
 62
    47
 10
-88.99619
 20
-76.67062
 11
-88.99619
 21
-76.17062
  0
LINE
  8
型材断面
  6
CONTINUOUS
 10
-87.64619
 20
-70.42062
 11
-89.092857
 21
-70.42062
  0
LINE
  8
型材断面
  6
CONTINUOUS
 10
-89.092857
 20
-70.87062
 11
-89.092857
 21
-70.42062
  0
LINE
  8
型材断面
  6
CONTINUOUS
 62
    47
 10
-89.82619
 20
-73.543312
 11
-89.87619
 21
-73.543312
  0
LINE
  8
型材断面
  6
CONTINUOUS
 62
    47
 10
-89.87619
 20
-73.543312
 11
-89.87619
 21
-73.209977
  0
LINE
  8
型材断面
  6
CONTINUOUS
 62
    47
 10
-89.87619
 20
-73.209977
 11
-89.092857
 21
-73.109977
  0
LINE
  8
型材断面
  6
CONTINUOUS
 62
    47
 10
-89.092857
 20
-72.703953
 11
-89.092857
 21
-73.109977
  0
LINE
  8
型材断面
  6
CONTINUOUS
 62
    47
 10
-89.562857
 20
-72.703953
 11
-89.562857
 21
-70.87062
  0
LINE
  8
型材断面
  6
CONTINUOUS
 10
-89.263162
 20
-69.937453
 11
-89.263162
 21
-69.437453
  0
LINE
  8
型材断面
  6
CONTINUOUS
 10
-87.64619
 20
-70.42062
 11
-87.64619
 21
-69.937453
  0
LINE
  8
型材断面
  6
CONTINUOUS
 62
    47
 10
-89.562857
 20
-76.17062
 11
-89.562857
 21
-73.543312
  0
INSERT
  2
*GRP_0012
  8
型材断面
  6
DOT
 10
0.0
 20
0.0
  0
INSERT
  2
*GRP_0013
  8
型材断面
  6
DOT
 10
0.0
 20
0.0
  0
LINE
  8
型材断面
  6
CONTINUOUS
 10
-89.562857
 20
-76.17062
 11
-37.596497
 21
-76.17062
  0
LINE
  8
型材断面
  6
CONTINUOUS
 10
-88.99619
 20
-76.67062
 11
-37.596497
 21
-76.67062
  0
LINE
  8
型材断面
  6
CONTINUOUS
 10
-89.87619
 20
-73.543312
 11
-37.596497
 21
-73.543312
  0
LINE
  8
型材断面
  6
CONTINUOUS
 10
-89.87619
 20
-73.209977
 11
-37.596497
 21
-73.209977
  0
LINE
  8
型材断面
  6
CONTINUOUS
 10
-89.092857
 20
-73.109977
 11
-37.596497
 21
-73.109977
  0
LINE
  8
型材断面
  6
CONTINUOUS
 10
-89.562857
 20
-72.703953
 11
-37.596497
 21
-72.703953
  0
LINE
  8
型材断面
  6
CONTINUOUS
 10
-89.263162
 20
-69.937453
 11
-37.596497
 21
-69.937453
  0
LINE
  8
型材断面
  6
CONTINUOUS
 10
-87.596495
 20
-68.70412
 11
-37.596497
 21
-68.70412
  0
LINE
  8
型材断面
  6
CONTINUOUS
 10
-89.263162
 20
-69.437453
 11
-37.596497
 21
-69.437453
  0
LINE
  8
型材断面
  6
CONTINUOUS
 10
-89.092857
 20
-70.42062
 11
-37.596497
 21
-70.42062
  0
LINE
  8
型材断面
  6
CONTINUOUS
 10
-89.562857
 20
-70.87062
 11
-37.596497
 21
-70.87062
  0
LINE
  8
型材断面
  6
CONTINUOUS
 10
-86.763162
 20
49.786658
 11
-87.596495
 21
49.786658
  0
LINE
  8
型材断面
  6
CONTINUOUS
 10
-86.763162
 20
50.619993
 11
-87.596495
 21
50.619993
  0
LINE
  8
型材断面
  6
DASHDOT
 10
172.29227
 20
50.203325
 11
-87.596495
 21
50.203325
  0
LINE
  8
型材断面
  6
CONTINUOUS
 10
-86.763162
 20
29.36999
 11
-89.87619
 21
26.256963
  0
LINE
  8
型材断面
  6
CONTINUOUS
 10
-86.763162
 20
29.36999
 11
-86.763162
 21
49.786658
  0
LINE
  8
型材断面
  6
DASHDOT
 10
-87.596495
 20
-79.253555
 11
-87.596495
 21
28.536658
  0
LINE
  8
型材断面
  6
CONTINUOUS
 10
-86.763162
 20
71.03666
 11
-89.87619
 21
74.149688
  0
LINE
  8
型材断面
  6
CONTINUOUS
 10
-86.763162
 20
50.619993
 11
-86.763162
 21
71.03666
  0
LINE
  8
型材断面
  6
CONTINUOUS
 10
-87.596495
 20
28.536658
 11
-87.596495
 21
71.869993
  0
LINE
  8
型材断面
  6
CONTINUOUS
 10
-89.562857
 20
26.570295
 11
-89.562857
 21
73.836355
  0
LINE
  8
型材断面
  6
CONTINUOUS
 10
-89.87619
 20
26.256963
 11
-89.87619
 21
74.149688
  0
LINE
  8
型材断面
  6
CONTINUOUS
 10
-89.263162
 20
26.86999
 11
-89.263162
 21
73.53666
  0
LINE
  8
型材断面
  6
CONTINUOUS
 10
12.4035
 20
28.536658
 11
-87.596495
 21
28.536658
  0
LINE
  8
型材断面
  6
CONTINUOUS
 10
14.369863
 20
26.570295
 11
-89.562857
 21
26.570295
  0
LINE
  8
型材断面
  6
CONTINUOUS
 10
14.683195
 20
26.256963
 11
-89.87619
 21
26.256963
  0
LINE
  8
型材断面
  6
CONTINUOUS
 10
14.070168
 20
26.86999
 11
-89.263162
 21
26.86999
  0
LINE
  8
型材断面
  6
CONTINUOUS
 10
12.4035
 20
71.869993
 11
-87.596495
 21
71.869993
  0
LINE
  8
型材断面
  6
CONTINUOUS
 10
14.369863
 20
73.836355
 11
-89.562857
 21
73.836355
  0
LINE
  8
型材断面
  6
CONTINUOUS
 10
14.683195
 20
74.149688
 11
-89.87619
 21
74.149688
  0
LINE
  8
型材断面
  6
CONTINUOUS
 10
14.070168
 20
73.53666
 11
-89.263162
 21
73.53666
  0
LINE
  8
型材断面
  6
CONTINUOUS
 10
-53.1265
 20
30.203322
 11
-55.6265
 21
30.203322
  0
LINE
  8
型材断面
  6
CONTINUOUS
 10
-70.56983
 20
28.536658
 11
-70.56983
 21
29.36999
  0
LINE
  8
型材断面
  6
CONTINUOUS
 10
-71.403165
 20
28.536658
 11
-71.403165
 21
29.36999
  0
LINE
  8
型材断面
  6
CONTINUOUS
 10
-86.763162
 20
29.36999
 11
-71.403165
 21
29.36999
  0
LINE
  8
型材断面
  6
CONTINUOUS
 10
-37.17983
 20
28.536658
 11
-37.17983
 21
29.36999
  0
LINE
  8
型材断面
  6
CONTINUOUS
 10
-38.013165
 20
28.536658
 11
-38.013165
 21
29.36999
  0
LINE
  8
型材断面
  6
CONTINUOUS
 10
-70.56983
 20
29.36999
 11
-38.013165
 21
29.36999
  0
LINE
  8
型材断面
  6
CONTINUOUS
 10
-4.623165
 20
28.536658
 11
-4.623165
 21
29.36999
  0
LINE
  8
型材断面
  6
CONTINUOUS
 10
-3.78983
 20
28.536658
 11
-3.78983
 21
29.36999
  0
LINE
  8
型材断面
  6
CONTINUOUS
 10
11.570168
 20
29.36999
 11
-3.78983
 21
29.36999
  0
LINE
  8
型材断面
  6
CONTINUOUS
 10
-37.17983
 20
29.36999
 11
-4.623165
 21
29.36999
  0
LINE
  8
型材断面
  6
CONTINUOUS
 10
-22.066495
 20
30.203322
 11
-19.566495
 21
30.203322
  0
LINE
  8
型材断面
  6
CONTINUOUS
 10
-53.1265
 20
70.203327
 11
-55.6265
 21
70.203327
  0
LINE
  8
型材断面
  6
CONTINUOUS
 10
-22.066495
 20
70.203327
 11
-19.566495
 21
70.203327
  0
LINE
  8
型材断面
  6
CONTINUOUS
 10
-55.6265
 20
30.203322
 11
-55.6265
 21
70.203327
  0
LINE
  8
型材断面
  6
CONTINUOUS
 10
-54.6265
 20
30.203322
 11
-54.6265
 21
70.203327
  0
LINE
  8
型材断面
  6
CONTINUOUS
 10
-53.1265
 20
30.203322
 11
-53.1265
 21
70.203327
  0
LINE
  8
型材断面
  6
CONTINUOUS
 10
-20.566495
 20
30.203322
 11
-20.566495
 21
70.203327
  0
LINE
  8
型材断面
  6
CONTINUOUS
 10
-21.066495
 20
30.203322
 11
-21.066495
 21
70.203327
  0
LINE
  8
型材断面
  6
CONTINUOUS
 10
-22.066495
 20
30.203322
 11
-22.066495
 21
70.203327
  0
LINE
  8
型材断面
  6
CONTINUOUS
 10
-19.566495
 20
30.203322
 11
-19.566495
 21
70.203327
  0
LINE
  8
型材断面
  6
DASHDOT
 10
-54.3765
 20
28.536658
 11
-54.3765
 21
71.869993
  0
LINE
  8
型材断面
  6
DASHDOT
 10
-20.816495
 20
28.536658
 11
-20.816495
 21
71.869993
  0
LINE
  8
型材断面
  6
CONTINUOUS
 10
-54.1265
 20
30.203322
 11
-54.1265
 21
70.203327
  0
LINE
  8
型材断面
  6
CONTINUOUS
 10
-70.56983
 20
71.869993
 11
-70.56983
 21
71.03666
  0
LINE
  8
型材断面
  6
CONTINUOUS
 10
-71.403165
 20
71.869993
 11
-71.403165
 21
71.03666
  0
LINE
  8
型材断面
  6
CONTINUOUS
 10
-86.763162
 20
71.03666
 11
-71.403165
 21
71.03666
  0
LINE
  8
型材断面
  6
CONTINUOUS
 10
-37.17983
 20
71.869993
 11
-37.17983
 21
71.03666
  0
LINE
  8
型材断面
  6
CONTINUOUS
 10
-38.013165
 20
71.869993
 11
-38.013165
 21
71.03666
  0
LINE
  8
型材断面
  6
CONTINUOUS
 10
-70.56983
 20
71.03666
 11
-38.013165
 21
71.03666
  0
LINE
  8
型材断面
  6
CONTINUOUS
 10
-4.623165
 20
71.869993
 11
-4.623165
 21
71.03666
  0
LINE
  8
型材断面
  6
CONTINUOUS
 10
-3.78983
 20
71.869993
 11
-3.78983
 21
71.03666
  0
LINE
  8
型材断面
  6
CONTINUOUS
 10
11.570168
 20
71.03666
 11
-3.78983
 21
71.03666
  0
LINE
  8
型材断面
  6
CONTINUOUS
 10
-37.17983
 20
71.03666
 11
-4.623165
 21
71.03666
  0
POLYLINE
  8
型材断面
  6
CONTINUOUS
 66
     1
 70
     1
  0
VERTEX
  8
型材断面
 10
-27.64461
 20
81.645915
  0
VERTEX
  8
型材断面
 10
-46.41654
 20
81.645915
  0
VERTEX
  8
型材断面
 10
-46.41654
 20
86.382757
  0
VERTEX
  8
型材断面
 10
-27.64461
 20
86.382757
  0
SEQEND
  0
POLYLINE
  8
型材断面
  6
CONTINUOUS
 66
     1
 70
     1
  0
VERTEX
  8
型材断面
 10
-27.64461
 20
18.760735
  0
VERTEX
  8
型材断面
 10
-46.41654
 20
18.760735
  0
VERTEX
  8
型材断面
 10
-46.41654
 20
14.023892
  0
VERTEX
  8
型材断面
 10
-27.64461
 20
14.023892
  0
SEQEND
  0
LINE
  8
型材断面
  6
CONTINUOUS
 10
-90.226627
 20
50.203325
 11
-92.817135
 21
51.698955
  0
LINE
  8
型材断面
  6
CONTINUOUS
 10
-90.226627
 20
50.203325
 11
-92.817135
 21
48.707695
  0
LINE
  8
型材断面
  6
CONTINUOUS
 10
-92.817135
 20
48.707695
 11
-92.817135
 21
51.698955
  0
LINE
  8
型材断面
  6
CONTINUOUS
 10
-70.92983
 20
74.50012
 11
-72.42546
 21
77.090627
  0
LINE
  8
型材断面
  6
CONTINUOUS
 10
-70.92983
 20
74.50012
 11
-69.4342
 21
77.090627
  0
LINE
  8
型材断面
  6
CONTINUOUS
 10
-69.4342
 20
77.090627
 11
-72.42546
 21
77.090627
  0
LINE
  8
型材断面
  6
CONTINUOUS
 10
-128.448705
 20
109.847463
 11
-127.85265
 21
107.256955
  0
LINE
  8
型材断面
  6
CONTINUOUS
 10
-128.448705
 20
109.847463
 11
-129.044762
 21
107.256955
  0
LINE
  8
型材断面
  6
CONTINUOUS
 10
-129.044762
 20
107.256955
 11
-127.85265
 21
107.256955
  0
LINE
  8
型材断面
  6
CONTINUOUS
 10
-134.471292
 20
103.978062
 11
-88.229515
 21
103.978062
  0
LINE
  8
型材断面
  6
CONTINUOUS
 10
-128.448705
 20
116.377338
 11
-129.944335
 21
113.78683
  0
LINE
  8
型材断面
  6
CONTINUOUS
 10
-128.448705
 20
116.377338
 11
-126.953075
 21
113.78683
  0
LINE
  8
型材断面
  6
CONTINUOUS
 10
-126.953075
 20
113.78683
 11
-129.944335
 21
113.78683
  0
LINE
  8
型材断面
  6
CONTINUOUS
 10
-134.471292
 20
112.848235
 11
-88.229515
 21
112.848235
  0
LINE
  8
型材断面
  6
CONTINUOUS
 10
-134.471292
 20
98.19003
 11
-88.229515
 21
98.19003
  0
LINE
  8
型材断面
  6
CONTINUOUS
 10
-70.92983
 20
25.90653
 11
-72.42546
 21
23.316022
  0
LINE
  8
型材断面
  6
CONTINUOUS
 10
-70.92983
 20
25.90653
 11
-69.4342
 21
23.316022
  0
LINE
  8
型材断面
  6
CONTINUOUS
 10
-69.4342
 20
23.316022
 11
-72.42546
 21
23.316022
  0
LINE
  8
型材断面
  6
CONTINUOUS
 10
15.033633
 20
50.203325
 11
17.62414
 21
51.698955
  0
LINE
  8
型材断面
  6
CONTINUOUS
 10
15.033633
 20
50.203325
 11
17.62414
 21
48.707695
  0
LINE
  8
型材断面
  6
CONTINUOUS
 10
17.62414
 20
48.707695
 11
17.62414
 21
51.698955
  0
LINE
  8
型材断面
  6
CONTINUOUS
 10
-4.263165
 20
74.50012
 11
-2.767535
 21
77.090627
  0
LINE
  8
型材断面
  6
CONTINUOUS
 10
-4.263165
 20
74.50012
 11
-5.758795
 21
77.090627
  0
LINE
  8
型材断面
  6
CONTINUOUS
 10
-5.758795
 20
77.090627
 11
-2.767535
 21
77.090627
  0
LINE
  8
型材断面
  6
CONTINUOUS
 10
-4.263165
 20
25.90653
 11
-2.767535
 21
23.316022
  0
LINE
  8
型材断面
  6
CONTINUOUS
 10
-4.263165
 20
25.90653
 11
-5.758795
 21
23.316022
  0
LINE
  8
型材断面
  6
CONTINUOUS
 10
-5.758795
 20
23.316022
 11
-2.767535
 21
23.316022
  0
LINE
  8
型材断面
  6
CONTINUOUS
 10
15.03363
 20
67.96999
 11
17.624137
 21
67.373933
  0
LINE
  8
型材断面
  6
CONTINUOUS
 10
15.03363
 20
67.96999
 11
17.624137
 21
68.566048
  0
LINE
  8
型材断面
  6
CONTINUOUS
 10
17.624137
 20
68.566048
 11
17.624137
 21
67.373933
  0
LINE
  8
型材断面
  6
CONTINUOUS
 10
15.03363
 20
32.43666
 11
17.624137
 21
33.032718
  0
LINE
  8
型材断面
  6
CONTINUOUS
 10
15.03363
 20
32.43666
 11
17.624137
 21
31.840603
  0
LINE
  8
型材断面
  6
CONTINUOUS
 10
17.624137
 20
31.840603
 11
17.624137
 21
33.032718
  0
LINE
  8
型材断面
  6
CONTINUOUS
 10
-90.226625
 20
67.96999
 11
-92.817133
 21
67.373933
  0
LINE
  8
型材断面
  6
CONTINUOUS
 10
-90.226625
 20
67.96999
 11
-92.817133
 21
68.566048
  0
LINE
  8
型材断面
  6
CONTINUOUS
 10
-92.817133
 20
68.566048
 11
-92.817133
 21
67.373933
  0
LINE
  8
型材断面
  6
CONTINUOUS
 10
-90.226625
 20
32.43666
 11
-92.817133
 21
33.032718
  0
LINE
  8
型材断面
  6
CONTINUOUS
 10
-90.226625
 20
32.43666
 11
-92.817133
 21
31.840603
  0
LINE
  8
型材断面
  6
CONTINUOUS
 10
-92.817133
 20
31.840603
 11
-92.817133
 21
33.032718
  0
LINE
  8
型材断面
  6
CONTINUOUS
 10
-134.471292
 20
92.401997
 11
-88.229515
 21
92.401997
  0
INSERT
  2
*GRP_0021
  8
型材断面
  6
DOT
 10
0.0
 20
0.0
  0
INSERT
  2
*GRP_0031
  8
型材断面
  6
CONTINUOUS
 10
0.0
 20
0.0
  0
INSERT
  2
*GRP_0032
  8
型材断面
  6
CONTINUOUS
 10
0.0
 20
0.0
  0
INSERT
  2
*GRP_0033
  8
型材断面
  6
CONTINUOUS
 10
0.0
 20
0.0
  0
INSERT
  2
*GRP_0034
  8
型材断面
  6
CONTINUOUS
 10
0.0
 20
0.0
  0
LINE
  8
型材断面
  6
CONTINUOUS
 10
130.85387
 20
-6.253405
 11
110.062847
 21
-6.253405
  0
POLYLINE
  8
ガラス
  6
CONTINUOUS
 66
     1
 70
     1
  0
VERTEX
  8
ガラス
 10
147.611168
 20
-28.594942
  0
VERTEX
  8
ガラス
 10
115.397833
 20
-28.594942
  0
VERTEX
  8
ガラス
 10
115.397833
 20
-71.26161
  0
VERTEX
  8
ガラス
 10
147.611168
 20
-71.26161
  0
SEQEND
  0
TEXT
  7
TextStyle03
  8
文字
  6
CONTINUOUS
 10
-23.65
 20
-100.575
  1
※トップライト枠高さ寸法
 40
3.0
 72
     5
 11
16.475
 21
-100.575
  0
TEXT
  7
TextStyle03
  8
文字
  6
CONTINUOUS
 10
-23.65
 20
-103.95
  1
　シングルガラス：214
 40
3.0
 72
     5
 11
11.6
 21
-103.95
  0
TEXT
  7
TextStyle03
  8
文字
  6
CONTINUOUS
 10
-23.65
 20
-107.325
  1
　ペアガラス：224
 40
3.0
 72
     5
 11
4.85
 21
-107.325
  0
TEXT
  7
TextStyle03
  8
文字
  6
CONTINUOUS
 10
78.1
 20
125.25
  1
シリーズ：ＳＴＤＬ
 40
5.0
 72
     5
 11
128.1
 21
125.25
  0
TEXT
  7
TextStyle03
  8
文字
  6
CONTINUOUS
 10
78.1
 20
119.625
  1
　　　　　（上下可動）1300×3000タイプ
 40
5.0
 72
     5
 11
184.35
 21
119.625
  0
TEXT
  7
TextStyle03
  8
文字
  6
CONTINUOUS
 10
78.1
 20
114.0
  1
図面名　：外観姿図
 40
5.0
 72
     5
 11
128.1
 21
114.0
  0
TEXT
  7
TextStyle03
  8
文字
  6
CONTINUOUS
 10
78.1
 20
108.375
  1
　　　　　　
 40
5.0
 72
     5
 11
111.225
 21
108.375
  0
TEXT
  7
TextStyle03
  8
文字
  6
CONTINUOUS
 10
-45.35
 20
82.325
  1
可動装置側
 40
3.0
 72
     5
 11
-28.85
 21
82.325
  0
TEXT
  7
TextStyle03
  8
文字
  6
CONTINUOUS
 10
-45.35
 20
15.05
  1
可動装置側
 40
3.0
 72
     5
 11
-28.85
 21
15.05
  0
TEXT
  7
TextStyle03
  8
文字
  6
CONTINUOUS
 10
-125.1
 20
39.1
  1
アンカーピッチ
 40
3.0
 50
90.0
 72
     5
 11
-125.1
 21
62.35
  0
TEXT
  7
TextStyle03
  8
文字
  6
CONTINUOUS
 10
-125.675
 20
108.45
  1
はケーシング位置を示す
 40
3.0
 72
     5
 11
-88.925
 21
108.45
  0
TEXT
  7
TextStyle03
  8
文字
  6
CONTINUOUS
 10
-125.675
 20
105.075
  1
４ヶ所中1ヶ所に設定
 40
3.0
 72
     5
 11
-93.9875
 21
105.075
  0
TEXT
  7
TextStyle03
  8
文字
  6
CONTINUOUS
 10
-125.675
 20
113.975
  1
は排水穴位置を示す
 40
3.0
 72
     5
 11
-95.675
 21
113.975
  0
TEXT
  7
TextStyle03
  8
文字
  6
CONTINUOUS
 10
-129.4
 20
99.1
  1
アンカー数量　１２ヶ所
 40
3.0
 72
     5
 11
-92.65
 21
99.1
  0
TEXT
  7
TextStyle03
  8
文字
  6
CONTINUOUS
 10
-77.625
 20
109.25
  1
アンカーピッチ
 40
3.0
 72
     5
 11
-54.375
 21
109.25
  0
TEXT
  7
TextStyle03
  8
文字
  6
CONTINUOUS
 10
-129.4
 20
93.325
  1
アームユニット数　４ヶ所
 40
3.0
 72
     5
 11
-89.275
 21
93.325
  0
TEXT
  7
TextStyle03
  8
文字
  6
CONTINUOUS
 10
135.35
 20
-68.875
  1
×３枚
 40
3.0
 72
     5
 11
145.1
 21
-68.875
  0
TEXT
  7
TextStyle03
  8
文字
  6
CONTINUOUS
 10
112.125
 20
-5.4
  1
ガラス寸法
 40
3.0
 72
     5
 11
128.625
 21
-5.4
  0
INSERT
  2
*DIM_0004
  8
寸法
  6
CONTINUOUS
 10
0.0
 20
0.0
  0
INSERT
  2
*DIM_0005
  8
寸法
  6
CONTINUOUS
 10
0.0
 20
0.0
  0
INSERT
  2
*DIM_0008
  8
寸法
  6
CONTINUOUS
 10
0.0
 20
0.0
  0
INSERT
  2
*DIM_0009
  8
寸法
  6
CONTINUOUS
 10
0.0
 20
0.0
  0
INSERT
  2
*DIM_0014
  8
寸法
  6
CONTINUOUS
 10
0.0
 20
0.0
  0
INSERT
  2
*DIM_0015
  8
寸法
  6
CONTINUOUS
 10
0.0
 20
0.0
  0
INSERT
  2
*DIM_0016
  8
寸法
  6
CONTINUOUS
 10
0.0
 20
0.0
  0
INSERT
  2
*DIM_0017
  8
寸法
  6
CONTINUOUS
 10
0.0
 20
0.0
  0
INSERT
  2
*DIM_0018
  8
寸法
  6
CONTINUOUS
 10
0.0
 20
0.0
  0
INSERT
  2
*DIM_0019
  8
寸法
  6
CONTINUOUS
 10
0.0
 20
0.0
  0
INSERT
  2
*DIM_0020
  8
寸法
  6
CONTINUOUS
 10
0.0
 20
0.0
  0
INSERT
  2
*DIM_0026
  8
寸法
  6
CONTINUOUS
 10
0.0
 20
0.0
  0
INSERT
  2
*DIM_0027
  8
寸法
  6
CONTINUOUS
 10
0.0
 20
0.0
  0
INSERT
  2
*DIM_0028
  8
寸法
  6
CONTINUOUS
 10
0.0
 20
0.0
  0
INSERT
  2
*DIM_0029
  8
寸法
  6
CONTINUOUS
 10
0.0
 20
0.0
  0
INSERT
  2
*DIM_0030
  8
寸法
  6
CONTINUOUS
 10
0.0
 20
0.0
  0
INSERT
  2
*DIM_0035
  8
寸法
  6
CONTINUOUS
 10
0.0
 20
0.0
  0
INSERT
  2
*DIM_0036
  8
寸法
  6
CONTINUOUS
 10
0.0
 20
0.0
  0
LINE
  8
曲げ物
  6
CONTINUOUS
 10
-2.955458
 20
52.128875
 11
-6.65077
 21
48.433562
  0
LINE
  8
曲げ物
  6
CONTINUOUS
 10
-3.658928
 20
50.592765
 11
-5.114657
 21
49.137035
  0
LINE
  8
曲げ物
  6
CONTINUOUS
 10
-4.491568
 20
51.425405
 11
-5.947297
 21
49.969675
  0
LINE
  8
曲げ物
  6
CONTINUOUS
 10
-35.952333
 20
52.128875
 11
-39.647645
 21
48.433562
  0
LINE
  8
曲げ物
  6
CONTINUOUS
 10
-36.655803
 20
50.592765
 11
-38.111532
 21
49.137035
  0
LINE
  8
曲げ物
  6
CONTINUOUS
 10
-37.488443
 20
51.425405
 11
-38.944172
 21
49.969675
  0
LINE
  8
曲げ物
  6
CONTINUOUS
 10
-70.314833
 20
52.128875
 11
-74.010145
 21
48.433562
  0
LINE
  8
曲げ物
  6
CONTINUOUS
 10
-71.018303
 20
50.592765
 11
-72.474032
 21
49.137035
  0
LINE
  8
曲げ物
  6
CONTINUOUS
 10
-71.850943
 20
51.425405
 11
-73.306672
 21
49.969675
  0
ENDSEC
  0
EOF
