  0
SECTION
  2
HEADER
  9
$EXTMIN
 10
-210.0
 20
-148.5
  9
$EXTMAX
 10
210.0
 20
148.5
  9
$PDMODE
 70
    32
  9
$PDSIZE
 40
1.5
  9
$LTSCALE
 40
10.0
  0
ENDSEC
  0
SECTION
  2
TABLES
  0
TABLE
  2
LTYPE
 70
    15
  0
LTYPE
  2
CONTINUOUS
 70
    64
  3
実線
 72
    65
 73
     0
 40
0.0
  0
LTYPE
  2
DASHED
 70
    64
  3
破線A
 72
    65
 73
     2
 40
0.6
 49
0.4
 49
-0.2
  0
LTYPE
  2
DASHEDX2
 70
    64
  3
破線B
 72
    65
 73
     2
 40
1.3
 49
0.9
 49
-0.4
  0
LTYPE
  2
DASHDOT
 70
    64
  3
１点鎖線A
 72
    65
 73
     4
 40
0.5375
 49
0.375
 49
-0.05
 49
0.0625
 49
-0.05
  0
LTYPE
  2
DASHDOTX2
 70
    64
  3
１点鎖線B
 72
    65
 73
     4
 40
1.075
 49
0.75
 49
-0.1
 49
0.125
 49
-0.1
  0
LTYPE
  2
DIVIDE2
 70
    64
  3
２点鎖線A
 72
    65
 73
     6
 40
0.5125
 49
0.3
 49
-0.0375
 49
0.05
 49
-0.0375
 49
0.05
 49
-0.0375
  0
LTYPE
  2
DIVIDE
 70
    64
  3
２点鎖線B
 72
    65
 73
     6
 40
1.05
 49
0.55
 49
-0.1
 49
0.1
 49
-0.1
 49
0.1
 49
-0.1
  0
LTYPE
  2
DOT
 70
    64
  3
点線A
 72
    65
 73
     2
 40
0.1125
 49
0.0625
 49
-0.05
  0
LTYPE
  2
DOTX2
 70
    64
  3
点線B
 72
    65
 73
     2
 40
0.275
 49
0.15
 49
-0.125
  0
LTYPE
  2
CONTINUOUS
 70
    64
  3
実線
 72
    65
 73
     0
 40
0.0
  0
LTYPE
  2
CONTINUOUS
 70
    64
  3
実線
 72
    65
 73
     0
 40
0.0
  0
LTYPE
  2
CONTINUOUS
 70
    64
  3
実線
 72
    65
 73
     0
 40
0.0
  0
LTYPE
  2
CONTINUOUS
 70
    64
  3
実線
 72
    65
 73
     0
 40
0.0
  0
LTYPE
  2
CONTINUOUS
 70
    64
  3
実線
 72
    65
 73
     0
 40
0.0
  0
LTYPE
  2
CONTINUOUS
 70
    64
  3
実線
 72
    65
 73
     0
 40
0.0
  0
ENDTAB
  0
TABLE
  2
LAYER
 70
    34
  0
LAYER
  2
通り芯
 70
     0
 62
    15
  6
CONTINUOUS
  0
LAYER
  2
補助線
 70
     0
 62
    16
  6
DOT
  0
LAYER
  2
躯体
 70
     0
 62
    31
  6
CONTINUOUS
  0
LAYER
  2
型材
 70
     0
 62
    32
  6
CONTINUOUS
  0
LAYER
  2
型材断面
 70
     0
 62
    47
  6
CONTINUOUS
  0
LAYER
  2
ガラス
 70
     0
 62
    48
  6
CONTINUOUS
  0
LAYER
  2
ゴム等
 70
     0
 62
    63
  6
CONTINUOUS
  0
LAYER
  2
ボルト／ビス
 70
     0
 62
    64
  6
CONTINUOUS
  0
LAYER
  2
文字
 70
     0
 62
    79
  6
CONTINUOUS
  0
LAYER
  2
寸法
 70
     0
 62
    80
  6
CONTINUOUS
  0
LAYER
  2
ﾊｯﾁﾝｸﾞ
 70
     0
 62
    95
  6
CONTINUOUS
  0
LAYER
  2
別途部材
 70
     0
 62
    96
  6
CONTINUOUS
  0
LAYER
  2
曲げ物
 70
     0
 62
   111
  6
CONTINUOUS
  0
LAYER
  2
鉄骨等
 70
     0
 62
   112
  6
CONTINUOUS
  0
LAYER
  2
St
 70
     0
 62
   127
  6
CONTINUOUS
  0
LAYER
  2
その他部品等
 70
     0
 62
   128
  6
CONTINUOUS
  0
LAYER
  2
ｶﾞｽｹｯﾄ
 70
     0
 62
   143
  6
CONTINUOUS
  0
LAYER
  2
ｽｹｯﾁ
 70
     0
 62
    14
  6
CONTINUOUS
  0
LAYER
  2
0
 70
     0
 62
    17
  6
CONTINUOUS
  0
LAYER
  2
1
 70
     0
 62
    30
  6
CONTINUOUS
  0
LAYER
  2
4
 70
     0
 62
    33
  6
CONTINUOUS
  0
LAYER
  2
ﾚｲﾔ3
 70
     0
 62
    46
  6
CONTINUOUS
  0
LAYER
  2
外形線
 70
     0
 62
    49
  6
CONTINUOUS
  0
LAYER
  2
部品
 70
     0
 62
    14
  6
CONTINUOUS
  0
LAYER
  2
サッシ芯
 70
     0
 62
    17
  6
DASHDOTX2
  0
LAYER
  2
寸法線
 70
     0
 62
    62
  6
CONTINUOUS
  0
LAYER
  2
姿図外形線
 70
     0
 62
    65
  6
CONTINUOUS
  0
LAYER
  2
姿補助線
 70
     0
 62
    30
  6
CONTINUOUS
  0
LAYER
  2
透視線
 70
     0
 62
    78
  6
DOT
  0
LAYER
  2
用紙
 70
     0
 62
    81
  6
CONTINUOUS
  0
LAYER
  2
実線図枠
 70
     0
 62
    94
  6
CONTINUOUS
  0
LAYER
  2
補助図枠
 70
     0
 62
    97
  6
CONTINUOUS
  0
LAYER
  2
建具記号
 70
     0
 62
   110
  6
CONTINUOUS
  0
LAYER
  2
補助文字
 70
     0
 62
   113
  6
CONTINUOUS
  0
ENDTAB
  0
TABLE
  2
STYLE
 70
    10
  0
STYLE
  2
STANDARD
 70
     0
 40
1.0
 41
1.0
 42
1.0
 50
0.0
 71
     0
  3
TXT
  4
BIGFONT
  0
STYLE
  2
TATE
 70
     4
 40
1.0
 41
1.0
 42
1.0
 50
0.0
 71
     0
  3
TXT
  4
BIGFONT
  0
STYLE
  2
TextStyle03
 70
     0
 40
1.0
 41
1.0
 42
1.0
 50
0.0
 71
     0
  3
MONOTXT
  4
BIGFONT
  0
STYLE
  2
TextStyle04
 70
     0
 40
1.0
 41
1.0
 42
1.0
 50
0.0
 71
     0
  3
MONOTXT
  4
BIGFONT
  0
STYLE
  2
TextStyle05
 70
     0
 40
1.0
 41
1.0
 42
1.0
 50
0.0
 71
     0
  3
MONOTXT
  4
BIGFONT
  0
STYLE
  2
TextStyle06
 70
     0
 40
1.0
 41
1.0
 42
1.0
 50
0.0
 71
     0
  3
MONOTXT
  4
BIGFONT
  0
STYLE
  2
TextStyle07
 70
     0
 40
1.0
 41
1.0
 42
1.0
 50
0.0
 71
     0
  3
MONOTXT
  4
BIGFONT
  0
STYLE
  2
TextStyle08
 70
     0
 40
1.0
 41
1.0
 42
1.0
 50
0.0
 71
     0
  3
MONOTXT
  4
BIGFONT
  0
STYLE
  2
TextStyle09
 70
     0
 40
1.0
 41
1.0
 42
1.0
 50
0.0
 71
     0
  3
MONOTXT
  4
BIGFONT
  0
STYLE
  2
TextStyle10
 70
     0
 40
1.0
 41
1.0
 42
1.0
 50
0.0
 71
     0
  3
MONOTXT
  4
BIGFONT
  0
ENDTAB
  0
ENDSEC
  0
SECTION
  2
BLOCKS
  0
BLOCK
  2
*GRP_0001
 70
    65
 10
0.0
 20
0.0
  0
LINE
  8
型材断面
  6
CONTINUOUS
 10
195.0
 20
133.5
 11
195.0
 21
-133.5
  0
LINE
  8
型材断面
  6
CONTINUOUS
 10
195.0
 20
-133.5
 11
-185.0
 21
-133.5
  0
LINE
  8
型材断面
  6
CONTINUOUS
 10
-185.0
 20
-133.5
 11
-185.0
 21
133.5
  0
LINE
  8
型材断面
  6
CONTINUOUS
 10
195.0
 20
133.5
 11
-185.0
 21
133.5
  0
LINE
  8
型材断面
  6
CONTINUOUS
 10
145.0
 20
-133.5
 11
145.0
 21
-118.5
  0
LINE
  8
型材断面
  6
CONTINUOUS
 10
195.0
 20
-118.5
 11
145.0
 21
-118.5
  0
ENDBLK
  0
BLOCK
  2
*GRP_0002
 70
    65
 10
0.0
 20
0.0
  0
INSERT
  2
M8横
  8
ゴム等
  6
CONTINUOUS
 10
163.336003
 20
27.710297
 50
90.0
 41
0.033333
 42
0.033333
  0
LINE
  8
ボルト／ビス
  6
CONTINUOUS
 10
163.126005
 20
27.843633
 11
163.109338
 21
27.826965
  0
LINE
  8
ボルト／ビス
  6
CONTINUOUS
 10
163.109338
 20
27.593633
 11
163.126005
 21
27.576965
  0
LINE
  8
ボルト／ビス
  6
CONTINUOUS
 10
163.126005
 20
27.576965
 11
163.126005
 21
27.843633
  0
LINE
  8
ボルト／ビス
  6
CONTINUOUS
 10
163.109338
 20
27.593633
 11
163.109338
 21
27.826965
  0
LINE
  8
ボルト／ビス
  6
CONTINUOUS
 10
163.109338
 20
27.826965
 11
163.15267
 21
27.826965
  0
LINE
  8
ボルト／ビス
  6
CONTINUOUS
 10
163.126005
 20
27.843633
 11
163.15267
 21
27.843633
  0
LINE
  8
ボルト／ビス
  6
CONTINUOUS
 10
163.126005
 20
27.576965
 11
163.15267
 21
27.576965
  0
LINE
  8
ボルト／ビス
  6
CONTINUOUS
 10
163.109338
 20
27.593633
 11
163.15267
 21
27.593633
  0
LINE
  8
ボルト／ビス
  6
CONTINUOUS
 10
163.336003
 20
27.343633
 11
163.336003
 21
28.076965
  0
LINE
  8
ボルト／ビス
  6
CONTINUOUS
 10
163.376002
 20
28.126965
 11
163.459335
 21
28.126965
  0
LINE
  8
ボルト／ビス
  6
CONTINUOUS
 10
163.459335
 20
28.126965
 11
163.459335
 21
27.293633
  0
LINE
  8
ボルト／ビス
  6
CONTINUOUS
 10
163.459335
 20
27.293633
 11
163.376002
 21
27.293633
  0
LINE
  8
ボルト／ビス
  6
CONTINUOUS
 10
163.376002
 20
28.126965
 11
163.376002
 21
27.293633
  0
LINE
  8
ボルト／ビス
  6
CONTINUOUS
 10
163.336003
 20
27.343633
 11
163.376002
 21
27.343633
  0
LINE
  8
ボルト／ビス
  6
CONTINUOUS
 10
163.336003
 20
28.076965
 11
163.376002
 21
28.076965
  0
LINE
  8
ボルト／ビス
  6
CONTINUOUS
 10
163.386002
 20
27.710297
 11
163.336003
 21
27.710297
  0
ENDBLK
  0
BLOCK
  2
*GRP_0003
 70
    65
 10
0.0
 20
0.0
  0
LINE
  8
ボルト／ビス
  6
CONTINUOUS
 10
162.47617
 20
27.50363
 11
162.409503
 21
27.50363
  0
LINE
  8
ボルト／ビス
  6
CONTINUOUS
 10
162.409503
 20
27.50363
 11
162.409503
 21
28.236962
  0
LINE
  8
ボルト／ビス
  6
CONTINUOUS
 10
162.409503
 20
28.236962
 11
162.47617
 21
28.236962
  0
LINE
  8
ボルト／ビス
  6
CONTINUOUS
 10
162.47617
 20
27.50363
 11
162.47617
 21
28.236962
  0
LINE
  8
ボルト／ビス
  6
CONTINUOUS
 10
162.37617
 20
27.570298
 11
162.409503
 21
27.570298
  0
LINE
  8
ボルト／ビス
  6
CONTINUOUS
 10
162.37617
 20
27.570298
 11
162.37617
 21
28.170298
  0
LINE
  8
ボルト／ビス
  6
CONTINUOUS
 10
162.37617
 20
28.170298
 11
162.409503
 21
28.170298
  0
LINE
  8
ボルト／ビス
  6
CONTINUOUS
 62
    64
 10
162.17617
 20
27.709922
 11
162.187845
 21
27.677847
  0
ARC
  8
ボルト／ビス
  6
CONTINUOUS
 62
    64
 10
162.281149
 20
27.725964
 40
0.104978
 50
152.721967
 51
180.0
  0
ARC
  8
ボルト／ビス
  6
CONTINUOUS
 62
    64
 10
162.578573
 20
27.870302
 40
0.402402
 50
166.165002
 51
193.834985
  0
LINE
  8
ボルト／ビス
  6
CONTINUOUS
 62
    64
 10
162.17617
 20
28.030673
 11
162.187845
 21
28.062747
  0
ARC
  8
ボルト／ビス
  6
CONTINUOUS
 62
    64
 10
162.281149
 20
28.014639
 40
0.104978
 50
180.0
 51
207.278033
  0
LINE
  8
ボルト／ビス
  6
CONTINUOUS
 62
    64
 10
162.17617
 20
27.709922
 11
162.17617
 21
28.030673
  0
LINE
  8
ボルト／ビス
  6
CONTINUOUS
 62
    64
 10
162.187845
 20
28.062747
 11
162.309503
 21
28.062747
  0
LINE
  8
ボルト／ビス
  6
CONTINUOUS
 62
    64
 10
162.187845
 20
27.966523
 11
162.309503
 21
27.966523
  0
LINE
  8
ボルト／ビス
  6
CONTINUOUS
 62
    64
 10
162.187845
 20
27.677847
 11
162.309503
 21
27.677847
  0
LINE
  8
ボルト／ビス
  6
CONTINUOUS
 62
    64
 10
162.187845
 20
27.774072
 11
162.309503
 21
27.774072
  0
LINE
  8
ボルト／ビス
  6
CONTINUOUS
 10
162.309503
 20
27.677847
 11
162.309503
 21
28.062747
  0
LINE
  8
ボルト／ビス
  6
CONTINUOUS
 10
162.309503
 20
27.670298
 11
162.37617
 21
27.670298
  0
LINE
  8
ボルト／ビス
  6
CONTINUOUS
 10
162.309503
 20
27.670298
 11
162.309503
 21
28.070298
  0
LINE
  8
ボルト／ビス
  6
CONTINUOUS
 10
162.309503
 20
28.070298
 11
162.37617
 21
28.070298
  0
ENDBLK
  0
BLOCK
  2
*DIM_0004
 70
    65
 10
0.0
 20
0.0
  0
LINE
  8
寸法
  6
CONTINUOUS
 10
161.248695
 20
26.256963
 11
142.14273
 21
26.256963
  0
LINE
  8
寸法
  6
CONTINUOUS
 10
142.14273
 20
28.536658
 11
142.14273
 21
26.256963
  0
POINT
  8
寸法
 10
142.14273
 20
28.536658
  0
POINT
  8
寸法
 10
142.14273
 20
26.256963
  0
TEXT
  7
TextStyle03
  8
寸法
  6
CONTINUOUS
 10
141.75
 20
17.34375
  1
68.4
 40
3.0
 50
90.0
 72
     5
 11
141.75
 21
23.90625
  0
ENDBLK
  0
BLOCK
  2
*DIM_0005
 70
    65
 10
0.0
 20
0.0
  0
LINE
  8
寸法
  6
CONTINUOUS
 10
169.209335
 20
21.570298
 11
169.209335
 21
13.661277
  0
LINE
  8
寸法
  6
CONTINUOUS
 10
161.742835
 20
23.536658
 11
161.742835
 21
13.661277
  0
LINE
  8
寸法
  6
CONTINUOUS
 10
169.209335
 20
13.661277
 11
161.742835
 21
13.661277
  0
POINT
  8
寸法
 10
169.209335
 20
13.661277
  0
POINT
  8
寸法
 10
161.742835
 20
13.661277
  0
TEXT
  7
TextStyle03
  8
寸法
  6
CONTINUOUS
 10
163.0375
 20
14.025
  1
224
 40
3.0
 72
     5
 11
167.9125
 21
14.025
  0
ENDBLK
  0
BLOCK
  2
*GRP_0006
 70
    65
 10
0.0
 20
0.0
  0
INSERT
  2
M8横
  8
ゴム等
  6
CONTINUOUS
 10
163.336003
 20
72.696352
 50
270.0
 41
0.033333
 42
-0.033333
  0
LINE
  8
ボルト／ビス
  6
CONTINUOUS
 10
163.126005
 20
72.56302
 11
163.109338
 21
72.579688
  0
LINE
  8
ボルト／ビス
  6
CONTINUOUS
 10
163.109338
 20
72.81302
 11
163.126005
 21
72.829688
  0
LINE
  8
ボルト／ビス
  6
CONTINUOUS
 10
163.126005
 20
72.829688
 11
163.126005
 21
72.56302
  0
LINE
  8
ボルト／ビス
  6
CONTINUOUS
 10
163.109338
 20
72.81302
 11
163.109338
 21
72.579688
  0
LINE
  8
ボルト／ビス
  6
CONTINUOUS
 10
163.109338
 20
72.579688
 11
163.15267
 21
72.579688
  0
LINE
  8
ボルト／ビス
  6
CONTINUOUS
 10
163.126005
 20
72.56302
 11
163.15267
 21
72.56302
  0
LINE
  8
ボルト／ビス
  6
CONTINUOUS
 10
163.126005
 20
72.829688
 11
163.15267
 21
72.829688
  0
LINE
  8
ボルト／ビス
  6
CONTINUOUS
 10
163.109338
 20
72.81302
 11
163.15267
 21
72.81302
  0
LINE
  8
ボルト／ビス
  6
CONTINUOUS
 10
163.336003
 20
73.06302
 11
163.336003
 21
72.329688
  0
LINE
  8
ボルト／ビス
  6
CONTINUOUS
 10
163.376002
 20
72.279687
 11
163.459335
 21
72.279687
  0
LINE
  8
ボルト／ビス
  6
CONTINUOUS
 10
163.459335
 20
72.279687
 11
163.459335
 21
73.11302
  0
LINE
  8
ボルト／ビス
  6
CONTINUOUS
 10
163.459335
 20
73.11302
 11
163.376002
 21
73.11302
  0
LINE
  8
ボルト／ビス
  6
CONTINUOUS
 10
163.376002
 20
72.279687
 11
163.376002
 21
73.11302
  0
LINE
  8
ボルト／ビス
  6
CONTINUOUS
 10
163.336003
 20
73.06302
 11
163.376002
 21
73.06302
  0
LINE
  8
ボルト／ビス
  6
CONTINUOUS
 10
163.336003
 20
72.329688
 11
163.376002
 21
72.329688
  0
LINE
  8
ボルト／ビス
  6
CONTINUOUS
 10
163.386002
 20
72.696352
 11
163.336003
 21
72.696352
  0
ENDBLK
  0
BLOCK
  2
*GRP_0007
 70
    65
 10
0.0
 20
0.0
  0
LINE
  8
ボルト／ビス
  6
CONTINUOUS
 10
162.47617
 20
72.903023
 11
162.409503
 21
72.903023
  0
LINE
  8
ボルト／ビス
  6
CONTINUOUS
 10
162.409503
 20
72.903023
 11
162.409503
 21
72.169687
  0
LINE
  8
ボルト／ビス
  6
CONTINUOUS
 10
162.409503
 20
72.169687
 11
162.47617
 21
72.169687
  0
LINE
  8
ボルト／ビス
  6
CONTINUOUS
 10
162.47617
 20
72.903023
 11
162.47617
 21
72.169687
  0
LINE
  8
ボルト／ビス
  6
CONTINUOUS
 10
162.37617
 20
72.836355
 11
162.409503
 21
72.836355
  0
LINE
  8
ボルト／ビス
  6
CONTINUOUS
 10
162.37617
 20
72.836355
 11
162.37617
 21
72.236355
  0
LINE
  8
ボルト／ビス
  6
CONTINUOUS
 10
162.37617
 20
72.236355
 11
162.409503
 21
72.236355
  0
LINE
  8
ボルト／ビス
  6
CONTINUOUS
 62
    64
 10
162.17617
 20
72.69673
 11
162.187845
 21
72.728805
  0
ARC
  8
ボルト／ビス
  6
CONTINUOUS
 62
    64
 10
162.281149
 20
72.680698
 40
0.104978
 50
180.0
 51
207.278033
  0
ARC
  8
ボルト／ビス
  6
CONTINUOUS
 62
    64
 10
162.578573
 20
72.536361
 40
0.402402
 50
166.165015
 51
193.834998
  0
LINE
  8
ボルト／ビス
  6
CONTINUOUS
 62
    64
 10
162.17617
 20
72.37598
 11
162.187845
 21
72.343905
  0
ARC
  8
ボルト／ビス
  6
CONTINUOUS
 62
    64
 10
162.281149
 20
72.392023
 40
0.104978
 50
152.721967
 51
180.0
  0
LINE
  8
ボルト／ビス
  6
CONTINUOUS
 62
    64
 10
162.17617
 20
72.69673
 11
162.17617
 21
72.37598
  0
LINE
  8
ボルト／ビス
  6
CONTINUOUS
 62
    64
 10
162.187845
 20
72.343905
 11
162.309503
 21
72.343905
  0
LINE
  8
ボルト／ビス
  6
CONTINUOUS
 62
    64
 10
162.187845
 20
72.44013
 11
162.309503
 21
72.44013
  0
LINE
  8
ボルト／ビス
  6
CONTINUOUS
 62
    64
 10
162.187845
 20
72.728805
 11
162.309503
 21
72.728805
  0
LINE
  8
ボルト／ビス
  6
CONTINUOUS
 62
    64
 10
162.187845
 20
72.63258
 11
162.309503
 21
72.63258
  0
LINE
  8
ボルト／ビス
  6
CONTINUOUS
 10
162.309503
 20
72.728805
 11
162.309503
 21
72.343905
  0
LINE
  8
ボルト／ビス
  6
CONTINUOUS
 10
162.309503
 20
72.736355
 11
162.37617
 21
72.736355
  0
LINE
  8
ボルト／ビス
  6
CONTINUOUS
 10
162.309503
 20
72.736355
 11
162.309503
 21
72.336355
  0
LINE
  8
ボルト／ビス
  6
CONTINUOUS
 10
162.309503
 20
72.336355
 11
162.37617
 21
72.336355
  0
ENDBLK
  0
BLOCK
  2
*DIM_0008
 70
    65
 10
0.0
 20
0.0
  0
LINE
  8
寸法
  6
CONTINUOUS
 10
161.248695
 20
74.149688
 11
142.14273
 21
74.149688
  0
LINE
  8
寸法
  6
CONTINUOUS
 10
142.14273
 20
71.869993
 11
142.14273
 21
74.149688
  0
POINT
  8
寸法
 10
142.14273
 20
71.869993
  0
POINT
  8
寸法
 10
142.14273
 20
74.149688
  0
TEXT
  7
TextStyle03
  8
寸法
  6
CONTINUOUS
 10
141.75
 20
76.46875
  1
68.4
 40
3.0
 50
90.0
 72
     5
 11
141.75
 21
83.03125
  0
ENDBLK
  0
BLOCK
  2
*DIM_0009
 70
    65
 10
0.0
 20
0.0
  0
LINE
  8
寸法
  6
CONTINUOUS
 10
142.14273
 20
71.869993
 11
142.14273
 21
28.536658
  0
POINT
  8
寸法
 10
142.14273
 20
71.869993
  0
POINT
  8
寸法
 10
142.14273
 20
28.536658
  0
TEXT
  7
TextStyle03
  8
寸法
  6
CONTINUOUS
 10
141.75
 20
38.48125
  1
呼称寸法　1300
 40
3.0
 50
90.0
 72
     5
 11
141.75
 21
61.91875
  0
ENDBLK
  0
BLOCK
  2
*GRP_0010
 70
    65
 10
0.0
 20
0.0
  0
INSERT
  2
M8横
  8
ゴム等
  6
CONTINUOUS
 10
21.563192
 20
-70.297288
 50
180.0
 41
0.033333
 42
-0.033333
  0
LINE
  8
ボルト／ビス
  6
CONTINUOUS
 10
21.42986
 20
-70.087288
 11
21.446525
 21
-70.070622
  0
LINE
  8
ボルト／ビス
  6
CONTINUOUS
 10
21.67986
 20
-70.070622
 11
21.696525
 21
-70.087288
  0
LINE
  8
ボルト／ビス
  6
CONTINUOUS
 10
21.696525
 20
-70.087288
 11
21.42986
 21
-70.087288
  0
LINE
  8
ボルト／ビス
  6
CONTINUOUS
 10
21.67986
 20
-70.070622
 11
21.446525
 21
-70.070622
  0
LINE
  8
ボルト／ビス
  6
CONTINUOUS
 10
21.446525
 20
-70.070622
 11
21.446525
 21
-70.113952
  0
LINE
  8
ボルト／ビス
  6
CONTINUOUS
 10
21.42986
 20
-70.087288
 11
21.42986
 21
-70.113952
  0
LINE
  8
ボルト／ビス
  6
CONTINUOUS
 10
21.696525
 20
-70.087288
 11
21.696525
 21
-70.113952
  0
LINE
  8
ボルト／ビス
  6
CONTINUOUS
 10
21.67986
 20
-70.070622
 11
21.67986
 21
-70.113952
  0
LINE
  8
ボルト／ビス
  6
CONTINUOUS
 10
21.92986
 20
-70.297288
 11
21.196525
 21
-70.297288
  0
LINE
  8
ボルト／ビス
  6
CONTINUOUS
 10
21.146525
 20
-70.337288
 11
21.146525
 21
-70.42062
  0
LINE
  8
ボルト／ビス
  6
CONTINUOUS
 10
21.146525
 20
-70.42062
 11
21.97986
 21
-70.42062
  0
LINE
  8
ボルト／ビス
  6
CONTINUOUS
 10
21.97986
 20
-70.42062
 11
21.97986
 21
-70.337288
  0
LINE
  8
ボルト／ビス
  6
CONTINUOUS
 10
21.146525
 20
-70.337288
 11
21.97986
 21
-70.337288
  0
LINE
  8
ボルト／ビス
  6
CONTINUOUS
 10
21.92986
 20
-70.297288
 11
21.92986
 21
-70.337288
  0
LINE
  8
ボルト／ビス
  6
CONTINUOUS
 10
21.196525
 20
-70.297288
 11
21.196525
 21
-70.337288
  0
LINE
  8
ボルト／ビス
  6
CONTINUOUS
 10
21.563192
 20
-70.347288
 11
21.563192
 21
-70.297288
  0
ENDBLK
  0
BLOCK
  2
*GRP_0011
 70
    65
 10
0.0
 20
0.0
  0
LINE
  8
ボルト／ビス
  6
CONTINUOUS
 10
21.76986
 20
-69.437453
 11
21.76986
 21
-69.370788
  0
LINE
  8
ボルト／ビス
  6
CONTINUOUS
 10
21.76986
 20
-69.370788
 11
21.036528
 21
-69.370788
  0
LINE
  8
ボルト／ビス
  6
CONTINUOUS
 10
21.036528
 20
-69.370788
 11
21.036528
 21
-69.437453
  0
LINE
  8
ボルト／ビス
  6
CONTINUOUS
 10
21.76986
 20
-69.437453
 11
21.036528
 21
-69.437453
  0
LINE
  8
ボルト／ビス
  6
CONTINUOUS
 10
21.703195
 20
-69.337453
 11
21.703195
 21
-69.370788
  0
LINE
  8
ボルト／ビス
  6
CONTINUOUS
 10
21.703195
 20
-69.337453
 11
21.103195
 21
-69.337453
  0
LINE
  8
ボルト／ビス
  6
CONTINUOUS
 10
21.103195
 20
-69.337453
 11
21.103195
 21
-69.370788
  0
LINE
  8
ボルト／ビス
  6
CONTINUOUS
 62
    64
 10
21.56357
 20
-69.137453
 11
21.595645
 21
-69.149128
  0
ARC
  8
ボルト／ビス
  6
CONTINUOUS
 62
    64
 10
21.547531
 20
-69.242431
 40
0.104978
 50
90.0
 51
117.278033
  0
ARC
  8
ボルト／ビス
  6
CONTINUOUS
 62
    64
 10
21.403194
 20
-69.539855
 40
0.402402
 50
76.165015
 51
103.834998
  0
LINE
  8
ボルト／ビス
  6
CONTINUOUS
 62
    64
 10
21.24282
 20
-69.137453
 11
21.210745
 21
-69.149128
  0
ARC
  8
ボルト／ビス
  6
CONTINUOUS
 62
    64
 10
21.258856
 20
-69.242431
 40
0.104978
 50
62.721967
 51
90.0
  0
LINE
  8
ボルト／ビス
  6
CONTINUOUS
 62
    64
 10
21.56357
 20
-69.137453
 11
21.24282
 21
-69.137453
  0
LINE
  8
ボルト／ビス
  6
CONTINUOUS
 62
    64
 10
21.210745
 20
-69.149128
 11
21.210745
 21
-69.270788
  0
LINE
  8
ボルト／ビス
  6
CONTINUOUS
 62
    64
 10
21.30697
 20
-69.149128
 11
21.30697
 21
-69.270788
  0
LINE
  8
ボルト／ビス
  6
CONTINUOUS
 62
    64
 10
21.595645
 20
-69.149128
 11
21.595645
 21
-69.270788
  0
LINE
  8
ボルト／ビス
  6
CONTINUOUS
 62
    64
 10
21.49942
 20
-69.149128
 11
21.49942
 21
-69.270788
  0
LINE
  8
ボルト／ビス
  6
CONTINUOUS
 10
21.595645
 20
-69.270788
 11
21.210745
 21
-69.270788
  0
LINE
  8
ボルト／ビス
  6
CONTINUOUS
 10
21.603195
 20
-69.270788
 11
21.603195
 21
-69.337453
  0
LINE
  8
ボルト／ビス
  6
CONTINUOUS
 10
21.603195
 20
-69.270788
 11
21.203195
 21
-69.270788
  0
LINE
  8
ボルト／ビス
  6
CONTINUOUS
 10
21.203195
 20
-69.270788
 11
21.203195
 21
-69.337453
  0
ENDBLK
  0
BLOCK
  2
*GRP_0012
 70
    65
 10
0.0
 20
0.0
  0
INSERT
  2
M8横
  8
ゴム等
  6
CONTINUOUS
 10
-96.756188
 20
-70.297288
 41
0.033333
 42
0.033333
  0
LINE
  8
ボルト／ビス
  6
CONTINUOUS
 10
-96.622855
 20
-70.087288
 11
-96.63952
 21
-70.070622
  0
LINE
  8
ボルト／ビス
  6
CONTINUOUS
 10
-96.872855
 20
-70.070622
 11
-96.88952
 21
-70.087288
  0
LINE
  8
ボルト／ビス
  6
CONTINUOUS
 10
-96.88952
 20
-70.087288
 11
-96.622855
 21
-70.087288
  0
LINE
  8
ボルト／ビス
  6
CONTINUOUS
 10
-96.872855
 20
-70.070622
 11
-96.63952
 21
-70.070622
  0
LINE
  8
ボルト／ビス
  6
CONTINUOUS
 10
-96.63952
 20
-70.070622
 11
-96.63952
 21
-70.113952
  0
LINE
  8
ボルト／ビス
  6
CONTINUOUS
 10
-96.622855
 20
-70.087288
 11
-96.622855
 21
-70.113952
  0
LINE
  8
ボルト／ビス
  6
CONTINUOUS
 10
-96.88952
 20
-70.087288
 11
-96.88952
 21
-70.113952
  0
LINE
  8
ボルト／ビス
  6
CONTINUOUS
 10
-96.872855
 20
-70.070622
 11
-96.872855
 21
-70.113952
  0
LINE
  8
ボルト／ビス
  6
CONTINUOUS
 10
-97.122855
 20
-70.297288
 11
-96.38952
 21
-70.297288
  0
LINE
  8
ボルト／ビス
  6
CONTINUOUS
 10
-96.33952
 20
-70.337288
 11
-96.33952
 21
-70.42062
  0
LINE
  8
ボルト／ビス
  6
CONTINUOUS
 10
-96.33952
 20
-70.42062
 11
-97.172855
 21
-70.42062
  0
LINE
  8
ボルト／ビス
  6
CONTINUOUS
 10
-97.172855
 20
-70.42062
 11
-97.172855
 21
-70.337288
  0
LINE
  8
ボルト／ビス
  6
CONTINUOUS
 10
-96.33952
 20
-70.337288
 11
-97.172855
 21
-70.337288
  0
LINE
  8
ボルト／ビス
  6
CONTINUOUS
 10
-97.122855
 20
-70.297288
 11
-97.122855
 21
-70.337288
  0
LINE
  8
ボルト／ビス
  6
CONTINUOUS
 10
-96.38952
 20
-70.297288
 11
-96.38952
 21
-70.337288
  0
LINE
  8
ボルト／ビス
  6
CONTINUOUS
 10
-96.756188
 20
-70.347288
 11
-96.756188
 21
-70.297288
  0
ENDBLK
  0
BLOCK
  2
*GRP_0013
 70
    65
 10
0.0
 20
0.0
  0
LINE
  8
ボルト／ビス
  6
CONTINUOUS
 10
-96.962855
 20
-69.437453
 11
-96.962855
 21
-69.370788
  0
LINE
  8
ボルト／ビス
  6
CONTINUOUS
 10
-96.962855
 20
-69.370788
 11
-96.229522
 21
-69.370788
  0
LINE
  8
ボルト／ビス
  6
CONTINUOUS
 10
-96.229522
 20
-69.370788
 11
-96.229522
 21
-69.437453
  0
LINE
  8
ボルト／ビス
  6
CONTINUOUS
 10
-96.962855
 20
-69.437453
 11
-96.229522
 21
-69.437453
  0
LINE
  8
ボルト／ビス
  6
CONTINUOUS
 10
-96.89619
 20
-69.337453
 11
-96.89619
 21
-69.370788
  0
LINE
  8
ボルト／ビス
  6
CONTINUOUS
 10
-96.89619
 20
-69.337453
 11
-96.29619
 21
-69.337453
  0
LINE
  8
ボルト／ビス
  6
CONTINUOUS
 10
-96.29619
 20
-69.337453
 11
-96.29619
 21
-69.370788
  0
LINE
  8
ボルト／ビス
  6
CONTINUOUS
 62
    64
 10
-96.756565
 20
-69.137453
 11
-96.78864
 21
-69.149128
  0
ARC
  8
ボルト／ビス
  6
CONTINUOUS
 62
    64
 10
-96.740528
 20
-69.242431
 40
0.104978
 50
62.721967
 51
90.0
  0
ARC
  8
ボルト／ビス
  6
CONTINUOUS
 62
    64
 10
-96.59619
 20
-69.539855
 40
0.402402
 50
76.165002
 51
103.834985
  0
LINE
  8
ボルト／ビス
  6
CONTINUOUS
 62
    64
 10
-96.435815
 20
-69.137453
 11
-96.40374
 21
-69.149128
  0
ARC
  8
ボルト／ビス
  6
CONTINUOUS
 62
    64
 10
-96.451853
 20
-69.242431
 40
0.104978
 50
90.0
 51
117.278033
  0
LINE
  8
ボルト／ビス
  6
CONTINUOUS
 62
    64
 10
-96.756565
 20
-69.137453
 11
-96.435815
 21
-69.137453
  0
LINE
  8
ボルト／ビス
  6
CONTINUOUS
 62
    64
 10
-96.40374
 20
-69.149128
 11
-96.40374
 21
-69.270788
  0
LINE
  8
ボルト／ビス
  6
CONTINUOUS
 62
    64
 10
-96.499965
 20
-69.149128
 11
-96.499965
 21
-69.270788
  0
LINE
  8
ボルト／ビス
  6
CONTINUOUS
 62
    64
 10
-96.78864
 20
-69.149128
 11
-96.78864
 21
-69.270788
  0
LINE
  8
ボルト／ビス
  6
CONTINUOUS
 62
    64
 10
-96.692415
 20
-69.149128
 11
-96.692415
 21
-69.270788
  0
LINE
  8
ボルト／ビス
  6
CONTINUOUS
 10
-96.78864
 20
-69.270788
 11
-96.40374
 21
-69.270788
  0
LINE
  8
ボルト／ビス
  6
CONTINUOUS
 10
-96.79619
 20
-69.270788
 11
-96.79619
 21
-69.337453
  0
LINE
  8
ボルト／ビス
  6
CONTINUOUS
 10
-96.79619
 20
-69.270788
 11
-96.39619
 21
-69.270788
  0
LINE
  8
ボルト／ビス
  6
CONTINUOUS
 10
-96.39619
 20
-69.270788
 11
-96.39619
 21
-69.337453
  0
ENDBLK
  0
BLOCK
  2
*DIM_0014
 70
    65
 10
0.0
 20
0.0
  0
LINE
  8
寸法
  6
CONTINUOUS
 10
25.736832
 20
-68.70412
 11
44.355305
 21
-68.70412
  0
LINE
  8
寸法
  6
CONTINUOUS
 10
27.703195
 20
-76.17062
 11
44.355305
 21
-76.17062
  0
LINE
  8
寸法
  6
CONTINUOUS
 10
44.355305
 20
-68.70412
 11
44.355305
 21
-76.17062
  0
POINT
  8
寸法
 10
44.355305
 20
-68.70412
  0
POINT
  8
寸法
 10
44.355305
 20
-76.17062
  0
TEXT
  7
TextStyle03
  8
寸法
  6
CONTINUOUS
 10
43.975
 20
-74.8875
  1
224
 40
3.0
 50
90.0
 72
     5
 11
43.975
 21
-70.0125
  0
ENDBLK
  0
BLOCK
  2
*DIM_0015
 70
    65
 10
0.0
 20
0.0
  0
LINE
  8
寸法
  6
BYBLOCK
 62
     0
 10
-79.263165
 20
24.90653
 11
-79.263165
 21
19.689582
  0
LINE
  8
寸法
  6
BYBLOCK
 62
     0
 10
4.07017
 20
24.90653
 11
4.07017
 21
19.689582
  0
LINE
  8
寸法
  6
BYBLOCK
 62
     0
 10
-79.263165
 20
19.689582
 11
4.07017
 21
19.689582
  0
POINT
  8
寸法
 62
     0
 10
-79.263165
 20
19.689582
  0
POINT
  8
寸法
 62
     0
 10
4.07017
 20
19.689582
  0
TEXT
  7
TextStyle03
  8
寸法
  6
CONTINUOUS
 62
     0
 10
-40.85625
 20
20.05
  1
2500
 40
3.0
 72
     5
 11
-34.29375
 21
20.05
  0
ENDBLK
  0
BLOCK
  2
*DIM_0016
 70
    65
 10
0.0
 20
0.0
  0
LINE
  8
寸法
  6
BYBLOCK
 62
     0
 10
24.366963
 20
67.96999
 11
31.144255
 21
67.96999
  0
LINE
  8
寸法
  6
BYBLOCK
 62
     0
 10
31.144255
 20
71.86999
 11
31.144255
 21
67.96999
  0
POINT
  8
寸法
 62
     0
 10
31.144255
 20
71.86999
  0
POINT
  8
寸法
 62
     0
 10
31.144255
 20
67.96999
  0
TEXT
  7
TextStyle03
  8
寸法
  6
CONTINUOUS
 62
     0
 10
30.85
 20
72.5375
  1
117
 40
3.0
 50
90.0
 72
     5
 11
30.85
 21
77.4125
  0
ENDBLK
  0
BLOCK
  2
*DIM_0017
 70
    65
 10
0.0
 20
0.0
  0
LINE
  8
寸法
  6
BYBLOCK
 62
     0
 10
24.366963
 20
32.43666
 11
31.144255
 21
32.43666
  0
LINE
  8
寸法
  6
BYBLOCK
 62
     0
 10
31.144255
 20
28.53666
 11
31.144255
 21
32.43666
  0
POINT
  8
寸法
 62
     0
 10
31.144255
 20
28.53666
  0
POINT
  8
寸法
 62
     0
 10
31.144255
 20
32.43666
  0
TEXT
  7
TextStyle03
  8
寸法
  6
CONTINUOUS
 62
     0
 10
31.275
 20
22.5875
  1
117
 40
3.0
 50
90.0
 72
     5
 11
31.275
 21
27.4625
  0
ENDBLK
  0
BLOCK
  2
*DIM_0018
 70
    65
 10
0.0
 20
0.0
  0
LINE
  8
寸法
  6
BYBLOCK
 62
     0
 10
-98.929832
 20
38.536658
 11
-127.874997
 21
38.536658
  0
LINE
  8
寸法
  6
BYBLOCK
 62
     0
 10
-98.929832
 20
61.869993
 11
-127.874997
 21
61.869993
  0
LINE
  8
寸法
  6
BYBLOCK
 62
     0
 10
-127.874997
 20
38.536658
 11
-127.874997
 21
61.869993
  0
POINT
  8
寸法
 62
     0
 10
-127.874997
 20
38.536658
  0
POINT
  8
寸法
 62
     0
 10
-127.874997
 20
61.869993
  0
TEXT
  7
TextStyle03
  8
寸法
  6
CONTINUOUS
 62
     0
 10
-128.2
 20
47.7375
  1
700
 40
3.0
 50
90.0
 72
     5
 11
-128.2
 21
52.6125
  0
ENDBLK
  0
BLOCK
  2
*DIM_0019
 70
    65
 10
0.0
 20
0.0
  0
LINE
  8
寸法
  6
BYBLOCK
 62
     0
 10
-90.92983
 20
74.86999
 11
-90.92983
 21
103.978062
  0
LINE
  8
寸法
  6
BYBLOCK
 62
     0
 10
-64.263165
 20
74.86999
 11
-64.263165
 21
103.978062
  0
LINE
  8
寸法
  6
BYBLOCK
 62
     0
 10
-90.92983
 20
103.978062
 11
-64.263165
 21
103.978062
  0
POINT
  8
寸法
 62
     0
 10
-90.92983
 20
103.978062
  0
POINT
  8
寸法
 62
     0
 10
-64.263165
 20
103.978062
  0
TEXT
  7
TextStyle03
  8
寸法
  6
CONTINUOUS
 62
     0
 10
-80.0125
 20
104.325
  1
800
 40
3.0
 72
     5
 11
-75.1375
 21
104.325
  0
ENDBLK
  0
BLOCK
  2
*DIM_0020
 70
    65
 10
0.0
 20
0.0
  0
LINE
  8
寸法
  6
BYBLOCK
 62
     0
 10
-37.596497
 20
74.86999
 11
-37.596497
 21
103.978062
  0
LINE
  8
寸法
  6
BYBLOCK
 62
     0
 10
-64.263165
 20
103.978062
 11
-37.596497
 21
103.978062
  0
POINT
  8
寸法
 62
     0
 10
-37.596497
 20
103.978062
  0
TEXT
  7
TextStyle03
  8
寸法
  6
CONTINUOUS
 62
     0
 10
-53.3625
 20
104.325
  1
800
 40
3.0
 72
     5
 11
-48.4875
 21
104.325
  0
ENDBLK
  0
BLOCK
  2
*DIM_0021
 70
    65
 10
0.0
 20
0.0
  0
LINE
  8
寸法
  6
BYBLOCK
 62
     0
 10
-10.92983
 20
74.86999
 11
-10.92983
 21
103.978062
  0
LINE
  8
寸法
  6
BYBLOCK
 62
     0
 10
-37.596497
 20
103.978062
 11
-10.92983
 21
103.978062
  0
POINT
  8
寸法
 62
     0
 10
-10.92983
 20
103.978062
  0
TEXT
  7
TextStyle03
  8
寸法
  6
CONTINUOUS
 62
     0
 10
-26.6875
 20
104.325
  1
800
 40
3.0
 72
     5
 11
-21.8125
 21
104.325
  0
ENDBLK
  0
BLOCK
  2
*DIM_0022
 70
    65
 10
0.0
 20
0.0
  0
LINE
  8
寸法
  6
BYBLOCK
 62
     0
 10
15.736835
 20
74.86999
 11
15.736835
 21
103.978062
  0
LINE
  8
寸法
  6
BYBLOCK
 62
     0
 10
-10.92983
 20
103.978062
 11
15.736835
 21
103.978062
  0
POINT
  8
寸法
 62
     0
 10
15.736835
 20
103.978062
  0
TEXT
  7
TextStyle03
  8
寸法
  6
CONTINUOUS
 62
     0
 10
-0.0125
 20
104.325
  1
800
 40
3.0
 72
     5
 11
4.8625
 21
104.325
  0
ENDBLK
  0
BLOCK
  2
*GRP_0023
 70
    65
 10
0.0
 20
0.0
  0
LINE
  8
型材断面
  6
DOT
 10
22.4035
 20
-54.937453
 11
22.3535
 21
-54.937453
  0
LINE
  8
型材断面
  6
DOT
 10
20.736832
 20
-54.437453
 11
20.736832
 21
-53.70412
  0
LINE
  8
型材断面
  6
DOT
 10
20.786528
 20
-55.42062
 11
22.233195
 21
-55.42062
  0
LINE
  8
型材断面
  6
DOT
 10
22.233195
 20
-55.87062
 11
22.233195
 21
-55.42062
  0
LINE
  8
型材断面
  6
DOT
 62
    47
 10
22.966527
 20
-58.543312
 11
23.016527
 21
-58.543312
  0
LINE
  8
型材断面
  6
DOT
 62
    47
 10
23.016527
 20
-58.543312
 11
23.016527
 21
-58.209977
  0
LINE
  8
型材断面
  6
DOT
 62
    47
 10
23.016527
 20
-58.209977
 11
22.233195
 21
-58.109977
  0
LINE
  8
型材断面
  6
DOT
 62
    47
 10
22.233195
 20
-57.703953
 11
22.233195
 21
-58.109977
  0
LINE
  8
型材断面
  6
DOT
 62
    47
 10
22.703195
 20
-57.703953
 11
22.703195
 21
-55.87062
  0
LINE
  8
型材断面
  6
DOT
 10
22.4035
 20
-54.937453
 11
22.4035
 21
-54.437453
  0
LINE
  8
型材断面
  6
DOT
 10
20.786528
 20
-55.42062
 11
20.786528
 21
-54.937453
  0
INSERT
  2
*GRP_0024
  8
型材断面
  6
DOT
 10
0.0
 20
0.0
  0
INSERT
  2
*GRP_0025
  8
型材断面
  6
DOT
 10
0.0
 20
0.0
  0
LINE
  8
型材断面
  6
DOT
 10
23.016527
 20
-58.543312
 11
-37.596497
 21
-58.543312
  0
LINE
  8
型材断面
  6
DOT
 10
23.016527
 20
-58.209977
 11
-37.596497
 21
-58.209977
  0
LINE
  8
型材断面
  6
DOT
 10
22.233195
 20
-58.109977
 11
-37.596497
 21
-58.109977
  0
LINE
  8
型材断面
  6
DOT
 10
22.703195
 20
-57.703953
 11
-37.596497
 21
-57.703953
  0
LINE
  8
型材断面
  6
DOT
 10
22.4035
 20
-54.937453
 11
-37.596497
 21
-54.937453
  0
LINE
  8
型材断面
  6
DOT
 10
20.736832
 20
-53.70412
 11
-37.596497
 21
-53.70412
  0
LINE
  8
型材断面
  6
DOT
 10
22.4035
 20
-54.437453
 11
-37.596497
 21
-54.437453
  0
LINE
  8
型材断面
  6
DOT
 10
22.233195
 20
-55.42062
 11
-37.596497
 21
-55.42062
  0
LINE
  8
型材断面
  6
DOT
 10
22.703195
 20
-55.87062
 11
-37.596497
 21
-55.87062
  0
LINE
  8
型材断面
  6
DOT
 10
-97.596495
 20
-54.937453
 11
-97.546495
 21
-54.937453
  0
LINE
  8
型材断面
  6
DOT
 10
-95.929828
 20
-54.437453
 11
-95.929828
 21
-53.70412
  0
LINE
  8
型材断面
  6
DOT
 10
-95.979522
 20
-55.42062
 11
-97.42619
 21
-55.42062
  0
LINE
  8
型材断面
  6
DOT
 10
-97.42619
 20
-55.87062
 11
-97.42619
 21
-55.42062
  0
LINE
  8
型材断面
  6
DOT
 62
    47
 10
-98.159523
 20
-58.543312
 11
-98.209523
 21
-58.543312
  0
LINE
  8
型材断面
  6
DOT
 62
    47
 10
-98.209523
 20
-58.543312
 11
-98.209523
 21
-58.209977
  0
LINE
  8
型材断面
  6
DOT
 62
    47
 10
-98.209523
 20
-58.209977
 11
-97.42619
 21
-58.109977
  0
LINE
  8
型材断面
  6
DOT
 62
    47
 10
-97.42619
 20
-57.703953
 11
-97.42619
 21
-58.109977
  0
LINE
  8
型材断面
  6
DOT
 62
    47
 10
-97.89619
 20
-57.703953
 11
-97.89619
 21
-55.87062
  0
LINE
  8
型材断面
  6
DOT
 10
-97.596495
 20
-54.937453
 11
-97.596495
 21
-54.437453
  0
LINE
  8
型材断面
  6
DOT
 10
-95.979522
 20
-55.42062
 11
-95.979522
 21
-54.937453
  0
INSERT
  2
*GRP_0026
  8
型材断面
  6
DOT
 10
0.0
 20
0.0
  0
INSERT
  2
*GRP_0027
  8
型材断面
  6
DOT
 10
0.0
 20
0.0
  0
LINE
  8
型材断面
  6
DOT
 10
-98.209523
 20
-58.543312
 11
-37.596497
 21
-58.543312
  0
LINE
  8
型材断面
  6
DOT
 10
-98.209523
 20
-58.209977
 11
-37.596497
 21
-58.209977
  0
LINE
  8
型材断面
  6
DOT
 10
-97.42619
 20
-58.109977
 11
-37.596497
 21
-58.109977
  0
LINE
  8
型材断面
  6
DOT
 10
-97.89619
 20
-57.703953
 11
-37.596497
 21
-57.703953
  0
LINE
  8
型材断面
  6
DOT
 10
-97.596495
 20
-54.937453
 11
-37.596497
 21
-54.937453
  0
LINE
  8
型材断面
  6
DOT
 10
-95.929828
 20
-53.70412
 11
-37.596497
 21
-53.70412
  0
LINE
  8
型材断面
  6
DOT
 10
-97.596495
 20
-54.437453
 11
-37.596497
 21
-54.437453
  0
LINE
  8
型材断面
  6
DOT
 10
-97.42619
 20
-55.42062
 11
-37.596497
 21
-55.42062
  0
LINE
  8
型材断面
  6
DOT
 10
-97.89619
 20
-55.87062
 11
-37.596497
 21
-55.87062
  0
ENDBLK
  0
BLOCK
  2
*GRP_0024
 70
    65
 10
0.0
 20
0.0
  0
INSERT
  2
M8横
  8
ゴム等
  6
DOT
 10
21.563192
 20
-55.297288
 50
180.0
 41
0.033333
 42
-0.033333
  0
LINE
  8
ボルト／ビス
  6
DOT
 10
21.42986
 20
-55.087288
 11
21.446525
 21
-55.070622
  0
LINE
  8
ボルト／ビス
  6
DOT
 10
21.67986
 20
-55.070622
 11
21.696525
 21
-55.087288
  0
LINE
  8
ボルト／ビス
  6
DOT
 10
21.696525
 20
-55.087288
 11
21.42986
 21
-55.087288
  0
LINE
  8
ボルト／ビス
  6
DOT
 10
21.67986
 20
-55.070622
 11
21.446525
 21
-55.070622
  0
LINE
  8
ボルト／ビス
  6
DOT
 10
21.446525
 20
-55.070622
 11
21.446525
 21
-55.113952
  0
LINE
  8
ボルト／ビス
  6
DOT
 10
21.42986
 20
-55.087288
 11
21.42986
 21
-55.113952
  0
LINE
  8
ボルト／ビス
  6
DOT
 10
21.696525
 20
-55.087288
 11
21.696525
 21
-55.113952
  0
LINE
  8
ボルト／ビス
  6
DOT
 10
21.67986
 20
-55.070622
 11
21.67986
 21
-55.113952
  0
LINE
  8
ボルト／ビス
  6
DOT
 10
21.92986
 20
-55.297288
 11
21.196525
 21
-55.297288
  0
LINE
  8
ボルト／ビス
  6
DOT
 10
21.146525
 20
-55.337288
 11
21.146525
 21
-55.42062
  0
LINE
  8
ボルト／ビス
  6
DOT
 10
21.146525
 20
-55.42062
 11
21.97986
 21
-55.42062
  0
LINE
  8
ボルト／ビス
  6
DOT
 10
21.97986
 20
-55.42062
 11
21.97986
 21
-55.337288
  0
LINE
  8
ボルト／ビス
  6
DOT
 10
21.146525
 20
-55.337288
 11
21.97986
 21
-55.337288
  0
LINE
  8
ボルト／ビス
  6
DOT
 10
21.92986
 20
-55.297288
 11
21.92986
 21
-55.337288
  0
LINE
  8
ボルト／ビス
  6
DOT
 10
21.196525
 20
-55.297288
 11
21.196525
 21
-55.337288
  0
LINE
  8
ボルト／ビス
  6
DOT
 10
21.563192
 20
-55.347288
 11
21.563192
 21
-55.297288
  0
ENDBLK
  0
BLOCK
  2
*GRP_0025
 70
    65
 10
0.0
 20
0.0
  0
LINE
  8
ボルト／ビス
  6
DOT
 10
21.76986
 20
-54.437453
 11
21.76986
 21
-54.370788
  0
LINE
  8
ボルト／ビス
  6
DOT
 10
21.76986
 20
-54.370788
 11
21.036528
 21
-54.370788
  0
LINE
  8
ボルト／ビス
  6
DOT
 10
21.036528
 20
-54.370788
 11
21.036528
 21
-54.437453
  0
LINE
  8
ボルト／ビス
  6
DOT
 10
21.76986
 20
-54.437453
 11
21.036528
 21
-54.437453
  0
LINE
  8
ボルト／ビス
  6
DOT
 10
21.703195
 20
-54.337453
 11
21.703195
 21
-54.370788
  0
LINE
  8
ボルト／ビス
  6
DOT
 10
21.703195
 20
-54.337453
 11
21.103195
 21
-54.337453
  0
LINE
  8
ボルト／ビス
  6
DOT
 10
21.103195
 20
-54.337453
 11
21.103195
 21
-54.370788
  0
LINE
  8
ボルト／ビス
  6
DOT
 62
    64
 10
21.56357
 20
-54.137453
 11
21.595645
 21
-54.149128
  0
ARC
  8
ボルト／ビス
  6
DOT
 62
    64
 10
21.547531
 20
-54.242431
 40
0.104978
 50
90.0
 51
117.278033
  0
ARC
  8
ボルト／ビス
  6
DOT
 62
    64
 10
21.403194
 20
-54.539855
 40
0.402402
 50
76.165015
 51
103.834998
  0
LINE
  8
ボルト／ビス
  6
DOT
 62
    64
 10
21.24282
 20
-54.137453
 11
21.210745
 21
-54.149128
  0
ARC
  8
ボルト／ビス
  6
DOT
 62
    64
 10
21.258856
 20
-54.242431
 40
0.104978
 50
62.721967
 51
90.0
  0
LINE
  8
ボルト／ビス
  6
DOT
 62
    64
 10
21.56357
 20
-54.137453
 11
21.24282
 21
-54.137453
  0
LINE
  8
ボルト／ビス
  6
DOT
 62
    64
 10
21.210745
 20
-54.149128
 11
21.210745
 21
-54.270788
  0
LINE
  8
ボルト／ビス
  6
DOT
 62
    64
 10
21.30697
 20
-54.149128
 11
21.30697
 21
-54.270788
  0
LINE
  8
ボルト／ビス
  6
DOT
 62
    64
 10
21.595645
 20
-54.149128
 11
21.595645
 21
-54.270788
  0
LINE
  8
ボルト／ビス
  6
DOT
 62
    64
 10
21.49942
 20
-54.149128
 11
21.49942
 21
-54.270788
  0
LINE
  8
ボルト／ビス
  6
DOT
 10
21.595645
 20
-54.270788
 11
21.210745
 21
-54.270788
  0
LINE
  8
ボルト／ビス
  6
DOT
 10
21.603195
 20
-54.270788
 11
21.603195
 21
-54.337453
  0
LINE
  8
ボルト／ビス
  6
DOT
 10
21.603195
 20
-54.270788
 11
21.203195
 21
-54.270788
  0
LINE
  8
ボルト／ビス
  6
DOT
 10
21.203195
 20
-54.270788
 11
21.203195
 21
-54.337453
  0
ENDBLK
  0
BLOCK
  2
*GRP_0026
 70
    65
 10
0.0
 20
0.0
  0
INSERT
  2
M8横
  8
ゴム等
  6
DOT
 10
-96.756188
 20
-55.297288
 41
0.033333
 42
0.033333
  0
LINE
  8
ボルト／ビス
  6
DOT
 10
-96.622855
 20
-55.087288
 11
-96.63952
 21
-55.070622
  0
LINE
  8
ボルト／ビス
  6
DOT
 10
-96.872855
 20
-55.070622
 11
-96.88952
 21
-55.087288
  0
LINE
  8
ボルト／ビス
  6
DOT
 10
-96.88952
 20
-55.087288
 11
-96.622855
 21
-55.087288
  0
LINE
  8
ボルト／ビス
  6
DOT
 10
-96.872855
 20
-55.070622
 11
-96.63952
 21
-55.070622
  0
LINE
  8
ボルト／ビス
  6
DOT
 10
-96.63952
 20
-55.070622
 11
-96.63952
 21
-55.113952
  0
LINE
  8
ボルト／ビス
  6
DOT
 10
-96.622855
 20
-55.087288
 11
-96.622855
 21
-55.113952
  0
LINE
  8
ボルト／ビス
  6
DOT
 10
-96.88952
 20
-55.087288
 11
-96.88952
 21
-55.113952
  0
LINE
  8
ボルト／ビス
  6
DOT
 10
-96.872855
 20
-55.070622
 11
-96.872855
 21
-55.113952
  0
LINE
  8
ボルト／ビス
  6
DOT
 10
-97.122855
 20
-55.297288
 11
-96.38952
 21
-55.297288
  0
LINE
  8
ボルト／ビス
  6
DOT
 10
-96.33952
 20
-55.337288
 11
-96.33952
 21
-55.42062
  0
LINE
  8
ボルト／ビス
  6
DOT
 10
-96.33952
 20
-55.42062
 11
-97.172855
 21
-55.42062
  0
LINE
  8
ボルト／ビス
  6
DOT
 10
-97.172855
 20
-55.42062
 11
-97.172855
 21
-55.337288
  0
LINE
  8
ボルト／ビス
  6
DOT
 10
-96.33952
 20
-55.337288
 11
-97.172855
 21
-55.337288
  0
LINE
  8
ボルト／ビス
  6
DOT
 10
-97.122855
 20
-55.297288
 11
-97.122855
 21
-55.337288
  0
LINE
  8
ボルト／ビス
  6
DOT
 10
-96.38952
 20
-55.297288
 11
-96.38952
 21
-55.337288
  0
LINE
  8
ボルト／ビス
  6
DOT
 10
-96.756188
 20
-55.347288
 11
-96.756188
 21
-55.297288
  0
ENDBLK
  0
BLOCK
  2
*GRP_0027
 70
    65
 10
0.0
 20
0.0
  0
LINE
  8
ボルト／ビス
  6
DOT
 10
-96.962855
 20
-54.437453
 11
-96.962855
 21
-54.370788
  0
LINE
  8
ボルト／ビス
  6
DOT
 10
-96.962855
 20
-54.370788
 11
-96.229522
 21
-54.370788
  0
LINE
  8
ボルト／ビス
  6
DOT
 10
-96.229522
 20
-54.370788
 11
-96.229522
 21
-54.437453
  0
LINE
  8
ボルト／ビス
  6
DOT
 10
-96.962855
 20
-54.437453
 11
-96.229522
 21
-54.437453
  0
LINE
  8
ボルト／ビス
  6
DOT
 10
-96.89619
 20
-54.337453
 11
-96.89619
 21
-54.370788
  0
LINE
  8
ボルト／ビス
  6
DOT
 10
-96.89619
 20
-54.337453
 11
-96.29619
 21
-54.337453
  0
LINE
  8
ボルト／ビス
  6
DOT
 10
-96.29619
 20
-54.337453
 11
-96.29619
 21
-54.370788
  0
LINE
  8
ボルト／ビス
  6
DOT
 62
    64
 10
-96.756565
 20
-54.137453
 11
-96.78864
 21
-54.149128
  0
ARC
  8
ボルト／ビス
  6
DOT
 62
    64
 10
-96.740528
 20
-54.242431
 40
0.104978
 50
62.721967
 51
90.0
  0
ARC
  8
ボルト／ビス
  6
DOT
 62
    64
 10
-96.59619
 20
-54.539855
 40
0.402402
 50
76.165002
 51
103.834985
  0
LINE
  8
ボルト／ビス
  6
DOT
 62
    64
 10
-96.435815
 20
-54.137453
 11
-96.40374
 21
-54.149128
  0
ARC
  8
ボルト／ビス
  6
DOT
 62
    64
 10
-96.451853
 20
-54.242431
 40
0.104978
 50
90.0
 51
117.278033
  0
LINE
  8
ボルト／ビス
  6
DOT
 62
    64
 10
-96.756565
 20
-54.137453
 11
-96.435815
 21
-54.137453
  0
LINE
  8
ボルト／ビス
  6
DOT
 62
    64
 10
-96.40374
 20
-54.149128
 11
-96.40374
 21
-54.270788
  0
LINE
  8
ボルト／ビス
  6
DOT
 62
    64
 10
-96.499965
 20
-54.149128
 11
-96.499965
 21
-54.270788
  0
LINE
  8
ボルト／ビス
  6
DOT
 62
    64
 10
-96.78864
 20
-54.149128
 11
-96.78864
 21
-54.270788
  0
LINE
  8
ボルト／ビス
  6
DOT
 62
    64
 10
-96.692415
 20
-54.149128
 11
-96.692415
 21
-54.270788
  0
LINE
  8
ボルト／ビス
  6
DOT
 10
-96.78864
 20
-54.270788
 11
-96.40374
 21
-54.270788
  0
LINE
  8
ボルト／ビス
  6
DOT
 10
-96.79619
 20
-54.270788
 11
-96.79619
 21
-54.337453
  0
LINE
  8
ボルト／ビス
  6
DOT
 10
-96.79619
 20
-54.270788
 11
-96.39619
 21
-54.270788
  0
LINE
  8
ボルト／ビス
  6
DOT
 10
-96.39619
 20
-54.270788
 11
-96.39619
 21
-54.337453
  0
ENDBLK
  0
BLOCK
  2
*DIM_0028
 70
    65
 10
0.0
 20
0.0
  0
LINE
  8
寸法
  6
CONTINUOUS
 10
25.736832
 20
-68.70412
 11
44.355305
 21
-68.70412
  0
LINE
  8
寸法
  6
CONTINUOUS
 10
25.736832
 20
-53.70412
 11
44.355305
 21
-53.70412
  0
LINE
  8
寸法
  6
CONTINUOUS
 10
44.355305
 20
-68.70412
 11
44.355305
 21
-53.70412
  0
POINT
  8
寸法
 10
44.355305
 20
-68.70412
  0
POINT
  8
寸法
 10
44.355305
 20
-53.70412
  0
TEXT
  7
TextStyle03
  8
寸法
  6
CONTINUOUS
 10
47.35
 20
-70.31875
  1
上昇410以上
 40
3.0
 50
90.0
 72
     5
 11
47.35
 21
-52.13125
  0
ENDBLK
  0
BLOCK
  2
*GRP_0029
 70
    65
 10
0.0
 20
0.0
  0
LINE
  8
補助線
  6
BYBLOCK
 62
    64
 10
-84.247533
 20
-74.296548
 11
-84.379418
 21
-74.398452
  0
LINE
  8
補助線
  6
BYBLOCK
 62
    64
 10
-84.364427
 20
-74.281557
 11
-84.262522
 21
-74.413443
  0
LINE
  8
補助線
  6
BYBLOCK
 62
    64
 10
-72.836907
 20
-65.479857
 11
-72.968793
 21
-65.58176
  0
LINE
  8
補助線
  6
BYBLOCK
 62
    64
 10
-72.953802
 20
-65.464865
 11
-72.8519
 21
-65.59675
  0
LINE
  8
補助線
  6
BYBLOCK
 62
    64
 10
-61.558165
 20
-56.76507
 11
-61.426285
 21
-56.663165
  0
LINE
  8
補助線
  6
BYBLOCK
 62
    64
 10
-61.543177
 20
-56.648172
 11
-61.441275
 21
-56.78006
  0
LINE
  8
型材断面
  6
CONTINUOUS
 10
-85.08676
 20
-73.891885
 11
-85.176703
 21
-74.59325
  0
LINE
  8
型材断面
  6
CONTINUOUS
 10
-85.176703
 20
-74.59325
 11
-84.769088
 21
-75.120788
  0
LINE
  8
型材断面
  6
CONTINUOUS
 10
-84.769088
 20
-75.120788
 11
-84.067725
 21
-75.210728
  0
LINE
  8
型材断面
  6
CONTINUOUS
 10
-61.737975
 20
-55.85089
 11
-61.036612
 21
-55.940833
  0
LINE
  8
型材断面
  6
CONTINUOUS
 10
-61.036612
 20
-55.940833
 11
-60.628997
 21
-56.46837
  0
LINE
  8
型材断面
  6
CONTINUOUS
 10
-60.628997
 20
-56.46837
 11
-60.71894
 21
-57.169735
  0
LINE
  8
型材断面
  6
CONTINUOUS
 10
-84.067725
 20
-75.210728
 11
-60.71894
 21
-57.169735
  0
LINE
  8
型材断面
  6
CONTINUOUS
 10
-85.08676
 20
-73.891885
 11
-61.737975
 21
-55.85089
  0
CIRCLE
  8
ボルト／ビス
  6
CONTINUOUS
 10
-84.313475
 20
-74.3475
 40
0.250185
  0
CIRCLE
  8
ボルト／ビス
  6
CONTINUOUS
 10
-84.313475
 20
-74.3475
 40
0.301025
  0
LINE
  8
ボルト／ビス
  6
CONTINUOUS
 62
    64
 10
-84.56141
 20
-74.38099
 11
-84.466445
 21
-74.149528
  0
LINE
  8
ボルト／ビス
  6
CONTINUOUS
 62
    64
 10
-84.21851
 20
-74.116038
 11
-84.466445
 21
-74.149528
  0
LINE
  8
ボルト／ビス
  6
CONTINUOUS
 62
    64
 10
-84.40844
 20
-74.578963
 11
-84.160505
 21
-74.545472
  0
LINE
  8
ボルト／ビス
  6
CONTINUOUS
 62
    64
 10
-84.06554
 20
-74.31401
 11
-84.160505
 21
-74.545472
  0
LINE
  8
ボルト／ビス
  6
CONTINUOUS
 62
    64
 10
-84.56141
 20
-74.38099
 11
-84.40844
 21
-74.578963
  0
LINE
  8
ボルト／ビス
  6
CONTINUOUS
 62
    64
 10
-84.21851
 20
-74.116038
 11
-84.06554
 21
-74.31401
  0
CIRCLE
  8
ボルト／ビス
  6
CONTINUOUS
 62
    64
 10
-84.313475
 20
-74.3475
 40
0.216668
  0
CIRCLE
  8
ボルト／ビス
  6
CONTINUOUS
 10
-72.90285
 20
-65.53081
 40
0.250185
  0
CIRCLE
  8
ボルト／ビス
  6
CONTINUOUS
 10
-72.90285
 20
-65.53081
 40
0.301025
  0
LINE
  8
ボルト／ビス
  6
CONTINUOUS
 62
    64
 10
-73.150785
 20
-65.564297
 11
-73.05582
 21
-65.332838
  0
LINE
  8
ボルト／ビス
  6
CONTINUOUS
 62
    64
 10
-72.807885
 20
-65.299348
 11
-73.05582
 21
-65.332838
  0
LINE
  8
ボルト／ビス
  6
CONTINUOUS
 62
    64
 10
-72.997818
 20
-65.76227
 11
-72.749882
 21
-65.72878
  0
LINE
  8
ボルト／ビス
  6
CONTINUOUS
 62
    64
 10
-72.654915
 20
-65.49732
 11
-72.749882
 21
-65.72878
  0
LINE
  8
ボルト／ビス
  6
CONTINUOUS
 62
    64
 10
-73.150785
 20
-65.564297
 11
-72.997818
 21
-65.76227
  0
LINE
  8
ボルト／ビス
  6
CONTINUOUS
 62
    64
 10
-72.807885
 20
-65.299348
 11
-72.654915
 21
-65.49732
  0
CIRCLE
  8
ボルト／ビス
  6
CONTINUOUS
 62
    64
 10
-72.90285
 20
-65.53081
 40
0.216668
  0
CIRCLE
  8
ボルト／ビス
  6
CONTINUOUS
 10
-61.492227
 20
-56.714117
 40
0.250185
  0
CIRCLE
  8
ボルト／ビス
  6
CONTINUOUS
 10
-61.492227
 20
-56.714117
 40
0.301025
  0
LINE
  8
ボルト／ビス
  6
CONTINUOUS
 62
    64
 10
-61.39726
 20
-56.482655
 11
-61.645193
 21
-56.516145
  0
LINE
  8
ボルト／ビス
  6
CONTINUOUS
 62
    64
 10
-61.740157
 20
-56.747607
 11
-61.645193
 21
-56.516145
  0
LINE
  8
ボルト／ビス
  6
CONTINUOUS
 62
    64
 10
-61.244293
 20
-56.680627
 11
-61.339257
 21
-56.91209
  0
LINE
  8
ボルト／ビス
  6
CONTINUOUS
 62
    64
 10
-61.587193
 20
-56.94558
 11
-61.339257
 21
-56.91209
  0
LINE
  8
ボルト／ビス
  6
CONTINUOUS
 62
    64
 10
-61.39726
 20
-56.482655
 11
-61.244293
 21
-56.680627
  0
LINE
  8
ボルト／ビス
  6
CONTINUOUS
 62
    64
 10
-61.740157
 20
-56.747607
 11
-61.587193
 21
-56.94558
  0
CIRCLE
  8
ボルト／ビス
  6
CONTINUOUS
 62
    64
 10
-61.492227
 20
-56.714117
 40
0.216668
  0
ENDBLK
  0
BLOCK
  2
*GRP_0030
 70
    65
 10
0.0
 20
0.0
  0
LINE
  8
補助線
  6
BYBLOCK
 62
    64
 10
-61.558168
 20
-74.296548
 11
-61.426282
 21
-74.398452
  0
LINE
  8
補助線
  6
BYBLOCK
 62
    64
 10
-61.441273
 20
-74.281557
 11
-61.543177
 21
-74.413443
  0
LINE
  8
補助線
  6
BYBLOCK
 62
    64
 10
-72.968793
 20
-65.479857
 11
-72.836907
 21
-65.58176
  0
LINE
  8
補助線
  6
BYBLOCK
 62
    64
 10
-72.851897
 20
-65.464865
 11
-72.9538
 21
-65.59675
  0
LINE
  8
補助線
  6
BYBLOCK
 62
    64
 10
-84.247535
 20
-56.76507
 11
-84.379415
 21
-56.663165
  0
LINE
  8
補助線
  6
BYBLOCK
 62
    64
 10
-84.262522
 20
-56.648172
 11
-84.364425
 21
-56.78006
  0
LINE
  8
型材断面
  6
CONTINUOUS
 10
-60.71894
 20
-73.891885
 11
-60.628997
 21
-74.59325
  0
LINE
  8
型材断面
  6
CONTINUOUS
 10
-60.628997
 20
-74.59325
 11
-61.036612
 21
-75.120788
  0
LINE
  8
型材断面
  6
CONTINUOUS
 10
-61.036612
 20
-75.120788
 11
-61.737975
 21
-75.210728
  0
LINE
  8
型材断面
  6
CONTINUOUS
 10
-84.067725
 20
-55.85089
 11
-84.769088
 21
-55.940833
  0
LINE
  8
型材断面
  6
CONTINUOUS
 10
-84.769088
 20
-55.940833
 11
-85.176703
 21
-56.46837
  0
LINE
  8
型材断面
  6
CONTINUOUS
 10
-85.176703
 20
-56.46837
 11
-85.08676
 21
-57.169735
  0
LINE
  8
型材断面
  6
CONTINUOUS
 10
-61.737975
 20
-75.210728
 11
-85.08676
 21
-57.169735
  0
LINE
  8
型材断面
  6
CONTINUOUS
 10
-60.71894
 20
-73.891885
 11
-84.067725
 21
-55.85089
  0
CIRCLE
  8
ボルト／ビス
  6
CONTINUOUS
 10
-61.492225
 20
-74.3475
 40
0.250185
  0
CIRCLE
  8
ボルト／ビス
  6
CONTINUOUS
 10
-61.492225
 20
-74.3475
 40
0.301025
  0
LINE
  8
ボルト／ビス
  6
CONTINUOUS
 62
    64
 10
-61.24429
 20
-74.38099
 11
-61.339255
 21
-74.149528
  0
LINE
  8
ボルト／ビス
  6
CONTINUOUS
 62
    64
 10
-61.58719
 20
-74.116038
 11
-61.339255
 21
-74.149528
  0
LINE
  8
ボルト／ビス
  6
CONTINUOUS
 62
    64
 10
-61.39726
 20
-74.578963
 11
-61.645195
 21
-74.545472
  0
LINE
  8
ボルト／ビス
  6
CONTINUOUS
 62
    64
 10
-61.74016
 20
-74.31401
 11
-61.645195
 21
-74.545472
  0
LINE
  8
ボルト／ビス
  6
CONTINUOUS
 62
    64
 10
-61.24429
 20
-74.38099
 11
-61.39726
 21
-74.578963
  0
LINE
  8
ボルト／ビス
  6
CONTINUOUS
 62
    64
 10
-61.58719
 20
-74.116038
 11
-61.74016
 21
-74.31401
  0
CIRCLE
  8
ボルト／ビス
  6
CONTINUOUS
 62
    64
 10
-61.492225
 20
-74.3475
 40
0.216668
  0
CIRCLE
  8
ボルト／ビス
  6
CONTINUOUS
 10
-72.90285
 20
-65.53081
 40
0.250185
  0
CIRCLE
  8
ボルト／ビス
  6
CONTINUOUS
 10
-72.90285
 20
-65.53081
 40
0.301025
  0
LINE
  8
ボルト／ビス
  6
CONTINUOUS
 62
    64
 10
-72.654915
 20
-65.564297
 11
-72.74988
 21
-65.332838
  0
LINE
  8
ボルト／ビス
  6
CONTINUOUS
 62
    64
 10
-72.997815
 20
-65.299348
 11
-72.74988
 21
-65.332838
  0
LINE
  8
ボルト／ビス
  6
CONTINUOUS
 62
    64
 10
-72.807882
 20
-65.76227
 11
-73.055818
 21
-65.72878
  0
LINE
  8
ボルト／ビス
  6
CONTINUOUS
 62
    64
 10
-73.150785
 20
-65.49732
 11
-73.055818
 21
-65.72878
  0
LINE
  8
ボルト／ビス
  6
CONTINUOUS
 62
    64
 10
-72.654915
 20
-65.564297
 11
-72.807882
 21
-65.76227
  0
LINE
  8
ボルト／ビス
  6
CONTINUOUS
 62
    64
 10
-72.997815
 20
-65.299348
 11
-73.150785
 21
-65.49732
  0
CIRCLE
  8
ボルト／ビス
  6
CONTINUOUS
 62
    64
 10
-72.90285
 20
-65.53081
 40
0.216668
  0
CIRCLE
  8
ボルト／ビス
  6
CONTINUOUS
 10
-84.313472
 20
-56.714117
 40
0.250185
  0
CIRCLE
  8
ボルト／ビス
  6
CONTINUOUS
 10
-84.313472
 20
-56.714117
 40
0.301025
  0
LINE
  8
ボルト／ビス
  6
CONTINUOUS
 62
    64
 10
-84.40844
 20
-56.482655
 11
-84.160508
 21
-56.516145
  0
LINE
  8
ボルト／ビス
  6
CONTINUOUS
 62
    64
 10
-84.065542
 20
-56.747607
 11
-84.160508
 21
-56.516145
  0
LINE
  8
ボルト／ビス
  6
CONTINUOUS
 62
    64
 10
-84.561408
 20
-56.680627
 11
-84.466442
 21
-56.91209
  0
LINE
  8
ボルト／ビス
  6
CONTINUOUS
 62
    64
 10
-84.218508
 20
-56.94558
 11
-84.466442
 21
-56.91209
  0
LINE
  8
ボルト／ビス
  6
CONTINUOUS
 62
    64
 10
-84.40844
 20
-56.482655
 11
-84.561408
 21
-56.680627
  0
LINE
  8
ボルト／ビス
  6
CONTINUOUS
 62
    64
 10
-84.065542
 20
-56.747607
 11
-84.218508
 21
-56.94558
  0
CIRCLE
  8
ボルト／ビス
  6
CONTINUOUS
 62
    64
 10
-84.313472
 20
-56.714117
 40
0.216668
  0
ENDBLK
  0
BLOCK
  2
*GRP_0031
 70
    65
 10
0.0
 20
0.0
  0
LINE
  8
補助線
  6
BYBLOCK
 62
    64
 10
8.953917
 20
-74.296548
 11
9.085802
 21
-74.398452
  0
LINE
  8
補助線
  6
BYBLOCK
 62
    64
 10
9.070812
 20
-74.281557
 11
8.968908
 21
-74.413443
  0
LINE
  8
補助線
  6
BYBLOCK
 62
    64
 10
-2.456707
 20
-65.479857
 11
-2.324823
 21
-65.58176
  0
LINE
  8
補助線
  6
BYBLOCK
 62
    64
 10
-2.339812
 20
-65.464865
 11
-2.441715
 21
-65.59675
  0
LINE
  8
補助線
  6
BYBLOCK
 62
    64
 10
-13.73545
 20
-56.76507
 11
-13.86733
 21
-56.663165
  0
LINE
  8
補助線
  6
BYBLOCK
 62
    64
 10
-13.750438
 20
-56.648172
 11
-13.85234
 21
-56.78006
  0
LINE
  8
型材断面
  6
CONTINUOUS
 10
9.793145
 20
-73.891885
 11
9.883087
 21
-74.59325
  0
LINE
  8
型材断面
  6
CONTINUOUS
 10
9.883087
 20
-74.59325
 11
9.475473
 21
-75.120788
  0
LINE
  8
型材断面
  6
CONTINUOUS
 10
9.475473
 20
-75.120788
 11
8.77411
 21
-75.210728
  0
LINE
  8
型材断面
  6
CONTINUOUS
 10
-13.55564
 20
-55.85089
 11
-14.257002
 21
-55.940833
  0
LINE
  8
型材断面
  6
CONTINUOUS
 10
-14.257002
 20
-55.940833
 11
-14.664617
 21
-56.46837
  0
LINE
  8
型材断面
  6
CONTINUOUS
 10
-14.664617
 20
-56.46837
 11
-14.574675
 21
-57.169735
  0
LINE
  8
型材断面
  6
CONTINUOUS
 10
8.77411
 20
-75.210728
 11
-14.574675
 21
-57.169735
  0
LINE
  8
型材断面
  6
CONTINUOUS
 10
9.793145
 20
-73.891885
 11
-13.55564
 21
-55.85089
  0
CIRCLE
  8
ボルト／ビス
  6
CONTINUOUS
 10
9.01986
 20
-74.3475
 40
0.250185
  0
CIRCLE
  8
ボルト／ビス
  6
CONTINUOUS
 10
9.01986
 20
-74.3475
 40
0.301025
  0
LINE
  8
ボルト／ビス
  6
CONTINUOUS
 62
    64
 10
9.267795
 20
-74.38099
 11
9.17283
 21
-74.149528
  0
LINE
  8
ボルト／ビス
  6
CONTINUOUS
 62
    64
 10
8.924895
 20
-74.116038
 11
9.17283
 21
-74.149528
  0
LINE
  8
ボルト／ビス
  6
CONTINUOUS
 62
    64
 10
9.114825
 20
-74.578963
 11
8.86689
 21
-74.545472
  0
LINE
  8
ボルト／ビス
  6
CONTINUOUS
 62
    64
 10
8.771925
 20
-74.31401
 11
8.86689
 21
-74.545472
  0
LINE
  8
ボルト／ビス
  6
CONTINUOUS
 62
    64
 10
9.267795
 20
-74.38099
 11
9.114825
 21
-74.578963
  0
LINE
  8
ボルト／ビス
  6
CONTINUOUS
 62
    64
 10
8.924895
 20
-74.116038
 11
8.771925
 21
-74.31401
  0
CIRCLE
  8
ボルト／ビス
  6
CONTINUOUS
 62
    64
 10
9.01986
 20
-74.3475
 40
0.216668
  0
CIRCLE
  8
ボルト／ビス
  6
CONTINUOUS
 10
-2.390765
 20
-65.53081
 40
0.250185
  0
CIRCLE
  8
ボルト／ビス
  6
CONTINUOUS
 10
-2.390765
 20
-65.53081
 40
0.301025
  0
LINE
  8
ボルト／ビス
  6
CONTINUOUS
 62
    64
 10
-2.14283
 20
-65.564297
 11
-2.237795
 21
-65.332838
  0
LINE
  8
ボルト／ビス
  6
CONTINUOUS
 62
    64
 10
-2.48573
 20
-65.299348
 11
-2.237795
 21
-65.332838
  0
LINE
  8
ボルト／ビス
  6
CONTINUOUS
 62
    64
 10
-2.295798
 20
-65.76227
 11
-2.543732
 21
-65.72878
  0
LINE
  8
ボルト／ビス
  6
CONTINUOUS
 62
    64
 10
-2.6387
 20
-65.49732
 11
-2.543732
 21
-65.72878
  0
LINE
  8
ボルト／ビス
  6
CONTINUOUS
 62
    64
 10
-2.14283
 20
-65.564297
 11
-2.295798
 21
-65.76227
  0
LINE
  8
ボルト／ビス
  6
CONTINUOUS
 62
    64
 10
-2.48573
 20
-65.299348
 11
-2.6387
 21
-65.49732
  0
CIRCLE
  8
ボルト／ビス
  6
CONTINUOUS
 62
    64
 10
-2.390765
 20
-65.53081
 40
0.216668
  0
CIRCLE
  8
ボルト／ビス
  6
CONTINUOUS
 10
-13.801387
 20
-56.714117
 40
0.250185
  0
CIRCLE
  8
ボルト／ビス
  6
CONTINUOUS
 10
-13.801387
 20
-56.714117
 40
0.301025
  0
LINE
  8
ボルト／ビス
  6
CONTINUOUS
 62
    64
 10
-13.896355
 20
-56.482655
 11
-13.648423
 21
-56.516145
  0
LINE
  8
ボルト／ビス
  6
CONTINUOUS
 62
    64
 10
-13.553457
 20
-56.747607
 11
-13.648423
 21
-56.516145
  0
LINE
  8
ボルト／ビス
  6
CONTINUOUS
 62
    64
 10
-14.049323
 20
-56.680627
 11
-13.954357
 21
-56.91209
  0
LINE
  8
ボルト／ビス
  6
CONTINUOUS
 62
    64
 10
-13.706423
 20
-56.94558
 11
-13.954357
 21
-56.91209
  0
LINE
  8
ボルト／ビス
  6
CONTINUOUS
 62
    64
 10
-13.896355
 20
-56.482655
 11
-14.049323
 21
-56.680627
  0
LINE
  8
ボルト／ビス
  6
CONTINUOUS
 62
    64
 10
-13.553457
 20
-56.747607
 11
-13.706423
 21
-56.94558
  0
CIRCLE
  8
ボルト／ビス
  6
CONTINUOUS
 62
    64
 10
-13.801387
 20
-56.714117
 40
0.216668
  0
ENDBLK
  0
BLOCK
  2
*GRP_0032
 70
    65
 10
0.0
 20
0.0
  0
LINE
  8
補助線
  6
BYBLOCK
 62
    64
 10
-13.735448
 20
-74.296548
 11
-13.867332
 21
-74.398452
  0
LINE
  8
補助線
  6
BYBLOCK
 62
    64
 10
-13.852343
 20
-74.281557
 11
-13.750438
 21
-74.413443
  0
LINE
  8
補助線
  6
BYBLOCK
 62
    64
 10
-2.324823
 20
-65.479857
 11
-2.456707
 21
-65.58176
  0
LINE
  8
補助線
  6
BYBLOCK
 62
    64
 10
-2.441717
 20
-65.464865
 11
-2.339815
 21
-65.59675
  0
LINE
  8
補助線
  6
BYBLOCK
 62
    64
 10
8.95392
 20
-56.76507
 11
9.0858
 21
-56.663165
  0
LINE
  8
補助線
  6
BYBLOCK
 62
    64
 10
8.968908
 20
-56.648172
 11
9.07081
 21
-56.78006
  0
LINE
  8
型材断面
  6
CONTINUOUS
 10
-14.574675
 20
-73.891885
 11
-14.664617
 21
-74.59325
  0
LINE
  8
型材断面
  6
CONTINUOUS
 10
-14.664617
 20
-74.59325
 11
-14.257002
 21
-75.120788
  0
LINE
  8
型材断面
  6
CONTINUOUS
 10
-14.257002
 20
-75.120788
 11
-13.55564
 21
-75.210728
  0
LINE
  8
型材断面
  6
CONTINUOUS
 10
8.77411
 20
-55.85089
 11
9.475473
 21
-55.940833
  0
LINE
  8
型材断面
  6
CONTINUOUS
 10
9.475473
 20
-55.940833
 11
9.883087
 21
-56.46837
  0
LINE
  8
型材断面
  6
CONTINUOUS
 10
9.883087
 20
-56.46837
 11
9.793145
 21
-57.169735
  0
LINE
  8
型材断面
  6
CONTINUOUS
 10
-13.55564
 20
-75.210728
 11
9.793145
 21
-57.169735
  0
LINE
  8
型材断面
  6
CONTINUOUS
 10
-14.574675
 20
-73.891885
 11
8.77411
 21
-55.85089
  0
CIRCLE
  8
ボルト／ビス
  6
CONTINUOUS
 10
-13.80139
 20
-74.3475
 40
0.250185
  0
CIRCLE
  8
ボルト／ビス
  6
CONTINUOUS
 10
-13.80139
 20
-74.3475
 40
0.301025
  0
LINE
  8
ボルト／ビス
  6
CONTINUOUS
 62
    64
 10
-14.049325
 20
-74.38099
 11
-13.95436
 21
-74.149528
  0
LINE
  8
ボルト／ビス
  6
CONTINUOUS
 62
    64
 10
-13.706425
 20
-74.116038
 11
-13.95436
 21
-74.149528
  0
LINE
  8
ボルト／ビス
  6
CONTINUOUS
 62
    64
 10
-13.896355
 20
-74.578963
 11
-13.64842
 21
-74.545472
  0
LINE
  8
ボルト／ビス
  6
CONTINUOUS
 62
    64
 10
-13.553455
 20
-74.31401
 11
-13.64842
 21
-74.545472
  0
LINE
  8
ボルト／ビス
  6
CONTINUOUS
 62
    64
 10
-14.049325
 20
-74.38099
 11
-13.896355
 21
-74.578963
  0
LINE
  8
ボルト／ビス
  6
CONTINUOUS
 62
    64
 10
-13.706425
 20
-74.116038
 11
-13.553455
 21
-74.31401
  0
CIRCLE
  8
ボルト／ビス
  6
CONTINUOUS
 62
    64
 10
-13.80139
 20
-74.3475
 40
0.216668
  0
CIRCLE
  8
ボルト／ビス
  6
CONTINUOUS
 10
-2.390765
 20
-65.53081
 40
0.250185
  0
CIRCLE
  8
ボルト／ビス
  6
CONTINUOUS
 10
-2.390765
 20
-65.53081
 40
0.301025
  0
LINE
  8
ボルト／ビス
  6
CONTINUOUS
 62
    64
 10
-2.6387
 20
-65.564297
 11
-2.543735
 21
-65.332838
  0
LINE
  8
ボルト／ビス
  6
CONTINUOUS
 62
    64
 10
-2.2958
 20
-65.299348
 11
-2.543735
 21
-65.332838
  0
LINE
  8
ボルト／ビス
  6
CONTINUOUS
 62
    64
 10
-2.485732
 20
-65.76227
 11
-2.237798
 21
-65.72878
  0
LINE
  8
ボルト／ビス
  6
CONTINUOUS
 62
    64
 10
-2.14283
 20
-65.49732
 11
-2.237798
 21
-65.72878
  0
LINE
  8
ボルト／ビス
  6
CONTINUOUS
 62
    64
 10
-2.6387
 20
-65.564297
 11
-2.485732
 21
-65.76227
  0
LINE
  8
ボルト／ビス
  6
CONTINUOUS
 62
    64
 10
-2.2958
 20
-65.299348
 11
-2.14283
 21
-65.49732
  0
CIRCLE
  8
ボルト／ビス
  6
CONTINUOUS
 62
    64
 10
-2.390765
 20
-65.53081
 40
0.216668
  0
CIRCLE
  8
ボルト／ビス
  6
CONTINUOUS
 10
9.019858
 20
-56.714117
 40
0.250185
  0
CIRCLE
  8
ボルト／ビス
  6
CONTINUOUS
 10
9.019858
 20
-56.714117
 40
0.301025
  0
LINE
  8
ボルト／ビス
  6
CONTINUOUS
 62
    64
 10
9.114825
 20
-56.482655
 11
8.866892
 21
-56.516145
  0
LINE
  8
ボルト／ビス
  6
CONTINUOUS
 62
    64
 10
8.771927
 20
-56.747607
 11
8.866892
 21
-56.516145
  0
LINE
  8
ボルト／ビス
  6
CONTINUOUS
 62
    64
 10
9.267792
 20
-56.680627
 11
9.172827
 21
-56.91209
  0
LINE
  8
ボルト／ビス
  6
CONTINUOUS
 62
    64
 10
8.924892
 20
-56.94558
 11
9.172827
 21
-56.91209
  0
LINE
  8
ボルト／ビス
  6
CONTINUOUS
 62
    64
 10
9.114825
 20
-56.482655
 11
9.267792
 21
-56.680627
  0
LINE
  8
ボルト／ビス
  6
CONTINUOUS
 62
    64
 10
8.771927
 20
-56.747607
 11
8.924892
 21
-56.94558
  0
CIRCLE
  8
ボルト／ビス
  6
CONTINUOUS
 62
    64
 10
9.019858
 20
-56.714117
 40
0.216668
  0
ENDBLK
  0
BLOCK
  2
*DIM_0033
 70
    65
 10
0.0
 20
0.0
  0
LINE
  8
寸法
  6
CONTINUOUS
 10
23.016527
 20
-68.209977
 11
23.016527
 21
-32.437345
  0
LINE
  8
寸法
  6
CONTINUOUS
 10
20.736832
 20
-32.437345
 11
23.016527
 21
-32.437345
  0
POINT
  8
寸法
 10
20.736832
 20
-32.437345
  0
POINT
  8
寸法
 10
23.016527
 20
-32.437345
  0
TEXT
  7
TextStyle03
  8
寸法
  6
CONTINUOUS
 10
25.34375
 20
-32.075
  1
68.4
 40
3.0
 72
     5
 11
31.90625
 21
-32.075
  0
ENDBLK
  0
BLOCK
  2
*DIM_0034
 70
    65
 10
0.0
 20
0.0
  0
LINE
  8
寸法
  6
CONTINUOUS
 10
-98.209523
 20
-68.209977
 11
-98.209523
 21
-32.437345
  0
LINE
  8
寸法
  6
CONTINUOUS
 10
-95.929828
 20
-32.437345
 11
-98.209523
 21
-32.437345
  0
POINT
  8
寸法
 10
-95.929828
 20
-32.437345
  0
POINT
  8
寸法
 10
-98.209523
 20
-32.437345
  0
TEXT
  7
TextStyle03
  8
寸法
  6
CONTINUOUS
 10
-107.10625
 20
-32.075
  1
68.4
 40
3.0
 72
     5
 11
-100.54375
 21
-32.075
  0
ENDBLK
  0
BLOCK
  2
*DIM_0035
 70
    65
 10
0.0
 20
0.0
  0
LINE
  8
寸法
  6
CONTINUOUS
 10
20.736832
 20
-32.437345
 11
-95.929828
 21
-32.437345
  0
POINT
  8
寸法
 10
20.736832
 20
-32.437345
  0
POINT
  8
寸法
 10
-95.929828
 20
-32.437345
  0
TEXT
  7
TextStyle03
  8
寸法
  6
CONTINUOUS
 10
-49.31875
 20
-32.075
  1
呼称寸法　3500
 40
3.0
 72
     5
 11
-25.88125
 21
-32.075
  0
ENDBLK
  0
BLOCK
  2
*DIM_0036
 70
    65
 10
0.0
 20
0.0
  0
LINE
  8
寸法
  6
CONTINUOUS
 10
111.260062
 20
-33.709495
 11
111.260062
 21
-21.149612
  0
LINE
  8
寸法
  6
CONTINUOUS
 10
149.030062
 20
-33.709495
 11
149.030062
 21
-21.149612
  0
LINE
  8
寸法
  6
CONTINUOUS
 10
111.260062
 20
-21.149612
 11
149.030062
 21
-21.149612
  0
POINT
  8
寸法
 10
111.260062
 20
-21.149612
  0
POINT
  8
寸法
 10
149.030062
 20
-21.149612
  0
TEXT
  7
TextStyle03
  8
寸法
  6
CONTINUOUS
 10
125.15625
 20
-20.775
  1
1133.1
 40
3.0
 72
     5
 11
135.09375
 21
-20.775
  0
ENDBLK
  0
BLOCK
  2
*DIM_0037
 70
    65
 10
0.0
 20
0.0
  0
LINE
  8
寸法
  6
CONTINUOUS
 10
154.030062
 20
-38.709495
 11
167.50627
 21
-38.709495
  0
LINE
  8
寸法
  6
CONTINUOUS
 10
154.030062
 20
-81.376163
 11
167.50627
 21
-81.376163
  0
LINE
  8
寸法
  6
CONTINUOUS
 10
167.50627
 20
-38.709495
 11
167.50627
 21
-81.376163
  0
POINT
  8
寸法
 10
167.50627
 20
-38.709495
  0
POINT
  8
寸法
 10
167.50627
 20
-81.376163
  0
TEXT
  7
TextStyle03
  8
寸法
  6
CONTINUOUS
 10
167.125
 20
-63.33125
  1
1280
 40
3.0
 50
90.0
 72
     5
 11
167.125
 21
-56.76875
  0
ENDBLK
  0
BLOCK
  2
M8横
 70
    64
 10
-88.370132
 20
140.837665
  0
LINE
  8
ボルト／ビス
 10
-95.870132
 20
140.837665
 11
-80.870132
 21
140.837665
  0
LINE
  8
ボルト／ビス
 10
-80.870132
 20
145.837665
 11
-81.370132
 21
146.337665
  0
POLYLINE
  8
ボルト／ビス
 66
     1
  0
VERTEX
  8
ボルト／ビス
 10
-84.120132
 20
146.337665
  0
VERTEX
  8
ボルト／ビス
 10
-84.620132
 20
145.837665
  0
VERTEX
  8
ボルト／ビス
 10
-85.120132
 20
146.337665
  0
SEQEND
  0
POLYLINE
  8
ボルト／ビス
 66
     1
  0
VERTEX
  8
ボルト／ビス
 10
-91.620132
 20
146.337665
  0
VERTEX
  8
ボルト／ビス
 10
-92.120132
 20
145.837665
  0
VERTEX
  8
ボルト／ビス
 10
-92.620132
 20
146.337665
  0
SEQEND
  0
LINE
  8
ボルト／ビス
 10
-95.370132
 20
146.337665
 11
-95.870132
 21
145.837665
  0
LINE
  8
ボルト／ビス
 10
-95.870132
 20
140.837665
 11
-95.870132
 21
145.837665
  0
LINE
  8
ボルト／ビス
 10
-80.870132
 20
140.837665
 11
-80.870132
 21
145.837665
  0
LINE
  8
ボルト／ビス
 10
-95.370132
 20
146.337665
 11
-81.370132
 21
146.337665
  0
LINE
  8
ボルト／ビス
 10
-84.620132
 20
140.837665
 11
-84.620132
 21
145.837665
  0
LINE
  8
ボルト／ビス
 10
-92.120132
 20
140.837665
 11
-92.120132
 21
145.837665
  0
ENDBLK
  0
ENDSEC
  0
SECTION
  2
ENTITIES
  0
POLYLINE
  8
通り芯
  6
CONTINUOUS
 66
     1
 70
     1
  0
VERTEX
  8
通り芯
 10
-210.0
 20
-148.5
  0
VERTEX
  8
通り芯
 10
210.0
 20
-148.5
  0
VERTEX
  8
通り芯
 10
210.0
 20
148.5
  0
VERTEX
  8
通り芯
 10
-210.0
 20
148.5
  0
SEQEND
  0
INSERT
  2
*GRP_0001
  8
型材断面
  6
CONTINUOUS
 10
0.0
 20
0.0
  0
POLYLINE
  8
型材断面
  6
CONTINUOUS
 66
     1
 70
     1
  0
VERTEX
  8
型材断面
 10
20.695927
 20
-94.850355
  0
VERTEX
  8
型材断面
 10
-27.982748
 20
-94.850355
  0
VERTEX
  8
型材断面
 10
-27.982748
 20
-111.19502
  0
VERTEX
  8
型材断面
 10
20.695927
 20
-111.19502
  0
SEQEND
  0
LINE
  8
型材断面
  6
CONTINUOUS
 10
162.97617
 20
26.869993
 11
162.97617
 21
26.919993
  0
LINE
  8
型材断面
  6
CONTINUOUS
 10
162.47617
 20
28.536658
 11
161.742835
 21
28.536658
  0
LINE
  8
型材断面
  6
CONTINUOUS
 62
    47
 10
169.709335
 20
27.136962
 11
169.709335
 21
27.186962
  0
LINE
  8
型材断面
  6
CONTINUOUS
 62
    47
 10
169.709335
 20
27.136962
 11
169.209335
 21
27.136962
  0
LINE
  8
型材断面
  6
CONTINUOUS
 10
163.459335
 20
28.486962
 11
163.459335
 21
27.040298
  0
LINE
  8
型材断面
  6
CONTINUOUS
 10
163.909335
 20
27.040298
 11
163.459335
 21
27.040298
  0
LINE
  8
型材断面
  6
CONTINUOUS
 62
    47
 10
166.582028
 20
26.306963
 11
166.582028
 21
26.256963
  0
LINE
  8
型材断面
  6
CONTINUOUS
 62
    47
 10
166.582028
 20
26.256963
 11
166.248695
 21
26.256963
  0
LINE
  8
型材断面
  6
CONTINUOUS
 62
    47
 10
166.248695
 20
26.256963
 11
166.148695
 21
27.040298
  0
LINE
  8
型材断面
  6
CONTINUOUS
 62
    47
 10
165.74267
 20
27.040298
 11
166.148695
 21
27.040298
  0
LINE
  8
型材断面
  6
CONTINUOUS
 62
    47
 10
165.74267
 20
26.570298
 11
163.909335
 21
26.570298
  0
LINE
  8
型材断面
  6
CONTINUOUS
 10
162.97617
 20
26.869993
 11
162.47617
 21
26.869993
  0
LINE
  8
型材断面
  6
CONTINUOUS
 10
163.459335
 20
28.486962
 11
162.97617
 21
28.486962
  0
LINE
  8
型材断面
  6
CONTINUOUS
 62
    47
 10
169.209335
 20
26.570298
 11
166.582028
 21
26.570298
  0
INSERT
  2
*GRP_0002
  8
型材断面
  6
DOT
 10
0.0
 20
0.0
  0
INSERT
  2
*GRP_0003
  8
型材断面
  6
DOT
 10
0.0
 20
0.0
  0
LINE
  8
型材断面
  6
CONTINUOUS
 10
169.209335
 20
26.570298
 11
169.209335
 21
50.203325
  0
LINE
  8
型材断面
  6
CONTINUOUS
 10
169.709335
 20
27.136962
 11
169.709335
 21
50.203325
  0
LINE
  8
型材断面
  6
CONTINUOUS
 10
166.582028
 20
26.256963
 11
166.582028
 21
50.203325
  0
LINE
  8
型材断面
  6
CONTINUOUS
 10
166.248695
 20
26.256963
 11
166.248695
 21
50.203325
  0
LINE
  8
型材断面
  6
CONTINUOUS
 10
166.148695
 20
27.040298
 11
166.148695
 21
50.203325
  0
LINE
  8
型材断面
  6
CONTINUOUS
 10
165.74267
 20
26.570298
 11
165.74267
 21
50.203325
  0
LINE
  8
型材断面
  6
CONTINUOUS
 10
162.97617
 20
26.869993
 11
162.97617
 21
50.203325
  0
LINE
  8
型材断面
  6
CONTINUOUS
 10
161.742835
 20
28.536658
 11
161.742835
 21
50.203325
  0
LINE
  8
型材断面
  6
CONTINUOUS
 10
162.47617
 20
26.869993
 11
162.47617
 21
50.203325
  0
LINE
  8
型材断面
  6
CONTINUOUS
 10
163.459335
 20
27.040298
 11
163.459335
 21
50.203325
  0
LINE
  8
型材断面
  6
CONTINUOUS
 10
163.909335
 20
26.570298
 11
163.909335
 21
50.203325
  0
LINE
  8
型材断面
  6
CONTINUOUS
 10
162.97617
 20
73.53666
 11
162.97617
 21
73.48666
  0
LINE
  8
型材断面
  6
CONTINUOUS
 10
162.47617
 20
71.869993
 11
161.742835
 21
71.869993
  0
LINE
  8
型材断面
  6
CONTINUOUS
 62
    47
 10
169.709335
 20
73.269687
 11
169.709335
 21
73.219687
  0
LINE
  8
型材断面
  6
CONTINUOUS
 62
    47
 10
169.709335
 20
73.269687
 11
169.209335
 21
73.269687
  0
LINE
  8
型材断面
  6
CONTINUOUS
 10
163.459335
 20
71.919687
 11
163.459335
 21
73.366355
  0
LINE
  8
型材断面
  6
CONTINUOUS
 10
163.909335
 20
73.366355
 11
163.459335
 21
73.366355
  0
LINE
  8
型材断面
  6
CONTINUOUS
 62
    47
 10
166.582028
 20
74.099688
 11
166.582028
 21
74.149688
  0
LINE
  8
型材断面
  6
CONTINUOUS
 62
    47
 10
166.582028
 20
74.149688
 11
166.248695
 21
74.149688
  0
LINE
  8
型材断面
  6
CONTINUOUS
 62
    47
 10
166.248695
 20
74.149688
 11
166.148695
 21
73.366355
  0
LINE
  8
型材断面
  6
CONTINUOUS
 62
    47
 10
165.74267
 20
73.366355
 11
166.148695
 21
73.366355
  0
LINE
  8
型材断面
  6
CONTINUOUS
 62
    47
 10
165.74267
 20
73.836355
 11
163.909335
 21
73.836355
  0
LINE
  8
型材断面
  6
CONTINUOUS
 10
162.97617
 20
73.53666
 11
162.47617
 21
73.53666
  0
LINE
  8
型材断面
  6
CONTINUOUS
 10
163.459335
 20
71.919687
 11
162.97617
 21
71.919687
  0
LINE
  8
型材断面
  6
CONTINUOUS
 62
    47
 10
169.209335
 20
73.836355
 11
166.582028
 21
73.836355
  0
INSERT
  2
*GRP_0006
  8
型材断面
  6
DOT
 10
0.0
 20
0.0
  0
INSERT
  2
*GRP_0007
  8
型材断面
  6
DOT
 10
0.0
 20
0.0
  0
LINE
  8
型材断面
  6
CONTINUOUS
 10
169.209335
 20
73.836355
 11
169.209335
 21
50.203325
  0
LINE
  8
型材断面
  6
CONTINUOUS
 10
169.709335
 20
73.269687
 11
169.709335
 21
50.203325
  0
LINE
  8
型材断面
  6
CONTINUOUS
 10
166.582028
 20
74.149688
 11
166.582028
 21
50.203325
  0
LINE
  8
型材断面
  6
CONTINUOUS
 10
166.248695
 20
74.149688
 11
166.248695
 21
50.203325
  0
LINE
  8
型材断面
  6
CONTINUOUS
 10
166.148695
 20
73.366355
 11
166.148695
 21
50.203325
  0
LINE
  8
型材断面
  6
CONTINUOUS
 10
165.74267
 20
73.836355
 11
165.74267
 21
50.203325
  0
LINE
  8
型材断面
  6
CONTINUOUS
 10
162.97617
 20
73.53666
 11
162.97617
 21
50.203325
  0
LINE
  8
型材断面
  6
CONTINUOUS
 10
161.742835
 20
71.869993
 11
161.742835
 21
50.203325
  0
LINE
  8
型材断面
  6
CONTINUOUS
 10
162.47617
 20
73.53666
 11
162.47617
 21
50.203325
  0
LINE
  8
型材断面
  6
CONTINUOUS
 10
163.459335
 20
73.366355
 11
163.459335
 21
50.203325
  0
LINE
  8
型材断面
  6
CONTINUOUS
 10
163.909335
 20
73.836355
 11
163.909335
 21
50.203325
  0
LINE
  8
型材断面
  6
DASHDOT
 10
-37.596497
 20
-79.253555
 11
-37.596497
 21
71.869993
  0
LINE
  8
型材断面
  6
CONTINUOUS
 10
22.4035
 20
-69.937453
 11
22.3535
 21
-69.937453
  0
LINE
  8
型材断面
  6
CONTINUOUS
 10
20.736832
 20
-69.437453
 11
20.736832
 21
-68.70412
  0
LINE
  8
型材断面
  6
CONTINUOUS
 62
    47
 10
22.136528
 20
-76.67062
 11
22.086528
 21
-76.67062
  0
LINE
  8
型材断面
  6
CONTINUOUS
 62
    47
 10
22.136528
 20
-76.67062
 11
22.136528
 21
-76.17062
  0
LINE
  8
型材断面
  6
CONTINUOUS
 10
20.786528
 20
-70.42062
 11
22.233195
 21
-70.42062
  0
LINE
  8
型材断面
  6
CONTINUOUS
 10
22.233195
 20
-70.87062
 11
22.233195
 21
-70.42062
  0
LINE
  8
型材断面
  6
CONTINUOUS
 62
    47
 10
22.966527
 20
-73.543312
 11
23.016527
 21
-73.543312
  0
LINE
  8
型材断面
  6
CONTINUOUS
 62
    47
 10
23.016527
 20
-73.543312
 11
23.016527
 21
-73.209977
  0
LINE
  8
型材断面
  6
CONTINUOUS
 62
    47
 10
23.016527
 20
-73.209977
 11
22.233195
 21
-73.109977
  0
LINE
  8
型材断面
  6
CONTINUOUS
 62
    47
 10
22.233195
 20
-72.703953
 11
22.233195
 21
-73.109977
  0
LINE
  8
型材断面
  6
CONTINUOUS
 62
    47
 10
22.703195
 20
-72.703953
 11
22.703195
 21
-70.87062
  0
LINE
  8
型材断面
  6
CONTINUOUS
 10
22.4035
 20
-69.937453
 11
22.4035
 21
-69.437453
  0
LINE
  8
型材断面
  6
CONTINUOUS
 10
20.786528
 20
-70.42062
 11
20.786528
 21
-69.937453
  0
LINE
  8
型材断面
  6
CONTINUOUS
 62
    47
 10
22.703195
 20
-76.17062
 11
22.703195
 21
-73.543312
  0
INSERT
  2
*GRP_0010
  8
型材断面
  6
DOT
 10
0.0
 20
0.0
  0
INSERT
  2
*GRP_0011
  8
型材断面
  6
DOT
 10
0.0
 20
0.0
  0
LINE
  8
型材断面
  6
CONTINUOUS
 10
22.703195
 20
-76.17062
 11
-37.596497
 21
-76.17062
  0
LINE
  8
型材断面
  6
CONTINUOUS
 10
22.136528
 20
-76.67062
 11
-37.596497
 21
-76.67062
  0
LINE
  8
型材断面
  6
CONTINUOUS
 10
23.016527
 20
-73.543312
 11
-37.596497
 21
-73.543312
  0
LINE
  8
型材断面
  6
CONTINUOUS
 10
23.016527
 20
-73.209977
 11
-37.596497
 21
-73.209977
  0
LINE
  8
型材断面
  6
CONTINUOUS
 10
22.233195
 20
-73.109977
 11
-37.596497
 21
-73.109977
  0
LINE
  8
型材断面
  6
CONTINUOUS
 10
22.703195
 20
-72.703953
 11
-37.596497
 21
-72.703953
  0
LINE
  8
型材断面
  6
CONTINUOUS
 10
22.4035
 20
-69.937453
 11
-37.596497
 21
-69.937453
  0
LINE
  8
型材断面
  6
CONTINUOUS
 10
20.736832
 20
-68.70412
 11
-37.596497
 21
-68.70412
  0
LINE
  8
型材断面
  6
CONTINUOUS
 10
22.4035
 20
-69.437453
 11
-37.596497
 21
-69.437453
  0
LINE
  8
型材断面
  6
CONTINUOUS
 10
22.233195
 20
-70.42062
 11
-37.596497
 21
-70.42062
  0
LINE
  8
型材断面
  6
CONTINUOUS
 10
22.703195
 20
-70.87062
 11
-37.596497
 21
-70.87062
  0
LINE
  8
型材断面
  6
CONTINUOUS
 10
19.9035
 20
50.619993
 11
20.736832
 21
50.619993
  0
LINE
  8
型材断面
  6
CONTINUOUS
 10
19.9035
 20
49.786658
 11
20.736832
 21
49.786658
  0
LINE
  8
型材断面
  6
CONTINUOUS
 10
19.9035
 20
29.36999
 11
23.016527
 21
26.256963
  0
LINE
  8
型材断面
  6
CONTINUOUS
 10
19.9035
 20
29.36999
 11
19.9035
 21
49.786658
  0
LINE
  8
型材断面
  6
DASHDOT
 10
172.29227
 20
28.536658
 11
20.736832
 21
28.536658
  0
LINE
  8
型材断面
  6
DASHDOT
 10
20.736832
 20
-79.253555
 11
20.736832
 21
28.536658
  0
LINE
  8
型材断面
  6
CONTINUOUS
 10
19.9035
 20
71.03666
 11
23.016527
 21
74.149688
  0
LINE
  8
型材断面
  6
CONTINUOUS
 10
19.9035
 20
50.619993
 11
19.9035
 21
71.03666
  0
LINE
  8
型材断面
  6
DASHDOT
 10
172.29227
 20
71.869993
 11
20.736832
 21
71.869993
  0
LINE
  8
型材断面
  6
CONTINUOUS
 10
20.736832
 20
28.536658
 11
20.736832
 21
71.869993
  0
LINE
  8
型材断面
  6
CONTINUOUS
 10
22.703195
 20
26.570295
 11
22.703195
 21
73.836355
  0
LINE
  8
型材断面
  6
CONTINUOUS
 10
23.016527
 20
26.256963
 11
23.016527
 21
74.149688
  0
LINE
  8
型材断面
  6
CONTINUOUS
 10
22.4035
 20
26.86999
 11
22.4035
 21
73.53666
  0
LINE
  8
型材断面
  6
CONTINUOUS
 10
-97.596495
 20
-69.937453
 11
-97.546495
 21
-69.937453
  0
LINE
  8
型材断面
  6
CONTINUOUS
 10
-95.929828
 20
-69.437453
 11
-95.929828
 21
-68.70412
  0
LINE
  8
型材断面
  6
CONTINUOUS
 62
    47
 10
-97.329522
 20
-76.67062
 11
-97.279522
 21
-76.67062
  0
LINE
  8
型材断面
  6
CONTINUOUS
 62
    47
 10
-97.329522
 20
-76.67062
 11
-97.329522
 21
-76.17062
  0
LINE
  8
型材断面
  6
CONTINUOUS
 10
-95.979522
 20
-70.42062
 11
-97.42619
 21
-70.42062
  0
LINE
  8
型材断面
  6
CONTINUOUS
 10
-97.42619
 20
-70.87062
 11
-97.42619
 21
-70.42062
  0
LINE
  8
型材断面
  6
CONTINUOUS
 62
    47
 10
-98.159523
 20
-73.543312
 11
-98.209523
 21
-73.543312
  0
LINE
  8
型材断面
  6
CONTINUOUS
 62
    47
 10
-98.209523
 20
-73.543312
 11
-98.209523
 21
-73.209977
  0
LINE
  8
型材断面
  6
CONTINUOUS
 62
    47
 10
-98.209523
 20
-73.209977
 11
-97.42619
 21
-73.109977
  0
LINE
  8
型材断面
  6
CONTINUOUS
 62
    47
 10
-97.42619
 20
-72.703953
 11
-97.42619
 21
-73.109977
  0
LINE
  8
型材断面
  6
CONTINUOUS
 62
    47
 10
-97.89619
 20
-72.703953
 11
-97.89619
 21
-70.87062
  0
LINE
  8
型材断面
  6
CONTINUOUS
 10
-97.596495
 20
-69.937453
 11
-97.596495
 21
-69.437453
  0
LINE
  8
型材断面
  6
CONTINUOUS
 10
-95.979522
 20
-70.42062
 11
-95.979522
 21
-69.937453
  0
LINE
  8
型材断面
  6
CONTINUOUS
 62
    47
 10
-97.89619
 20
-76.17062
 11
-97.89619
 21
-73.543312
  0
INSERT
  2
*GRP_0012
  8
型材断面
  6
DOT
 10
0.0
 20
0.0
  0
INSERT
  2
*GRP_0013
  8
型材断面
  6
DOT
 10
0.0
 20
0.0
  0
LINE
  8
型材断面
  6
CONTINUOUS
 10
-97.89619
 20
-76.17062
 11
-37.596497
 21
-76.17062
  0
LINE
  8
型材断面
  6
CONTINUOUS
 10
-97.329522
 20
-76.67062
 11
-37.596497
 21
-76.67062
  0
LINE
  8
型材断面
  6
CONTINUOUS
 10
-98.209523
 20
-73.543312
 11
-37.596497
 21
-73.543312
  0
LINE
  8
型材断面
  6
CONTINUOUS
 10
-98.209523
 20
-73.209977
 11
-37.596497
 21
-73.209977
  0
LINE
  8
型材断面
  6
CONTINUOUS
 10
-97.42619
 20
-73.109977
 11
-37.596497
 21
-73.109977
  0
LINE
  8
型材断面
  6
CONTINUOUS
 10
-97.89619
 20
-72.703953
 11
-37.596497
 21
-72.703953
  0
LINE
  8
型材断面
  6
CONTINUOUS
 10
-97.596495
 20
-69.937453
 11
-37.596497
 21
-69.937453
  0
LINE
  8
型材断面
  6
CONTINUOUS
 10
-95.929828
 20
-68.70412
 11
-37.596497
 21
-68.70412
  0
LINE
  8
型材断面
  6
CONTINUOUS
 10
-97.596495
 20
-69.437453
 11
-37.596497
 21
-69.437453
  0
LINE
  8
型材断面
  6
CONTINUOUS
 10
-97.42619
 20
-70.42062
 11
-37.596497
 21
-70.42062
  0
LINE
  8
型材断面
  6
CONTINUOUS
 10
-97.89619
 20
-70.87062
 11
-37.596497
 21
-70.87062
  0
LINE
  8
型材断面
  6
CONTINUOUS
 10
-95.096495
 20
49.786658
 11
-95.929828
 21
49.786658
  0
LINE
  8
型材断面
  6
CONTINUOUS
 10
-95.096495
 20
50.619993
 11
-95.929828
 21
50.619993
  0
LINE
  8
型材断面
  6
DASHDOT
 10
172.29227
 20
50.203325
 11
-95.929828
 21
50.203325
  0
LINE
  8
型材断面
  6
CONTINUOUS
 10
-95.096495
 20
29.36999
 11
-98.209523
 21
26.256963
  0
LINE
  8
型材断面
  6
CONTINUOUS
 10
-95.096495
 20
29.36999
 11
-95.096495
 21
49.786658
  0
LINE
  8
型材断面
  6
DASHDOT
 10
-95.929828
 20
-79.253555
 11
-95.929828
 21
28.536658
  0
LINE
  8
型材断面
  6
CONTINUOUS
 10
-95.096495
 20
71.03666
 11
-98.209523
 21
74.149688
  0
LINE
  8
型材断面
  6
CONTINUOUS
 10
-95.096495
 20
50.619993
 11
-95.096495
 21
71.03666
  0
LINE
  8
型材断面
  6
CONTINUOUS
 10
-95.929828
 20
28.536658
 11
-95.929828
 21
71.869993
  0
LINE
  8
型材断面
  6
CONTINUOUS
 10
-97.89619
 20
26.570295
 11
-97.89619
 21
73.836355
  0
LINE
  8
型材断面
  6
CONTINUOUS
 10
-98.209523
 20
26.256963
 11
-98.209523
 21
74.149688
  0
LINE
  8
型材断面
  6
CONTINUOUS
 10
-97.596495
 20
26.86999
 11
-97.596495
 21
73.53666
  0
LINE
  8
型材断面
  6
CONTINUOUS
 10
20.736832
 20
28.536658
 11
-95.929828
 21
28.536658
  0
LINE
  8
型材断面
  6
CONTINUOUS
 10
22.703195
 20
26.570295
 11
-97.89619
 21
26.570295
  0
LINE
  8
型材断面
  6
CONTINUOUS
 10
23.016527
 20
26.256963
 11
-98.209523
 21
26.256963
  0
LINE
  8
型材断面
  6
CONTINUOUS
 10
22.4035
 20
26.86999
 11
-97.596495
 21
26.86999
  0
LINE
  8
型材断面
  6
CONTINUOUS
 10
20.736832
 20
71.869993
 11
-95.929828
 21
71.869993
  0
LINE
  8
型材断面
  6
CONTINUOUS
 10
22.703195
 20
73.836355
 11
-97.89619
 21
73.836355
  0
LINE
  8
型材断面
  6
CONTINUOUS
 10
23.016527
 20
74.149688
 11
-98.209523
 21
74.149688
  0
LINE
  8
型材断面
  6
CONTINUOUS
 10
22.4035
 20
73.53666
 11
-97.596495
 21
73.53666
  0
LINE
  8
型材断面
  6
CONTINUOUS
 10
-55.9065
 20
30.203322
 11
-58.4065
 21
30.203322
  0
LINE
  8
型材断面
  6
CONTINUOUS
 10
-19.286495
 20
30.203322
 11
-16.786495
 21
30.203322
  0
LINE
  8
型材断面
  6
CONTINUOUS
 10
-95.096495
 20
29.36999
 11
-76.95983
 21
29.36999
  0
LINE
  8
型材断面
  6
CONTINUOUS
 10
-76.126495
 20
29.36999
 11
-76.126495
 21
28.536658
  0
LINE
  8
型材断面
  6
CONTINUOUS
 10
-76.95983
 20
29.36999
 11
-76.95983
 21
28.536658
  0
LINE
  8
型材断面
  6
CONTINUOUS
 10
-37.17983
 20
29.36999
 11
-37.17983
 21
28.536658
  0
LINE
  8
型材断面
  6
CONTINUOUS
 10
-38.013165
 20
29.36999
 11
-38.013165
 21
28.536658
  0
LINE
  8
型材断面
  6
CONTINUOUS
 10
-76.126495
 20
29.36999
 11
-38.013165
 21
29.36999
  0
LINE
  8
型材断面
  6
CONTINUOUS
 10
19.9035
 20
29.36999
 11
1.766835
 21
29.36999
  0
LINE
  8
型材断面
  6
CONTINUOUS
 10
0.9335
 20
29.36999
 11
0.9335
 21
28.536658
  0
LINE
  8
型材断面
  6
CONTINUOUS
 10
1.766835
 20
29.36999
 11
1.766835
 21
28.536658
  0
LINE
  8
型材断面
  6
CONTINUOUS
 10
-37.17983
 20
29.36999
 11
0.9335
 21
29.36999
  0
LINE
  8
型材断面
  6
CONTINUOUS
 10
-55.9065
 20
70.203327
 11
-58.4065
 21
70.203327
  0
LINE
  8
型材断面
  6
CONTINUOUS
 10
-19.286495
 20
70.203327
 11
-16.786495
 21
70.203327
  0
LINE
  8
型材断面
  6
CONTINUOUS
 10
-55.9065
 20
30.203322
 11
-55.9065
 21
70.203327
  0
LINE
  8
型材断面
  6
CONTINUOUS
 10
-56.9065
 20
30.203322
 11
-56.9065
 21
70.203327
  0
LINE
  8
型材断面
  6
CONTINUOUS
 10
-57.4065
 20
30.203322
 11
-57.4065
 21
70.203327
  0
LINE
  8
型材断面
  6
CONTINUOUS
 10
-58.4065
 20
30.203322
 11
-58.4065
 21
70.203327
  0
LINE
  8
型材断面
  6
CONTINUOUS
 10
-19.286495
 20
30.203322
 11
-19.286495
 21
70.203327
  0
LINE
  8
型材断面
  6
CONTINUOUS
 10
-18.286495
 20
30.203322
 11
-18.286495
 21
70.203327
  0
LINE
  8
型材断面
  6
CONTINUOUS
 10
-17.786495
 20
30.203322
 11
-17.786495
 21
70.203327
  0
LINE
  8
型材断面
  6
CONTINUOUS
 10
-16.786495
 20
30.203322
 11
-16.786495
 21
70.203327
  0
LINE
  8
型材断面
  6
DASHDOT
 10
-18.036495
 20
28.536658
 11
-18.036495
 21
71.869993
  0
LINE
  8
型材断面
  6
DASHDOT
 10
-57.1565
 20
28.536658
 11
-57.1565
 21
71.869993
  0
LINE
  8
型材断面
  6
CONTINUOUS
 10
-95.096495
 20
71.03666
 11
-76.95983
 21
71.03666
  0
LINE
  8
型材断面
  6
CONTINUOUS
 10
-76.126495
 20
71.03666
 11
-76.126495
 21
71.869993
  0
LINE
  8
型材断面
  6
CONTINUOUS
 10
-76.95983
 20
71.03666
 11
-76.95983
 21
71.869993
  0
LINE
  8
型材断面
  6
CONTINUOUS
 10
-37.17983
 20
71.03666
 11
-37.17983
 21
71.869993
  0
LINE
  8
型材断面
  6
CONTINUOUS
 10
-38.013165
 20
71.03666
 11
-38.013165
 21
71.869993
  0
LINE
  8
型材断面
  6
CONTINUOUS
 10
-76.126495
 20
71.03666
 11
-38.013165
 21
71.03666
  0
LINE
  8
型材断面
  6
CONTINUOUS
 10
19.9035
 20
71.03666
 11
1.766835
 21
71.03666
  0
LINE
  8
型材断面
  6
CONTINUOUS
 10
0.9335
 20
71.03666
 11
0.9335
 21
71.869993
  0
LINE
  8
型材断面
  6
CONTINUOUS
 10
1.766835
 20
71.03666
 11
1.766835
 21
71.869993
  0
LINE
  8
型材断面
  6
CONTINUOUS
 10
-37.17983
 20
71.03666
 11
0.9335
 21
71.03666
  0
POLYLINE
  8
型材断面
  6
CONTINUOUS
 66
     1
 70
     1
  0
VERTEX
  8
型材断面
 10
-28.06245
 20
81.645915
  0
VERTEX
  8
型材断面
 10
-46.83438
 20
81.645915
  0
VERTEX
  8
型材断面
 10
-46.83438
 20
86.382757
  0
VERTEX
  8
型材断面
 10
-28.06245
 20
86.382757
  0
SEQEND
  0
POLYLINE
  8
型材断面
  6
CONTINUOUS
 66
     1
 70
     1
  0
VERTEX
  8
型材断面
 10
-28.06245
 20
18.760735
  0
VERTEX
  8
型材断面
 10
-46.83438
 20
18.760735
  0
VERTEX
  8
型材断面
 10
-46.83438
 20
14.023892
  0
VERTEX
  8
型材断面
 10
-28.06245
 20
14.023892
  0
SEQEND
  0
LINE
  8
型材断面
  6
CONTINUOUS
 10
-98.559962
 20
50.203325
 11
-101.15047
 21
51.698955
  0
LINE
  8
型材断面
  6
CONTINUOUS
 10
-98.559962
 20
50.203325
 11
-101.15047
 21
48.707695
  0
LINE
  8
型材断面
  6
CONTINUOUS
 10
-101.15047
 20
48.707695
 11
-101.15047
 21
51.698955
  0
LINE
  8
型材断面
  6
CONTINUOUS
 10
-79.263165
 20
74.50012
 11
-80.758795
 21
77.090627
  0
LINE
  8
型材断面
  6
CONTINUOUS
 10
-79.263165
 20
74.50012
 11
-77.767535
 21
77.090627
  0
LINE
  8
型材断面
  6
CONTINUOUS
 10
-77.767535
 20
77.090627
 11
-80.758795
 21
77.090627
  0
LINE
  8
型材断面
  6
CONTINUOUS
 10
-136.78204
 20
109.847463
 11
-136.185985
 21
107.256955
  0
LINE
  8
型材断面
  6
CONTINUOUS
 10
-136.78204
 20
109.847463
 11
-137.378097
 21
107.256955
  0
LINE
  8
型材断面
  6
CONTINUOUS
 10
-137.378097
 20
107.256955
 11
-136.185985
 21
107.256955
  0
LINE
  8
型材断面
  6
CONTINUOUS
 10
-142.804627
 20
103.978062
 11
-96.56285
 21
103.978062
  0
LINE
  8
型材断面
  6
CONTINUOUS
 10
-136.78204
 20
116.377338
 11
-138.27767
 21
113.78683
  0
LINE
  8
型材断面
  6
CONTINUOUS
 10
-136.78204
 20
116.377338
 11
-135.28641
 21
113.78683
  0
LINE
  8
型材断面
  6
CONTINUOUS
 10
-135.28641
 20
113.78683
 11
-138.27767
 21
113.78683
  0
LINE
  8
型材断面
  6
CONTINUOUS
 10
-142.804627
 20
112.848235
 11
-96.56285
 21
112.848235
  0
LINE
  8
型材断面
  6
CONTINUOUS
 10
-142.804627
 20
98.19003
 11
-96.56285
 21
98.19003
  0
LINE
  8
型材断面
  6
CONTINUOUS
 10
-79.263165
 20
25.90653
 11
-80.758795
 21
23.316022
  0
LINE
  8
型材断面
  6
CONTINUOUS
 10
-79.263165
 20
25.90653
 11
-77.767535
 21
23.316022
  0
LINE
  8
型材断面
  6
CONTINUOUS
 10
-77.767535
 20
23.316022
 11
-80.758795
 21
23.316022
  0
LINE
  8
型材断面
  6
CONTINUOUS
 10
23.366967
 20
50.203325
 11
25.957475
 21
51.698955
  0
LINE
  8
型材断面
  6
CONTINUOUS
 10
23.366967
 20
50.203325
 11
25.957475
 21
48.707695
  0
LINE
  8
型材断面
  6
CONTINUOUS
 10
25.957475
 20
48.707695
 11
25.957475
 21
51.698955
  0
LINE
  8
型材断面
  6
CONTINUOUS
 10
4.07017
 20
74.50012
 11
5.5658
 21
77.090627
  0
LINE
  8
型材断面
  6
CONTINUOUS
 10
4.07017
 20
74.50012
 11
2.57454
 21
77.090627
  0
LINE
  8
型材断面
  6
CONTINUOUS
 10
2.57454
 20
77.090627
 11
5.5658
 21
77.090627
  0
LINE
  8
型材断面
  6
CONTINUOUS
 10
4.07017
 20
25.90653
 11
5.5658
 21
23.316022
  0
LINE
  8
型材断面
  6
CONTINUOUS
 10
4.07017
 20
25.90653
 11
2.57454
 21
23.316022
  0
LINE
  8
型材断面
  6
CONTINUOUS
 10
2.57454
 20
23.316022
 11
5.5658
 21
23.316022
  0
LINE
  8
型材断面
  6
CONTINUOUS
 10
23.366963
 20
67.96999
 11
25.95747
 21
67.373933
  0
LINE
  8
型材断面
  6
CONTINUOUS
 10
23.366963
 20
67.96999
 11
25.95747
 21
68.566048
  0
LINE
  8
型材断面
  6
CONTINUOUS
 10
25.95747
 20
68.566048
 11
25.95747
 21
67.373933
  0
LINE
  8
型材断面
  6
CONTINUOUS
 10
23.366963
 20
32.43666
 11
25.95747
 21
33.032718
  0
LINE
  8
型材断面
  6
CONTINUOUS
 10
23.366963
 20
32.43666
 11
25.95747
 21
31.840603
  0
LINE
  8
型材断面
  6
CONTINUOUS
 10
25.95747
 20
31.840603
 11
25.95747
 21
33.032718
  0
LINE
  8
型材断面
  6
CONTINUOUS
 10
-98.559958
 20
67.96999
 11
-101.150465
 21
67.373933
  0
LINE
  8
型材断面
  6
CONTINUOUS
 10
-98.559958
 20
67.96999
 11
-101.150465
 21
68.566048
  0
LINE
  8
型材断面
  6
CONTINUOUS
 10
-101.150465
 20
68.566048
 11
-101.150465
 21
67.373933
  0
LINE
  8
型材断面
  6
CONTINUOUS
 10
-98.559958
 20
32.43666
 11
-101.150465
 21
33.032718
  0
LINE
  8
型材断面
  6
CONTINUOUS
 10
-98.559958
 20
32.43666
 11
-101.150465
 21
31.840603
  0
LINE
  8
型材断面
  6
CONTINUOUS
 10
-101.150465
 20
31.840603
 11
-101.150465
 21
33.032718
  0
LINE
  8
型材断面
  6
CONTINUOUS
 10
-142.804627
 20
92.401997
 11
-96.56285
 21
92.401997
  0
INSERT
  2
*GRP_0023
  8
型材断面
  6
DOT
 10
0.0
 20
0.0
  0
INSERT
  2
*GRP_0029
  8
型材断面
  6
CONTINUOUS
 10
0.0
 20
0.0
  0
INSERT
  2
*GRP_0030
  8
型材断面
  6
CONTINUOUS
 10
0.0
 20
0.0
  0
INSERT
  2
*GRP_0031
  8
型材断面
  6
CONTINUOUS
 10
0.0
 20
0.0
  0
INSERT
  2
*GRP_0032
  8
型材断面
  6
CONTINUOUS
 10
0.0
 20
0.0
  0
LINE
  8
型材断面
  6
CONTINUOUS
 10
129.636997
 20
-14.961842
 11
109.305727
 21
-14.961842
  0
POLYLINE
  8
ガラス
  6
CONTINUOUS
 66
     1
 70
     1
  0
VERTEX
  8
ガラス
 10
149.030062
 20
-38.709495
  0
VERTEX
  8
ガラス
 10
111.260062
 20
-38.709495
  0
VERTEX
  8
ガラス
 10
111.260062
 20
-81.376163
  0
VERTEX
  8
ガラス
 10
149.030062
 20
-81.376163
  0
SEQEND
  0
TEXT
  7
TextStyle03
  8
文字
  6
CONTINUOUS
 10
-23.65
 20
-100.575
  1
※トップライト枠高さ寸法
 40
3.0
 72
     5
 11
16.475
 21
-100.575
  0
TEXT
  7
TextStyle03
  8
文字
  6
CONTINUOUS
 10
-23.65
 20
-103.95
  1
　シングルガラス：214
 40
3.0
 72
     5
 11
11.6
 21
-103.95
  0
TEXT
  7
TextStyle03
  8
文字
  6
CONTINUOUS
 10
-23.65
 20
-107.325
  1
　ペアガラス：224
 40
3.0
 72
     5
 11
4.85
 21
-107.325
  0
TEXT
  7
TextStyle03
  8
文字
  6
CONTINUOUS
 10
78.1
 20
125.25
  1
シリーズ：ＳＴＤＬ
 40
5.0
 72
     5
 11
128.1
 21
125.25
  0
TEXT
  7
TextStyle03
  8
文字
  6
CONTINUOUS
 10
78.1
 20
119.625
  1
　　　　　（上下可動）1300×3500タイプ
 40
5.0
 72
     5
 11
184.35
 21
119.625
  0
TEXT
  7
TextStyle03
  8
文字
  6
CONTINUOUS
 10
78.1
 20
114.0
  1
図面名　：外観姿図
 40
5.0
 72
     5
 11
128.1
 21
114.0
  0
TEXT
  7
TextStyle03
  8
文字
  6
CONTINUOUS
 10
78.1
 20
108.375
  1
　　　　　　
 40
5.0
 72
     5
 11
111.225
 21
108.375
  0
TEXT
  7
TextStyle03
  8
文字
  6
CONTINUOUS
 10
-45.75
 20
82.325
  1
可動装置側
 40
3.0
 72
     5
 11
-29.25
 21
82.325
  0
TEXT
  7
TextStyle03
  8
文字
  6
CONTINUOUS
 10
-45.75
 20
15.05
  1
可動装置側
 40
3.0
 72
     5
 11
-29.25
 21
15.05
  0
TEXT
  7
TextStyle03
  8
文字
  6
CONTINUOUS
 10
-133.4
 20
39.1
  1
アンカーピッチ
 40
3.0
 50
90.0
 72
     5
 11
-133.4
 21
62.35
  0
TEXT
  7
TextStyle03
  8
文字
  6
CONTINUOUS
 10
-133.975
 20
108.45
  1
はケーシング位置を示す
 40
3.0
 72
     5
 11
-97.225
 21
108.45
  0
TEXT
  7
TextStyle03
  8
文字
  6
CONTINUOUS
 10
-133.975
 20
105.075
  1
４ヶ所中1ヶ所に設定
 40
3.0
 72
     5
 11
-102.2875
 21
105.075
  0
TEXT
  7
TextStyle03
  8
文字
  6
CONTINUOUS
 10
-133.975
 20
113.975
  1
は排水穴位置を示す
 40
3.0
 72
     5
 11
-103.975
 21
113.975
  0
TEXT
  7
TextStyle03
  8
文字
  6
CONTINUOUS
 10
-84.75
 20
108.8
  1
アンカーピッチ
 40
3.0
 72
     5
 11
-61.5
 21
108.8
  0
TEXT
  7
TextStyle03
  8
文字
  6
CONTINUOUS
 10
-137.7
 20
99.1
  1
アンカー数量　１４ヶ所
 40
3.0
 72
     5
 11
-100.95
 21
99.1
  0
TEXT
  7
TextStyle03
  8
文字
  6
CONTINUOUS
 10
-137.75
 20
93.325
  1
アームユニット数　４ヶ所
 40
3.0
 72
     5
 11
-97.625
 21
93.325
  0
TEXT
  7
TextStyle03
  8
文字
  6
CONTINUOUS
 10
135.225
 20
-77.825
  1
×３枚
 40
3.0
 72
     5
 11
144.975
 21
-77.825
  0
TEXT
  7
TextStyle03
  8
文字
  6
CONTINUOUS
 10
110.925
 20
-14.1
  1
ガラス寸法
 40
3.0
 72
     5
 11
127.425
 21
-14.1
  0
INSERT
  2
*DIM_0004
  8
寸法
  6
CONTINUOUS
 10
0.0
 20
0.0
  0
INSERT
  2
*DIM_0005
  8
寸法
  6
CONTINUOUS
 10
0.0
 20
0.0
  0
INSERT
  2
*DIM_0008
  8
寸法
  6
CONTINUOUS
 10
0.0
 20
0.0
  0
INSERT
  2
*DIM_0009
  8
寸法
  6
CONTINUOUS
 10
0.0
 20
0.0
  0
INSERT
  2
*DIM_0014
  8
寸法
  6
CONTINUOUS
 10
0.0
 20
0.0
  0
INSERT
  2
*DIM_0015
  8
寸法
  6
CONTINUOUS
 10
0.0
 20
0.0
  0
INSERT
  2
*DIM_0016
  8
寸法
  6
CONTINUOUS
 10
0.0
 20
0.0
  0
INSERT
  2
*DIM_0017
  8
寸法
  6
CONTINUOUS
 10
0.0
 20
0.0
  0
INSERT
  2
*DIM_0018
  8
寸法
  6
CONTINUOUS
 10
0.0
 20
0.0
  0
INSERT
  2
*DIM_0019
  8
寸法
  6
CONTINUOUS
 10
0.0
 20
0.0
  0
INSERT
  2
*DIM_0020
  8
寸法
  6
CONTINUOUS
 10
0.0
 20
0.0
  0
INSERT
  2
*DIM_0021
  8
寸法
  6
CONTINUOUS
 10
0.0
 20
0.0
  0
INSERT
  2
*DIM_0022
  8
寸法
  6
CONTINUOUS
 10
0.0
 20
0.0
  0
INSERT
  2
*DIM_0028
  8
寸法
  6
CONTINUOUS
 10
0.0
 20
0.0
  0
INSERT
  2
*DIM_0033
  8
寸法
  6
CONTINUOUS
 10
0.0
 20
0.0
  0
INSERT
  2
*DIM_0034
  8
寸法
  6
CONTINUOUS
 10
0.0
 20
0.0
  0
INSERT
  2
*DIM_0035
  8
寸法
  6
CONTINUOUS
 10
0.0
 20
0.0
  0
INSERT
  2
*DIM_0036
  8
寸法
  6
CONTINUOUS
 10
0.0
 20
0.0
  0
INSERT
  2
*DIM_0037
  8
寸法
  6
CONTINUOUS
 10
0.0
 20
0.0
  0
LINE
  8
曲げ物
  6
CONTINUOUS
 10
3.456595
 20
52.128875
 11
-0.238717
 21
48.433562
  0
LINE
  8
曲げ物
  6
CONTINUOUS
 10
2.753125
 20
50.592765
 11
1.297395
 21
49.137035
  0
LINE
  8
曲げ物
  6
CONTINUOUS
 10
1.920485
 20
51.425405
 11
0.464755
 21
49.969675
  0
LINE
  8
曲げ物
  6
CONTINUOUS
 10
-35.701967
 20
52.128875
 11
-39.39728
 21
48.433562
  0
LINE
  8
曲げ物
  6
CONTINUOUS
 10
-36.405437
 20
50.592765
 11
-37.861168
 21
49.137035
  0
LINE
  8
曲げ物
  6
CONTINUOUS
 10
-37.238077
 20
51.425405
 11
-38.693808
 21
49.969675
  0
LINE
  8
曲げ物
  6
CONTINUOUS
 10
-75.040995
 20
52.128875
 11
-78.736308
 21
48.433562
  0
LINE
  8
曲げ物
  6
CONTINUOUS
 10
-75.744465
 20
50.592765
 11
-77.200195
 21
49.137035
  0
LINE
  8
曲げ物
  6
CONTINUOUS
 10
-76.577105
 20
51.425405
 11
-78.032835
 21
49.969675
  0
ENDSEC
  0
EOF
