  0
SECTION
  2
HEADER
  9
$EXTMIN
 10
-210.0
 20
-148.5
  9
$EXTMAX
 10
210.0
 20
148.5
  9
$PDMODE
 70
    32
  9
$PDSIZE
 40
1.5
  9
$LTSCALE
 40
10.0
  0
ENDSEC
  0
SECTION
  2
TABLES
  0
TABLE
  2
LTYPE
 70
    15
  0
LTYPE
  2
CONTINUOUS
 70
    64
  3
実線
 72
    65
 73
     0
 40
0.0
  0
LTYPE
  2
DASHED
 70
    64
  3
破線A
 72
    65
 73
     2
 40
0.6
 49
0.4
 49
-0.2
  0
LTYPE
  2
DASHEDX2
 70
    64
  3
破線B
 72
    65
 73
     2
 40
1.3
 49
0.9
 49
-0.4
  0
LTYPE
  2
DASHDOT
 70
    64
  3
１点鎖線A
 72
    65
 73
     4
 40
0.5375
 49
0.375
 49
-0.05
 49
0.0625
 49
-0.05
  0
LTYPE
  2
DASHDOTX2
 70
    64
  3
１点鎖線B
 72
    65
 73
     4
 40
1.075
 49
0.75
 49
-0.1
 49
0.125
 49
-0.1
  0
LTYPE
  2
DIVIDE2
 70
    64
  3
２点鎖線A
 72
    65
 73
     6
 40
0.5125
 49
0.3
 49
-0.0375
 49
0.05
 49
-0.0375
 49
0.05
 49
-0.0375
  0
LTYPE
  2
DIVIDE
 70
    64
  3
２点鎖線B
 72
    65
 73
     6
 40
1.05
 49
0.55
 49
-0.1
 49
0.1
 49
-0.1
 49
0.1
 49
-0.1
  0
LTYPE
  2
DOT
 70
    64
  3
点線A
 72
    65
 73
     2
 40
0.1125
 49
0.0625
 49
-0.05
  0
LTYPE
  2
DOTX2
 70
    64
  3
点線B
 72
    65
 73
     2
 40
0.275
 49
0.15
 49
-0.125
  0
LTYPE
  2
CONTINUOUS
 70
    64
  3
実線
 72
    65
 73
     0
 40
0.0
  0
LTYPE
  2
CONTINUOUS
 70
    64
  3
実線
 72
    65
 73
     0
 40
0.0
  0
LTYPE
  2
CONTINUOUS
 70
    64
  3
実線
 72
    65
 73
     0
 40
0.0
  0
LTYPE
  2
CONTINUOUS
 70
    64
  3
実線
 72
    65
 73
     0
 40
0.0
  0
LTYPE
  2
CONTINUOUS
 70
    64
  3
実線
 72
    65
 73
     0
 40
0.0
  0
LTYPE
  2
CONTINUOUS
 70
    64
  3
実線
 72
    65
 73
     0
 40
0.0
  0
ENDTAB
  0
TABLE
  2
LAYER
 70
    34
  0
LAYER
  2
通り芯
 70
     0
 62
    15
  6
CONTINUOUS
  0
LAYER
  2
補助線
 70
     0
 62
    16
  6
DOT
  0
LAYER
  2
躯体
 70
     0
 62
    31
  6
CONTINUOUS
  0
LAYER
  2
型材
 70
     0
 62
    32
  6
CONTINUOUS
  0
LAYER
  2
型材断面
 70
     0
 62
    47
  6
CONTINUOUS
  0
LAYER
  2
ガラス
 70
     0
 62
    48
  6
CONTINUOUS
  0
LAYER
  2
ゴム等
 70
     0
 62
    63
  6
CONTINUOUS
  0
LAYER
  2
ボルト／ビス
 70
     0
 62
    64
  6
CONTINUOUS
  0
LAYER
  2
文字
 70
     0
 62
    79
  6
CONTINUOUS
  0
LAYER
  2
寸法
 70
     0
 62
    80
  6
CONTINUOUS
  0
LAYER
  2
ﾊｯﾁﾝｸﾞ
 70
     0
 62
    95
  6
CONTINUOUS
  0
LAYER
  2
別途部材
 70
     0
 62
    96
  6
CONTINUOUS
  0
LAYER
  2
曲げ物
 70
     0
 62
   111
  6
CONTINUOUS
  0
LAYER
  2
鉄骨等
 70
     0
 62
   112
  6
CONTINUOUS
  0
LAYER
  2
St
 70
     0
 62
   127
  6
CONTINUOUS
  0
LAYER
  2
その他部品等
 70
     0
 62
   128
  6
CONTINUOUS
  0
LAYER
  2
ｶﾞｽｹｯﾄ
 70
     0
 62
   143
  6
CONTINUOUS
  0
LAYER
  2
ｽｹｯﾁ
 70
     0
 62
    14
  6
CONTINUOUS
  0
LAYER
  2
0
 70
     0
 62
    17
  6
CONTINUOUS
  0
LAYER
  2
1
 70
     0
 62
    30
  6
CONTINUOUS
  0
LAYER
  2
4
 70
     0
 62
    33
  6
CONTINUOUS
  0
LAYER
  2
ﾚｲﾔ3
 70
     0
 62
    46
  6
CONTINUOUS
  0
LAYER
  2
外形線
 70
     0
 62
    49
  6
CONTINUOUS
  0
LAYER
  2
部品
 70
     0
 62
    14
  6
CONTINUOUS
  0
LAYER
  2
サッシ芯
 70
     0
 62
    17
  6
DASHDOTX2
  0
LAYER
  2
寸法線
 70
     0
 62
    62
  6
CONTINUOUS
  0
LAYER
  2
姿図外形線
 70
     0
 62
    65
  6
CONTINUOUS
  0
LAYER
  2
姿補助線
 70
     0
 62
    30
  6
CONTINUOUS
  0
LAYER
  2
透視線
 70
     0
 62
    78
  6
DOT
  0
LAYER
  2
用紙
 70
     0
 62
    81
  6
CONTINUOUS
  0
LAYER
  2
実線図枠
 70
     0
 62
    94
  6
CONTINUOUS
  0
LAYER
  2
補助図枠
 70
     0
 62
    97
  6
CONTINUOUS
  0
LAYER
  2
建具記号
 70
     0
 62
   110
  6
CONTINUOUS
  0
LAYER
  2
補助文字
 70
     0
 62
   113
  6
CONTINUOUS
  0
ENDTAB
  0
TABLE
  2
STYLE
 70
    10
  0
STYLE
  2
STANDARD
 70
     0
 40
1.0
 41
1.0
 42
1.0
 50
0.0
 71
     0
  3
TXT
  4
BIGFONT
  0
STYLE
  2
TATE
 70
     4
 40
1.0
 41
1.0
 42
1.0
 50
0.0
 71
     0
  3
TXT
  4
BIGFONT
  0
STYLE
  2
TextStyle03
 70
     0
 40
1.0
 41
1.0
 42
1.0
 50
0.0
 71
     0
  3
MONOTXT
  4
BIGFONT
  0
STYLE
  2
TextStyle04
 70
     0
 40
1.0
 41
1.0
 42
1.0
 50
0.0
 71
     0
  3
MONOTXT
  4
BIGFONT
  0
STYLE
  2
TextStyle05
 70
     0
 40
1.0
 41
1.0
 42
1.0
 50
0.0
 71
     0
  3
MONOTXT
  4
BIGFONT
  0
STYLE
  2
TextStyle06
 70
     0
 40
1.0
 41
1.0
 42
1.0
 50
0.0
 71
     0
  3
MONOTXT
  4
BIGFONT
  0
STYLE
  2
TextStyle07
 70
     0
 40
1.0
 41
1.0
 42
1.0
 50
0.0
 71
     0
  3
MONOTXT
  4
BIGFONT
  0
STYLE
  2
TextStyle08
 70
     0
 40
1.0
 41
1.0
 42
1.0
 50
0.0
 71
     0
  3
MONOTXT
  4
BIGFONT
  0
STYLE
  2
TextStyle09
 70
     0
 40
1.0
 41
1.0
 42
1.0
 50
0.0
 71
     0
  3
MONOTXT
  4
BIGFONT
  0
STYLE
  2
TextStyle10
 70
     0
 40
1.0
 41
1.0
 42
1.0
 50
0.0
 71
     0
  3
MONOTXT
  4
BIGFONT
  0
ENDTAB
  0
ENDSEC
  0
SECTION
  2
BLOCKS
  0
BLOCK
  2
*GRP_0001
 70
    65
 10
0.0
 20
0.0
  0
LINE
  8
型材断面
  6
CONTINUOUS
 10
195.0
 20
133.5
 11
195.0
 21
-133.5
  0
LINE
  8
型材断面
  6
CONTINUOUS
 10
195.0
 20
-133.5
 11
-185.0
 21
-133.5
  0
LINE
  8
型材断面
  6
CONTINUOUS
 10
-185.0
 20
-133.5
 11
-185.0
 21
133.5
  0
LINE
  8
型材断面
  6
CONTINUOUS
 10
195.0
 20
133.5
 11
-185.0
 21
133.5
  0
LINE
  8
型材断面
  6
CONTINUOUS
 10
145.0
 20
-133.5
 11
145.0
 21
-118.5
  0
LINE
  8
型材断面
  6
CONTINUOUS
 10
195.0
 20
-118.5
 11
145.0
 21
-118.5
  0
ENDBLK
  0
BLOCK
  2
*GRP_0002
 70
    65
 10
0.0
 20
0.0
  0
INSERT
  2
M8横
  8
ゴム等
  6
CONTINUOUS
 10
163.336003
 20
27.710297
 50
90.0
 41
0.033333
 42
0.033333
  0
LINE
  8
ボルト／ビス
  6
CONTINUOUS
 10
163.126005
 20
27.843633
 11
163.109338
 21
27.826965
  0
LINE
  8
ボルト／ビス
  6
CONTINUOUS
 10
163.109338
 20
27.593633
 11
163.126005
 21
27.576965
  0
LINE
  8
ボルト／ビス
  6
CONTINUOUS
 10
163.126005
 20
27.576965
 11
163.126005
 21
27.843633
  0
LINE
  8
ボルト／ビス
  6
CONTINUOUS
 10
163.109338
 20
27.593633
 11
163.109338
 21
27.826965
  0
LINE
  8
ボルト／ビス
  6
CONTINUOUS
 10
163.109338
 20
27.826965
 11
163.15267
 21
27.826965
  0
LINE
  8
ボルト／ビス
  6
CONTINUOUS
 10
163.126005
 20
27.843633
 11
163.15267
 21
27.843633
  0
LINE
  8
ボルト／ビス
  6
CONTINUOUS
 10
163.126005
 20
27.576965
 11
163.15267
 21
27.576965
  0
LINE
  8
ボルト／ビス
  6
CONTINUOUS
 10
163.109338
 20
27.593633
 11
163.15267
 21
27.593633
  0
LINE
  8
ボルト／ビス
  6
CONTINUOUS
 10
163.336003
 20
27.343633
 11
163.336003
 21
28.076965
  0
LINE
  8
ボルト／ビス
  6
CONTINUOUS
 10
163.376002
 20
28.126965
 11
163.459335
 21
28.126965
  0
LINE
  8
ボルト／ビス
  6
CONTINUOUS
 10
163.459335
 20
28.126965
 11
163.459335
 21
27.293633
  0
LINE
  8
ボルト／ビス
  6
CONTINUOUS
 10
163.459335
 20
27.293633
 11
163.376002
 21
27.293633
  0
LINE
  8
ボルト／ビス
  6
CONTINUOUS
 10
163.376002
 20
28.126965
 11
163.376002
 21
27.293633
  0
LINE
  8
ボルト／ビス
  6
CONTINUOUS
 10
163.336003
 20
27.343633
 11
163.376002
 21
27.343633
  0
LINE
  8
ボルト／ビス
  6
CONTINUOUS
 10
163.336003
 20
28.076965
 11
163.376002
 21
28.076965
  0
LINE
  8
ボルト／ビス
  6
CONTINUOUS
 10
163.386002
 20
27.710297
 11
163.336003
 21
27.710297
  0
ENDBLK
  0
BLOCK
  2
*GRP_0003
 70
    65
 10
0.0
 20
0.0
  0
LINE
  8
ボルト／ビス
  6
CONTINUOUS
 10
162.47617
 20
27.50363
 11
162.409503
 21
27.50363
  0
LINE
  8
ボルト／ビス
  6
CONTINUOUS
 10
162.409503
 20
27.50363
 11
162.409503
 21
28.236962
  0
LINE
  8
ボルト／ビス
  6
CONTINUOUS
 10
162.409503
 20
28.236962
 11
162.47617
 21
28.236962
  0
LINE
  8
ボルト／ビス
  6
CONTINUOUS
 10
162.47617
 20
27.50363
 11
162.47617
 21
28.236962
  0
LINE
  8
ボルト／ビス
  6
CONTINUOUS
 10
162.37617
 20
27.570298
 11
162.409503
 21
27.570298
  0
LINE
  8
ボルト／ビス
  6
CONTINUOUS
 10
162.37617
 20
27.570298
 11
162.37617
 21
28.170298
  0
LINE
  8
ボルト／ビス
  6
CONTINUOUS
 10
162.37617
 20
28.170298
 11
162.409503
 21
28.170298
  0
LINE
  8
ボルト／ビス
  6
CONTINUOUS
 62
    64
 10
162.17617
 20
27.709922
 11
162.187845
 21
27.677847
  0
ARC
  8
ボルト／ビス
  6
CONTINUOUS
 62
    64
 10
162.281149
 20
27.725964
 40
0.104978
 50
152.721967
 51
180.0
  0
ARC
  8
ボルト／ビス
  6
CONTINUOUS
 62
    64
 10
162.578573
 20
27.870302
 40
0.402402
 50
166.165002
 51
193.834985
  0
LINE
  8
ボルト／ビス
  6
CONTINUOUS
 62
    64
 10
162.17617
 20
28.030673
 11
162.187845
 21
28.062747
  0
ARC
  8
ボルト／ビス
  6
CONTINUOUS
 62
    64
 10
162.281149
 20
28.014639
 40
0.104978
 50
180.0
 51
207.278033
  0
LINE
  8
ボルト／ビス
  6
CONTINUOUS
 62
    64
 10
162.17617
 20
27.709922
 11
162.17617
 21
28.030673
  0
LINE
  8
ボルト／ビス
  6
CONTINUOUS
 62
    64
 10
162.187845
 20
28.062747
 11
162.309503
 21
28.062747
  0
LINE
  8
ボルト／ビス
  6
CONTINUOUS
 62
    64
 10
162.187845
 20
27.966523
 11
162.309503
 21
27.966523
  0
LINE
  8
ボルト／ビス
  6
CONTINUOUS
 62
    64
 10
162.187845
 20
27.677847
 11
162.309503
 21
27.677847
  0
LINE
  8
ボルト／ビス
  6
CONTINUOUS
 62
    64
 10
162.187845
 20
27.774072
 11
162.309503
 21
27.774072
  0
LINE
  8
ボルト／ビス
  6
CONTINUOUS
 10
162.309503
 20
27.677847
 11
162.309503
 21
28.062747
  0
LINE
  8
ボルト／ビス
  6
CONTINUOUS
 10
162.309503
 20
27.670298
 11
162.37617
 21
27.670298
  0
LINE
  8
ボルト／ビス
  6
CONTINUOUS
 10
162.309503
 20
27.670298
 11
162.309503
 21
28.070298
  0
LINE
  8
ボルト／ビス
  6
CONTINUOUS
 10
162.309503
 20
28.070298
 11
162.37617
 21
28.070298
  0
ENDBLK
  0
BLOCK
  2
*DIM_0004
 70
    65
 10
0.0
 20
0.0
  0
LINE
  8
寸法
  6
CONTINUOUS
 10
161.248695
 20
26.256963
 11
142.14273
 21
26.256963
  0
LINE
  8
寸法
  6
CONTINUOUS
 10
142.14273
 20
28.536658
 11
142.14273
 21
26.256963
  0
POINT
  8
寸法
 10
142.14273
 20
28.536658
  0
POINT
  8
寸法
 10
142.14273
 20
26.256963
  0
TEXT
  7
TextStyle03
  8
寸法
  6
CONTINUOUS
 10
141.75
 20
17.34375
  1
68.4
 40
3.0
 50
90.0
 72
     5
 11
141.75
 21
23.90625
  0
ENDBLK
  0
BLOCK
  2
*DIM_0005
 70
    65
 10
0.0
 20
0.0
  0
LINE
  8
寸法
  6
CONTINUOUS
 10
169.209335
 20
21.570298
 11
169.209335
 21
13.661277
  0
LINE
  8
寸法
  6
CONTINUOUS
 10
161.742835
 20
23.536658
 11
161.742835
 21
13.661277
  0
LINE
  8
寸法
  6
CONTINUOUS
 10
169.209335
 20
13.661277
 11
161.742835
 21
13.661277
  0
POINT
  8
寸法
 10
169.209335
 20
13.661277
  0
POINT
  8
寸法
 10
161.742835
 20
13.661277
  0
TEXT
  7
TextStyle03
  8
寸法
  6
CONTINUOUS
 10
163.0375
 20
14.025
  1
224
 40
3.0
 72
     5
 11
167.9125
 21
14.025
  0
ENDBLK
  0
BLOCK
  2
*GRP_0006
 70
    65
 10
0.0
 20
0.0
  0
INSERT
  2
M8横
  8
ゴム等
  6
CONTINUOUS
 10
163.336003
 20
72.696352
 50
270.0
 41
0.033333
 42
-0.033333
  0
LINE
  8
ボルト／ビス
  6
CONTINUOUS
 10
163.126005
 20
72.56302
 11
163.109338
 21
72.579688
  0
LINE
  8
ボルト／ビス
  6
CONTINUOUS
 10
163.109338
 20
72.81302
 11
163.126005
 21
72.829688
  0
LINE
  8
ボルト／ビス
  6
CONTINUOUS
 10
163.126005
 20
72.829688
 11
163.126005
 21
72.56302
  0
LINE
  8
ボルト／ビス
  6
CONTINUOUS
 10
163.109338
 20
72.81302
 11
163.109338
 21
72.579688
  0
LINE
  8
ボルト／ビス
  6
CONTINUOUS
 10
163.109338
 20
72.579688
 11
163.15267
 21
72.579688
  0
LINE
  8
ボルト／ビス
  6
CONTINUOUS
 10
163.126005
 20
72.56302
 11
163.15267
 21
72.56302
  0
LINE
  8
ボルト／ビス
  6
CONTINUOUS
 10
163.126005
 20
72.829688
 11
163.15267
 21
72.829688
  0
LINE
  8
ボルト／ビス
  6
CONTINUOUS
 10
163.109338
 20
72.81302
 11
163.15267
 21
72.81302
  0
LINE
  8
ボルト／ビス
  6
CONTINUOUS
 10
163.336003
 20
73.06302
 11
163.336003
 21
72.329688
  0
LINE
  8
ボルト／ビス
  6
CONTINUOUS
 10
163.376002
 20
72.279687
 11
163.459335
 21
72.279687
  0
LINE
  8
ボルト／ビス
  6
CONTINUOUS
 10
163.459335
 20
72.279687
 11
163.459335
 21
73.11302
  0
LINE
  8
ボルト／ビス
  6
CONTINUOUS
 10
163.459335
 20
73.11302
 11
163.376002
 21
73.11302
  0
LINE
  8
ボルト／ビス
  6
CONTINUOUS
 10
163.376002
 20
72.279687
 11
163.376002
 21
73.11302
  0
LINE
  8
ボルト／ビス
  6
CONTINUOUS
 10
163.336003
 20
73.06302
 11
163.376002
 21
73.06302
  0
LINE
  8
ボルト／ビス
  6
CONTINUOUS
 10
163.336003
 20
72.329688
 11
163.376002
 21
72.329688
  0
LINE
  8
ボルト／ビス
  6
CONTINUOUS
 10
163.386002
 20
72.696352
 11
163.336003
 21
72.696352
  0
ENDBLK
  0
BLOCK
  2
*GRP_0007
 70
    65
 10
0.0
 20
0.0
  0
LINE
  8
ボルト／ビス
  6
CONTINUOUS
 10
162.47617
 20
72.903023
 11
162.409503
 21
72.903023
  0
LINE
  8
ボルト／ビス
  6
CONTINUOUS
 10
162.409503
 20
72.903023
 11
162.409503
 21
72.169687
  0
LINE
  8
ボルト／ビス
  6
CONTINUOUS
 10
162.409503
 20
72.169687
 11
162.47617
 21
72.169687
  0
LINE
  8
ボルト／ビス
  6
CONTINUOUS
 10
162.47617
 20
72.903023
 11
162.47617
 21
72.169687
  0
LINE
  8
ボルト／ビス
  6
CONTINUOUS
 10
162.37617
 20
72.836355
 11
162.409503
 21
72.836355
  0
LINE
  8
ボルト／ビス
  6
CONTINUOUS
 10
162.37617
 20
72.836355
 11
162.37617
 21
72.236355
  0
LINE
  8
ボルト／ビス
  6
CONTINUOUS
 10
162.37617
 20
72.236355
 11
162.409503
 21
72.236355
  0
LINE
  8
ボルト／ビス
  6
CONTINUOUS
 62
    64
 10
162.17617
 20
72.69673
 11
162.187845
 21
72.728805
  0
ARC
  8
ボルト／ビス
  6
CONTINUOUS
 62
    64
 10
162.281149
 20
72.680698
 40
0.104978
 50
180.0
 51
207.278033
  0
ARC
  8
ボルト／ビス
  6
CONTINUOUS
 62
    64
 10
162.578573
 20
72.536361
 40
0.402402
 50
166.165015
 51
193.834998
  0
LINE
  8
ボルト／ビス
  6
CONTINUOUS
 62
    64
 10
162.17617
 20
72.37598
 11
162.187845
 21
72.343905
  0
ARC
  8
ボルト／ビス
  6
CONTINUOUS
 62
    64
 10
162.281149
 20
72.392023
 40
0.104978
 50
152.721967
 51
180.0
  0
LINE
  8
ボルト／ビス
  6
CONTINUOUS
 62
    64
 10
162.17617
 20
72.69673
 11
162.17617
 21
72.37598
  0
LINE
  8
ボルト／ビス
  6
CONTINUOUS
 62
    64
 10
162.187845
 20
72.343905
 11
162.309503
 21
72.343905
  0
LINE
  8
ボルト／ビス
  6
CONTINUOUS
 62
    64
 10
162.187845
 20
72.44013
 11
162.309503
 21
72.44013
  0
LINE
  8
ボルト／ビス
  6
CONTINUOUS
 62
    64
 10
162.187845
 20
72.728805
 11
162.309503
 21
72.728805
  0
LINE
  8
ボルト／ビス
  6
CONTINUOUS
 62
    64
 10
162.187845
 20
72.63258
 11
162.309503
 21
72.63258
  0
LINE
  8
ボルト／ビス
  6
CONTINUOUS
 10
162.309503
 20
72.728805
 11
162.309503
 21
72.343905
  0
LINE
  8
ボルト／ビス
  6
CONTINUOUS
 10
162.309503
 20
72.736355
 11
162.37617
 21
72.736355
  0
LINE
  8
ボルト／ビス
  6
CONTINUOUS
 10
162.309503
 20
72.736355
 11
162.309503
 21
72.336355
  0
LINE
  8
ボルト／ビス
  6
CONTINUOUS
 10
162.309503
 20
72.336355
 11
162.37617
 21
72.336355
  0
ENDBLK
  0
BLOCK
  2
*DIM_0008
 70
    65
 10
0.0
 20
0.0
  0
LINE
  8
寸法
  6
CONTINUOUS
 10
161.248695
 20
74.149688
 11
142.14273
 21
74.149688
  0
LINE
  8
寸法
  6
CONTINUOUS
 10
142.14273
 20
71.869993
 11
142.14273
 21
74.149688
  0
POINT
  8
寸法
 10
142.14273
 20
71.869993
  0
POINT
  8
寸法
 10
142.14273
 20
74.149688
  0
TEXT
  7
TextStyle03
  8
寸法
  6
CONTINUOUS
 10
141.75
 20
76.46875
  1
68.4
 40
3.0
 50
90.0
 72
     5
 11
141.75
 21
83.03125
  0
ENDBLK
  0
BLOCK
  2
*DIM_0009
 70
    65
 10
0.0
 20
0.0
  0
LINE
  8
寸法
  6
CONTINUOUS
 10
142.14273
 20
71.869993
 11
142.14273
 21
28.536658
  0
POINT
  8
寸法
 10
142.14273
 20
71.869993
  0
POINT
  8
寸法
 10
142.14273
 20
28.536658
  0
TEXT
  7
TextStyle03
  8
寸法
  6
CONTINUOUS
 10
141.75
 20
38.48125
  1
呼称寸法　1300
 40
3.0
 50
90.0
 72
     5
 11
141.75
 21
61.91875
  0
ENDBLK
  0
BLOCK
  2
*GRP_0010
 70
    65
 10
0.0
 20
0.0
  0
INSERT
  2
M8横
  8
ゴム等
  6
CONTINUOUS
 10
29.896525
 20
-70.297288
 50
180.0
 41
0.033333
 42
-0.033333
  0
LINE
  8
ボルト／ビス
  6
CONTINUOUS
 10
29.763192
 20
-70.087288
 11
29.779858
 21
-70.070622
  0
LINE
  8
ボルト／ビス
  6
CONTINUOUS
 10
30.013192
 20
-70.070622
 11
30.029858
 21
-70.087288
  0
LINE
  8
ボルト／ビス
  6
CONTINUOUS
 10
30.029858
 20
-70.087288
 11
29.763192
 21
-70.087288
  0
LINE
  8
ボルト／ビス
  6
CONTINUOUS
 10
30.013192
 20
-70.070622
 11
29.779858
 21
-70.070622
  0
LINE
  8
ボルト／ビス
  6
CONTINUOUS
 10
29.779858
 20
-70.070622
 11
29.779858
 21
-70.113952
  0
LINE
  8
ボルト／ビス
  6
CONTINUOUS
 10
29.763192
 20
-70.087288
 11
29.763192
 21
-70.113952
  0
LINE
  8
ボルト／ビス
  6
CONTINUOUS
 10
30.029858
 20
-70.087288
 11
30.029858
 21
-70.113952
  0
LINE
  8
ボルト／ビス
  6
CONTINUOUS
 10
30.013192
 20
-70.070622
 11
30.013192
 21
-70.113952
  0
LINE
  8
ボルト／ビス
  6
CONTINUOUS
 10
30.263192
 20
-70.297288
 11
29.529858
 21
-70.297288
  0
LINE
  8
ボルト／ビス
  6
CONTINUOUS
 10
29.479858
 20
-70.337288
 11
29.479858
 21
-70.42062
  0
LINE
  8
ボルト／ビス
  6
CONTINUOUS
 10
29.479858
 20
-70.42062
 11
30.313192
 21
-70.42062
  0
LINE
  8
ボルト／ビス
  6
CONTINUOUS
 10
30.313192
 20
-70.42062
 11
30.313192
 21
-70.337288
  0
LINE
  8
ボルト／ビス
  6
CONTINUOUS
 10
29.479858
 20
-70.337288
 11
30.313192
 21
-70.337288
  0
LINE
  8
ボルト／ビス
  6
CONTINUOUS
 10
30.263192
 20
-70.297288
 11
30.263192
 21
-70.337288
  0
LINE
  8
ボルト／ビス
  6
CONTINUOUS
 10
29.529858
 20
-70.297288
 11
29.529858
 21
-70.337288
  0
LINE
  8
ボルト／ビス
  6
CONTINUOUS
 10
29.896525
 20
-70.347288
 11
29.896525
 21
-70.297288
  0
ENDBLK
  0
BLOCK
  2
*GRP_0011
 70
    65
 10
0.0
 20
0.0
  0
LINE
  8
ボルト／ビス
  6
CONTINUOUS
 10
30.103192
 20
-69.437453
 11
30.103192
 21
-69.370788
  0
LINE
  8
ボルト／ビス
  6
CONTINUOUS
 10
30.103192
 20
-69.370788
 11
29.36986
 21
-69.370788
  0
LINE
  8
ボルト／ビス
  6
CONTINUOUS
 10
29.36986
 20
-69.370788
 11
29.36986
 21
-69.437453
  0
LINE
  8
ボルト／ビス
  6
CONTINUOUS
 10
30.103192
 20
-69.437453
 11
29.36986
 21
-69.437453
  0
LINE
  8
ボルト／ビス
  6
CONTINUOUS
 10
30.036528
 20
-69.337453
 11
30.036528
 21
-69.370788
  0
LINE
  8
ボルト／ビス
  6
CONTINUOUS
 10
30.036528
 20
-69.337453
 11
29.436528
 21
-69.337453
  0
LINE
  8
ボルト／ビス
  6
CONTINUOUS
 10
29.436528
 20
-69.337453
 11
29.436528
 21
-69.370788
  0
LINE
  8
ボルト／ビス
  6
CONTINUOUS
 62
    64
 10
29.896903
 20
-69.137453
 11
29.928977
 21
-69.149128
  0
ARC
  8
ボルト／ビス
  6
CONTINUOUS
 62
    64
 10
29.880864
 20
-69.242431
 40
0.104978
 50
90.0
 51
117.278033
  0
ARC
  8
ボルト／ビス
  6
CONTINUOUS
 62
    64
 10
29.736526
 20
-69.539855
 40
0.402402
 50
76.165015
 51
103.834998
  0
LINE
  8
ボルト／ビス
  6
CONTINUOUS
 62
    64
 10
29.576152
 20
-69.137453
 11
29.544077
 21
-69.149128
  0
ARC
  8
ボルト／ビス
  6
CONTINUOUS
 62
    64
 10
29.592188
 20
-69.242431
 40
0.104978
 50
62.721967
 51
90.0
  0
LINE
  8
ボルト／ビス
  6
CONTINUOUS
 62
    64
 10
29.896903
 20
-69.137453
 11
29.576152
 21
-69.137453
  0
LINE
  8
ボルト／ビス
  6
CONTINUOUS
 62
    64
 10
29.544077
 20
-69.149128
 11
29.544077
 21
-69.270788
  0
LINE
  8
ボルト／ビス
  6
CONTINUOUS
 62
    64
 10
29.640302
 20
-69.149128
 11
29.640302
 21
-69.270788
  0
LINE
  8
ボルト／ビス
  6
CONTINUOUS
 62
    64
 10
29.928977
 20
-69.149128
 11
29.928977
 21
-69.270788
  0
LINE
  8
ボルト／ビス
  6
CONTINUOUS
 62
    64
 10
29.832753
 20
-69.149128
 11
29.832753
 21
-69.270788
  0
LINE
  8
ボルト／ビス
  6
CONTINUOUS
 10
29.928977
 20
-69.270788
 11
29.544077
 21
-69.270788
  0
LINE
  8
ボルト／ビス
  6
CONTINUOUS
 10
29.936528
 20
-69.270788
 11
29.936528
 21
-69.337453
  0
LINE
  8
ボルト／ビス
  6
CONTINUOUS
 10
29.936528
 20
-69.270788
 11
29.536528
 21
-69.270788
  0
LINE
  8
ボルト／ビス
  6
CONTINUOUS
 10
29.536528
 20
-69.270788
 11
29.536528
 21
-69.337453
  0
ENDBLK
  0
BLOCK
  2
*DIM_0012
 70
    65
 10
0.0
 20
0.0
  0
LINE
  8
寸法
  6
CONTINUOUS
 10
34.070165
 20
-68.70412
 11
52.688638
 21
-68.70412
  0
LINE
  8
寸法
  6
CONTINUOUS
 10
36.036528
 20
-76.17062
 11
52.688638
 21
-76.17062
  0
LINE
  8
寸法
  6
CONTINUOUS
 10
52.688638
 20
-68.70412
 11
52.688638
 21
-76.17062
  0
POINT
  8
寸法
 10
52.688638
 20
-68.70412
  0
POINT
  8
寸法
 10
52.688638
 20
-76.17062
  0
TEXT
  7
TextStyle03
  8
寸法
  6
CONTINUOUS
 10
52.3
 20
-74.8875
  1
224
 40
3.0
 50
90.0
 72
     5
 11
52.3
 21
-70.0125
  0
ENDBLK
  0
BLOCK
  2
*GRP_0013
 70
    65
 10
0.0
 20
0.0
  0
INSERT
  2
M8横
  8
ゴム等
  6
CONTINUOUS
 10
-105.08952
 20
-70.297288
 41
0.033333
 42
0.033333
  0
LINE
  8
ボルト／ビス
  6
CONTINUOUS
 10
-104.956188
 20
-70.087288
 11
-104.972853
 21
-70.070622
  0
LINE
  8
ボルト／ビス
  6
CONTINUOUS
 10
-105.206188
 20
-70.070622
 11
-105.222853
 21
-70.087288
  0
LINE
  8
ボルト／ビス
  6
CONTINUOUS
 10
-105.222853
 20
-70.087288
 11
-104.956188
 21
-70.087288
  0
LINE
  8
ボルト／ビス
  6
CONTINUOUS
 10
-105.206188
 20
-70.070622
 11
-104.972853
 21
-70.070622
  0
LINE
  8
ボルト／ビス
  6
CONTINUOUS
 10
-104.972853
 20
-70.070622
 11
-104.972853
 21
-70.113952
  0
LINE
  8
ボルト／ビス
  6
CONTINUOUS
 10
-104.956188
 20
-70.087288
 11
-104.956188
 21
-70.113952
  0
LINE
  8
ボルト／ビス
  6
CONTINUOUS
 10
-105.222853
 20
-70.087288
 11
-105.222853
 21
-70.113952
  0
LINE
  8
ボルト／ビス
  6
CONTINUOUS
 10
-105.206188
 20
-70.070622
 11
-105.206188
 21
-70.113952
  0
LINE
  8
ボルト／ビス
  6
CONTINUOUS
 10
-105.456188
 20
-70.297288
 11
-104.722853
 21
-70.297288
  0
LINE
  8
ボルト／ビス
  6
CONTINUOUS
 10
-104.672853
 20
-70.337288
 11
-104.672853
 21
-70.42062
  0
LINE
  8
ボルト／ビス
  6
CONTINUOUS
 10
-104.672853
 20
-70.42062
 11
-105.506188
 21
-70.42062
  0
LINE
  8
ボルト／ビス
  6
CONTINUOUS
 10
-105.506188
 20
-70.42062
 11
-105.506188
 21
-70.337288
  0
LINE
  8
ボルト／ビス
  6
CONTINUOUS
 10
-104.672853
 20
-70.337288
 11
-105.506188
 21
-70.337288
  0
LINE
  8
ボルト／ビス
  6
CONTINUOUS
 10
-105.456188
 20
-70.297288
 11
-105.456188
 21
-70.337288
  0
LINE
  8
ボルト／ビス
  6
CONTINUOUS
 10
-104.722853
 20
-70.297288
 11
-104.722853
 21
-70.337288
  0
LINE
  8
ボルト／ビス
  6
CONTINUOUS
 10
-105.08952
 20
-70.347288
 11
-105.08952
 21
-70.297288
  0
ENDBLK
  0
BLOCK
  2
*GRP_0014
 70
    65
 10
0.0
 20
0.0
  0
LINE
  8
ボルト／ビス
  6
CONTINUOUS
 10
-105.296188
 20
-69.437453
 11
-105.296188
 21
-69.370788
  0
LINE
  8
ボルト／ビス
  6
CONTINUOUS
 10
-105.296188
 20
-69.370788
 11
-104.562855
 21
-69.370788
  0
LINE
  8
ボルト／ビス
  6
CONTINUOUS
 10
-104.562855
 20
-69.370788
 11
-104.562855
 21
-69.437453
  0
LINE
  8
ボルト／ビス
  6
CONTINUOUS
 10
-105.296188
 20
-69.437453
 11
-104.562855
 21
-69.437453
  0
LINE
  8
ボルト／ビス
  6
CONTINUOUS
 10
-105.229522
 20
-69.337453
 11
-105.229522
 21
-69.370788
  0
LINE
  8
ボルト／ビス
  6
CONTINUOUS
 10
-105.229522
 20
-69.337453
 11
-104.629522
 21
-69.337453
  0
LINE
  8
ボルト／ビス
  6
CONTINUOUS
 10
-104.629522
 20
-69.337453
 11
-104.629522
 21
-69.370788
  0
LINE
  8
ボルト／ビス
  6
CONTINUOUS
 62
    64
 10
-105.089898
 20
-69.137453
 11
-105.121973
 21
-69.149128
  0
ARC
  8
ボルト／ビス
  6
CONTINUOUS
 62
    64
 10
-105.07386
 20
-69.242431
 40
0.104978
 50
62.721967
 51
90.0
  0
ARC
  8
ボルト／ビス
  6
CONTINUOUS
 62
    64
 10
-104.929523
 20
-69.539855
 40
0.402402
 50
76.165002
 51
103.834985
  0
LINE
  8
ボルト／ビス
  6
CONTINUOUS
 62
    64
 10
-104.769147
 20
-69.137453
 11
-104.737072
 21
-69.149128
  0
ARC
  8
ボルト／ビス
  6
CONTINUOUS
 62
    64
 10
-104.785185
 20
-69.242431
 40
0.104978
 50
90.0
 51
117.278033
  0
LINE
  8
ボルト／ビス
  6
CONTINUOUS
 62
    64
 10
-105.089898
 20
-69.137453
 11
-104.769147
 21
-69.137453
  0
LINE
  8
ボルト／ビス
  6
CONTINUOUS
 62
    64
 10
-104.737072
 20
-69.149128
 11
-104.737072
 21
-69.270788
  0
LINE
  8
ボルト／ビス
  6
CONTINUOUS
 62
    64
 10
-104.833298
 20
-69.149128
 11
-104.833298
 21
-69.270788
  0
LINE
  8
ボルト／ビス
  6
CONTINUOUS
 62
    64
 10
-105.121973
 20
-69.149128
 11
-105.121973
 21
-69.270788
  0
LINE
  8
ボルト／ビス
  6
CONTINUOUS
 62
    64
 10
-105.025748
 20
-69.149128
 11
-105.025748
 21
-69.270788
  0
LINE
  8
ボルト／ビス
  6
CONTINUOUS
 10
-105.121973
 20
-69.270788
 11
-104.737072
 21
-69.270788
  0
LINE
  8
ボルト／ビス
  6
CONTINUOUS
 10
-105.129522
 20
-69.270788
 11
-105.129522
 21
-69.337453
  0
LINE
  8
ボルト／ビス
  6
CONTINUOUS
 10
-105.129522
 20
-69.270788
 11
-104.729522
 21
-69.270788
  0
LINE
  8
ボルト／ビス
  6
CONTINUOUS
 10
-104.729522
 20
-69.270788
 11
-104.729522
 21
-69.337453
  0
ENDBLK
  0
BLOCK
  2
*DIM_0015
 70
    65
 10
0.0
 20
0.0
  0
LINE
  8
寸法
  6
BYBLOCK
 62
     0
 10
-87.596495
 20
24.90653
 11
-87.596495
 21
20.011295
  0
LINE
  8
寸法
  6
BYBLOCK
 62
     0
 10
12.4035
 20
24.90653
 11
12.4035
 21
20.011295
  0
LINE
  8
寸法
  6
BYBLOCK
 62
     0
 10
-87.596495
 20
20.011295
 11
12.4035
 21
20.011295
  0
POINT
  8
寸法
 62
     0
 10
-87.596495
 20
20.011295
  0
POINT
  8
寸法
 62
     0
 10
12.4035
 20
20.011295
  0
TEXT
  7
TextStyle03
  8
寸法
  6
CONTINUOUS
 62
     0
 10
-40.90625
 20
20.35
  1
3000
 40
3.0
 72
     5
 11
-34.34375
 21
20.35
  0
ENDBLK
  0
BLOCK
  2
*DIM_0016
 70
    65
 10
0.0
 20
0.0
  0
LINE
  8
寸法
  6
BYBLOCK
 62
     0
 10
32.700297
 20
67.96999
 11
39.47759
 21
67.96999
  0
LINE
  8
寸法
  6
BYBLOCK
 62
     0
 10
39.47759
 20
71.86999
 11
39.47759
 21
67.96999
  0
POINT
  8
寸法
 62
     0
 10
39.47759
 20
71.86999
  0
POINT
  8
寸法
 62
     0
 10
39.47759
 20
67.96999
  0
TEXT
  7
TextStyle03
  8
寸法
  6
CONTINUOUS
 62
     0
 10
39.15
 20
72.5375
  1
117
 40
3.0
 50
90.0
 72
     5
 11
39.15
 21
77.4125
  0
ENDBLK
  0
BLOCK
  2
*DIM_0017
 70
    65
 10
0.0
 20
0.0
  0
LINE
  8
寸法
  6
BYBLOCK
 62
     0
 10
32.700297
 20
32.43666
 11
39.47759
 21
32.43666
  0
LINE
  8
寸法
  6
BYBLOCK
 62
     0
 10
39.47759
 20
28.53666
 11
39.47759
 21
32.43666
  0
POINT
  8
寸法
 62
     0
 10
39.47759
 20
28.53666
  0
POINT
  8
寸法
 62
     0
 10
39.47759
 20
32.43666
  0
TEXT
  7
TextStyle03
  8
寸法
  6
CONTINUOUS
 62
     0
 10
39.575
 20
22.5875
  1
117
 40
3.0
 50
90.0
 72
     5
 11
39.575
 21
27.4625
  0
ENDBLK
  0
BLOCK
  2
*DIM_0018
 70
    65
 10
0.0
 20
0.0
  0
LINE
  8
寸法
  6
BYBLOCK
 62
     0
 10
-107.263162
 20
38.536658
 11
-136.208328
 21
38.536658
  0
LINE
  8
寸法
  6
BYBLOCK
 62
     0
 10
-107.263162
 20
61.869993
 11
-136.208328
 21
61.869993
  0
LINE
  8
寸法
  6
BYBLOCK
 62
     0
 10
-136.208328
 20
38.536658
 11
-136.208328
 21
61.869993
  0
POINT
  8
寸法
 62
     0
 10
-136.208328
 20
38.536658
  0
POINT
  8
寸法
 62
     0
 10
-136.208328
 20
61.869993
  0
TEXT
  7
TextStyle03
  8
寸法
  6
CONTINUOUS
 62
     0
 10
-136.55
 20
47.7375
  1
700
 40
3.0
 50
90.0
 72
     5
 11
-136.55
 21
52.6125
  0
ENDBLK
  0
BLOCK
  2
*DIM_0019
 70
    65
 10
0.0
 20
0.0
  0
LINE
  8
寸法
  6
BYBLOCK
 62
     0
 10
-95.92983
 20
74.86999
 11
-95.92983
 21
103.978062
  0
LINE
  8
寸法
  6
BYBLOCK
 62
     0
 10
-72.596497
 20
74.86999
 11
-72.596497
 21
103.978062
  0
LINE
  8
寸法
  6
BYBLOCK
 62
     0
 10
-95.92983
 20
103.978062
 11
-72.596497
 21
103.978062
  0
POINT
  8
寸法
 62
     0
 10
-95.92983
 20
103.978062
  0
POINT
  8
寸法
 62
     0
 10
-72.596497
 20
103.978062
  0
TEXT
  7
TextStyle03
  8
寸法
  6
CONTINUOUS
 62
     0
 10
-86.7125
 20
104.325
  1
700
 40
3.0
 72
     5
 11
-81.8375
 21
104.325
  0
ENDBLK
  0
BLOCK
  2
*DIM_0020
 70
    65
 10
0.0
 20
0.0
  0
LINE
  8
寸法
  6
BYBLOCK
 62
     0
 10
-49.263165
 20
74.86999
 11
-49.263165
 21
103.978062
  0
LINE
  8
寸法
  6
BYBLOCK
 62
     0
 10
-72.596497
 20
103.978062
 11
-49.263165
 21
103.978062
  0
POINT
  8
寸法
 62
     0
 10
-49.263165
 20
103.978062
  0
TEXT
  7
TextStyle03
  8
寸法
  6
CONTINUOUS
 62
     0
 10
-63.3875
 20
104.325
  1
700
 40
3.0
 72
     5
 11
-58.5125
 21
104.325
  0
ENDBLK
  0
BLOCK
  2
*DIM_0021
 70
    65
 10
0.0
 20
0.0
  0
LINE
  8
寸法
  6
BYBLOCK
 62
     0
 10
-25.92983
 20
74.86999
 11
-25.92983
 21
103.978062
  0
LINE
  8
寸法
  6
BYBLOCK
 62
     0
 10
-49.263165
 20
103.978062
 11
-25.92983
 21
103.978062
  0
POINT
  8
寸法
 62
     0
 10
-25.92983
 20
103.978062
  0
TEXT
  7
TextStyle03
  8
寸法
  6
CONTINUOUS
 62
     0
 10
-40.0625
 20
104.325
  1
700
 40
3.0
 72
     5
 11
-35.1875
 21
104.325
  0
ENDBLK
  0
BLOCK
  2
*DIM_0022
 70
    65
 10
0.0
 20
0.0
  0
LINE
  8
寸法
  6
BYBLOCK
 62
     0
 10
-2.596497
 20
74.86999
 11
-2.596497
 21
103.978062
  0
LINE
  8
寸法
  6
BYBLOCK
 62
     0
 10
-25.92983
 20
103.978062
 11
-2.596497
 21
103.978062
  0
POINT
  8
寸法
 62
     0
 10
-2.596497
 20
103.978062
  0
TEXT
  7
TextStyle03
  8
寸法
  6
CONTINUOUS
 62
     0
 10
-16.7125
 20
104.325
  1
700
 40
3.0
 72
     5
 11
-11.8375
 21
104.325
  0
ENDBLK
  0
BLOCK
  2
*DIM_0023
 70
    65
 10
0.0
 20
0.0
  0
LINE
  8
寸法
  6
BYBLOCK
 62
     0
 10
20.736835
 20
74.86999
 11
20.736835
 21
103.978062
  0
LINE
  8
寸法
  6
BYBLOCK
 62
     0
 10
-2.596497
 20
103.978062
 11
20.736835
 21
103.978062
  0
POINT
  8
寸法
 62
     0
 10
20.736835
 20
103.978062
  0
TEXT
  7
TextStyle03
  8
寸法
  6
CONTINUOUS
 62
     0
 10
6.6125
 20
104.325
  1
700
 40
3.0
 72
     5
 11
11.4875
 21
104.325
  0
ENDBLK
  0
BLOCK
  2
*GRP_0024
 70
    65
 10
0.0
 20
0.0
  0
LINE
  8
型材断面
  6
DOT
 10
30.736832
 20
-54.937453
 11
30.686832
 21
-54.937453
  0
LINE
  8
型材断面
  6
DOT
 10
29.070165
 20
-54.437453
 11
29.070165
 21
-53.70412
  0
LINE
  8
型材断面
  6
DOT
 10
29.11986
 20
-55.42062
 11
30.566527
 21
-55.42062
  0
LINE
  8
型材断面
  6
DOT
 10
30.566527
 20
-55.87062
 11
30.566527
 21
-55.42062
  0
LINE
  8
型材断面
  6
DOT
 62
    47
 10
31.29986
 20
-58.543312
 11
31.34986
 21
-58.543312
  0
LINE
  8
型材断面
  6
DOT
 62
    47
 10
31.34986
 20
-58.543312
 11
31.34986
 21
-58.209977
  0
LINE
  8
型材断面
  6
DOT
 62
    47
 10
31.34986
 20
-58.209977
 11
30.566527
 21
-58.109977
  0
LINE
  8
型材断面
  6
DOT
 62
    47
 10
30.566527
 20
-57.703953
 11
30.566527
 21
-58.109977
  0
LINE
  8
型材断面
  6
DOT
 62
    47
 10
31.036528
 20
-57.703953
 11
31.036528
 21
-55.87062
  0
LINE
  8
型材断面
  6
DOT
 10
30.736832
 20
-54.937453
 11
30.736832
 21
-54.437453
  0
LINE
  8
型材断面
  6
DOT
 10
29.11986
 20
-55.42062
 11
29.11986
 21
-54.937453
  0
INSERT
  2
*GRP_0025
  8
型材断面
  6
DOT
 10
0.0
 20
0.0
  0
INSERT
  2
*GRP_0026
  8
型材断面
  6
DOT
 10
0.0
 20
0.0
  0
LINE
  8
型材断面
  6
DOT
 10
31.34986
 20
-58.543312
 11
-37.596497
 21
-58.543312
  0
LINE
  8
型材断面
  6
DOT
 10
31.34986
 20
-58.209977
 11
-37.596497
 21
-58.209977
  0
LINE
  8
型材断面
  6
DOT
 10
30.566527
 20
-58.109977
 11
-37.596497
 21
-58.109977
  0
LINE
  8
型材断面
  6
DOT
 10
31.036528
 20
-57.703953
 11
-37.596497
 21
-57.703953
  0
LINE
  8
型材断面
  6
DOT
 10
30.736832
 20
-54.937453
 11
-37.596497
 21
-54.937453
  0
LINE
  8
型材断面
  6
DOT
 10
29.070165
 20
-53.70412
 11
-37.596497
 21
-53.70412
  0
LINE
  8
型材断面
  6
DOT
 10
30.736832
 20
-54.437453
 11
-37.596497
 21
-54.437453
  0
LINE
  8
型材断面
  6
DOT
 10
30.566527
 20
-55.42062
 11
-37.596497
 21
-55.42062
  0
LINE
  8
型材断面
  6
DOT
 10
31.036528
 20
-55.87062
 11
-37.596497
 21
-55.87062
  0
LINE
  8
型材断面
  6
DOT
 10
-105.929828
 20
-54.937453
 11
-105.879828
 21
-54.937453
  0
LINE
  8
型材断面
  6
DOT
 10
-104.26316
 20
-54.437453
 11
-104.26316
 21
-53.70412
  0
LINE
  8
型材断面
  6
DOT
 10
-104.312855
 20
-55.42062
 11
-105.759523
 21
-55.42062
  0
LINE
  8
型材断面
  6
DOT
 10
-105.759523
 20
-55.87062
 11
-105.759523
 21
-55.42062
  0
LINE
  8
型材断面
  6
DOT
 62
    47
 10
-106.492855
 20
-58.543312
 11
-106.542855
 21
-58.543312
  0
LINE
  8
型材断面
  6
DOT
 62
    47
 10
-106.542855
 20
-58.543312
 11
-106.542855
 21
-58.209977
  0
LINE
  8
型材断面
  6
DOT
 62
    47
 10
-106.542855
 20
-58.209977
 11
-105.759523
 21
-58.109977
  0
LINE
  8
型材断面
  6
DOT
 62
    47
 10
-105.759523
 20
-57.703953
 11
-105.759523
 21
-58.109977
  0
LINE
  8
型材断面
  6
DOT
 62
    47
 10
-106.229522
 20
-57.703953
 11
-106.229522
 21
-55.87062
  0
LINE
  8
型材断面
  6
DOT
 10
-105.929828
 20
-54.937453
 11
-105.929828
 21
-54.437453
  0
LINE
  8
型材断面
  6
DOT
 10
-104.312855
 20
-55.42062
 11
-104.312855
 21
-54.937453
  0
INSERT
  2
*GRP_0027
  8
型材断面
  6
DOT
 10
0.0
 20
0.0
  0
INSERT
  2
*GRP_0028
  8
型材断面
  6
DOT
 10
0.0
 20
0.0
  0
LINE
  8
型材断面
  6
DOT
 10
-106.542855
 20
-58.543312
 11
-37.596497
 21
-58.543312
  0
LINE
  8
型材断面
  6
DOT
 10
-106.542855
 20
-58.209977
 11
-37.596497
 21
-58.209977
  0
LINE
  8
型材断面
  6
DOT
 10
-105.759523
 20
-58.109977
 11
-37.596497
 21
-58.109977
  0
LINE
  8
型材断面
  6
DOT
 10
-106.229522
 20
-57.703953
 11
-37.596497
 21
-57.703953
  0
LINE
  8
型材断面
  6
DOT
 10
-105.929828
 20
-54.937453
 11
-37.596497
 21
-54.937453
  0
LINE
  8
型材断面
  6
DOT
 10
-104.26316
 20
-53.70412
 11
-37.596497
 21
-53.70412
  0
LINE
  8
型材断面
  6
DOT
 10
-105.929828
 20
-54.437453
 11
-37.596497
 21
-54.437453
  0
LINE
  8
型材断面
  6
DOT
 10
-105.759523
 20
-55.42062
 11
-37.596497
 21
-55.42062
  0
LINE
  8
型材断面
  6
DOT
 10
-106.229522
 20
-55.87062
 11
-37.596497
 21
-55.87062
  0
ENDBLK
  0
BLOCK
  2
*GRP_0025
 70
    65
 10
0.0
 20
0.0
  0
INSERT
  2
M8横
  8
ゴム等
  6
DOT
 10
29.896525
 20
-55.297288
 50
180.0
 41
0.033333
 42
-0.033333
  0
LINE
  8
ボルト／ビス
  6
DOT
 10
29.763192
 20
-55.087288
 11
29.779858
 21
-55.070622
  0
LINE
  8
ボルト／ビス
  6
DOT
 10
30.013192
 20
-55.070622
 11
30.029858
 21
-55.087288
  0
LINE
  8
ボルト／ビス
  6
DOT
 10
30.029858
 20
-55.087288
 11
29.763192
 21
-55.087288
  0
LINE
  8
ボルト／ビス
  6
DOT
 10
30.013192
 20
-55.070622
 11
29.779858
 21
-55.070622
  0
LINE
  8
ボルト／ビス
  6
DOT
 10
29.779858
 20
-55.070622
 11
29.779858
 21
-55.113952
  0
LINE
  8
ボルト／ビス
  6
DOT
 10
29.763192
 20
-55.087288
 11
29.763192
 21
-55.113952
  0
LINE
  8
ボルト／ビス
  6
DOT
 10
30.029858
 20
-55.087288
 11
30.029858
 21
-55.113952
  0
LINE
  8
ボルト／ビス
  6
DOT
 10
30.013192
 20
-55.070622
 11
30.013192
 21
-55.113952
  0
LINE
  8
ボルト／ビス
  6
DOT
 10
30.263192
 20
-55.297288
 11
29.529858
 21
-55.297288
  0
LINE
  8
ボルト／ビス
  6
DOT
 10
29.479858
 20
-55.337288
 11
29.479858
 21
-55.42062
  0
LINE
  8
ボルト／ビス
  6
DOT
 10
29.479858
 20
-55.42062
 11
30.313192
 21
-55.42062
  0
LINE
  8
ボルト／ビス
  6
DOT
 10
30.313192
 20
-55.42062
 11
30.313192
 21
-55.337288
  0
LINE
  8
ボルト／ビス
  6
DOT
 10
29.479858
 20
-55.337288
 11
30.313192
 21
-55.337288
  0
LINE
  8
ボルト／ビス
  6
DOT
 10
30.263192
 20
-55.297288
 11
30.263192
 21
-55.337288
  0
LINE
  8
ボルト／ビス
  6
DOT
 10
29.529858
 20
-55.297288
 11
29.529858
 21
-55.337288
  0
LINE
  8
ボルト／ビス
  6
DOT
 10
29.896525
 20
-55.347288
 11
29.896525
 21
-55.297288
  0
ENDBLK
  0
BLOCK
  2
*GRP_0026
 70
    65
 10
0.0
 20
0.0
  0
LINE
  8
ボルト／ビス
  6
DOT
 10
30.103192
 20
-54.437453
 11
30.103192
 21
-54.370788
  0
LINE
  8
ボルト／ビス
  6
DOT
 10
30.103192
 20
-54.370788
 11
29.36986
 21
-54.370788
  0
LINE
  8
ボルト／ビス
  6
DOT
 10
29.36986
 20
-54.370788
 11
29.36986
 21
-54.437453
  0
LINE
  8
ボルト／ビス
  6
DOT
 10
30.103192
 20
-54.437453
 11
29.36986
 21
-54.437453
  0
LINE
  8
ボルト／ビス
  6
DOT
 10
30.036528
 20
-54.337453
 11
30.036528
 21
-54.370788
  0
LINE
  8
ボルト／ビス
  6
DOT
 10
30.036528
 20
-54.337453
 11
29.436528
 21
-54.337453
  0
LINE
  8
ボルト／ビス
  6
DOT
 10
29.436528
 20
-54.337453
 11
29.436528
 21
-54.370788
  0
LINE
  8
ボルト／ビス
  6
DOT
 62
    64
 10
29.896903
 20
-54.137453
 11
29.928977
 21
-54.149128
  0
ARC
  8
ボルト／ビス
  6
DOT
 62
    64
 10
29.880864
 20
-54.242431
 40
0.104978
 50
90.0
 51
117.278033
  0
ARC
  8
ボルト／ビス
  6
DOT
 62
    64
 10
29.736526
 20
-54.539855
 40
0.402402
 50
76.165015
 51
103.834998
  0
LINE
  8
ボルト／ビス
  6
DOT
 62
    64
 10
29.576152
 20
-54.137453
 11
29.544077
 21
-54.149128
  0
ARC
  8
ボルト／ビス
  6
DOT
 62
    64
 10
29.592188
 20
-54.242431
 40
0.104978
 50
62.721967
 51
90.0
  0
LINE
  8
ボルト／ビス
  6
DOT
 62
    64
 10
29.896903
 20
-54.137453
 11
29.576152
 21
-54.137453
  0
LINE
  8
ボルト／ビス
  6
DOT
 62
    64
 10
29.544077
 20
-54.149128
 11
29.544077
 21
-54.270788
  0
LINE
  8
ボルト／ビス
  6
DOT
 62
    64
 10
29.640302
 20
-54.149128
 11
29.640302
 21
-54.270788
  0
LINE
  8
ボルト／ビス
  6
DOT
 62
    64
 10
29.928977
 20
-54.149128
 11
29.928977
 21
-54.270788
  0
LINE
  8
ボルト／ビス
  6
DOT
 62
    64
 10
29.832753
 20
-54.149128
 11
29.832753
 21
-54.270788
  0
LINE
  8
ボルト／ビス
  6
DOT
 10
29.928977
 20
-54.270788
 11
29.544077
 21
-54.270788
  0
LINE
  8
ボルト／ビス
  6
DOT
 10
29.936528
 20
-54.270788
 11
29.936528
 21
-54.337453
  0
LINE
  8
ボルト／ビス
  6
DOT
 10
29.936528
 20
-54.270788
 11
29.536528
 21
-54.270788
  0
LINE
  8
ボルト／ビス
  6
DOT
 10
29.536528
 20
-54.270788
 11
29.536528
 21
-54.337453
  0
ENDBLK
  0
BLOCK
  2
*GRP_0027
 70
    65
 10
0.0
 20
0.0
  0
INSERT
  2
M8横
  8
ゴム等
  6
DOT
 10
-105.08952
 20
-55.297288
 41
0.033333
 42
0.033333
  0
LINE
  8
ボルト／ビス
  6
DOT
 10
-104.956188
 20
-55.087288
 11
-104.972853
 21
-55.070622
  0
LINE
  8
ボルト／ビス
  6
DOT
 10
-105.206188
 20
-55.070622
 11
-105.222853
 21
-55.087288
  0
LINE
  8
ボルト／ビス
  6
DOT
 10
-105.222853
 20
-55.087288
 11
-104.956188
 21
-55.087288
  0
LINE
  8
ボルト／ビス
  6
DOT
 10
-105.206188
 20
-55.070622
 11
-104.972853
 21
-55.070622
  0
LINE
  8
ボルト／ビス
  6
DOT
 10
-104.972853
 20
-55.070622
 11
-104.972853
 21
-55.113952
  0
LINE
  8
ボルト／ビス
  6
DOT
 10
-104.956188
 20
-55.087288
 11
-104.956188
 21
-55.113952
  0
LINE
  8
ボルト／ビス
  6
DOT
 10
-105.222853
 20
-55.087288
 11
-105.222853
 21
-55.113952
  0
LINE
  8
ボルト／ビス
  6
DOT
 10
-105.206188
 20
-55.070622
 11
-105.206188
 21
-55.113952
  0
LINE
  8
ボルト／ビス
  6
DOT
 10
-105.456188
 20
-55.297288
 11
-104.722853
 21
-55.297288
  0
LINE
  8
ボルト／ビス
  6
DOT
 10
-104.672853
 20
-55.337288
 11
-104.672853
 21
-55.42062
  0
LINE
  8
ボルト／ビス
  6
DOT
 10
-104.672853
 20
-55.42062
 11
-105.506188
 21
-55.42062
  0
LINE
  8
ボルト／ビス
  6
DOT
 10
-105.506188
 20
-55.42062
 11
-105.506188
 21
-55.337288
  0
LINE
  8
ボルト／ビス
  6
DOT
 10
-104.672853
 20
-55.337288
 11
-105.506188
 21
-55.337288
  0
LINE
  8
ボルト／ビス
  6
DOT
 10
-105.456188
 20
-55.297288
 11
-105.456188
 21
-55.337288
  0
LINE
  8
ボルト／ビス
  6
DOT
 10
-104.722853
 20
-55.297288
 11
-104.722853
 21
-55.337288
  0
LINE
  8
ボルト／ビス
  6
DOT
 10
-105.08952
 20
-55.347288
 11
-105.08952
 21
-55.297288
  0
ENDBLK
  0
BLOCK
  2
*GRP_0028
 70
    65
 10
0.0
 20
0.0
  0
LINE
  8
ボルト／ビス
  6
DOT
 10
-105.296188
 20
-54.437453
 11
-105.296188
 21
-54.370788
  0
LINE
  8
ボルト／ビス
  6
DOT
 10
-105.296188
 20
-54.370788
 11
-104.562855
 21
-54.370788
  0
LINE
  8
ボルト／ビス
  6
DOT
 10
-104.562855
 20
-54.370788
 11
-104.562855
 21
-54.437453
  0
LINE
  8
ボルト／ビス
  6
DOT
 10
-105.296188
 20
-54.437453
 11
-104.562855
 21
-54.437453
  0
LINE
  8
ボルト／ビス
  6
DOT
 10
-105.229522
 20
-54.337453
 11
-105.229522
 21
-54.370788
  0
LINE
  8
ボルト／ビス
  6
DOT
 10
-105.229522
 20
-54.337453
 11
-104.629522
 21
-54.337453
  0
LINE
  8
ボルト／ビス
  6
DOT
 10
-104.629522
 20
-54.337453
 11
-104.629522
 21
-54.370788
  0
LINE
  8
ボルト／ビス
  6
DOT
 62
    64
 10
-105.089898
 20
-54.137453
 11
-105.121973
 21
-54.149128
  0
ARC
  8
ボルト／ビス
  6
DOT
 62
    64
 10
-105.07386
 20
-54.242431
 40
0.104978
 50
62.721967
 51
90.0
  0
ARC
  8
ボルト／ビス
  6
DOT
 62
    64
 10
-104.929523
 20
-54.539855
 40
0.402402
 50
76.165002
 51
103.834985
  0
LINE
  8
ボルト／ビス
  6
DOT
 62
    64
 10
-104.769147
 20
-54.137453
 11
-104.737072
 21
-54.149128
  0
ARC
  8
ボルト／ビス
  6
DOT
 62
    64
 10
-104.785185
 20
-54.242431
 40
0.104978
 50
90.0
 51
117.278033
  0
LINE
  8
ボルト／ビス
  6
DOT
 62
    64
 10
-105.089898
 20
-54.137453
 11
-104.769147
 21
-54.137453
  0
LINE
  8
ボルト／ビス
  6
DOT
 62
    64
 10
-104.737072
 20
-54.149128
 11
-104.737072
 21
-54.270788
  0
LINE
  8
ボルト／ビス
  6
DOT
 62
    64
 10
-104.833298
 20
-54.149128
 11
-104.833298
 21
-54.270788
  0
LINE
  8
ボルト／ビス
  6
DOT
 62
    64
 10
-105.121973
 20
-54.149128
 11
-105.121973
 21
-54.270788
  0
LINE
  8
ボルト／ビス
  6
DOT
 62
    64
 10
-105.025748
 20
-54.149128
 11
-105.025748
 21
-54.270788
  0
LINE
  8
ボルト／ビス
  6
DOT
 10
-105.121973
 20
-54.270788
 11
-104.737072
 21
-54.270788
  0
LINE
  8
ボルト／ビス
  6
DOT
 10
-105.129522
 20
-54.270788
 11
-105.129522
 21
-54.337453
  0
LINE
  8
ボルト／ビス
  6
DOT
 10
-105.129522
 20
-54.270788
 11
-104.729522
 21
-54.270788
  0
LINE
  8
ボルト／ビス
  6
DOT
 10
-104.729522
 20
-54.270788
 11
-104.729522
 21
-54.337453
  0
ENDBLK
  0
BLOCK
  2
*DIM_0029
 70
    65
 10
0.0
 20
0.0
  0
LINE
  8
寸法
  6
CONTINUOUS
 10
34.070165
 20
-68.70412
 11
52.688638
 21
-68.70412
  0
LINE
  8
寸法
  6
CONTINUOUS
 10
34.070165
 20
-53.70412
 11
52.688638
 21
-53.70412
  0
LINE
  8
寸法
  6
CONTINUOUS
 10
52.688638
 20
-68.70412
 11
52.688638
 21
-53.70412
  0
POINT
  8
寸法
 10
52.688638
 20
-68.70412
  0
POINT
  8
寸法
 10
52.688638
 20
-53.70412
  0
TEXT
  7
TextStyle03
  8
寸法
  6
CONTINUOUS
 10
55.675
 20
-70.31875
  1
上昇426以上
 40
3.0
 50
90.0
 72
     5
 11
55.675
 21
-52.13125
  0
ENDBLK
  0
BLOCK
  2
*GRP_0030
 70
    65
 10
0.0
 20
0.0
  0
LINE
  8
補助線
  6
BYBLOCK
 62
    64
 10
17.337248
 20
-74.296548
 11
17.469132
 21
-74.398452
  0
LINE
  8
補助線
  6
BYBLOCK
 62
    64
 10
17.454142
 20
-74.281557
 11
17.352238
 21
-74.413443
  0
LINE
  8
補助線
  6
BYBLOCK
 62
    64
 10
5.926622
 20
-65.479857
 11
6.058508
 21
-65.58176
  0
LINE
  8
補助線
  6
BYBLOCK
 62
    64
 10
6.043518
 20
-65.464865
 11
5.941615
 21
-65.59675
  0
LINE
  8
補助線
  6
BYBLOCK
 62
    64
 10
-5.35212
 20
-56.76507
 11
-5.484
 21
-56.663165
  0
LINE
  8
補助線
  6
BYBLOCK
 62
    64
 10
-5.367108
 20
-56.648172
 11
-5.46901
 21
-56.78006
  0
LINE
  8
型材断面
  6
CONTINUOUS
 10
18.176475
 20
-73.891885
 11
18.266417
 21
-74.59325
  0
LINE
  8
型材断面
  6
CONTINUOUS
 10
18.266417
 20
-74.59325
 11
17.858802
 21
-75.120788
  0
LINE
  8
型材断面
  6
CONTINUOUS
 10
17.858802
 20
-75.120788
 11
17.15744
 21
-75.210728
  0
LINE
  8
型材断面
  6
CONTINUOUS
 10
-5.17231
 20
-55.85089
 11
-5.873672
 21
-55.940833
  0
LINE
  8
型材断面
  6
CONTINUOUS
 10
-5.873672
 20
-55.940833
 11
-6.281287
 21
-56.46837
  0
LINE
  8
型材断面
  6
CONTINUOUS
 10
-6.281287
 20
-56.46837
 11
-6.191345
 21
-57.169735
  0
LINE
  8
型材断面
  6
CONTINUOUS
 10
17.15744
 20
-75.210728
 11
-6.191345
 21
-57.169735
  0
LINE
  8
型材断面
  6
CONTINUOUS
 10
18.176475
 20
-73.891885
 11
-5.17231
 21
-55.85089
  0
CIRCLE
  8
ボルト／ビス
  6
CONTINUOUS
 10
17.40319
 20
-74.3475
 40
0.250185
  0
CIRCLE
  8
ボルト／ビス
  6
CONTINUOUS
 10
17.40319
 20
-74.3475
 40
0.301025
  0
LINE
  8
ボルト／ビス
  6
CONTINUOUS
 62
    64
 10
17.651125
 20
-74.38099
 11
17.55616
 21
-74.149528
  0
LINE
  8
ボルト／ビス
  6
CONTINUOUS
 62
    64
 10
17.308225
 20
-74.116038
 11
17.55616
 21
-74.149528
  0
LINE
  8
ボルト／ビス
  6
CONTINUOUS
 62
    64
 10
17.498155
 20
-74.578963
 11
17.25022
 21
-74.545472
  0
LINE
  8
ボルト／ビス
  6
CONTINUOUS
 62
    64
 10
17.155255
 20
-74.31401
 11
17.25022
 21
-74.545472
  0
LINE
  8
ボルト／ビス
  6
CONTINUOUS
 62
    64
 10
17.651125
 20
-74.38099
 11
17.498155
 21
-74.578963
  0
LINE
  8
ボルト／ビス
  6
CONTINUOUS
 62
    64
 10
17.308225
 20
-74.116038
 11
17.155255
 21
-74.31401
  0
CIRCLE
  8
ボルト／ビス
  6
CONTINUOUS
 62
    64
 10
17.40319
 20
-74.3475
 40
0.216668
  0
CIRCLE
  8
ボルト／ビス
  6
CONTINUOUS
 10
5.992565
 20
-65.53081
 40
0.250185
  0
CIRCLE
  8
ボルト／ビス
  6
CONTINUOUS
 10
5.992565
 20
-65.53081
 40
0.301025
  0
LINE
  8
ボルト／ビス
  6
CONTINUOUS
 62
    64
 10
6.2405
 20
-65.564297
 11
6.145535
 21
-65.332838
  0
LINE
  8
ボルト／ビス
  6
CONTINUOUS
 62
    64
 10
5.8976
 20
-65.299348
 11
6.145535
 21
-65.332838
  0
LINE
  8
ボルト／ビス
  6
CONTINUOUS
 62
    64
 10
6.087533
 20
-65.76227
 11
5.839597
 21
-65.72878
  0
LINE
  8
ボルト／ビス
  6
CONTINUOUS
 62
    64
 10
5.74463
 20
-65.49732
 11
5.839597
 21
-65.72878
  0
LINE
  8
ボルト／ビス
  6
CONTINUOUS
 62
    64
 10
6.2405
 20
-65.564297
 11
6.087533
 21
-65.76227
  0
LINE
  8
ボルト／ビス
  6
CONTINUOUS
 62
    64
 10
5.8976
 20
-65.299348
 11
5.74463
 21
-65.49732
  0
CIRCLE
  8
ボルト／ビス
  6
CONTINUOUS
 62
    64
 10
5.992565
 20
-65.53081
 40
0.216668
  0
CIRCLE
  8
ボルト／ビス
  6
CONTINUOUS
 10
-5.418058
 20
-56.714117
 40
0.250185
  0
CIRCLE
  8
ボルト／ビス
  6
CONTINUOUS
 10
-5.418058
 20
-56.714117
 40
0.301025
  0
LINE
  8
ボルト／ビス
  6
CONTINUOUS
 62
    64
 10
-5.513025
 20
-56.482655
 11
-5.265092
 21
-56.516145
  0
LINE
  8
ボルト／ビス
  6
CONTINUOUS
 62
    64
 10
-5.170128
 20
-56.747607
 11
-5.265092
 21
-56.516145
  0
LINE
  8
ボルト／ビス
  6
CONTINUOUS
 62
    64
 10
-5.665992
 20
-56.680627
 11
-5.571028
 21
-56.91209
  0
LINE
  8
ボルト／ビス
  6
CONTINUOUS
 62
    64
 10
-5.323092
 20
-56.94558
 11
-5.571028
 21
-56.91209
  0
LINE
  8
ボルト／ビス
  6
CONTINUOUS
 62
    64
 10
-5.513025
 20
-56.482655
 11
-5.665992
 21
-56.680627
  0
LINE
  8
ボルト／ビス
  6
CONTINUOUS
 62
    64
 10
-5.170128
 20
-56.747607
 11
-5.323092
 21
-56.94558
  0
CIRCLE
  8
ボルト／ビス
  6
CONTINUOUS
 62
    64
 10
-5.418058
 20
-56.714117
 40
0.216668
  0
ENDBLK
  0
BLOCK
  2
*GRP_0031
 70
    65
 10
0.0
 20
0.0
  0
LINE
  8
補助線
  6
BYBLOCK
 62
    64
 10
-5.352117
 20
-74.296548
 11
-5.484003
 21
-74.398452
  0
LINE
  8
補助線
  6
BYBLOCK
 62
    64
 10
-5.469013
 20
-74.281557
 11
-5.367108
 21
-74.413443
  0
LINE
  8
補助線
  6
BYBLOCK
 62
    64
 10
6.058508
 20
-65.479857
 11
5.926622
 21
-65.58176
  0
LINE
  8
補助線
  6
BYBLOCK
 62
    64
 10
5.941612
 20
-65.464865
 11
6.043515
 21
-65.59675
  0
LINE
  8
補助線
  6
BYBLOCK
 62
    64
 10
17.33725
 20
-56.76507
 11
17.46913
 21
-56.663165
  0
LINE
  8
補助線
  6
BYBLOCK
 62
    64
 10
17.352238
 20
-56.648172
 11
17.45414
 21
-56.78006
  0
LINE
  8
型材断面
  6
CONTINUOUS
 10
-6.191345
 20
-73.891885
 11
-6.281287
 21
-74.59325
  0
LINE
  8
型材断面
  6
CONTINUOUS
 10
-6.281287
 20
-74.59325
 11
-5.873672
 21
-75.120788
  0
LINE
  8
型材断面
  6
CONTINUOUS
 10
-5.873672
 20
-75.120788
 11
-5.17231
 21
-75.210728
  0
LINE
  8
型材断面
  6
CONTINUOUS
 10
17.15744
 20
-55.85089
 11
17.858802
 21
-55.940833
  0
LINE
  8
型材断面
  6
CONTINUOUS
 10
17.858802
 20
-55.940833
 11
18.266417
 21
-56.46837
  0
LINE
  8
型材断面
  6
CONTINUOUS
 10
18.266417
 20
-56.46837
 11
18.176475
 21
-57.169735
  0
LINE
  8
型材断面
  6
CONTINUOUS
 10
-5.17231
 20
-75.210728
 11
18.176475
 21
-57.169735
  0
LINE
  8
型材断面
  6
CONTINUOUS
 10
-6.191345
 20
-73.891885
 11
17.15744
 21
-55.85089
  0
CIRCLE
  8
ボルト／ビス
  6
CONTINUOUS
 10
-5.41806
 20
-74.3475
 40
0.250185
  0
CIRCLE
  8
ボルト／ビス
  6
CONTINUOUS
 10
-5.41806
 20
-74.3475
 40
0.301025
  0
LINE
  8
ボルト／ビス
  6
CONTINUOUS
 62
    64
 10
-5.665995
 20
-74.38099
 11
-5.57103
 21
-74.149528
  0
LINE
  8
ボルト／ビス
  6
CONTINUOUS
 62
    64
 10
-5.323095
 20
-74.116038
 11
-5.57103
 21
-74.149528
  0
LINE
  8
ボルト／ビス
  6
CONTINUOUS
 62
    64
 10
-5.513025
 20
-74.578963
 11
-5.26509
 21
-74.545472
  0
LINE
  8
ボルト／ビス
  6
CONTINUOUS
 62
    64
 10
-5.170125
 20
-74.31401
 11
-5.26509
 21
-74.545472
  0
LINE
  8
ボルト／ビス
  6
CONTINUOUS
 62
    64
 10
-5.665995
 20
-74.38099
 11
-5.513025
 21
-74.578963
  0
LINE
  8
ボルト／ビス
  6
CONTINUOUS
 62
    64
 10
-5.323095
 20
-74.116038
 11
-5.170125
 21
-74.31401
  0
CIRCLE
  8
ボルト／ビス
  6
CONTINUOUS
 62
    64
 10
-5.41806
 20
-74.3475
 40
0.216668
  0
CIRCLE
  8
ボルト／ビス
  6
CONTINUOUS
 10
5.992565
 20
-65.53081
 40
0.250185
  0
CIRCLE
  8
ボルト／ビス
  6
CONTINUOUS
 10
5.992565
 20
-65.53081
 40
0.301025
  0
LINE
  8
ボルト／ビス
  6
CONTINUOUS
 62
    64
 10
5.74463
 20
-65.564297
 11
5.839595
 21
-65.332838
  0
LINE
  8
ボルト／ビス
  6
CONTINUOUS
 62
    64
 10
6.08753
 20
-65.299348
 11
5.839595
 21
-65.332838
  0
LINE
  8
ボルト／ビス
  6
CONTINUOUS
 62
    64
 10
5.897597
 20
-65.76227
 11
6.145533
 21
-65.72878
  0
LINE
  8
ボルト／ビス
  6
CONTINUOUS
 62
    64
 10
6.2405
 20
-65.49732
 11
6.145533
 21
-65.72878
  0
LINE
  8
ボルト／ビス
  6
CONTINUOUS
 62
    64
 10
5.74463
 20
-65.564297
 11
5.897597
 21
-65.76227
  0
LINE
  8
ボルト／ビス
  6
CONTINUOUS
 62
    64
 10
6.08753
 20
-65.299348
 11
6.2405
 21
-65.49732
  0
CIRCLE
  8
ボルト／ビス
  6
CONTINUOUS
 62
    64
 10
5.992565
 20
-65.53081
 40
0.216668
  0
CIRCLE
  8
ボルト／ビス
  6
CONTINUOUS
 10
17.403188
 20
-56.714117
 40
0.250185
  0
CIRCLE
  8
ボルト／ビス
  6
CONTINUOUS
 10
17.403188
 20
-56.714117
 40
0.301025
  0
LINE
  8
ボルト／ビス
  6
CONTINUOUS
 62
    64
 10
17.498155
 20
-56.482655
 11
17.250223
 21
-56.516145
  0
LINE
  8
ボルト／ビス
  6
CONTINUOUS
 62
    64
 10
17.155257
 20
-56.747607
 11
17.250223
 21
-56.516145
  0
LINE
  8
ボルト／ビス
  6
CONTINUOUS
 62
    64
 10
17.651123
 20
-56.680627
 11
17.556157
 21
-56.91209
  0
LINE
  8
ボルト／ビス
  6
CONTINUOUS
 62
    64
 10
17.308223
 20
-56.94558
 11
17.556157
 21
-56.91209
  0
LINE
  8
ボルト／ビス
  6
CONTINUOUS
 62
    64
 10
17.498155
 20
-56.482655
 11
17.651123
 21
-56.680627
  0
LINE
  8
ボルト／ビス
  6
CONTINUOUS
 62
    64
 10
17.155257
 20
-56.747607
 11
17.308223
 21
-56.94558
  0
CIRCLE
  8
ボルト／ビス
  6
CONTINUOUS
 62
    64
 10
17.403188
 20
-56.714117
 40
0.216668
  0
ENDBLK
  0
BLOCK
  2
*GRP_0032
 70
    65
 10
0.0
 20
0.0
  0
LINE
  8
補助線
  6
BYBLOCK
 62
    64
 10
-92.530868
 20
-74.296548
 11
-92.662752
 21
-74.398452
  0
LINE
  8
補助線
  6
BYBLOCK
 62
    64
 10
-92.647763
 20
-74.281557
 11
-92.545857
 21
-74.413443
  0
LINE
  8
補助線
  6
BYBLOCK
 62
    64
 10
-81.120243
 20
-65.479857
 11
-81.252128
 21
-65.58176
  0
LINE
  8
補助線
  6
BYBLOCK
 62
    64
 10
-81.237137
 20
-65.464865
 11
-81.135235
 21
-65.59675
  0
LINE
  8
補助線
  6
BYBLOCK
 62
    64
 10
-69.8415
 20
-56.76507
 11
-69.70962
 21
-56.663165
  0
LINE
  8
補助線
  6
BYBLOCK
 62
    64
 10
-69.826512
 20
-56.648172
 11
-69.72461
 21
-56.78006
  0
LINE
  8
型材断面
  6
CONTINUOUS
 10
-93.370095
 20
-73.891885
 11
-93.460037
 21
-74.59325
  0
LINE
  8
型材断面
  6
CONTINUOUS
 10
-93.460037
 20
-74.59325
 11
-93.052423
 21
-75.120788
  0
LINE
  8
型材断面
  6
CONTINUOUS
 10
-93.052423
 20
-75.120788
 11
-92.35106
 21
-75.210728
  0
LINE
  8
型材断面
  6
CONTINUOUS
 10
-70.02131
 20
-55.85089
 11
-69.319948
 21
-55.940833
  0
LINE
  8
型材断面
  6
CONTINUOUS
 10
-69.319948
 20
-55.940833
 11
-68.912332
 21
-56.46837
  0
LINE
  8
型材断面
  6
CONTINUOUS
 10
-68.912332
 20
-56.46837
 11
-69.002275
 21
-57.169735
  0
LINE
  8
型材断面
  6
CONTINUOUS
 10
-92.35106
 20
-75.210728
 11
-69.002275
 21
-57.169735
  0
LINE
  8
型材断面
  6
CONTINUOUS
 10
-93.370095
 20
-73.891885
 11
-70.02131
 21
-55.85089
  0
CIRCLE
  8
ボルト／ビス
  6
CONTINUOUS
 10
-92.59681
 20
-74.3475
 40
0.250185
  0
CIRCLE
  8
ボルト／ビス
  6
CONTINUOUS
 10
-92.59681
 20
-74.3475
 40
0.301025
  0
LINE
  8
ボルト／ビス
  6
CONTINUOUS
 62
    64
 10
-92.844745
 20
-74.38099
 11
-92.74978
 21
-74.149528
  0
LINE
  8
ボルト／ビス
  6
CONTINUOUS
 62
    64
 10
-92.501845
 20
-74.116038
 11
-92.74978
 21
-74.149528
  0
LINE
  8
ボルト／ビス
  6
CONTINUOUS
 62
    64
 10
-92.691775
 20
-74.578963
 11
-92.44384
 21
-74.545472
  0
LINE
  8
ボルト／ビス
  6
CONTINUOUS
 62
    64
 10
-92.348875
 20
-74.31401
 11
-92.44384
 21
-74.545472
  0
LINE
  8
ボルト／ビス
  6
CONTINUOUS
 62
    64
 10
-92.844745
 20
-74.38099
 11
-92.691775
 21
-74.578963
  0
LINE
  8
ボルト／ビス
  6
CONTINUOUS
 62
    64
 10
-92.501845
 20
-74.116038
 11
-92.348875
 21
-74.31401
  0
CIRCLE
  8
ボルト／ビス
  6
CONTINUOUS
 62
    64
 10
-92.59681
 20
-74.3475
 40
0.216668
  0
CIRCLE
  8
ボルト／ビス
  6
CONTINUOUS
 10
-81.186185
 20
-65.53081
 40
0.250185
  0
CIRCLE
  8
ボルト／ビス
  6
CONTINUOUS
 10
-81.186185
 20
-65.53081
 40
0.301025
  0
LINE
  8
ボルト／ビス
  6
CONTINUOUS
 62
    64
 10
-81.43412
 20
-65.564297
 11
-81.339155
 21
-65.332838
  0
LINE
  8
ボルト／ビス
  6
CONTINUOUS
 62
    64
 10
-81.09122
 20
-65.299348
 11
-81.339155
 21
-65.332838
  0
LINE
  8
ボルト／ビス
  6
CONTINUOUS
 62
    64
 10
-81.281153
 20
-65.76227
 11
-81.033217
 21
-65.72878
  0
LINE
  8
ボルト／ビス
  6
CONTINUOUS
 62
    64
 10
-80.93825
 20
-65.49732
 11
-81.033217
 21
-65.72878
  0
LINE
  8
ボルト／ビス
  6
CONTINUOUS
 62
    64
 10
-81.43412
 20
-65.564297
 11
-81.281153
 21
-65.76227
  0
LINE
  8
ボルト／ビス
  6
CONTINUOUS
 62
    64
 10
-81.09122
 20
-65.299348
 11
-80.93825
 21
-65.49732
  0
CIRCLE
  8
ボルト／ビス
  6
CONTINUOUS
 62
    64
 10
-81.186185
 20
-65.53081
 40
0.216668
  0
CIRCLE
  8
ボルト／ビス
  6
CONTINUOUS
 10
-69.775562
 20
-56.714117
 40
0.250185
  0
CIRCLE
  8
ボルト／ビス
  6
CONTINUOUS
 10
-69.775562
 20
-56.714117
 40
0.301025
  0
LINE
  8
ボルト／ビス
  6
CONTINUOUS
 62
    64
 10
-69.680595
 20
-56.482655
 11
-69.928528
 21
-56.516145
  0
LINE
  8
ボルト／ビス
  6
CONTINUOUS
 62
    64
 10
-70.023492
 20
-56.747607
 11
-69.928528
 21
-56.516145
  0
LINE
  8
ボルト／ビス
  6
CONTINUOUS
 62
    64
 10
-69.527628
 20
-56.680627
 11
-69.622592
 21
-56.91209
  0
LINE
  8
ボルト／ビス
  6
CONTINUOUS
 62
    64
 10
-69.870528
 20
-56.94558
 11
-69.622592
 21
-56.91209
  0
LINE
  8
ボルト／ビス
  6
CONTINUOUS
 62
    64
 10
-69.680595
 20
-56.482655
 11
-69.527628
 21
-56.680627
  0
LINE
  8
ボルト／ビス
  6
CONTINUOUS
 62
    64
 10
-70.023492
 20
-56.747607
 11
-69.870528
 21
-56.94558
  0
CIRCLE
  8
ボルト／ビス
  6
CONTINUOUS
 62
    64
 10
-69.775562
 20
-56.714117
 40
0.216668
  0
ENDBLK
  0
BLOCK
  2
*GRP_0033
 70
    65
 10
0.0
 20
0.0
  0
LINE
  8
補助線
  6
BYBLOCK
 62
    64
 10
-69.841503
 20
-74.296548
 11
-69.709617
 21
-74.398452
  0
LINE
  8
補助線
  6
BYBLOCK
 62
    64
 10
-69.724608
 20
-74.281557
 11
-69.826512
 21
-74.413443
  0
LINE
  8
補助線
  6
BYBLOCK
 62
    64
 10
-81.252128
 20
-65.479857
 11
-81.120243
 21
-65.58176
  0
LINE
  8
補助線
  6
BYBLOCK
 62
    64
 10
-81.135232
 20
-65.464865
 11
-81.237135
 21
-65.59675
  0
LINE
  8
補助線
  6
BYBLOCK
 62
    64
 10
-92.53087
 20
-56.76507
 11
-92.66275
 21
-56.663165
  0
LINE
  8
補助線
  6
BYBLOCK
 62
    64
 10
-92.545857
 20
-56.648172
 11
-92.64776
 21
-56.78006
  0
LINE
  8
型材断面
  6
CONTINUOUS
 10
-69.002275
 20
-73.891885
 11
-68.912332
 21
-74.59325
  0
LINE
  8
型材断面
  6
CONTINUOUS
 10
-68.912332
 20
-74.59325
 11
-69.319948
 21
-75.120788
  0
LINE
  8
型材断面
  6
CONTINUOUS
 10
-69.319948
 20
-75.120788
 11
-70.02131
 21
-75.210728
  0
LINE
  8
型材断面
  6
CONTINUOUS
 10
-92.35106
 20
-55.85089
 11
-93.052423
 21
-55.940833
  0
LINE
  8
型材断面
  6
CONTINUOUS
 10
-93.052423
 20
-55.940833
 11
-93.460037
 21
-56.46837
  0
LINE
  8
型材断面
  6
CONTINUOUS
 10
-93.460037
 20
-56.46837
 11
-93.370095
 21
-57.169735
  0
LINE
  8
型材断面
  6
CONTINUOUS
 10
-70.02131
 20
-75.210728
 11
-93.370095
 21
-57.169735
  0
LINE
  8
型材断面
  6
CONTINUOUS
 10
-69.002275
 20
-73.891885
 11
-92.35106
 21
-55.85089
  0
CIRCLE
  8
ボルト／ビス
  6
CONTINUOUS
 10
-69.77556
 20
-74.3475
 40
0.250185
  0
CIRCLE
  8
ボルト／ビス
  6
CONTINUOUS
 10
-69.77556
 20
-74.3475
 40
0.301025
  0
LINE
  8
ボルト／ビス
  6
CONTINUOUS
 62
    64
 10
-69.527625
 20
-74.38099
 11
-69.62259
 21
-74.149528
  0
LINE
  8
ボルト／ビス
  6
CONTINUOUS
 62
    64
 10
-69.870525
 20
-74.116038
 11
-69.62259
 21
-74.149528
  0
LINE
  8
ボルト／ビス
  6
CONTINUOUS
 62
    64
 10
-69.680595
 20
-74.578963
 11
-69.92853
 21
-74.545472
  0
LINE
  8
ボルト／ビス
  6
CONTINUOUS
 62
    64
 10
-70.023495
 20
-74.31401
 11
-69.92853
 21
-74.545472
  0
LINE
  8
ボルト／ビス
  6
CONTINUOUS
 62
    64
 10
-69.527625
 20
-74.38099
 11
-69.680595
 21
-74.578963
  0
LINE
  8
ボルト／ビス
  6
CONTINUOUS
 62
    64
 10
-69.870525
 20
-74.116038
 11
-70.023495
 21
-74.31401
  0
CIRCLE
  8
ボルト／ビス
  6
CONTINUOUS
 62
    64
 10
-69.77556
 20
-74.3475
 40
0.216668
  0
CIRCLE
  8
ボルト／ビス
  6
CONTINUOUS
 10
-81.186185
 20
-65.53081
 40
0.250185
  0
CIRCLE
  8
ボルト／ビス
  6
CONTINUOUS
 10
-81.186185
 20
-65.53081
 40
0.301025
  0
LINE
  8
ボルト／ビス
  6
CONTINUOUS
 62
    64
 10
-80.93825
 20
-65.564297
 11
-81.033215
 21
-65.332838
  0
LINE
  8
ボルト／ビス
  6
CONTINUOUS
 62
    64
 10
-81.28115
 20
-65.299348
 11
-81.033215
 21
-65.332838
  0
LINE
  8
ボルト／ビス
  6
CONTINUOUS
 62
    64
 10
-81.091218
 20
-65.76227
 11
-81.339152
 21
-65.72878
  0
LINE
  8
ボルト／ビス
  6
CONTINUOUS
 62
    64
 10
-81.43412
 20
-65.49732
 11
-81.339152
 21
-65.72878
  0
LINE
  8
ボルト／ビス
  6
CONTINUOUS
 62
    64
 10
-80.93825
 20
-65.564297
 11
-81.091218
 21
-65.76227
  0
LINE
  8
ボルト／ビス
  6
CONTINUOUS
 62
    64
 10
-81.28115
 20
-65.299348
 11
-81.43412
 21
-65.49732
  0
CIRCLE
  8
ボルト／ビス
  6
CONTINUOUS
 62
    64
 10
-81.186185
 20
-65.53081
 40
0.216668
  0
CIRCLE
  8
ボルト／ビス
  6
CONTINUOUS
 10
-92.596807
 20
-56.714117
 40
0.250185
  0
CIRCLE
  8
ボルト／ビス
  6
CONTINUOUS
 10
-92.596807
 20
-56.714117
 40
0.301025
  0
LINE
  8
ボルト／ビス
  6
CONTINUOUS
 62
    64
 10
-92.691775
 20
-56.482655
 11
-92.443843
 21
-56.516145
  0
LINE
  8
ボルト／ビス
  6
CONTINUOUS
 62
    64
 10
-92.348877
 20
-56.747607
 11
-92.443843
 21
-56.516145
  0
LINE
  8
ボルト／ビス
  6
CONTINUOUS
 62
    64
 10
-92.844743
 20
-56.680627
 11
-92.749777
 21
-56.91209
  0
LINE
  8
ボルト／ビス
  6
CONTINUOUS
 62
    64
 10
-92.501843
 20
-56.94558
 11
-92.749777
 21
-56.91209
  0
LINE
  8
ボルト／ビス
  6
CONTINUOUS
 62
    64
 10
-92.691775
 20
-56.482655
 11
-92.844743
 21
-56.680627
  0
LINE
  8
ボルト／ビス
  6
CONTINUOUS
 62
    64
 10
-92.348877
 20
-56.747607
 11
-92.501843
 21
-56.94558
  0
CIRCLE
  8
ボルト／ビス
  6
CONTINUOUS
 62
    64
 10
-92.596807
 20
-56.714117
 40
0.216668
  0
ENDBLK
  0
BLOCK
  2
*DIM_0034
 70
    65
 10
0.0
 20
0.0
  0
LINE
  8
寸法
  6
CONTINUOUS
 10
31.34986
 20
-68.209977
 11
31.34986
 21
-32.437345
  0
LINE
  8
寸法
  6
CONTINUOUS
 10
29.070165
 20
-32.437345
 11
31.34986
 21
-32.437345
  0
POINT
  8
寸法
 10
29.070165
 20
-32.437345
  0
POINT
  8
寸法
 10
31.34986
 20
-32.437345
  0
TEXT
  7
TextStyle03
  8
寸法
  6
CONTINUOUS
 10
33.66875
 20
-32.075
  1
68.4
 40
3.0
 72
     5
 11
40.23125
 21
-32.075
  0
ENDBLK
  0
BLOCK
  2
*DIM_0035
 70
    65
 10
0.0
 20
0.0
  0
LINE
  8
寸法
  6
CONTINUOUS
 10
-106.542855
 20
-68.209977
 11
-106.542855
 21
-32.437345
  0
LINE
  8
寸法
  6
CONTINUOUS
 10
-104.26316
 20
-32.437345
 11
-106.542855
 21
-32.437345
  0
POINT
  8
寸法
 10
-104.26316
 20
-32.437345
  0
POINT
  8
寸法
 10
-106.542855
 20
-32.437345
  0
TEXT
  7
TextStyle03
  8
寸法
  6
CONTINUOUS
 10
-115.45625
 20
-32.075
  1
68.4
 40
3.0
 72
     5
 11
-108.89375
 21
-32.075
  0
ENDBLK
  0
BLOCK
  2
*DIM_0036
 70
    65
 10
0.0
 20
0.0
  0
LINE
  8
寸法
  6
CONTINUOUS
 10
29.070165
 20
-32.437345
 11
-104.26316
 21
-32.437345
  0
POINT
  8
寸法
 10
29.070165
 20
-32.437345
  0
POINT
  8
寸法
 10
-104.26316
 20
-32.437345
  0
TEXT
  7
TextStyle03
  8
寸法
  6
CONTINUOUS
 10
-49.31875
 20
-32.075
  1
呼称寸法　4000
 40
3.0
 72
     5
 11
-25.88125
 21
-32.075
  0
ENDBLK
  0
BLOCK
  2
*DIM_0037
 70
    65
 10
0.0
 20
0.0
  0
LINE
  8
寸法
  6
CONTINUOUS
 10
126.314705
 20
-26.825748
 11
126.314705
 21
-15.640402
  0
LINE
  8
寸法
  6
CONTINUOUS
 10
158.471372
 20
-26.825748
 11
158.471372
 21
-15.640402
  0
LINE
  8
寸法
  6
CONTINUOUS
 10
126.314705
 20
-15.640402
 11
158.471372
 21
-15.640402
  0
POINT
  8
寸法
 10
126.314705
 20
-15.640402
  0
POINT
  8
寸法
 10
158.471372
 20
-15.640402
  0
TEXT
  7
TextStyle03
  8
寸法
  6
CONTINUOUS
 10
138.25
 20
-15.275
  1
964.7
 40
3.0
 72
     5
 11
146.5
 21
-15.275
  0
ENDBLK
  0
BLOCK
  2
*DIM_0038
 70
    65
 10
0.0
 20
0.0
  0
LINE
  8
寸法
  6
CONTINUOUS
 10
163.471372
 20
-31.825748
 11
174.282352
 21
-31.825748
  0
LINE
  8
寸法
  6
CONTINUOUS
 10
163.471372
 20
-74.492415
 11
174.282352
 21
-74.492415
  0
LINE
  8
寸法
  6
CONTINUOUS
 10
174.282352
 20
-31.825748
 11
174.282352
 21
-74.492415
  0
POINT
  8
寸法
 10
174.282352
 20
-31.825748
  0
POINT
  8
寸法
 10
174.282352
 20
-74.492415
  0
TEXT
  7
TextStyle03
  8
寸法
  6
CONTINUOUS
 10
173.9
 20
-56.45625
  1
1280
 40
3.0
 50
90.0
 72
     5
 11
173.9
 21
-49.89375
  0
ENDBLK
  0
BLOCK
  2
M8横
 70
    64
 10
-88.370132
 20
140.837665
  0
LINE
  8
ボルト／ビス
 10
-95.870132
 20
140.837665
 11
-80.870132
 21
140.837665
  0
LINE
  8
ボルト／ビス
 10
-80.870132
 20
145.837665
 11
-81.370132
 21
146.337665
  0
POLYLINE
  8
ボルト／ビス
 66
     1
  0
VERTEX
  8
ボルト／ビス
 10
-84.120132
 20
146.337665
  0
VERTEX
  8
ボルト／ビス
 10
-84.620132
 20
145.837665
  0
VERTEX
  8
ボルト／ビス
 10
-85.120132
 20
146.337665
  0
SEQEND
  0
POLYLINE
  8
ボルト／ビス
 66
     1
  0
VERTEX
  8
ボルト／ビス
 10
-91.620132
 20
146.337665
  0
VERTEX
  8
ボルト／ビス
 10
-92.120132
 20
145.837665
  0
VERTEX
  8
ボルト／ビス
 10
-92.620132
 20
146.337665
  0
SEQEND
  0
LINE
  8
ボルト／ビス
 10
-95.370132
 20
146.337665
 11
-95.870132
 21
145.837665
  0
LINE
  8
ボルト／ビス
 10
-95.870132
 20
140.837665
 11
-95.870132
 21
145.837665
  0
LINE
  8
ボルト／ビス
 10
-80.870132
 20
140.837665
 11
-80.870132
 21
145.837665
  0
LINE
  8
ボルト／ビス
 10
-95.370132
 20
146.337665
 11
-81.370132
 21
146.337665
  0
LINE
  8
ボルト／ビス
 10
-84.620132
 20
140.837665
 11
-84.620132
 21
145.837665
  0
LINE
  8
ボルト／ビス
 10
-92.120132
 20
140.837665
 11
-92.120132
 21
145.837665
  0
ENDBLK
  0
ENDSEC
  0
SECTION
  2
ENTITIES
  0
POLYLINE
  8
通り芯
  6
CONTINUOUS
 66
     1
 70
     1
  0
VERTEX
  8
通り芯
 10
-210.0
 20
-148.5
  0
VERTEX
  8
通り芯
 10
210.0
 20
-148.5
  0
VERTEX
  8
通り芯
 10
210.0
 20
148.5
  0
VERTEX
  8
通り芯
 10
-210.0
 20
148.5
  0
SEQEND
  0
INSERT
  2
*GRP_0001
  8
型材断面
  6
CONTINUOUS
 10
0.0
 20
0.0
  0
POLYLINE
  8
型材断面
  6
CONTINUOUS
 66
     1
 70
     1
  0
VERTEX
  8
型材断面
 10
20.695927
 20
-94.850355
  0
VERTEX
  8
型材断面
 10
-27.982748
 20
-94.850355
  0
VERTEX
  8
型材断面
 10
-27.982748
 20
-111.19502
  0
VERTEX
  8
型材断面
 10
20.695927
 20
-111.19502
  0
SEQEND
  0
LINE
  8
型材断面
  6
CONTINUOUS
 10
162.97617
 20
26.869993
 11
162.97617
 21
26.919993
  0
LINE
  8
型材断面
  6
CONTINUOUS
 10
162.47617
 20
28.536658
 11
161.742835
 21
28.536658
  0
LINE
  8
型材断面
  6
CONTINUOUS
 62
    47
 10
169.709335
 20
27.136962
 11
169.709335
 21
27.186962
  0
LINE
  8
型材断面
  6
CONTINUOUS
 62
    47
 10
169.709335
 20
27.136962
 11
169.209335
 21
27.136962
  0
LINE
  8
型材断面
  6
CONTINUOUS
 10
163.459335
 20
28.486962
 11
163.459335
 21
27.040298
  0
LINE
  8
型材断面
  6
CONTINUOUS
 10
163.909335
 20
27.040298
 11
163.459335
 21
27.040298
  0
LINE
  8
型材断面
  6
CONTINUOUS
 62
    47
 10
166.582028
 20
26.306963
 11
166.582028
 21
26.256963
  0
LINE
  8
型材断面
  6
CONTINUOUS
 62
    47
 10
166.582028
 20
26.256963
 11
166.248695
 21
26.256963
  0
LINE
  8
型材断面
  6
CONTINUOUS
 62
    47
 10
166.248695
 20
26.256963
 11
166.148695
 21
27.040298
  0
LINE
  8
型材断面
  6
CONTINUOUS
 62
    47
 10
165.74267
 20
27.040298
 11
166.148695
 21
27.040298
  0
LINE
  8
型材断面
  6
CONTINUOUS
 62
    47
 10
165.74267
 20
26.570298
 11
163.909335
 21
26.570298
  0
LINE
  8
型材断面
  6
CONTINUOUS
 10
162.97617
 20
26.869993
 11
162.47617
 21
26.869993
  0
LINE
  8
型材断面
  6
CONTINUOUS
 10
163.459335
 20
28.486962
 11
162.97617
 21
28.486962
  0
LINE
  8
型材断面
  6
CONTINUOUS
 62
    47
 10
169.209335
 20
26.570298
 11
166.582028
 21
26.570298
  0
INSERT
  2
*GRP_0002
  8
型材断面
  6
DOT
 10
0.0
 20
0.0
  0
INSERT
  2
*GRP_0003
  8
型材断面
  6
DOT
 10
0.0
 20
0.0
  0
LINE
  8
型材断面
  6
CONTINUOUS
 10
169.209335
 20
26.570298
 11
169.209335
 21
50.203325
  0
LINE
  8
型材断面
  6
CONTINUOUS
 10
169.709335
 20
27.136962
 11
169.709335
 21
50.203325
  0
LINE
  8
型材断面
  6
CONTINUOUS
 10
166.582028
 20
26.256963
 11
166.582028
 21
50.203325
  0
LINE
  8
型材断面
  6
CONTINUOUS
 10
166.248695
 20
26.256963
 11
166.248695
 21
50.203325
  0
LINE
  8
型材断面
  6
CONTINUOUS
 10
166.148695
 20
27.040298
 11
166.148695
 21
50.203325
  0
LINE
  8
型材断面
  6
CONTINUOUS
 10
165.74267
 20
26.570298
 11
165.74267
 21
50.203325
  0
LINE
  8
型材断面
  6
CONTINUOUS
 10
162.97617
 20
26.869993
 11
162.97617
 21
50.203325
  0
LINE
  8
型材断面
  6
CONTINUOUS
 10
161.742835
 20
28.536658
 11
161.742835
 21
50.203325
  0
LINE
  8
型材断面
  6
CONTINUOUS
 10
162.47617
 20
26.869993
 11
162.47617
 21
50.203325
  0
LINE
  8
型材断面
  6
CONTINUOUS
 10
163.459335
 20
27.040298
 11
163.459335
 21
50.203325
  0
LINE
  8
型材断面
  6
CONTINUOUS
 10
163.909335
 20
26.570298
 11
163.909335
 21
50.203325
  0
LINE
  8
型材断面
  6
CONTINUOUS
 10
162.97617
 20
73.53666
 11
162.97617
 21
73.48666
  0
LINE
  8
型材断面
  6
CONTINUOUS
 10
162.47617
 20
71.869993
 11
161.742835
 21
71.869993
  0
LINE
  8
型材断面
  6
CONTINUOUS
 62
    47
 10
169.709335
 20
73.269687
 11
169.709335
 21
73.219687
  0
LINE
  8
型材断面
  6
CONTINUOUS
 62
    47
 10
169.709335
 20
73.269687
 11
169.209335
 21
73.269687
  0
LINE
  8
型材断面
  6
CONTINUOUS
 10
163.459335
 20
71.919687
 11
163.459335
 21
73.366355
  0
LINE
  8
型材断面
  6
CONTINUOUS
 10
163.909335
 20
73.366355
 11
163.459335
 21
73.366355
  0
LINE
  8
型材断面
  6
CONTINUOUS
 62
    47
 10
166.582028
 20
74.099688
 11
166.582028
 21
74.149688
  0
LINE
  8
型材断面
  6
CONTINUOUS
 62
    47
 10
166.582028
 20
74.149688
 11
166.248695
 21
74.149688
  0
LINE
  8
型材断面
  6
CONTINUOUS
 62
    47
 10
166.248695
 20
74.149688
 11
166.148695
 21
73.366355
  0
LINE
  8
型材断面
  6
CONTINUOUS
 62
    47
 10
165.74267
 20
73.366355
 11
166.148695
 21
73.366355
  0
LINE
  8
型材断面
  6
CONTINUOUS
 62
    47
 10
165.74267
 20
73.836355
 11
163.909335
 21
73.836355
  0
LINE
  8
型材断面
  6
CONTINUOUS
 10
162.97617
 20
73.53666
 11
162.47617
 21
73.53666
  0
LINE
  8
型材断面
  6
CONTINUOUS
 10
163.459335
 20
71.919687
 11
162.97617
 21
71.919687
  0
LINE
  8
型材断面
  6
CONTINUOUS
 62
    47
 10
169.209335
 20
73.836355
 11
166.582028
 21
73.836355
  0
INSERT
  2
*GRP_0006
  8
型材断面
  6
DOT
 10
0.0
 20
0.0
  0
INSERT
  2
*GRP_0007
  8
型材断面
  6
DOT
 10
0.0
 20
0.0
  0
LINE
  8
型材断面
  6
CONTINUOUS
 10
169.209335
 20
73.836355
 11
169.209335
 21
50.203325
  0
LINE
  8
型材断面
  6
CONTINUOUS
 10
169.709335
 20
73.269687
 11
169.709335
 21
50.203325
  0
LINE
  8
型材断面
  6
CONTINUOUS
 10
166.582028
 20
74.149688
 11
166.582028
 21
50.203325
  0
LINE
  8
型材断面
  6
CONTINUOUS
 10
166.248695
 20
74.149688
 11
166.248695
 21
50.203325
  0
LINE
  8
型材断面
  6
CONTINUOUS
 10
166.148695
 20
73.366355
 11
166.148695
 21
50.203325
  0
LINE
  8
型材断面
  6
CONTINUOUS
 10
165.74267
 20
73.836355
 11
165.74267
 21
50.203325
  0
LINE
  8
型材断面
  6
CONTINUOUS
 10
162.97617
 20
73.53666
 11
162.97617
 21
50.203325
  0
LINE
  8
型材断面
  6
CONTINUOUS
 10
161.742835
 20
71.869993
 11
161.742835
 21
50.203325
  0
LINE
  8
型材断面
  6
CONTINUOUS
 10
162.47617
 20
73.53666
 11
162.47617
 21
50.203325
  0
LINE
  8
型材断面
  6
CONTINUOUS
 10
163.459335
 20
73.366355
 11
163.459335
 21
50.203325
  0
LINE
  8
型材断面
  6
CONTINUOUS
 10
163.909335
 20
73.836355
 11
163.909335
 21
50.203325
  0
LINE
  8
型材断面
  6
DASHDOT
 10
-37.596497
 20
-79.253555
 11
-37.596497
 21
71.869993
  0
LINE
  8
型材断面
  6
CONTINUOUS
 10
30.736832
 20
-69.937453
 11
30.686832
 21
-69.937453
  0
LINE
  8
型材断面
  6
CONTINUOUS
 10
29.070165
 20
-69.437453
 11
29.070165
 21
-68.70412
  0
LINE
  8
型材断面
  6
CONTINUOUS
 62
    47
 10
30.46986
 20
-76.67062
 11
30.41986
 21
-76.67062
  0
LINE
  8
型材断面
  6
CONTINUOUS
 62
    47
 10
30.46986
 20
-76.67062
 11
30.46986
 21
-76.17062
  0
LINE
  8
型材断面
  6
CONTINUOUS
 10
29.11986
 20
-70.42062
 11
30.566527
 21
-70.42062
  0
LINE
  8
型材断面
  6
CONTINUOUS
 10
30.566527
 20
-70.87062
 11
30.566527
 21
-70.42062
  0
LINE
  8
型材断面
  6
CONTINUOUS
 62
    47
 10
31.29986
 20
-73.543312
 11
31.34986
 21
-73.543312
  0
LINE
  8
型材断面
  6
CONTINUOUS
 62
    47
 10
31.34986
 20
-73.543312
 11
31.34986
 21
-73.209977
  0
LINE
  8
型材断面
  6
CONTINUOUS
 62
    47
 10
31.34986
 20
-73.209977
 11
30.566527
 21
-73.109977
  0
LINE
  8
型材断面
  6
CONTINUOUS
 62
    47
 10
30.566527
 20
-72.703953
 11
30.566527
 21
-73.109977
  0
LINE
  8
型材断面
  6
CONTINUOUS
 62
    47
 10
31.036528
 20
-72.703953
 11
31.036528
 21
-70.87062
  0
LINE
  8
型材断面
  6
CONTINUOUS
 10
30.736832
 20
-69.937453
 11
30.736832
 21
-69.437453
  0
LINE
  8
型材断面
  6
CONTINUOUS
 10
29.11986
 20
-70.42062
 11
29.11986
 21
-69.937453
  0
LINE
  8
型材断面
  6
CONTINUOUS
 62
    47
 10
31.036528
 20
-76.17062
 11
31.036528
 21
-73.543312
  0
INSERT
  2
*GRP_0010
  8
型材断面
  6
DOT
 10
0.0
 20
0.0
  0
INSERT
  2
*GRP_0011
  8
型材断面
  6
DOT
 10
0.0
 20
0.0
  0
LINE
  8
型材断面
  6
CONTINUOUS
 10
31.036528
 20
-76.17062
 11
-37.596497
 21
-76.17062
  0
LINE
  8
型材断面
  6
CONTINUOUS
 10
30.46986
 20
-76.67062
 11
-37.596497
 21
-76.67062
  0
LINE
  8
型材断面
  6
CONTINUOUS
 10
31.34986
 20
-73.543312
 11
-37.596497
 21
-73.543312
  0
LINE
  8
型材断面
  6
CONTINUOUS
 10
31.34986
 20
-73.209977
 11
-37.596497
 21
-73.209977
  0
LINE
  8
型材断面
  6
CONTINUOUS
 10
30.566527
 20
-73.109977
 11
-37.596497
 21
-73.109977
  0
LINE
  8
型材断面
  6
CONTINUOUS
 10
31.036528
 20
-72.703953
 11
-37.596497
 21
-72.703953
  0
LINE
  8
型材断面
  6
CONTINUOUS
 10
30.736832
 20
-69.937453
 11
-37.596497
 21
-69.937453
  0
LINE
  8
型材断面
  6
CONTINUOUS
 10
29.070165
 20
-68.70412
 11
-37.596497
 21
-68.70412
  0
LINE
  8
型材断面
  6
CONTINUOUS
 10
30.736832
 20
-69.437453
 11
-37.596497
 21
-69.437453
  0
LINE
  8
型材断面
  6
CONTINUOUS
 10
30.566527
 20
-70.42062
 11
-37.596497
 21
-70.42062
  0
LINE
  8
型材断面
  6
CONTINUOUS
 10
31.036528
 20
-70.87062
 11
-37.596497
 21
-70.87062
  0
LINE
  8
型材断面
  6
CONTINUOUS
 10
28.236832
 20
50.619993
 11
29.070165
 21
50.619993
  0
LINE
  8
型材断面
  6
CONTINUOUS
 10
28.236832
 20
49.786658
 11
29.070165
 21
49.786658
  0
LINE
  8
型材断面
  6
CONTINUOUS
 10
28.236832
 20
29.36999
 11
31.34986
 21
26.256963
  0
LINE
  8
型材断面
  6
CONTINUOUS
 10
28.236832
 20
29.36999
 11
28.236832
 21
49.786658
  0
LINE
  8
型材断面
  6
DASHDOT
 10
172.29227
 20
28.536658
 11
29.070165
 21
28.536658
  0
LINE
  8
型材断面
  6
DASHDOT
 10
29.070165
 20
-79.253555
 11
29.070165
 21
28.536658
  0
LINE
  8
型材断面
  6
CONTINUOUS
 10
28.236832
 20
71.03666
 11
31.34986
 21
74.149688
  0
LINE
  8
型材断面
  6
CONTINUOUS
 10
28.236832
 20
50.619993
 11
28.236832
 21
71.03666
  0
LINE
  8
型材断面
  6
DASHDOT
 10
172.29227
 20
71.869993
 11
29.070165
 21
71.869993
  0
LINE
  8
型材断面
  6
CONTINUOUS
 10
29.070165
 20
28.536658
 11
29.070165
 21
71.869993
  0
LINE
  8
型材断面
  6
CONTINUOUS
 10
31.036528
 20
26.570295
 11
31.036528
 21
73.836355
  0
LINE
  8
型材断面
  6
CONTINUOUS
 10
31.34986
 20
26.256963
 11
31.34986
 21
74.149688
  0
LINE
  8
型材断面
  6
CONTINUOUS
 10
30.736832
 20
26.86999
 11
30.736832
 21
73.53666
  0
LINE
  8
型材断面
  6
CONTINUOUS
 10
-105.929828
 20
-69.937453
 11
-105.879828
 21
-69.937453
  0
LINE
  8
型材断面
  6
CONTINUOUS
 10
-104.26316
 20
-69.437453
 11
-104.26316
 21
-68.70412
  0
LINE
  8
型材断面
  6
CONTINUOUS
 62
    47
 10
-105.662855
 20
-76.67062
 11
-105.612855
 21
-76.67062
  0
LINE
  8
型材断面
  6
CONTINUOUS
 62
    47
 10
-105.662855
 20
-76.67062
 11
-105.662855
 21
-76.17062
  0
LINE
  8
型材断面
  6
CONTINUOUS
 10
-104.312855
 20
-70.42062
 11
-105.759523
 21
-70.42062
  0
LINE
  8
型材断面
  6
CONTINUOUS
 10
-105.759523
 20
-70.87062
 11
-105.759523
 21
-70.42062
  0
LINE
  8
型材断面
  6
CONTINUOUS
 62
    47
 10
-106.492855
 20
-73.543312
 11
-106.542855
 21
-73.543312
  0
LINE
  8
型材断面
  6
CONTINUOUS
 62
    47
 10
-106.542855
 20
-73.543312
 11
-106.542855
 21
-73.209977
  0
LINE
  8
型材断面
  6
CONTINUOUS
 62
    47
 10
-106.542855
 20
-73.209977
 11
-105.759523
 21
-73.109977
  0
LINE
  8
型材断面
  6
CONTINUOUS
 62
    47
 10
-105.759523
 20
-72.703953
 11
-105.759523
 21
-73.109977
  0
LINE
  8
型材断面
  6
CONTINUOUS
 62
    47
 10
-106.229522
 20
-72.703953
 11
-106.229522
 21
-70.87062
  0
LINE
  8
型材断面
  6
CONTINUOUS
 10
-105.929828
 20
-69.937453
 11
-105.929828
 21
-69.437453
  0
LINE
  8
型材断面
  6
CONTINUOUS
 10
-104.312855
 20
-70.42062
 11
-104.312855
 21
-69.937453
  0
LINE
  8
型材断面
  6
CONTINUOUS
 62
    47
 10
-106.229522
 20
-76.17062
 11
-106.229522
 21
-73.543312
  0
INSERT
  2
*GRP_0013
  8
型材断面
  6
DOT
 10
0.0
 20
0.0
  0
INSERT
  2
*GRP_0014
  8
型材断面
  6
DOT
 10
0.0
 20
0.0
  0
LINE
  8
型材断面
  6
CONTINUOUS
 10
-106.229522
 20
-76.17062
 11
-37.596497
 21
-76.17062
  0
LINE
  8
型材断面
  6
CONTINUOUS
 10
-105.662855
 20
-76.67062
 11
-37.596497
 21
-76.67062
  0
LINE
  8
型材断面
  6
CONTINUOUS
 10
-106.542855
 20
-73.543312
 11
-37.596497
 21
-73.543312
  0
LINE
  8
型材断面
  6
CONTINUOUS
 10
-106.542855
 20
-73.209977
 11
-37.596497
 21
-73.209977
  0
LINE
  8
型材断面
  6
CONTINUOUS
 10
-105.759523
 20
-73.109977
 11
-37.596497
 21
-73.109977
  0
LINE
  8
型材断面
  6
CONTINUOUS
 10
-106.229522
 20
-72.703953
 11
-37.596497
 21
-72.703953
  0
LINE
  8
型材断面
  6
CONTINUOUS
 10
-105.929828
 20
-69.937453
 11
-37.596497
 21
-69.937453
  0
LINE
  8
型材断面
  6
CONTINUOUS
 10
-104.26316
 20
-68.70412
 11
-37.596497
 21
-68.70412
  0
LINE
  8
型材断面
  6
CONTINUOUS
 10
-105.929828
 20
-69.437453
 11
-37.596497
 21
-69.437453
  0
LINE
  8
型材断面
  6
CONTINUOUS
 10
-105.759523
 20
-70.42062
 11
-37.596497
 21
-70.42062
  0
LINE
  8
型材断面
  6
CONTINUOUS
 10
-106.229522
 20
-70.87062
 11
-37.596497
 21
-70.87062
  0
LINE
  8
型材断面
  6
CONTINUOUS
 10
-103.429828
 20
49.786658
 11
-104.26316
 21
49.786658
  0
LINE
  8
型材断面
  6
CONTINUOUS
 10
-103.429828
 20
50.619993
 11
-104.26316
 21
50.619993
  0
LINE
  8
型材断面
  6
DASHDOT
 10
172.29227
 20
50.203325
 11
-104.26316
 21
50.203325
  0
LINE
  8
型材断面
  6
CONTINUOUS
 10
-103.429828
 20
29.36999
 11
-106.542855
 21
26.256963
  0
LINE
  8
型材断面
  6
CONTINUOUS
 10
-103.429828
 20
29.36999
 11
-103.429828
 21
49.786658
  0
LINE
  8
型材断面
  6
DASHDOT
 10
-104.26316
 20
-79.253555
 11
-104.26316
 21
28.536658
  0
LINE
  8
型材断面
  6
CONTINUOUS
 10
-103.429828
 20
71.03666
 11
-106.542855
 21
74.149688
  0
LINE
  8
型材断面
  6
CONTINUOUS
 10
-103.429828
 20
50.619993
 11
-103.429828
 21
71.03666
  0
LINE
  8
型材断面
  6
CONTINUOUS
 10
-104.26316
 20
28.536658
 11
-104.26316
 21
71.869993
  0
LINE
  8
型材断面
  6
CONTINUOUS
 10
-106.229522
 20
26.570295
 11
-106.229522
 21
73.836355
  0
LINE
  8
型材断面
  6
CONTINUOUS
 10
-106.542855
 20
26.256963
 11
-106.542855
 21
74.149688
  0
LINE
  8
型材断面
  6
CONTINUOUS
 10
-105.929828
 20
26.86999
 11
-105.929828
 21
73.53666
  0
LINE
  8
型材断面
  6
CONTINUOUS
 10
29.070165
 20
28.536658
 11
-104.26316
 21
28.536658
  0
LINE
  8
型材断面
  6
CONTINUOUS
 10
31.036528
 20
26.570295
 11
-106.229522
 21
26.570295
  0
LINE
  8
型材断面
  6
CONTINUOUS
 10
31.34986
 20
26.256963
 11
-106.542855
 21
26.256963
  0
LINE
  8
型材断面
  6
CONTINUOUS
 10
30.736832
 20
26.86999
 11
-105.929828
 21
26.86999
  0
LINE
  8
型材断面
  6
CONTINUOUS
 10
29.070165
 20
71.869993
 11
-104.26316
 21
71.869993
  0
LINE
  8
型材断面
  6
CONTINUOUS
 10
31.036528
 20
73.836355
 11
-106.229522
 21
73.836355
  0
LINE
  8
型材断面
  6
CONTINUOUS
 10
31.34986
 20
74.149688
 11
-106.542855
 21
74.149688
  0
LINE
  8
型材断面
  6
CONTINUOUS
 10
30.736832
 20
73.53666
 11
-105.929828
 21
73.53666
  0
LINE
  8
型材断面
  6
CONTINUOUS
 10
-103.429828
 20
29.36999
 11
-88.098163
 21
29.36999
  0
LINE
  8
型材断面
  6
CONTINUOUS
 10
-87.264827
 20
28.536658
 11
-87.264827
 21
29.36999
  0
LINE
  8
型材断面
  6
CONTINUOUS
 10
-88.098163
 20
28.536658
 11
-88.098163
 21
29.36999
  0
LINE
  8
型材断面
  6
CONTINUOUS
 10
-53.931495
 20
28.536658
 11
-53.931495
 21
29.36999
  0
LINE
  8
型材断面
  6
CONTINUOUS
 10
-54.76483
 20
28.536658
 11
-54.76483
 21
29.36999
  0
LINE
  8
型材断面
  6
CONTINUOUS
 10
-87.264827
 20
29.36999
 11
-54.76483
 21
29.36999
  0
LINE
  8
型材断面
  6
CONTINUOUS
 10
28.236832
 20
29.36999
 11
12.905168
 21
29.36999
  0
LINE
  8
型材断面
  6
CONTINUOUS
 10
12.071832
 20
28.536658
 11
12.071832
 21
29.36999
  0
LINE
  8
型材断面
  6
CONTINUOUS
 10
12.905168
 20
28.536658
 11
12.905168
 21
29.36999
  0
LINE
  8
型材断面
  6
CONTINUOUS
 10
-21.2615
 20
28.536658
 11
-21.2615
 21
29.36999
  0
LINE
  8
型材断面
  6
CONTINUOUS
 10
-20.428165
 20
28.536658
 11
-20.428165
 21
29.36999
  0
LINE
  8
型材断面
  6
CONTINUOUS
 10
12.071832
 20
29.36999
 11
-20.428165
 21
29.36999
  0
LINE
  8
型材断面
  6
CONTINUOUS
 10
-53.931495
 20
29.36999
 11
-21.2615
 21
29.36999
  0
LINE
  8
型材断面
  6
CONTINUOUS
 10
-103.429828
 20
71.03666
 11
-88.098163
 21
71.03666
  0
LINE
  8
型材断面
  6
CONTINUOUS
 10
-87.264827
 20
71.869993
 11
-87.264827
 21
71.03666
  0
LINE
  8
型材断面
  6
CONTINUOUS
 10
-88.098163
 20
71.869993
 11
-88.098163
 21
71.03666
  0
LINE
  8
型材断面
  6
CONTINUOUS
 10
-53.931495
 20
71.869993
 11
-53.931495
 21
71.03666
  0
LINE
  8
型材断面
  6
CONTINUOUS
 10
-54.76483
 20
71.869993
 11
-54.76483
 21
71.03666
  0
LINE
  8
型材断面
  6
CONTINUOUS
 10
-87.264827
 20
71.03666
 11
-54.76483
 21
71.03666
  0
LINE
  8
型材断面
  6
CONTINUOUS
 10
28.236832
 20
71.03666
 11
12.905168
 21
71.03666
  0
LINE
  8
型材断面
  6
CONTINUOUS
 10
12.071832
 20
71.869993
 11
12.071832
 21
71.03666
  0
LINE
  8
型材断面
  6
CONTINUOUS
 10
12.905168
 20
71.869993
 11
12.905168
 21
71.03666
  0
LINE
  8
型材断面
  6
CONTINUOUS
 10
-21.2615
 20
71.869993
 11
-21.2615
 21
71.03666
  0
LINE
  8
型材断面
  6
CONTINUOUS
 10
-20.428165
 20
71.869993
 11
-20.428165
 21
71.03666
  0
LINE
  8
型材断面
  6
CONTINUOUS
 10
12.071832
 20
71.03666
 11
-20.428165
 21
71.03666
  0
LINE
  8
型材断面
  6
CONTINUOUS
 10
-53.931495
 20
71.03666
 11
-21.2615
 21
71.03666
  0
LINE
  8
型材断面
  6
CONTINUOUS
 10
-69.84983
 20
30.203322
 11
-72.34983
 21
30.203322
  0
LINE
  8
型材断面
  6
CONTINUOUS
 10
-5.343165
 20
30.203322
 11
-2.843165
 21
30.203322
  0
LINE
  8
型材断面
  6
CONTINUOUS
 10
-69.84983
 20
70.203327
 11
-72.34983
 21
70.203327
  0
LINE
  8
型材断面
  6
CONTINUOUS
 10
-5.343165
 20
70.203327
 11
-2.843165
 21
70.203327
  0
LINE
  8
型材断面
  6
CONTINUOUS
 10
-72.34983
 20
30.203322
 11
-72.34983
 21
70.203327
  0
LINE
  8
型材断面
  6
CONTINUOUS
 10
-70.84983
 20
30.203322
 11
-70.84983
 21
70.203327
  0
LINE
  8
型材断面
  6
CONTINUOUS
 10
-71.34983
 20
30.203322
 11
-71.34983
 21
70.203327
  0
LINE
  8
型材断面
  6
CONTINUOUS
 10
-69.84983
 20
30.203322
 11
-69.84983
 21
70.203327
  0
LINE
  8
型材断面
  6
CONTINUOUS
 10
-2.843165
 20
30.203322
 11
-2.843165
 21
70.203327
  0
LINE
  8
型材断面
  6
CONTINUOUS
 10
-3.843165
 20
30.203322
 11
-3.843165
 21
70.203327
  0
LINE
  8
型材断面
  6
CONTINUOUS
 10
-4.343165
 20
30.203322
 11
-4.343165
 21
70.203327
  0
LINE
  8
型材断面
  6
CONTINUOUS
 10
-5.343165
 20
30.203322
 11
-5.343165
 21
70.203327
  0
LINE
  8
型材断面
  6
DASHDOT
 10
-4.093165
 20
28.536658
 11
-4.093165
 21
71.869993
  0
LINE
  8
型材断面
  6
DASHDOT
 10
-71.09983
 20
28.536658
 11
-71.09983
 21
71.869993
  0
LINE
  8
型材断面
  6
CONTINUOUS
 10
-36.346497
 20
30.203322
 11
-38.846497
 21
30.203322
  0
LINE
  8
型材断面
  6
CONTINUOUS
 10
-36.346497
 20
70.203327
 11
-38.846497
 21
70.203327
  0
LINE
  8
型材断面
  6
CONTINUOUS
 10
-38.846497
 20
30.203322
 11
-38.846497
 21
70.203327
  0
LINE
  8
型材断面
  6
CONTINUOUS
 10
-37.346497
 20
30.203322
 11
-37.346497
 21
70.203327
  0
LINE
  8
型材断面
  6
CONTINUOUS
 10
-37.846497
 20
30.203322
 11
-37.846497
 21
70.203327
  0
LINE
  8
型材断面
  6
CONTINUOUS
 10
-36.346497
 20
30.203322
 11
-36.346497
 21
70.203327
  0
POLYLINE
  8
型材断面
  6
CONTINUOUS
 66
     1
 70
     1
  0
VERTEX
  8
型材断面
 10
-27.991767
 20
81.645915
  0
VERTEX
  8
型材断面
 10
-46.763698
 20
81.645915
  0
VERTEX
  8
型材断面
 10
-46.763698
 20
86.382757
  0
VERTEX
  8
型材断面
 10
-27.991767
 20
86.382757
  0
SEQEND
  0
POLYLINE
  8
型材断面
  6
CONTINUOUS
 66
     1
 70
     1
  0
VERTEX
  8
型材断面
 10
-27.991767
 20
18.760735
  0
VERTEX
  8
型材断面
 10
-46.763698
 20
18.760735
  0
VERTEX
  8
型材断面
 10
-46.763698
 20
14.023892
  0
VERTEX
  8
型材断面
 10
-27.991767
 20
14.023892
  0
SEQEND
  0
LINE
  8
型材断面
  6
CONTINUOUS
 10
-106.893293
 20
50.203325
 11
-109.4838
 21
51.698955
  0
LINE
  8
型材断面
  6
CONTINUOUS
 10
-106.893293
 20
50.203325
 11
-109.4838
 21
48.707695
  0
LINE
  8
型材断面
  6
CONTINUOUS
 10
-109.4838
 20
48.707695
 11
-109.4838
 21
51.698955
  0
LINE
  8
型材断面
  6
CONTINUOUS
 10
-87.596495
 20
74.50012
 11
-89.092125
 21
77.090627
  0
LINE
  8
型材断面
  6
CONTINUOUS
 10
-87.596495
 20
74.50012
 11
-86.100865
 21
77.090627
  0
LINE
  8
型材断面
  6
CONTINUOUS
 10
-86.100865
 20
77.090627
 11
-89.092125
 21
77.090627
  0
LINE
  8
型材断面
  6
CONTINUOUS
 10
-145.11537
 20
109.847463
 11
-144.519315
 21
107.256955
  0
LINE
  8
型材断面
  6
CONTINUOUS
 10
-145.11537
 20
109.847463
 11
-145.711427
 21
107.256955
  0
LINE
  8
型材断面
  6
CONTINUOUS
 10
-145.711427
 20
107.256955
 11
-144.519315
 21
107.256955
  0
LINE
  8
型材断面
  6
CONTINUOUS
 10
-151.137958
 20
103.978062
 11
-104.89618
 21
103.978062
  0
LINE
  8
型材断面
  6
CONTINUOUS
 10
-145.11537
 20
116.377338
 11
-146.611
 21
113.78683
  0
LINE
  8
型材断面
  6
CONTINUOUS
 10
-145.11537
 20
116.377338
 11
-143.61974
 21
113.78683
  0
LINE
  8
型材断面
  6
CONTINUOUS
 10
-143.61974
 20
113.78683
 11
-146.611
 21
113.78683
  0
LINE
  8
型材断面
  6
CONTINUOUS
 10
-151.137958
 20
112.848235
 11
-104.89618
 21
112.848235
  0
LINE
  8
型材断面
  6
CONTINUOUS
 10
-151.137958
 20
98.19003
 11
-104.89618
 21
98.19003
  0
LINE
  8
型材断面
  6
CONTINUOUS
 10
-87.596495
 20
25.90653
 11
-89.092125
 21
23.316022
  0
LINE
  8
型材断面
  6
CONTINUOUS
 10
-87.596495
 20
25.90653
 11
-86.100865
 21
23.316022
  0
LINE
  8
型材断面
  6
CONTINUOUS
 10
-86.100865
 20
23.316022
 11
-89.092125
 21
23.316022
  0
LINE
  8
型材断面
  6
CONTINUOUS
 10
31.700297
 20
50.203325
 11
34.290805
 21
51.698955
  0
LINE
  8
型材断面
  6
CONTINUOUS
 10
31.700297
 20
50.203325
 11
34.290805
 21
48.707695
  0
LINE
  8
型材断面
  6
CONTINUOUS
 10
34.290805
 20
48.707695
 11
34.290805
 21
51.698955
  0
LINE
  8
型材断面
  6
CONTINUOUS
 10
12.4035
 20
74.50012
 11
13.89913
 21
77.090627
  0
LINE
  8
型材断面
  6
CONTINUOUS
 10
12.4035
 20
74.50012
 11
10.90787
 21
77.090627
  0
LINE
  8
型材断面
  6
CONTINUOUS
 10
10.90787
 20
77.090627
 11
13.89913
 21
77.090627
  0
LINE
  8
型材断面
  6
CONTINUOUS
 10
12.4035
 20
25.90653
 11
13.89913
 21
23.316022
  0
LINE
  8
型材断面
  6
CONTINUOUS
 10
12.4035
 20
25.90653
 11
10.90787
 21
23.316022
  0
LINE
  8
型材断面
  6
CONTINUOUS
 10
10.90787
 20
23.316022
 11
13.89913
 21
23.316022
  0
LINE
  8
型材断面
  6
CONTINUOUS
 10
31.700297
 20
67.96999
 11
34.290805
 21
67.373933
  0
LINE
  8
型材断面
  6
CONTINUOUS
 10
31.700297
 20
67.96999
 11
34.290805
 21
68.566048
  0
LINE
  8
型材断面
  6
CONTINUOUS
 10
34.290805
 20
68.566048
 11
34.290805
 21
67.373933
  0
LINE
  8
型材断面
  6
CONTINUOUS
 10
31.700297
 20
32.43666
 11
34.290805
 21
33.032718
  0
LINE
  8
型材断面
  6
CONTINUOUS
 10
31.700297
 20
32.43666
 11
34.290805
 21
31.840603
  0
LINE
  8
型材断面
  6
CONTINUOUS
 10
34.290805
 20
31.840603
 11
34.290805
 21
33.032718
  0
LINE
  8
型材断面
  6
CONTINUOUS
 10
-106.893293
 20
67.96999
 11
-109.4838
 21
67.373933
  0
LINE
  8
型材断面
  6
CONTINUOUS
 10
-106.893293
 20
67.96999
 11
-109.4838
 21
68.566048
  0
LINE
  8
型材断面
  6
CONTINUOUS
 10
-109.4838
 20
68.566048
 11
-109.4838
 21
67.373933
  0
LINE
  8
型材断面
  6
CONTINUOUS
 10
-106.893293
 20
32.43666
 11
-109.4838
 21
33.032718
  0
LINE
  8
型材断面
  6
CONTINUOUS
 10
-106.893293
 20
32.43666
 11
-109.4838
 21
31.840603
  0
LINE
  8
型材断面
  6
CONTINUOUS
 10
-109.4838
 20
31.840603
 11
-109.4838
 21
33.032718
  0
LINE
  8
型材断面
  6
CONTINUOUS
 10
-151.137958
 20
92.401997
 11
-104.89618
 21
92.401997
  0
INSERT
  2
*GRP_0024
  8
型材断面
  6
DOT
 10
0.0
 20
0.0
  0
INSERT
  2
*GRP_0030
  8
型材断面
  6
CONTINUOUS
 10
0.0
 20
0.0
  0
INSERT
  2
*GRP_0031
  8
型材断面
  6
CONTINUOUS
 10
0.0
 20
0.0
  0
INSERT
  2
*GRP_0032
  8
型材断面
  6
CONTINUOUS
 10
0.0
 20
0.0
  0
INSERT
  2
*GRP_0033
  8
型材断面
  6
CONTINUOUS
 10
0.0
 20
0.0
  0
LINE
  8
型材断面
  6
CONTINUOUS
 10
142.563467
 20
-8.89373
 11
121.670277
 21
-8.89373
  0
POLYLINE
  8
ガラス
  6
CONTINUOUS
 66
     1
 70
     1
  0
VERTEX
  8
ガラス
 10
158.471372
 20
-31.825748
  0
VERTEX
  8
ガラス
 10
126.314705
 20
-31.825748
  0
VERTEX
  8
ガラス
 10
126.314705
 20
-74.492415
  0
VERTEX
  8
ガラス
 10
158.471372
 20
-74.492415
  0
SEQEND
  0
TEXT
  7
TextStyle03
  8
文字
  6
CONTINUOUS
 10
-23.65
 20
-100.575
  1
※トップライト枠高さ寸法
 40
3.0
 72
     5
 11
16.475
 21
-100.575
  0
TEXT
  7
TextStyle03
  8
文字
  6
CONTINUOUS
 10
-23.65
 20
-103.95
  1
　シングルガラス：214
 40
3.0
 72
     5
 11
11.6
 21
-103.95
  0
TEXT
  7
TextStyle03
  8
文字
  6
CONTINUOUS
 10
-23.65
 20
-107.325
  1
　ペアガラス：224
 40
3.0
 72
     5
 11
4.85
 21
-107.325
  0
TEXT
  7
TextStyle03
  8
文字
  6
CONTINUOUS
 10
78.1
 20
125.25
  1
シリーズ：ＳＴＤＬ
 40
5.0
 72
     5
 11
128.1
 21
125.25
  0
TEXT
  7
TextStyle03
  8
文字
  6
CONTINUOUS
 10
78.1
 20
119.625
  1
　　　　　（上下可動）1300×4000タイプ
 40
5.0
 72
     5
 11
184.35
 21
119.625
  0
TEXT
  7
TextStyle03
  8
文字
  6
CONTINUOUS
 10
78.1
 20
114.0
  1
図面名　：外観姿図
 40
5.0
 72
     5
 11
128.1
 21
114.0
  0
TEXT
  7
TextStyle03
  8
文字
  6
CONTINUOUS
 10
78.1
 20
108.375
  1
　　　　　　
 40
5.0
 72
     5
 11
111.225
 21
108.375
  0
TEXT
  7
TextStyle03
  8
文字
  6
CONTINUOUS
 10
-45.7
 20
82.325
  1
可動装置側
 40
3.0
 72
     5
 11
-29.2
 21
82.325
  0
TEXT
  7
TextStyle03
  8
文字
  6
CONTINUOUS
 10
-45.7
 20
15.05
  1
可動装置側
 40
3.0
 72
     5
 11
-29.2
 21
15.05
  0
TEXT
  7
TextStyle03
  8
文字
  6
CONTINUOUS
 10
-141.75
 20
39.1
  1
アンカーピッチ
 40
3.0
 50
90.0
 72
     5
 11
-141.75
 21
62.35
  0
TEXT
  7
TextStyle03
  8
文字
  6
CONTINUOUS
 10
-142.325
 20
108.45
  1
はケーシング位置を示す
 40
3.0
 72
     5
 11
-105.575
 21
108.45
  0
TEXT
  7
TextStyle03
  8
文字
  6
CONTINUOUS
 10
-142.325
 20
105.075
  1
４ヶ所中1ヶ所に設定
 40
3.0
 72
     5
 11
-110.6375
 21
105.075
  0
TEXT
  7
TextStyle03
  8
文字
  6
CONTINUOUS
 10
-142.325
 20
113.975
  1
は排水穴位置を示す
 40
3.0
 72
     5
 11
-112.325
 21
113.975
  0
TEXT
  7
TextStyle03
  8
文字
  6
CONTINUOUS
 10
-96.175
 20
109.875
  1
アンカーピッチ
 40
3.0
 72
     5
 11
-72.925
 21
109.875
  0
TEXT
  7
TextStyle03
  8
文字
  6
CONTINUOUS
 10
-146.05
 20
99.1
  1
アンカー数量　１６ヶ所
 40
3.0
 72
     5
 11
-109.3
 21
99.1
  0
TEXT
  7
TextStyle03
  8
文字
  6
CONTINUOUS
 10
-146.1
 20
93.325
  1
アームユニット数　４ヶ所
 40
3.0
 72
     5
 11
-105.975
 21
93.325
  0
TEXT
  7
TextStyle03
  8
文字
  6
CONTINUOUS
 10
145.075
 20
-71.0
  1
×４枚
 40
3.0
 72
     5
 11
154.825
 21
-71.0
  0
TEXT
  7
TextStyle03
  8
文字
  6
CONTINUOUS
 10
123.6
 20
-7.85
  1
ガラス寸法
 40
3.0
 72
     5
 11
140.1
 21
-7.85
  0
INSERT
  2
*DIM_0004
  8
寸法
  6
CONTINUOUS
 10
0.0
 20
0.0
  0
INSERT
  2
*DIM_0005
  8
寸法
  6
CONTINUOUS
 10
0.0
 20
0.0
  0
INSERT
  2
*DIM_0008
  8
寸法
  6
CONTINUOUS
 10
0.0
 20
0.0
  0
INSERT
  2
*DIM_0009
  8
寸法
  6
CONTINUOUS
 10
0.0
 20
0.0
  0
INSERT
  2
*DIM_0012
  8
寸法
  6
CONTINUOUS
 10
0.0
 20
0.0
  0
INSERT
  2
*DIM_0015
  8
寸法
  6
CONTINUOUS
 10
0.0
 20
0.0
  0
INSERT
  2
*DIM_0016
  8
寸法
  6
CONTINUOUS
 10
0.0
 20
0.0
  0
INSERT
  2
*DIM_0017
  8
寸法
  6
CONTINUOUS
 10
0.0
 20
0.0
  0
INSERT
  2
*DIM_0018
  8
寸法
  6
CONTINUOUS
 10
0.0
 20
0.0
  0
INSERT
  2
*DIM_0019
  8
寸法
  6
CONTINUOUS
 10
0.0
 20
0.0
  0
INSERT
  2
*DIM_0020
  8
寸法
  6
CONTINUOUS
 10
0.0
 20
0.0
  0
INSERT
  2
*DIM_0021
  8
寸法
  6
CONTINUOUS
 10
0.0
 20
0.0
  0
INSERT
  2
*DIM_0022
  8
寸法
  6
CONTINUOUS
 10
0.0
 20
0.0
  0
INSERT
  2
*DIM_0023
  8
寸法
  6
CONTINUOUS
 10
0.0
 20
0.0
  0
INSERT
  2
*DIM_0029
  8
寸法
  6
CONTINUOUS
 10
0.0
 20
0.0
  0
INSERT
  2
*DIM_0034
  8
寸法
  6
CONTINUOUS
 10
0.0
 20
0.0
  0
INSERT
  2
*DIM_0035
  8
寸法
  6
CONTINUOUS
 10
0.0
 20
0.0
  0
INSERT
  2
*DIM_0036
  8
寸法
  6
CONTINUOUS
 10
0.0
 20
0.0
  0
INSERT
  2
*DIM_0037
  8
寸法
  6
CONTINUOUS
 10
0.0
 20
0.0
  0
INSERT
  2
*DIM_0038
  8
寸法
  6
CONTINUOUS
 10
0.0
 20
0.0
  0
LINE
  8
曲げ物
  6
CONTINUOUS
 10
13.7959
 20
52.128875
 11
10.100588
 21
48.433562
  0
LINE
  8
曲げ物
  6
CONTINUOUS
 10
13.09243
 20
50.592765
 11
11.6367
 21
49.137035
  0
LINE
  8
曲げ物
  6
CONTINUOUS
 10
12.25979
 20
51.425405
 11
10.80406
 21
49.969675
  0
LINE
  8
曲げ物
  6
CONTINUOUS
 10
-18.38841
 20
52.128875
 11
-22.083723
 21
48.433562
  0
LINE
  8
曲げ物
  6
CONTINUOUS
 10
-19.09188
 20
50.592765
 11
-20.54761
 21
49.137035
  0
LINE
  8
曲げ物
  6
CONTINUOUS
 10
-19.92452
 20
51.425405
 11
-21.38025
 21
49.969675
  0
LINE
  8
曲げ物
  6
CONTINUOUS
 10
-52.490355
 20
52.128875
 11
-56.185668
 21
48.433562
  0
LINE
  8
曲げ物
  6
CONTINUOUS
 10
-53.193825
 20
50.592765
 11
-54.649555
 21
49.137035
  0
LINE
  8
曲げ物
  6
CONTINUOUS
 10
-54.026465
 20
51.425405
 11
-55.482195
 21
49.969675
  0
LINE
  8
曲げ物
  6
CONTINUOUS
 10
-86.01341
 20
52.128875
 11
-89.708723
 21
48.433562
  0
LINE
  8
曲げ物
  6
CONTINUOUS
 10
-86.71688
 20
50.592765
 11
-88.17261
 21
49.137035
  0
LINE
  8
曲げ物
  6
CONTINUOUS
 10
-87.54952
 20
51.425405
 11
-89.00525
 21
49.969675
  0
ENDSEC
  0
EOF
