  0
SECTION
  2
HEADER
  9
$EXTMIN
 10
-210.0
 20
-148.5
  9
$EXTMAX
 10
210.0
 20
148.5
  9
$PDMODE
 70
    32
  9
$PDSIZE
 40
1.5
  9
$LTSCALE
 40
10.0
  0
ENDSEC
  0
SECTION
  2
TABLES
  0
TABLE
  2
LTYPE
 70
    15
  0
LTYPE
  2
CONTINUOUS
 70
    64
  3
実線
 72
    65
 73
     0
 40
0.0
  0
LTYPE
  2
DASHED
 70
    64
  3
破線A
 72
    65
 73
     2
 40
0.6
 49
0.4
 49
-0.2
  0
LTYPE
  2
DASHEDX2
 70
    64
  3
破線B
 72
    65
 73
     2
 40
1.3
 49
0.9
 49
-0.4
  0
LTYPE
  2
DASHDOT
 70
    64
  3
１点鎖線A
 72
    65
 73
     4
 40
0.5375
 49
0.375
 49
-0.05
 49
0.0625
 49
-0.05
  0
LTYPE
  2
DASHDOTX2
 70
    64
  3
１点鎖線B
 72
    65
 73
     4
 40
1.075
 49
0.75
 49
-0.1
 49
0.125
 49
-0.1
  0
LTYPE
  2
DIVIDE2
 70
    64
  3
２点鎖線A
 72
    65
 73
     6
 40
0.5125
 49
0.3
 49
-0.0375
 49
0.05
 49
-0.0375
 49
0.05
 49
-0.0375
  0
LTYPE
  2
DIVIDE
 70
    64
  3
２点鎖線B
 72
    65
 73
     6
 40
1.05
 49
0.55
 49
-0.1
 49
0.1
 49
-0.1
 49
0.1
 49
-0.1
  0
LTYPE
  2
DOT
 70
    64
  3
点線A
 72
    65
 73
     2
 40
0.1125
 49
0.0625
 49
-0.05
  0
LTYPE
  2
DOTX2
 70
    64
  3
点線B
 72
    65
 73
     2
 40
0.275
 49
0.15
 49
-0.125
  0
LTYPE
  2
CONTINUOUS
 70
    64
  3
実線
 72
    65
 73
     0
 40
0.0
  0
LTYPE
  2
CONTINUOUS
 70
    64
  3
実線
 72
    65
 73
     0
 40
0.0
  0
LTYPE
  2
CONTINUOUS
 70
    64
  3
実線
 72
    65
 73
     0
 40
0.0
  0
LTYPE
  2
CONTINUOUS
 70
    64
  3
実線
 72
    65
 73
     0
 40
0.0
  0
LTYPE
  2
CONTINUOUS
 70
    64
  3
実線
 72
    65
 73
     0
 40
0.0
  0
LTYPE
  2
CONTINUOUS
 70
    64
  3
実線
 72
    65
 73
     0
 40
0.0
  0
ENDTAB
  0
TABLE
  2
LAYER
 70
    34
  0
LAYER
  2
通り芯
 70
     0
 62
    15
  6
CONTINUOUS
  0
LAYER
  2
補助線
 70
     0
 62
    16
  6
DOT
  0
LAYER
  2
躯体
 70
     0
 62
    31
  6
CONTINUOUS
  0
LAYER
  2
型材
 70
     0
 62
    32
  6
CONTINUOUS
  0
LAYER
  2
型材断面
 70
     0
 62
    47
  6
CONTINUOUS
  0
LAYER
  2
ガラス
 70
     0
 62
    48
  6
CONTINUOUS
  0
LAYER
  2
ゴム等
 70
     0
 62
    63
  6
CONTINUOUS
  0
LAYER
  2
ボルト／ビス
 70
     0
 62
    64
  6
CONTINUOUS
  0
LAYER
  2
文字
 70
     0
 62
    79
  6
CONTINUOUS
  0
LAYER
  2
寸法
 70
     0
 62
    80
  6
CONTINUOUS
  0
LAYER
  2
ﾊｯﾁﾝｸﾞ
 70
     0
 62
    95
  6
CONTINUOUS
  0
LAYER
  2
別途部材
 70
     0
 62
    96
  6
CONTINUOUS
  0
LAYER
  2
曲げ物
 70
     0
 62
   111
  6
CONTINUOUS
  0
LAYER
  2
鉄骨等
 70
     0
 62
   112
  6
CONTINUOUS
  0
LAYER
  2
St
 70
     0
 62
   127
  6
CONTINUOUS
  0
LAYER
  2
その他部品等
 70
     0
 62
   128
  6
CONTINUOUS
  0
LAYER
  2
ｶﾞｽｹｯﾄ
 70
     0
 62
   143
  6
CONTINUOUS
  0
LAYER
  2
ｽｹｯﾁ
 70
     0
 62
    14
  6
CONTINUOUS
  0
LAYER
  2
0
 70
     0
 62
    17
  6
CONTINUOUS
  0
LAYER
  2
1
 70
     0
 62
    30
  6
CONTINUOUS
  0
LAYER
  2
4
 70
     0
 62
    33
  6
CONTINUOUS
  0
LAYER
  2
ﾚｲﾔ3
 70
     0
 62
    46
  6
CONTINUOUS
  0
LAYER
  2
外形線
 70
     0
 62
    49
  6
CONTINUOUS
  0
LAYER
  2
部品
 70
     0
 62
    14
  6
CONTINUOUS
  0
LAYER
  2
サッシ芯
 70
     0
 62
    17
  6
DASHDOTX2
  0
LAYER
  2
寸法線
 70
     0
 62
    62
  6
CONTINUOUS
  0
LAYER
  2
姿図外形線
 70
     0
 62
    65
  6
CONTINUOUS
  0
LAYER
  2
姿補助線
 70
     0
 62
    30
  6
CONTINUOUS
  0
LAYER
  2
透視線
 70
     0
 62
    78
  6
DOT
  0
LAYER
  2
用紙
 70
     0
 62
    81
  6
CONTINUOUS
  0
LAYER
  2
実線図枠
 70
     0
 62
    94
  6
CONTINUOUS
  0
LAYER
  2
補助図枠
 70
     0
 62
    97
  6
CONTINUOUS
  0
LAYER
  2
建具記号
 70
     0
 62
   110
  6
CONTINUOUS
  0
LAYER
  2
補助文字
 70
     0
 62
   113
  6
CONTINUOUS
  0
ENDTAB
  0
TABLE
  2
STYLE
 70
    10
  0
STYLE
  2
STANDARD
 70
     0
 40
1.0
 41
1.0
 42
1.0
 50
0.0
 71
     0
  3
TXT
  4
BIGFONT
  0
STYLE
  2
TATE
 70
     4
 40
1.0
 41
1.0
 42
1.0
 50
0.0
 71
     0
  3
TXT
  4
BIGFONT
  0
STYLE
  2
TextStyle03
 70
     0
 40
1.0
 41
1.0
 42
1.0
 50
0.0
 71
     0
  3
MONOTXT
  4
BIGFONT
  0
STYLE
  2
TextStyle04
 70
     0
 40
1.0
 41
1.0
 42
1.0
 50
0.0
 71
     0
  3
MONOTXT
  4
BIGFONT
  0
STYLE
  2
TextStyle05
 70
     0
 40
1.0
 41
1.0
 42
1.0
 50
0.0
 71
     0
  3
MONOTXT
  4
BIGFONT
  0
STYLE
  2
TextStyle06
 70
     0
 40
1.0
 41
1.0
 42
1.0
 50
0.0
 71
     0
  3
MONOTXT
  4
BIGFONT
  0
STYLE
  2
TextStyle07
 70
     0
 40
1.0
 41
1.0
 42
1.0
 50
0.0
 71
     0
  3
MONOTXT
  4
BIGFONT
  0
STYLE
  2
TextStyle08
 70
     0
 40
1.0
 41
1.0
 42
1.0
 50
0.0
 71
     0
  3
MONOTXT
  4
BIGFONT
  0
STYLE
  2
TextStyle09
 70
     0
 40
1.0
 41
1.0
 42
1.0
 50
0.0
 71
     0
  3
MONOTXT
  4
BIGFONT
  0
STYLE
  2
TextStyle10
 70
     0
 40
1.0
 41
1.0
 42
1.0
 50
0.0
 71
     0
  3
MONOTXT
  4
BIGFONT
  0
ENDTAB
  0
ENDSEC
  0
SECTION
  2
BLOCKS
  0
BLOCK
  2
*GRP_0001
 70
    65
 10
0.0
 20
0.0
  0
LINE
  8
型材断面
  6
CONTINUOUS
 10
195.0
 20
133.5
 11
195.0
 21
-133.5
  0
LINE
  8
型材断面
  6
CONTINUOUS
 10
195.0
 20
-133.5
 11
-185.0
 21
-133.5
  0
LINE
  8
型材断面
  6
CONTINUOUS
 10
-185.0
 20
-133.5
 11
-185.0
 21
133.5
  0
LINE
  8
型材断面
  6
CONTINUOUS
 10
195.0
 20
133.5
 11
-185.0
 21
133.5
  0
LINE
  8
型材断面
  6
CONTINUOUS
 10
145.0
 20
-133.5
 11
145.0
 21
-118.5
  0
LINE
  8
型材断面
  6
CONTINUOUS
 10
195.0
 20
-118.5
 11
145.0
 21
-118.5
  0
ENDBLK
  0
BLOCK
  2
*GRP_0002
 70
    65
 10
0.0
 20
0.0
  0
INSERT
  2
M8横
  8
ゴム等
  6
CONTINUOUS
 10
163.336003
 20
27.710297
 50
90.0
 41
0.033333
 42
0.033333
  0
LINE
  8
ボルト／ビス
  6
CONTINUOUS
 10
163.126005
 20
27.843633
 11
163.109338
 21
27.826965
  0
LINE
  8
ボルト／ビス
  6
CONTINUOUS
 10
163.109338
 20
27.593633
 11
163.126005
 21
27.576965
  0
LINE
  8
ボルト／ビス
  6
CONTINUOUS
 10
163.126005
 20
27.576965
 11
163.126005
 21
27.843633
  0
LINE
  8
ボルト／ビス
  6
CONTINUOUS
 10
163.109338
 20
27.593633
 11
163.109338
 21
27.826965
  0
LINE
  8
ボルト／ビス
  6
CONTINUOUS
 10
163.109338
 20
27.826965
 11
163.15267
 21
27.826965
  0
LINE
  8
ボルト／ビス
  6
CONTINUOUS
 10
163.126005
 20
27.843633
 11
163.15267
 21
27.843633
  0
LINE
  8
ボルト／ビス
  6
CONTINUOUS
 10
163.126005
 20
27.576965
 11
163.15267
 21
27.576965
  0
LINE
  8
ボルト／ビス
  6
CONTINUOUS
 10
163.109338
 20
27.593633
 11
163.15267
 21
27.593633
  0
LINE
  8
ボルト／ビス
  6
CONTINUOUS
 10
163.336003
 20
27.343633
 11
163.336003
 21
28.076965
  0
LINE
  8
ボルト／ビス
  6
CONTINUOUS
 10
163.376002
 20
28.126965
 11
163.459335
 21
28.126965
  0
LINE
  8
ボルト／ビス
  6
CONTINUOUS
 10
163.459335
 20
28.126965
 11
163.459335
 21
27.293633
  0
LINE
  8
ボルト／ビス
  6
CONTINUOUS
 10
163.459335
 20
27.293633
 11
163.376002
 21
27.293633
  0
LINE
  8
ボルト／ビス
  6
CONTINUOUS
 10
163.376002
 20
28.126965
 11
163.376002
 21
27.293633
  0
LINE
  8
ボルト／ビス
  6
CONTINUOUS
 10
163.336003
 20
27.343633
 11
163.376002
 21
27.343633
  0
LINE
  8
ボルト／ビス
  6
CONTINUOUS
 10
163.336003
 20
28.076965
 11
163.376002
 21
28.076965
  0
LINE
  8
ボルト／ビス
  6
CONTINUOUS
 10
163.386002
 20
27.710297
 11
163.336003
 21
27.710297
  0
ENDBLK
  0
BLOCK
  2
*GRP_0003
 70
    65
 10
0.0
 20
0.0
  0
LINE
  8
ボルト／ビス
  6
CONTINUOUS
 10
162.47617
 20
27.50363
 11
162.409503
 21
27.50363
  0
LINE
  8
ボルト／ビス
  6
CONTINUOUS
 10
162.409503
 20
27.50363
 11
162.409503
 21
28.236962
  0
LINE
  8
ボルト／ビス
  6
CONTINUOUS
 10
162.409503
 20
28.236962
 11
162.47617
 21
28.236962
  0
LINE
  8
ボルト／ビス
  6
CONTINUOUS
 10
162.47617
 20
27.50363
 11
162.47617
 21
28.236962
  0
LINE
  8
ボルト／ビス
  6
CONTINUOUS
 10
162.37617
 20
27.570298
 11
162.409503
 21
27.570298
  0
LINE
  8
ボルト／ビス
  6
CONTINUOUS
 10
162.37617
 20
27.570298
 11
162.37617
 21
28.170298
  0
LINE
  8
ボルト／ビス
  6
CONTINUOUS
 10
162.37617
 20
28.170298
 11
162.409503
 21
28.170298
  0
LINE
  8
ボルト／ビス
  6
CONTINUOUS
 62
    64
 10
162.17617
 20
27.709922
 11
162.187845
 21
27.677847
  0
ARC
  8
ボルト／ビス
  6
CONTINUOUS
 62
    64
 10
162.281149
 20
27.725964
 40
0.104978
 50
152.721967
 51
180.0
  0
ARC
  8
ボルト／ビス
  6
CONTINUOUS
 62
    64
 10
162.578573
 20
27.870302
 40
0.402402
 50
166.165002
 51
193.834985
  0
LINE
  8
ボルト／ビス
  6
CONTINUOUS
 62
    64
 10
162.17617
 20
28.030673
 11
162.187845
 21
28.062747
  0
ARC
  8
ボルト／ビス
  6
CONTINUOUS
 62
    64
 10
162.281149
 20
28.014639
 40
0.104978
 50
180.0
 51
207.278033
  0
LINE
  8
ボルト／ビス
  6
CONTINUOUS
 62
    64
 10
162.17617
 20
27.709922
 11
162.17617
 21
28.030673
  0
LINE
  8
ボルト／ビス
  6
CONTINUOUS
 62
    64
 10
162.187845
 20
28.062747
 11
162.309503
 21
28.062747
  0
LINE
  8
ボルト／ビス
  6
CONTINUOUS
 62
    64
 10
162.187845
 20
27.966523
 11
162.309503
 21
27.966523
  0
LINE
  8
ボルト／ビス
  6
CONTINUOUS
 62
    64
 10
162.187845
 20
27.677847
 11
162.309503
 21
27.677847
  0
LINE
  8
ボルト／ビス
  6
CONTINUOUS
 62
    64
 10
162.187845
 20
27.774072
 11
162.309503
 21
27.774072
  0
LINE
  8
ボルト／ビス
  6
CONTINUOUS
 10
162.309503
 20
27.677847
 11
162.309503
 21
28.062747
  0
LINE
  8
ボルト／ビス
  6
CONTINUOUS
 10
162.309503
 20
27.670298
 11
162.37617
 21
27.670298
  0
LINE
  8
ボルト／ビス
  6
CONTINUOUS
 10
162.309503
 20
27.670298
 11
162.309503
 21
28.070298
  0
LINE
  8
ボルト／ビス
  6
CONTINUOUS
 10
162.309503
 20
28.070298
 11
162.37617
 21
28.070298
  0
ENDBLK
  0
BLOCK
  2
*DIM_0004
 70
    65
 10
0.0
 20
0.0
  0
LINE
  8
寸法
  6
CONTINUOUS
 10
161.248695
 20
26.256963
 11
142.14273
 21
26.256963
  0
LINE
  8
寸法
  6
CONTINUOUS
 10
142.14273
 20
28.536658
 11
142.14273
 21
26.256963
  0
POINT
  8
寸法
 10
142.14273
 20
28.536658
  0
POINT
  8
寸法
 10
142.14273
 20
26.256963
  0
TEXT
  7
TextStyle03
  8
寸法
  6
CONTINUOUS
 10
141.75
 20
17.34375
  1
68.4
 40
3.0
 50
90.0
 72
     5
 11
141.75
 21
23.90625
  0
ENDBLK
  0
BLOCK
  2
*DIM_0005
 70
    65
 10
0.0
 20
0.0
  0
LINE
  8
寸法
  6
CONTINUOUS
 10
169.209335
 20
21.570298
 11
169.209335
 21
13.661277
  0
LINE
  8
寸法
  6
CONTINUOUS
 10
161.742835
 20
23.536658
 11
161.742835
 21
13.661277
  0
LINE
  8
寸法
  6
CONTINUOUS
 10
169.209335
 20
13.661277
 11
161.742835
 21
13.661277
  0
POINT
  8
寸法
 10
169.209335
 20
13.661277
  0
POINT
  8
寸法
 10
161.742835
 20
13.661277
  0
TEXT
  7
TextStyle03
  8
寸法
  6
CONTINUOUS
 10
163.0375
 20
14.025
  1
224
 40
3.0
 72
     5
 11
167.9125
 21
14.025
  0
ENDBLK
  0
BLOCK
  2
*GRP_0006
 70
    65
 10
0.0
 20
0.0
  0
INSERT
  2
M8横
  8
ゴム等
  6
CONTINUOUS
 10
163.336003
 20
72.696352
 50
270.0
 41
0.033333
 42
-0.033333
  0
LINE
  8
ボルト／ビス
  6
CONTINUOUS
 10
163.126005
 20
72.56302
 11
163.109338
 21
72.579688
  0
LINE
  8
ボルト／ビス
  6
CONTINUOUS
 10
163.109338
 20
72.81302
 11
163.126005
 21
72.829688
  0
LINE
  8
ボルト／ビス
  6
CONTINUOUS
 10
163.126005
 20
72.829688
 11
163.126005
 21
72.56302
  0
LINE
  8
ボルト／ビス
  6
CONTINUOUS
 10
163.109338
 20
72.81302
 11
163.109338
 21
72.579688
  0
LINE
  8
ボルト／ビス
  6
CONTINUOUS
 10
163.109338
 20
72.579688
 11
163.15267
 21
72.579688
  0
LINE
  8
ボルト／ビス
  6
CONTINUOUS
 10
163.126005
 20
72.56302
 11
163.15267
 21
72.56302
  0
LINE
  8
ボルト／ビス
  6
CONTINUOUS
 10
163.126005
 20
72.829688
 11
163.15267
 21
72.829688
  0
LINE
  8
ボルト／ビス
  6
CONTINUOUS
 10
163.109338
 20
72.81302
 11
163.15267
 21
72.81302
  0
LINE
  8
ボルト／ビス
  6
CONTINUOUS
 10
163.336003
 20
73.06302
 11
163.336003
 21
72.329688
  0
LINE
  8
ボルト／ビス
  6
CONTINUOUS
 10
163.376002
 20
72.279687
 11
163.459335
 21
72.279687
  0
LINE
  8
ボルト／ビス
  6
CONTINUOUS
 10
163.459335
 20
72.279687
 11
163.459335
 21
73.11302
  0
LINE
  8
ボルト／ビス
  6
CONTINUOUS
 10
163.459335
 20
73.11302
 11
163.376002
 21
73.11302
  0
LINE
  8
ボルト／ビス
  6
CONTINUOUS
 10
163.376002
 20
72.279687
 11
163.376002
 21
73.11302
  0
LINE
  8
ボルト／ビス
  6
CONTINUOUS
 10
163.336003
 20
73.06302
 11
163.376002
 21
73.06302
  0
LINE
  8
ボルト／ビス
  6
CONTINUOUS
 10
163.336003
 20
72.329688
 11
163.376002
 21
72.329688
  0
LINE
  8
ボルト／ビス
  6
CONTINUOUS
 10
163.386002
 20
72.696352
 11
163.336003
 21
72.696352
  0
ENDBLK
  0
BLOCK
  2
*GRP_0007
 70
    65
 10
0.0
 20
0.0
  0
LINE
  8
ボルト／ビス
  6
CONTINUOUS
 10
162.47617
 20
72.903023
 11
162.409503
 21
72.903023
  0
LINE
  8
ボルト／ビス
  6
CONTINUOUS
 10
162.409503
 20
72.903023
 11
162.409503
 21
72.169687
  0
LINE
  8
ボルト／ビス
  6
CONTINUOUS
 10
162.409503
 20
72.169687
 11
162.47617
 21
72.169687
  0
LINE
  8
ボルト／ビス
  6
CONTINUOUS
 10
162.47617
 20
72.903023
 11
162.47617
 21
72.169687
  0
LINE
  8
ボルト／ビス
  6
CONTINUOUS
 10
162.37617
 20
72.836355
 11
162.409503
 21
72.836355
  0
LINE
  8
ボルト／ビス
  6
CONTINUOUS
 10
162.37617
 20
72.836355
 11
162.37617
 21
72.236355
  0
LINE
  8
ボルト／ビス
  6
CONTINUOUS
 10
162.37617
 20
72.236355
 11
162.409503
 21
72.236355
  0
LINE
  8
ボルト／ビス
  6
CONTINUOUS
 62
    64
 10
162.17617
 20
72.69673
 11
162.187845
 21
72.728805
  0
ARC
  8
ボルト／ビス
  6
CONTINUOUS
 62
    64
 10
162.281149
 20
72.680698
 40
0.104978
 50
180.0
 51
207.278033
  0
ARC
  8
ボルト／ビス
  6
CONTINUOUS
 62
    64
 10
162.578573
 20
72.536361
 40
0.402402
 50
166.165015
 51
193.834998
  0
LINE
  8
ボルト／ビス
  6
CONTINUOUS
 62
    64
 10
162.17617
 20
72.37598
 11
162.187845
 21
72.343905
  0
ARC
  8
ボルト／ビス
  6
CONTINUOUS
 62
    64
 10
162.281149
 20
72.392023
 40
0.104978
 50
152.721967
 51
180.0
  0
LINE
  8
ボルト／ビス
  6
CONTINUOUS
 62
    64
 10
162.17617
 20
72.69673
 11
162.17617
 21
72.37598
  0
LINE
  8
ボルト／ビス
  6
CONTINUOUS
 62
    64
 10
162.187845
 20
72.343905
 11
162.309503
 21
72.343905
  0
LINE
  8
ボルト／ビス
  6
CONTINUOUS
 62
    64
 10
162.187845
 20
72.44013
 11
162.309503
 21
72.44013
  0
LINE
  8
ボルト／ビス
  6
CONTINUOUS
 62
    64
 10
162.187845
 20
72.728805
 11
162.309503
 21
72.728805
  0
LINE
  8
ボルト／ビス
  6
CONTINUOUS
 62
    64
 10
162.187845
 20
72.63258
 11
162.309503
 21
72.63258
  0
LINE
  8
ボルト／ビス
  6
CONTINUOUS
 10
162.309503
 20
72.728805
 11
162.309503
 21
72.343905
  0
LINE
  8
ボルト／ビス
  6
CONTINUOUS
 10
162.309503
 20
72.736355
 11
162.37617
 21
72.736355
  0
LINE
  8
ボルト／ビス
  6
CONTINUOUS
 10
162.309503
 20
72.736355
 11
162.309503
 21
72.336355
  0
LINE
  8
ボルト／ビス
  6
CONTINUOUS
 10
162.309503
 20
72.336355
 11
162.37617
 21
72.336355
  0
ENDBLK
  0
BLOCK
  2
*DIM_0008
 70
    65
 10
0.0
 20
0.0
  0
LINE
  8
寸法
  6
CONTINUOUS
 10
161.248695
 20
74.149688
 11
142.14273
 21
74.149688
  0
LINE
  8
寸法
  6
CONTINUOUS
 10
142.14273
 20
71.869993
 11
142.14273
 21
74.149688
  0
POINT
  8
寸法
 10
142.14273
 20
71.869993
  0
POINT
  8
寸法
 10
142.14273
 20
74.149688
  0
TEXT
  7
TextStyle03
  8
寸法
  6
CONTINUOUS
 10
141.75
 20
76.46875
  1
68.4
 40
3.0
 50
90.0
 72
     5
 11
141.75
 21
83.03125
  0
ENDBLK
  0
BLOCK
  2
*DIM_0009
 70
    65
 10
0.0
 20
0.0
  0
LINE
  8
寸法
  6
CONTINUOUS
 10
142.14273
 20
71.869993
 11
142.14273
 21
28.536658
  0
POINT
  8
寸法
 10
142.14273
 20
71.869993
  0
POINT
  8
寸法
 10
142.14273
 20
28.536658
  0
TEXT
  7
TextStyle03
  8
寸法
  6
CONTINUOUS
 10
141.75
 20
38.48125
  1
呼称寸法　1300
 40
3.0
 50
90.0
 72
     5
 11
141.75
 21
61.91875
  0
ENDBLK
  0
BLOCK
  2
*GRP_0010
 70
    65
 10
0.0
 20
0.0
  0
INSERT
  2
M8横
  8
ゴム等
  6
CONTINUOUS
 10
46.56319
 20
-70.297288
 50
180.0
 41
0.033333
 42
-0.033333
  0
LINE
  8
ボルト／ビス
  6
CONTINUOUS
 10
46.429858
 20
-70.087288
 11
46.446522
 21
-70.070622
  0
LINE
  8
ボルト／ビス
  6
CONTINUOUS
 10
46.679858
 20
-70.070622
 11
46.696522
 21
-70.087288
  0
LINE
  8
ボルト／ビス
  6
CONTINUOUS
 10
46.696522
 20
-70.087288
 11
46.429858
 21
-70.087288
  0
LINE
  8
ボルト／ビス
  6
CONTINUOUS
 10
46.679858
 20
-70.070622
 11
46.446522
 21
-70.070622
  0
LINE
  8
ボルト／ビス
  6
CONTINUOUS
 10
46.446522
 20
-70.070622
 11
46.446522
 21
-70.113952
  0
LINE
  8
ボルト／ビス
  6
CONTINUOUS
 10
46.429858
 20
-70.087288
 11
46.429858
 21
-70.113952
  0
LINE
  8
ボルト／ビス
  6
CONTINUOUS
 10
46.696522
 20
-70.087288
 11
46.696522
 21
-70.113952
  0
LINE
  8
ボルト／ビス
  6
CONTINUOUS
 10
46.679858
 20
-70.070622
 11
46.679858
 21
-70.113952
  0
LINE
  8
ボルト／ビス
  6
CONTINUOUS
 10
46.929858
 20
-70.297288
 11
46.196522
 21
-70.297288
  0
LINE
  8
ボルト／ビス
  6
CONTINUOUS
 10
46.146522
 20
-70.337288
 11
46.146522
 21
-70.42062
  0
LINE
  8
ボルト／ビス
  6
CONTINUOUS
 10
46.146522
 20
-70.42062
 11
46.979858
 21
-70.42062
  0
LINE
  8
ボルト／ビス
  6
CONTINUOUS
 10
46.979858
 20
-70.42062
 11
46.979858
 21
-70.337288
  0
LINE
  8
ボルト／ビス
  6
CONTINUOUS
 10
46.146522
 20
-70.337288
 11
46.979858
 21
-70.337288
  0
LINE
  8
ボルト／ビス
  6
CONTINUOUS
 10
46.929858
 20
-70.297288
 11
46.929858
 21
-70.337288
  0
LINE
  8
ボルト／ビス
  6
CONTINUOUS
 10
46.196522
 20
-70.297288
 11
46.196522
 21
-70.337288
  0
LINE
  8
ボルト／ビス
  6
CONTINUOUS
 10
46.56319
 20
-70.347288
 11
46.56319
 21
-70.297288
  0
ENDBLK
  0
BLOCK
  2
*GRP_0011
 70
    65
 10
0.0
 20
0.0
  0
LINE
  8
ボルト／ビス
  6
CONTINUOUS
 10
46.769858
 20
-69.437453
 11
46.769858
 21
-69.370788
  0
LINE
  8
ボルト／ビス
  6
CONTINUOUS
 10
46.769858
 20
-69.370788
 11
46.036525
 21
-69.370788
  0
LINE
  8
ボルト／ビス
  6
CONTINUOUS
 10
46.036525
 20
-69.370788
 11
46.036525
 21
-69.437453
  0
LINE
  8
ボルト／ビス
  6
CONTINUOUS
 10
46.769858
 20
-69.437453
 11
46.036525
 21
-69.437453
  0
LINE
  8
ボルト／ビス
  6
CONTINUOUS
 10
46.703192
 20
-69.337453
 11
46.703192
 21
-69.370788
  0
LINE
  8
ボルト／ビス
  6
CONTINUOUS
 10
46.703192
 20
-69.337453
 11
46.103192
 21
-69.337453
  0
LINE
  8
ボルト／ビス
  6
CONTINUOUS
 10
46.103192
 20
-69.337453
 11
46.103192
 21
-69.370788
  0
LINE
  8
ボルト／ビス
  6
CONTINUOUS
 62
    64
 10
46.563567
 20
-69.137453
 11
46.595643
 21
-69.149128
  0
ARC
  8
ボルト／ビス
  6
CONTINUOUS
 62
    64
 10
46.547529
 20
-69.242431
 40
0.104978
 50
90.0
 51
117.278033
  0
ARC
  8
ボルト／ビス
  6
CONTINUOUS
 62
    64
 10
46.403191
 20
-69.539855
 40
0.402402
 50
76.165015
 51
103.834998
  0
LINE
  8
ボルト／ビス
  6
CONTINUOUS
 62
    64
 10
46.242817
 20
-69.137453
 11
46.210743
 21
-69.149128
  0
ARC
  8
ボルト／ビス
  6
CONTINUOUS
 62
    64
 10
46.258853
 20
-69.242431
 40
0.104978
 50
62.721967
 51
90.0
  0
LINE
  8
ボルト／ビス
  6
CONTINUOUS
 62
    64
 10
46.563567
 20
-69.137453
 11
46.242817
 21
-69.137453
  0
LINE
  8
ボルト／ビス
  6
CONTINUOUS
 62
    64
 10
46.210743
 20
-69.149128
 11
46.210743
 21
-69.270788
  0
LINE
  8
ボルト／ビス
  6
CONTINUOUS
 62
    64
 10
46.306968
 20
-69.149128
 11
46.306968
 21
-69.270788
  0
LINE
  8
ボルト／ビス
  6
CONTINUOUS
 62
    64
 10
46.595643
 20
-69.149128
 11
46.595643
 21
-69.270788
  0
LINE
  8
ボルト／ビス
  6
CONTINUOUS
 62
    64
 10
46.499417
 20
-69.149128
 11
46.499417
 21
-69.270788
  0
LINE
  8
ボルト／ビス
  6
CONTINUOUS
 10
46.595643
 20
-69.270788
 11
46.210743
 21
-69.270788
  0
LINE
  8
ボルト／ビス
  6
CONTINUOUS
 10
46.603192
 20
-69.270788
 11
46.603192
 21
-69.337453
  0
LINE
  8
ボルト／ビス
  6
CONTINUOUS
 10
46.603192
 20
-69.270788
 11
46.203192
 21
-69.270788
  0
LINE
  8
ボルト／ビス
  6
CONTINUOUS
 10
46.203192
 20
-69.270788
 11
46.203192
 21
-69.337453
  0
ENDBLK
  0
BLOCK
  2
*DIM_0012
 70
    65
 10
0.0
 20
0.0
  0
LINE
  8
寸法
  6
CONTINUOUS
 10
50.73683
 20
-68.70412
 11
69.355302
 21
-68.70412
  0
LINE
  8
寸法
  6
CONTINUOUS
 10
52.703192
 20
-76.17062
 11
69.355302
 21
-76.17062
  0
LINE
  8
寸法
  6
CONTINUOUS
 10
69.355302
 20
-68.70412
 11
69.355302
 21
-76.17062
  0
POINT
  8
寸法
 10
69.355302
 20
-68.70412
  0
POINT
  8
寸法
 10
69.355302
 20
-76.17062
  0
TEXT
  7
TextStyle03
  8
寸法
  6
CONTINUOUS
 10
68.975
 20
-74.8875
  1
224
 40
3.0
 50
90.0
 72
     5
 11
68.975
 21
-70.0125
  0
ENDBLK
  0
BLOCK
  2
*GRP_0013
 70
    65
 10
0.0
 20
0.0
  0
INSERT
  2
M8横
  8
ゴム等
  6
CONTINUOUS
 10
-121.756185
 20
-70.297288
 41
0.033333
 42
0.033333
  0
LINE
  8
ボルト／ビス
  6
CONTINUOUS
 10
-121.622853
 20
-70.087288
 11
-121.639517
 21
-70.070622
  0
LINE
  8
ボルト／ビス
  6
CONTINUOUS
 10
-121.872853
 20
-70.070622
 11
-121.889517
 21
-70.087288
  0
LINE
  8
ボルト／ビス
  6
CONTINUOUS
 10
-121.889517
 20
-70.087288
 11
-121.622853
 21
-70.087288
  0
LINE
  8
ボルト／ビス
  6
CONTINUOUS
 10
-121.872853
 20
-70.070622
 11
-121.639517
 21
-70.070622
  0
LINE
  8
ボルト／ビス
  6
CONTINUOUS
 10
-121.639517
 20
-70.070622
 11
-121.639517
 21
-70.113952
  0
LINE
  8
ボルト／ビス
  6
CONTINUOUS
 10
-121.622853
 20
-70.087288
 11
-121.622853
 21
-70.113952
  0
LINE
  8
ボルト／ビス
  6
CONTINUOUS
 10
-121.889517
 20
-70.087288
 11
-121.889517
 21
-70.113952
  0
LINE
  8
ボルト／ビス
  6
CONTINUOUS
 10
-121.872853
 20
-70.070622
 11
-121.872853
 21
-70.113952
  0
LINE
  8
ボルト／ビス
  6
CONTINUOUS
 10
-122.122853
 20
-70.297288
 11
-121.389517
 21
-70.297288
  0
LINE
  8
ボルト／ビス
  6
CONTINUOUS
 10
-121.339517
 20
-70.337288
 11
-121.339517
 21
-70.42062
  0
LINE
  8
ボルト／ビス
  6
CONTINUOUS
 10
-121.339517
 20
-70.42062
 11
-122.172853
 21
-70.42062
  0
LINE
  8
ボルト／ビス
  6
CONTINUOUS
 10
-122.172853
 20
-70.42062
 11
-122.172853
 21
-70.337288
  0
LINE
  8
ボルト／ビス
  6
CONTINUOUS
 10
-121.339517
 20
-70.337288
 11
-122.172853
 21
-70.337288
  0
LINE
  8
ボルト／ビス
  6
CONTINUOUS
 10
-122.122853
 20
-70.297288
 11
-122.122853
 21
-70.337288
  0
LINE
  8
ボルト／ビス
  6
CONTINUOUS
 10
-121.389517
 20
-70.297288
 11
-121.389517
 21
-70.337288
  0
LINE
  8
ボルト／ビス
  6
CONTINUOUS
 10
-121.756185
 20
-70.347288
 11
-121.756185
 21
-70.297288
  0
ENDBLK
  0
BLOCK
  2
*GRP_0014
 70
    65
 10
0.0
 20
0.0
  0
LINE
  8
ボルト／ビス
  6
CONTINUOUS
 10
-121.962853
 20
-69.437453
 11
-121.962853
 21
-69.370788
  0
LINE
  8
ボルト／ビス
  6
CONTINUOUS
 10
-121.962853
 20
-69.370788
 11
-121.22952
 21
-69.370788
  0
LINE
  8
ボルト／ビス
  6
CONTINUOUS
 10
-121.22952
 20
-69.370788
 11
-121.22952
 21
-69.437453
  0
LINE
  8
ボルト／ビス
  6
CONTINUOUS
 10
-121.962853
 20
-69.437453
 11
-121.22952
 21
-69.437453
  0
LINE
  8
ボルト／ビス
  6
CONTINUOUS
 10
-121.896188
 20
-69.337453
 11
-121.896188
 21
-69.370788
  0
LINE
  8
ボルト／ビス
  6
CONTINUOUS
 10
-121.896188
 20
-69.337453
 11
-121.296188
 21
-69.337453
  0
LINE
  8
ボルト／ビス
  6
CONTINUOUS
 10
-121.296188
 20
-69.337453
 11
-121.296188
 21
-69.370788
  0
LINE
  8
ボルト／ビス
  6
CONTINUOUS
 62
    64
 10
-121.756563
 20
-69.137453
 11
-121.788638
 21
-69.149128
  0
ARC
  8
ボルト／ビス
  6
CONTINUOUS
 62
    64
 10
-121.740525
 20
-69.242431
 40
0.104978
 50
62.721967
 51
90.0
  0
ARC
  8
ボルト／ビス
  6
CONTINUOUS
 62
    64
 10
-121.596188
 20
-69.539855
 40
0.402402
 50
76.165002
 51
103.834985
  0
LINE
  8
ボルト／ビス
  6
CONTINUOUS
 62
    64
 10
-121.435812
 20
-69.137453
 11
-121.403737
 21
-69.149128
  0
ARC
  8
ボルト／ビス
  6
CONTINUOUS
 62
    64
 10
-121.45185
 20
-69.242431
 40
0.104978
 50
90.0
 51
117.278033
  0
LINE
  8
ボルト／ビス
  6
CONTINUOUS
 62
    64
 10
-121.756563
 20
-69.137453
 11
-121.435812
 21
-69.137453
  0
LINE
  8
ボルト／ビス
  6
CONTINUOUS
 62
    64
 10
-121.403737
 20
-69.149128
 11
-121.403737
 21
-69.270788
  0
LINE
  8
ボルト／ビス
  6
CONTINUOUS
 62
    64
 10
-121.499963
 20
-69.149128
 11
-121.499963
 21
-69.270788
  0
LINE
  8
ボルト／ビス
  6
CONTINUOUS
 62
    64
 10
-121.788638
 20
-69.149128
 11
-121.788638
 21
-69.270788
  0
LINE
  8
ボルト／ビス
  6
CONTINUOUS
 62
    64
 10
-121.692412
 20
-69.149128
 11
-121.692412
 21
-69.270788
  0
LINE
  8
ボルト／ビス
  6
CONTINUOUS
 10
-121.788638
 20
-69.270788
 11
-121.403737
 21
-69.270788
  0
LINE
  8
ボルト／ビス
  6
CONTINUOUS
 10
-121.796188
 20
-69.270788
 11
-121.796188
 21
-69.337453
  0
LINE
  8
ボルト／ビス
  6
CONTINUOUS
 10
-121.796188
 20
-69.270788
 11
-121.396188
 21
-69.270788
  0
LINE
  8
ボルト／ビス
  6
CONTINUOUS
 10
-121.396188
 20
-69.270788
 11
-121.396188
 21
-69.337453
  0
ENDBLK
  0
BLOCK
  2
*DIM_0015
 70
    65
 10
0.0
 20
0.0
  0
LINE
  8
寸法
  6
BYBLOCK
 62
     0
 10
-104.263165
 20
24.90653
 11
-104.263165
 21
19.995505
  0
LINE
  8
寸法
  6
BYBLOCK
 62
     0
 10
-37.596497
 20
24.90653
 11
-37.596497
 21
19.995505
  0
LINE
  8
寸法
  6
BYBLOCK
 62
     0
 10
-104.263165
 20
19.995505
 11
-37.596497
 21
19.995505
  0
POINT
  8
寸法
 62
     0
 10
-104.263165
 20
19.995505
  0
POINT
  8
寸法
 62
     0
 10
-37.596497
 20
19.995505
  0
TEXT
  7
TextStyle03
  8
寸法
  6
CONTINUOUS
 62
     0
 10
-74.20625
 20
20.35
  1
2000
 40
3.0
 72
     5
 11
-67.64375
 21
20.35
  0
ENDBLK
  0
BLOCK
  2
*DIM_0016
 70
    65
 10
0.0
 20
0.0
  0
LINE
  8
寸法
  6
BYBLOCK
 62
     0
 10
29.07017
 20
24.90653
 11
29.07017
 21
19.995505
  0
LINE
  8
寸法
  6
BYBLOCK
 62
     0
 10
-37.596497
 20
19.995505
 11
29.07017
 21
19.995505
  0
POINT
  8
寸法
 62
     0
 10
29.07017
 20
19.995505
  0
TEXT
  7
TextStyle03
  8
寸法
  6
CONTINUOUS
 62
     0
 10
-7.53125
 20
20.35
  1
2000
 40
3.0
 72
     5
 11
-0.96875
 21
20.35
  0
ENDBLK
  0
BLOCK
  2
*DIM_0017
 70
    65
 10
0.0
 20
0.0
  0
LINE
  8
寸法
  6
BYBLOCK
 62
     0
 10
49.366963
 20
67.96999
 11
56.144255
 21
67.96999
  0
LINE
  8
寸法
  6
BYBLOCK
 62
     0
 10
56.144255
 20
71.86999
 11
56.144255
 21
67.96999
  0
POINT
  8
寸法
 62
     0
 10
56.144255
 20
71.86999
  0
POINT
  8
寸法
 62
     0
 10
56.144255
 20
67.96999
  0
TEXT
  7
TextStyle03
  8
寸法
  6
CONTINUOUS
 62
     0
 10
55.825
 20
72.5375
  1
117
 40
3.0
 50
90.0
 72
     5
 11
55.825
 21
77.4125
  0
ENDBLK
  0
BLOCK
  2
*DIM_0018
 70
    65
 10
0.0
 20
0.0
  0
LINE
  8
寸法
  6
BYBLOCK
 62
     0
 10
49.366963
 20
32.43666
 11
56.144255
 21
32.43666
  0
LINE
  8
寸法
  6
BYBLOCK
 62
     0
 10
56.144255
 20
28.53666
 11
56.144255
 21
32.43666
  0
POINT
  8
寸法
 62
     0
 10
56.144255
 20
28.53666
  0
POINT
  8
寸法
 62
     0
 10
56.144255
 20
32.43666
  0
TEXT
  7
TextStyle03
  8
寸法
  6
CONTINUOUS
 62
     0
 10
56.25
 20
22.5875
  1
117
 40
3.0
 50
90.0
 72
     5
 11
56.25
 21
27.4625
  0
ENDBLK
  0
BLOCK
  2
*DIM_0019
 70
    65
 10
0.0
 20
0.0
  0
LINE
  8
寸法
  6
BYBLOCK
 62
     0
 10
-123.929832
 20
38.536658
 11
-152.874997
 21
38.536658
  0
LINE
  8
寸法
  6
BYBLOCK
 62
     0
 10
-123.929832
 20
61.869993
 11
-152.874997
 21
61.869993
  0
LINE
  8
寸法
  6
BYBLOCK
 62
     0
 10
-152.874997
 20
38.536658
 11
-152.874997
 21
61.869993
  0
POINT
  8
寸法
 62
     0
 10
-152.874997
 20
38.536658
  0
POINT
  8
寸法
 62
     0
 10
-152.874997
 20
61.869993
  0
TEXT
  7
TextStyle03
  8
寸法
  6
CONTINUOUS
 62
     0
 10
-153.175
 20
47.7375
  1
700
 40
3.0
 50
90.0
 72
     5
 11
-153.175
 21
52.6125
  0
ENDBLK
  0
BLOCK
  2
*DIM_0020
 70
    65
 10
0.0
 20
0.0
  0
LINE
  8
寸法
  6
BYBLOCK
 62
     0
 10
-112.596497
 20
74.86999
 11
-112.596497
 21
103.978062
  0
LINE
  8
寸法
  6
BYBLOCK
 62
     0
 10
-87.596497
 20
74.86999
 11
-87.596497
 21
103.978062
  0
LINE
  8
寸法
  6
BYBLOCK
 62
     0
 10
-112.596497
 20
103.978062
 11
-87.596497
 21
103.978062
  0
POINT
  8
寸法
 62
     0
 10
-112.596497
 20
103.978062
  0
POINT
  8
寸法
 62
     0
 10
-87.596497
 20
103.978062
  0
TEXT
  7
TextStyle03
  8
寸法
  6
CONTINUOUS
 62
     0
 10
-102.5375
 20
104.325
  1
750
 40
3.0
 72
     5
 11
-97.6625
 21
104.325
  0
ENDBLK
  0
BLOCK
  2
*DIM_0021
 70
    65
 10
0.0
 20
0.0
  0
LINE
  8
寸法
  6
BYBLOCK
 62
     0
 10
-62.596497
 20
74.86999
 11
-62.596497
 21
103.978062
  0
LINE
  8
寸法
  6
BYBLOCK
 62
     0
 10
-87.596497
 20
103.978062
 11
-62.596497
 21
103.978062
  0
POINT
  8
寸法
 62
     0
 10
-62.596497
 20
103.978062
  0
TEXT
  7
TextStyle03
  8
寸法
  6
CONTINUOUS
 62
     0
 10
-77.5375
 20
104.325
  1
750
 40
3.0
 72
     5
 11
-72.6625
 21
104.325
  0
ENDBLK
  0
BLOCK
  2
*DIM_0022
 70
    65
 10
0.0
 20
0.0
  0
LINE
  8
寸法
  6
BYBLOCK
 62
     0
 10
-37.596497
 20
74.86999
 11
-37.596497
 21
103.978062
  0
LINE
  8
寸法
  6
BYBLOCK
 62
     0
 10
-62.596497
 20
103.978062
 11
-37.596497
 21
103.978062
  0
POINT
  8
寸法
 62
     0
 10
-37.596497
 20
103.978062
  0
TEXT
  7
TextStyle03
  8
寸法
  6
CONTINUOUS
 62
     0
 10
-52.5375
 20
104.325
  1
750
 40
3.0
 72
     5
 11
-47.6625
 21
104.325
  0
ENDBLK
  0
BLOCK
  2
*DIM_0023
 70
    65
 10
0.0
 20
0.0
  0
LINE
  8
寸法
  6
BYBLOCK
 62
     0
 10
-12.596497
 20
74.86999
 11
-12.596497
 21
103.978062
  0
LINE
  8
寸法
  6
BYBLOCK
 62
     0
 10
-37.596497
 20
103.978062
 11
-12.596497
 21
103.978062
  0
POINT
  8
寸法
 62
     0
 10
-12.596497
 20
103.978062
  0
TEXT
  7
TextStyle03
  8
寸法
  6
CONTINUOUS
 62
     0
 10
-27.5375
 20
104.325
  1
750
 40
3.0
 72
     5
 11
-22.6625
 21
104.325
  0
ENDBLK
  0
BLOCK
  2
*DIM_0024
 70
    65
 10
0.0
 20
0.0
  0
LINE
  8
寸法
  6
BYBLOCK
 62
     0
 10
12.403502
 20
74.86999
 11
12.403502
 21
103.978062
  0
LINE
  8
寸法
  6
BYBLOCK
 62
     0
 10
-12.596497
 20
103.978062
 11
12.403502
 21
103.978062
  0
POINT
  8
寸法
 62
     0
 10
12.403502
 20
103.978062
  0
TEXT
  7
TextStyle03
  8
寸法
  6
CONTINUOUS
 62
     0
 10
-2.5375
 20
104.325
  1
750
 40
3.0
 72
     5
 11
2.3375
 21
104.325
  0
ENDBLK
  0
BLOCK
  2
*DIM_0025
 70
    65
 10
0.0
 20
0.0
  0
LINE
  8
寸法
  6
BYBLOCK
 62
     0
 10
37.403502
 20
74.86999
 11
37.403502
 21
103.978062
  0
LINE
  8
寸法
  6
BYBLOCK
 62
     0
 10
12.403502
 20
103.978062
 11
37.403502
 21
103.978062
  0
POINT
  8
寸法
 62
     0
 10
37.403502
 20
103.978062
  0
TEXT
  7
TextStyle03
  8
寸法
  6
CONTINUOUS
 62
     0
 10
22.4625
 20
104.325
  1
750
 40
3.0
 72
     5
 11
27.3375
 21
104.325
  0
ENDBLK
  0
BLOCK
  2
*GRP_0026
 70
    65
 10
0.0
 20
0.0
  0
LINE
  8
型材断面
  6
DOT
 10
47.403498
 20
-53.270785
 11
47.353498
 21
-53.270785
  0
LINE
  8
型材断面
  6
DOT
 10
45.73683
 20
-52.770785
 11
45.73683
 21
-52.037453
  0
LINE
  8
型材断面
  6
DOT
 10
45.786525
 20
-53.753953
 11
47.233193
 21
-53.753953
  0
LINE
  8
型材断面
  6
DOT
 10
47.233193
 20
-54.203953
 11
47.233193
 21
-53.753953
  0
LINE
  8
型材断面
  6
DOT
 62
    47
 10
47.966525
 20
-56.876645
 11
48.016525
 21
-56.876645
  0
LINE
  8
型材断面
  6
DOT
 62
    47
 10
48.016525
 20
-56.876645
 11
48.016525
 21
-56.54331
  0
LINE
  8
型材断面
  6
DOT
 62
    47
 10
48.016525
 20
-56.54331
 11
47.233193
 21
-56.44331
  0
LINE
  8
型材断面
  6
DOT
 62
    47
 10
47.233193
 20
-56.037285
 11
47.233193
 21
-56.44331
  0
LINE
  8
型材断面
  6
DOT
 62
    47
 10
47.703192
 20
-56.037285
 11
47.703192
 21
-54.203953
  0
LINE
  8
型材断面
  6
DOT
 10
47.403498
 20
-53.270785
 11
47.403498
 21
-52.770785
  0
LINE
  8
型材断面
  6
DOT
 10
45.786525
 20
-53.753953
 11
45.786525
 21
-53.270785
  0
INSERT
  2
*GRP_0027
  8
型材断面
  6
DOT
 10
0.0
 20
0.0
  0
INSERT
  2
*GRP_0028
  8
型材断面
  6
DOT
 10
0.0
 20
0.0
  0
LINE
  8
型材断面
  6
DOT
 10
48.016525
 20
-56.876645
 11
-37.596497
 21
-56.876645
  0
LINE
  8
型材断面
  6
DOT
 10
48.016525
 20
-56.54331
 11
-37.596497
 21
-56.54331
  0
LINE
  8
型材断面
  6
DOT
 10
47.233193
 20
-56.44331
 11
-37.596497
 21
-56.44331
  0
LINE
  8
型材断面
  6
DOT
 10
47.703192
 20
-56.037285
 11
-37.596497
 21
-56.037285
  0
LINE
  8
型材断面
  6
DOT
 10
47.403498
 20
-53.270785
 11
-37.596497
 21
-53.270785
  0
LINE
  8
型材断面
  6
DOT
 10
45.73683
 20
-52.037453
 11
-37.596497
 21
-52.037453
  0
LINE
  8
型材断面
  6
DOT
 10
47.403498
 20
-52.770785
 11
-37.596497
 21
-52.770785
  0
LINE
  8
型材断面
  6
DOT
 10
47.233193
 20
-53.753953
 11
-37.596497
 21
-53.753953
  0
LINE
  8
型材断面
  6
DOT
 10
47.703192
 20
-54.203953
 11
-37.596497
 21
-54.203953
  0
LINE
  8
型材断面
  6
DOT
 10
-122.596493
 20
-53.270785
 11
-122.546493
 21
-53.270785
  0
LINE
  8
型材断面
  6
DOT
 10
-120.929825
 20
-52.770785
 11
-120.929825
 21
-52.037453
  0
LINE
  8
型材断面
  6
DOT
 10
-120.97952
 20
-53.753953
 11
-122.426188
 21
-53.753953
  0
LINE
  8
型材断面
  6
DOT
 10
-122.426188
 20
-54.203953
 11
-122.426188
 21
-53.753953
  0
LINE
  8
型材断面
  6
DOT
 62
    47
 10
-123.15952
 20
-56.876645
 11
-123.20952
 21
-56.876645
  0
LINE
  8
型材断面
  6
DOT
 62
    47
 10
-123.20952
 20
-56.876645
 11
-123.20952
 21
-56.54331
  0
LINE
  8
型材断面
  6
DOT
 62
    47
 10
-123.20952
 20
-56.54331
 11
-122.426188
 21
-56.44331
  0
LINE
  8
型材断面
  6
DOT
 62
    47
 10
-122.426188
 20
-56.037285
 11
-122.426188
 21
-56.44331
  0
LINE
  8
型材断面
  6
DOT
 62
    47
 10
-122.896188
 20
-56.037285
 11
-122.896188
 21
-54.203953
  0
LINE
  8
型材断面
  6
DOT
 10
-122.596493
 20
-53.270785
 11
-122.596493
 21
-52.770785
  0
LINE
  8
型材断面
  6
DOT
 10
-120.97952
 20
-53.753953
 11
-120.97952
 21
-53.270785
  0
INSERT
  2
*GRP_0029
  8
型材断面
  6
DOT
 10
0.0
 20
0.0
  0
INSERT
  2
*GRP_0030
  8
型材断面
  6
DOT
 10
0.0
 20
0.0
  0
LINE
  8
型材断面
  6
DOT
 10
-123.20952
 20
-56.876645
 11
-37.596497
 21
-56.876645
  0
LINE
  8
型材断面
  6
DOT
 10
-123.20952
 20
-56.54331
 11
-37.596497
 21
-56.54331
  0
LINE
  8
型材断面
  6
DOT
 10
-122.426188
 20
-56.44331
 11
-37.596497
 21
-56.44331
  0
LINE
  8
型材断面
  6
DOT
 10
-122.896188
 20
-56.037285
 11
-37.596497
 21
-56.037285
  0
LINE
  8
型材断面
  6
DOT
 10
-122.596493
 20
-53.270785
 11
-37.596497
 21
-53.270785
  0
LINE
  8
型材断面
  6
DOT
 10
-120.929825
 20
-52.037453
 11
-37.596497
 21
-52.037453
  0
LINE
  8
型材断面
  6
DOT
 10
-122.596493
 20
-52.770785
 11
-37.596497
 21
-52.770785
  0
LINE
  8
型材断面
  6
DOT
 10
-122.426188
 20
-53.753953
 11
-37.596497
 21
-53.753953
  0
LINE
  8
型材断面
  6
DOT
 10
-122.896188
 20
-54.203953
 11
-37.596497
 21
-54.203953
  0
ENDBLK
  0
BLOCK
  2
*GRP_0027
 70
    65
 10
0.0
 20
0.0
  0
INSERT
  2
M8横
  8
ゴム等
  6
DOT
 10
46.56319
 20
-53.63062
 50
180.0
 41
0.033333
 42
-0.033333
  0
LINE
  8
ボルト／ビス
  6
DOT
 10
46.429858
 20
-53.42062
 11
46.446522
 21
-53.403955
  0
LINE
  8
ボルト／ビス
  6
DOT
 10
46.679858
 20
-53.403955
 11
46.696522
 21
-53.42062
  0
LINE
  8
ボルト／ビス
  6
DOT
 10
46.696522
 20
-53.42062
 11
46.429858
 21
-53.42062
  0
LINE
  8
ボルト／ビス
  6
DOT
 10
46.679858
 20
-53.403955
 11
46.446522
 21
-53.403955
  0
LINE
  8
ボルト／ビス
  6
DOT
 10
46.446522
 20
-53.403955
 11
46.446522
 21
-53.447285
  0
LINE
  8
ボルト／ビス
  6
DOT
 10
46.429858
 20
-53.42062
 11
46.429858
 21
-53.447285
  0
LINE
  8
ボルト／ビス
  6
DOT
 10
46.696522
 20
-53.42062
 11
46.696522
 21
-53.447285
  0
LINE
  8
ボルト／ビス
  6
DOT
 10
46.679858
 20
-53.403955
 11
46.679858
 21
-53.447285
  0
LINE
  8
ボルト／ビス
  6
DOT
 10
46.929858
 20
-53.63062
 11
46.196522
 21
-53.63062
  0
LINE
  8
ボルト／ビス
  6
DOT
 10
46.146522
 20
-53.67062
 11
46.146522
 21
-53.753953
  0
LINE
  8
ボルト／ビス
  6
DOT
 10
46.146522
 20
-53.753953
 11
46.979858
 21
-53.753953
  0
LINE
  8
ボルト／ビス
  6
DOT
 10
46.979858
 20
-53.753953
 11
46.979858
 21
-53.67062
  0
LINE
  8
ボルト／ビス
  6
DOT
 10
46.146522
 20
-53.67062
 11
46.979858
 21
-53.67062
  0
LINE
  8
ボルト／ビス
  6
DOT
 10
46.929858
 20
-53.63062
 11
46.929858
 21
-53.67062
  0
LINE
  8
ボルト／ビス
  6
DOT
 10
46.196522
 20
-53.63062
 11
46.196522
 21
-53.67062
  0
LINE
  8
ボルト／ビス
  6
DOT
 10
46.56319
 20
-53.68062
 11
46.56319
 21
-53.63062
  0
ENDBLK
  0
BLOCK
  2
*GRP_0028
 70
    65
 10
0.0
 20
0.0
  0
LINE
  8
ボルト／ビス
  6
DOT
 10
46.769858
 20
-52.770785
 11
46.769858
 21
-52.70412
  0
LINE
  8
ボルト／ビス
  6
DOT
 10
46.769858
 20
-52.70412
 11
46.036525
 21
-52.70412
  0
LINE
  8
ボルト／ビス
  6
DOT
 10
46.036525
 20
-52.70412
 11
46.036525
 21
-52.770785
  0
LINE
  8
ボルト／ビス
  6
DOT
 10
46.769858
 20
-52.770785
 11
46.036525
 21
-52.770785
  0
LINE
  8
ボルト／ビス
  6
DOT
 10
46.703192
 20
-52.670785
 11
46.703192
 21
-52.70412
  0
LINE
  8
ボルト／ビス
  6
DOT
 10
46.703192
 20
-52.670785
 11
46.103192
 21
-52.670785
  0
LINE
  8
ボルト／ビス
  6
DOT
 10
46.103192
 20
-52.670785
 11
46.103192
 21
-52.70412
  0
LINE
  8
ボルト／ビス
  6
DOT
 62
    64
 10
46.563567
 20
-52.470785
 11
46.595643
 21
-52.48246
  0
ARC
  8
ボルト／ビス
  6
DOT
 62
    64
 10
46.547529
 20
-52.575764
 40
0.104978
 50
90.0
 51
117.278033
  0
ARC
  8
ボルト／ビス
  6
DOT
 62
    64
 10
46.403191
 20
-52.873188
 40
0.402402
 50
76.165015
 51
103.834998
  0
LINE
  8
ボルト／ビス
  6
DOT
 62
    64
 10
46.242817
 20
-52.470785
 11
46.210743
 21
-52.48246
  0
ARC
  8
ボルト／ビス
  6
DOT
 62
    64
 10
46.258853
 20
-52.575764
 40
0.104978
 50
62.721967
 51
90.0
  0
LINE
  8
ボルト／ビス
  6
DOT
 62
    64
 10
46.563567
 20
-52.470785
 11
46.242817
 21
-52.470785
  0
LINE
  8
ボルト／ビス
  6
DOT
 62
    64
 10
46.210743
 20
-52.48246
 11
46.210743
 21
-52.60412
  0
LINE
  8
ボルト／ビス
  6
DOT
 62
    64
 10
46.306968
 20
-52.48246
 11
46.306968
 21
-52.60412
  0
LINE
  8
ボルト／ビス
  6
DOT
 62
    64
 10
46.595643
 20
-52.48246
 11
46.595643
 21
-52.60412
  0
LINE
  8
ボルト／ビス
  6
DOT
 62
    64
 10
46.499417
 20
-52.48246
 11
46.499417
 21
-52.60412
  0
LINE
  8
ボルト／ビス
  6
DOT
 10
46.595643
 20
-52.60412
 11
46.210743
 21
-52.60412
  0
LINE
  8
ボルト／ビス
  6
DOT
 10
46.603192
 20
-52.60412
 11
46.603192
 21
-52.670785
  0
LINE
  8
ボルト／ビス
  6
DOT
 10
46.603192
 20
-52.60412
 11
46.203192
 21
-52.60412
  0
LINE
  8
ボルト／ビス
  6
DOT
 10
46.203192
 20
-52.60412
 11
46.203192
 21
-52.670785
  0
ENDBLK
  0
BLOCK
  2
*GRP_0029
 70
    65
 10
0.0
 20
0.0
  0
INSERT
  2
M8横
  8
ゴム等
  6
DOT
 10
-121.756185
 20
-53.63062
 41
0.033333
 42
0.033333
  0
LINE
  8
ボルト／ビス
  6
DOT
 10
-121.622853
 20
-53.42062
 11
-121.639517
 21
-53.403955
  0
LINE
  8
ボルト／ビス
  6
DOT
 10
-121.872853
 20
-53.403955
 11
-121.889517
 21
-53.42062
  0
LINE
  8
ボルト／ビス
  6
DOT
 10
-121.889517
 20
-53.42062
 11
-121.622853
 21
-53.42062
  0
LINE
  8
ボルト／ビス
  6
DOT
 10
-121.872853
 20
-53.403955
 11
-121.639517
 21
-53.403955
  0
LINE
  8
ボルト／ビス
  6
DOT
 10
-121.639517
 20
-53.403955
 11
-121.639517
 21
-53.447285
  0
LINE
  8
ボルト／ビス
  6
DOT
 10
-121.622853
 20
-53.42062
 11
-121.622853
 21
-53.447285
  0
LINE
  8
ボルト／ビス
  6
DOT
 10
-121.889517
 20
-53.42062
 11
-121.889517
 21
-53.447285
  0
LINE
  8
ボルト／ビス
  6
DOT
 10
-121.872853
 20
-53.403955
 11
-121.872853
 21
-53.447285
  0
LINE
  8
ボルト／ビス
  6
DOT
 10
-122.122853
 20
-53.63062
 11
-121.389517
 21
-53.63062
  0
LINE
  8
ボルト／ビス
  6
DOT
 10
-121.339517
 20
-53.67062
 11
-121.339517
 21
-53.753953
  0
LINE
  8
ボルト／ビス
  6
DOT
 10
-121.339517
 20
-53.753953
 11
-122.172853
 21
-53.753953
  0
LINE
  8
ボルト／ビス
  6
DOT
 10
-122.172853
 20
-53.753953
 11
-122.172853
 21
-53.67062
  0
LINE
  8
ボルト／ビス
  6
DOT
 10
-121.339517
 20
-53.67062
 11
-122.172853
 21
-53.67062
  0
LINE
  8
ボルト／ビス
  6
DOT
 10
-122.122853
 20
-53.63062
 11
-122.122853
 21
-53.67062
  0
LINE
  8
ボルト／ビス
  6
DOT
 10
-121.389517
 20
-53.63062
 11
-121.389517
 21
-53.67062
  0
LINE
  8
ボルト／ビス
  6
DOT
 10
-121.756185
 20
-53.68062
 11
-121.756185
 21
-53.63062
  0
ENDBLK
  0
BLOCK
  2
*GRP_0030
 70
    65
 10
0.0
 20
0.0
  0
LINE
  8
ボルト／ビス
  6
DOT
 10
-121.962853
 20
-52.770785
 11
-121.962853
 21
-52.70412
  0
LINE
  8
ボルト／ビス
  6
DOT
 10
-121.962853
 20
-52.70412
 11
-121.22952
 21
-52.70412
  0
LINE
  8
ボルト／ビス
  6
DOT
 10
-121.22952
 20
-52.70412
 11
-121.22952
 21
-52.770785
  0
LINE
  8
ボルト／ビス
  6
DOT
 10
-121.962853
 20
-52.770785
 11
-121.22952
 21
-52.770785
  0
LINE
  8
ボルト／ビス
  6
DOT
 10
-121.896188
 20
-52.670785
 11
-121.896188
 21
-52.70412
  0
LINE
  8
ボルト／ビス
  6
DOT
 10
-121.896188
 20
-52.670785
 11
-121.296188
 21
-52.670785
  0
LINE
  8
ボルト／ビス
  6
DOT
 10
-121.296188
 20
-52.670785
 11
-121.296188
 21
-52.70412
  0
LINE
  8
ボルト／ビス
  6
DOT
 62
    64
 10
-121.756563
 20
-52.470785
 11
-121.788638
 21
-52.48246
  0
ARC
  8
ボルト／ビス
  6
DOT
 62
    64
 10
-121.740525
 20
-52.575764
 40
0.104978
 50
62.721967
 51
90.0
  0
ARC
  8
ボルト／ビス
  6
DOT
 62
    64
 10
-121.596188
 20
-52.873188
 40
0.402402
 50
76.165002
 51
103.834985
  0
LINE
  8
ボルト／ビス
  6
DOT
 62
    64
 10
-121.435812
 20
-52.470785
 11
-121.403737
 21
-52.48246
  0
ARC
  8
ボルト／ビス
  6
DOT
 62
    64
 10
-121.45185
 20
-52.575764
 40
0.104978
 50
90.0
 51
117.278033
  0
LINE
  8
ボルト／ビス
  6
DOT
 62
    64
 10
-121.756563
 20
-52.470785
 11
-121.435812
 21
-52.470785
  0
LINE
  8
ボルト／ビス
  6
DOT
 62
    64
 10
-121.403737
 20
-52.48246
 11
-121.403737
 21
-52.60412
  0
LINE
  8
ボルト／ビス
  6
DOT
 62
    64
 10
-121.499963
 20
-52.48246
 11
-121.499963
 21
-52.60412
  0
LINE
  8
ボルト／ビス
  6
DOT
 62
    64
 10
-121.788638
 20
-52.48246
 11
-121.788638
 21
-52.60412
  0
LINE
  8
ボルト／ビス
  6
DOT
 62
    64
 10
-121.692412
 20
-52.48246
 11
-121.692412
 21
-52.60412
  0
LINE
  8
ボルト／ビス
  6
DOT
 10
-121.788638
 20
-52.60412
 11
-121.403737
 21
-52.60412
  0
LINE
  8
ボルト／ビス
  6
DOT
 10
-121.796188
 20
-52.60412
 11
-121.796188
 21
-52.670785
  0
LINE
  8
ボルト／ビス
  6
DOT
 10
-121.796188
 20
-52.60412
 11
-121.396188
 21
-52.60412
  0
LINE
  8
ボルト／ビス
  6
DOT
 10
-121.396188
 20
-52.60412
 11
-121.396188
 21
-52.670785
  0
ENDBLK
  0
BLOCK
  2
*DIM_0031
 70
    65
 10
0.0
 20
0.0
  0
LINE
  8
寸法
  6
CONTINUOUS
 10
50.73683
 20
-68.70412
 11
69.355302
 21
-68.70412
  0
LINE
  8
寸法
  6
CONTINUOUS
 10
50.73683
 20
-52.037453
 11
69.355302
 21
-52.037453
  0
LINE
  8
寸法
  6
CONTINUOUS
 10
69.355302
 20
-68.70412
 11
69.355302
 21
-52.037453
  0
POINT
  8
寸法
 10
69.355302
 20
-68.70412
  0
POINT
  8
寸法
 10
69.355302
 20
-52.037453
  0
TEXT
  7
TextStyle03
  8
寸法
  6
CONTINUOUS
 10
72.35
 20
-69.46875
  1
上昇452以上
 40
3.0
 50
90.0
 72
     5
 11
72.35
 21
-51.28125
  0
ENDBLK
  0
BLOCK
  2
*DIM_0032
 70
    65
 10
0.0
 20
0.0
  0
LINE
  8
寸法
  6
CONTINUOUS
 10
48.016525
 20
-68.209977
 11
48.016525
 21
-32.437345
  0
LINE
  8
寸法
  6
CONTINUOUS
 10
45.73683
 20
-32.437345
 11
48.016525
 21
-32.437345
  0
POINT
  8
寸法
 10
45.73683
 20
-32.437345
  0
POINT
  8
寸法
 10
48.016525
 20
-32.437345
  0
TEXT
  7
TextStyle03
  8
寸法
  6
CONTINUOUS
 10
50.34375
 20
-32.075
  1
68.4
 40
3.0
 72
     5
 11
56.90625
 21
-32.075
  0
ENDBLK
  0
BLOCK
  2
*DIM_0033
 70
    65
 10
0.0
 20
0.0
  0
LINE
  8
寸法
  6
CONTINUOUS
 10
-123.20952
 20
-68.209977
 11
-123.20952
 21
-32.437345
  0
LINE
  8
寸法
  6
CONTINUOUS
 10
-120.929825
 20
-32.437345
 11
-123.20952
 21
-32.437345
  0
POINT
  8
寸法
 10
-120.929825
 20
-32.437345
  0
POINT
  8
寸法
 10
-123.20952
 20
-32.437345
  0
TEXT
  7
TextStyle03
  8
寸法
  6
CONTINUOUS
 10
-132.10625
 20
-32.075
  1
68.4
 40
3.0
 72
     5
 11
-125.54375
 21
-32.075
  0
ENDBLK
  0
BLOCK
  2
*DIM_0034
 70
    65
 10
0.0
 20
0.0
  0
LINE
  8
寸法
  6
CONTINUOUS
 10
45.73683
 20
-32.437345
 11
-120.929825
 21
-32.437345
  0
POINT
  8
寸法
 10
45.73683
 20
-32.437345
  0
POINT
  8
寸法
 10
-120.929825
 20
-32.437345
  0
TEXT
  7
TextStyle03
  8
寸法
  6
CONTINUOUS
 10
-49.31875
 20
-32.075
  1
呼称寸法　5000
 40
3.0
 72
     5
 11
-25.88125
 21
-32.075
  0
ENDBLK
  0
BLOCK
  2
*GRP_0035
 70
    65
 10
0.0
 20
0.0
  0
LINE
  8
補助線
  6
BYBLOCK
 62
    64
 10
-117.534887
 20
-74.291733
 11
-117.658733
 21
-74.403268
  0
LINE
  8
補助線
  6
BYBLOCK
 62
    64
 10
-117.65258
 20
-74.285575
 11
-117.541043
 21
-74.409422
  0
LINE
  8
補助線
  6
BYBLOCK
 62
    64
 10
-106.819785
 20
-64.641708
 11
-106.94363
 21
-64.753243
  0
LINE
  8
補助線
  6
BYBLOCK
 62
    64
 10
-106.937475
 20
-64.63555
 11
-106.82594
 21
-64.759397
  0
LINE
  8
補助線
  6
BYBLOCK
 62
    64
 10
-96.228528
 20
-55.103218
 11
-96.104685
 21
-54.991683
  0
LINE
  8
補助線
  6
BYBLOCK
 62
    64
 10
-96.222375
 20
-54.985525
 11
-96.110837
 21
-55.109372
  0
LINE
  8
型材断面
  6
CONTINUOUS
 10
-118.402178
 20
-73.951345
 11
-118.439105
 21
-74.657485
  0
LINE
  8
型材断面
  6
CONTINUOUS
 10
-118.439105
 20
-74.657485
 11
-117.992965
 21
-75.152867
  0
LINE
  8
型材断面
  6
CONTINUOUS
 10
-117.992965
 20
-75.152867
 11
-117.286823
 21
-75.189797
  0
LINE
  8
型材断面
  6
CONTINUOUS
 10
-96.47659
 20
-54.205155
 11
-95.77045
 21
-54.242085
  0
LINE
  8
型材断面
  6
CONTINUOUS
 10
-95.77045
 20
-54.242085
 11
-95.324308
 21
-54.737465
  0
LINE
  8
型材断面
  6
CONTINUOUS
 10
-95.324308
 20
-54.737465
 11
-95.361237
 21
-55.44361
  0
LINE
  8
型材断面
  6
CONTINUOUS
 10
-117.286823
 20
-75.189797
 11
-95.361237
 21
-55.44361
  0
LINE
  8
型材断面
  6
CONTINUOUS
 10
-118.402178
 20
-73.951345
 11
-96.47659
 21
-54.205155
  0
CIRCLE
  8
ボルト／ビス
  6
CONTINUOUS
 10
-117.59681
 20
-74.3475
 40
0.250185
  0
CIRCLE
  8
ボルト／ビス
  6
CONTINUOUS
 10
-117.59681
 20
-74.3475
 40
0.301025
  0
LINE
  8
ボルト／ビス
  6
CONTINUOUS
 62
    64
 10
-117.841522
 20
-74.399545
 11
-117.764238
 21
-74.161595
  0
LINE
  8
ボルト／ビス
  6
CONTINUOUS
 62
    64
 10
-117.519525
 20
-74.10955
 11
-117.764238
 21
-74.161595
  0
LINE
  8
ボルト／ビス
  6
CONTINUOUS
 62
    64
 10
-117.674095
 20
-74.58545
 11
-117.429382
 21
-74.533405
  0
LINE
  8
ボルト／ビス
  6
CONTINUOUS
 62
    64
 10
-117.352098
 20
-74.295455
 11
-117.429382
 21
-74.533405
  0
LINE
  8
ボルト／ビス
  6
CONTINUOUS
 62
    64
 10
-117.841522
 20
-74.399545
 11
-117.674095
 21
-74.58545
  0
LINE
  8
ボルト／ビス
  6
CONTINUOUS
 62
    64
 10
-117.519525
 20
-74.10955
 11
-117.352098
 21
-74.295455
  0
CIRCLE
  8
ボルト／ビス
  6
CONTINUOUS
 62
    64
 10
-117.59681
 20
-74.3475
 40
0.216668
  0
CIRCLE
  8
ボルト／ビス
  6
CONTINUOUS
 10
-106.881707
 20
-64.697477
 40
0.250185
  0
CIRCLE
  8
ボルト／ビス
  6
CONTINUOUS
 10
-106.881707
 20
-64.697477
 40
0.301025
  0
LINE
  8
ボルト／ビス
  6
CONTINUOUS
 62
    64
 10
-107.126422
 20
-64.74952
 11
-107.049135
 21
-64.51157
  0
LINE
  8
ボルト／ビス
  6
CONTINUOUS
 62
    64
 10
-106.804422
 20
-64.459527
 11
-107.049135
 21
-64.51157
  0
LINE
  8
ボルト／ビス
  6
CONTINUOUS
 62
    64
 10
-106.958995
 20
-64.935425
 11
-106.714283
 21
-64.88338
  0
LINE
  8
ボルト／ビス
  6
CONTINUOUS
 62
    64
 10
-106.636995
 20
-64.645432
 11
-106.714283
 21
-64.88338
  0
LINE
  8
ボルト／ビス
  6
CONTINUOUS
 62
    64
 10
-107.126422
 20
-64.74952
 11
-106.958995
 21
-64.935425
  0
LINE
  8
ボルト／ビス
  6
CONTINUOUS
 62
    64
 10
-106.804422
 20
-64.459527
 11
-106.636995
 21
-64.645432
  0
CIRCLE
  8
ボルト／ビス
  6
CONTINUOUS
 62
    64
 10
-106.881707
 20
-64.697477
 40
0.216668
  0
CIRCLE
  8
ボルト／ビス
  6
CONTINUOUS
 10
-96.166608
 20
-55.04745
 40
0.250185
  0
CIRCLE
  8
ボルト／ビス
  6
CONTINUOUS
 10
-96.166608
 20
-55.04745
 40
0.301025
  0
LINE
  8
ボルト／ビス
  6
CONTINUOUS
 62
    64
 10
-96.08932
 20
-54.8095
 11
-96.334033
 21
-54.861545
  0
LINE
  8
ボルト／ビス
  6
CONTINUOUS
 62
    64
 10
-96.411318
 20
-55.099495
 11
-96.334033
 21
-54.861545
  0
LINE
  8
ボルト／ビス
  6
CONTINUOUS
 62
    64
 10
-95.921893
 20
-54.995405
 11
-95.99918
 21
-55.233355
  0
LINE
  8
ボルト／ビス
  6
CONTINUOUS
 62
    64
 10
-96.243893
 20
-55.2854
 11
-95.99918
 21
-55.233355
  0
LINE
  8
ボルト／ビス
  6
CONTINUOUS
 62
    64
 10
-96.08932
 20
-54.8095
 11
-95.921893
 21
-54.995405
  0
LINE
  8
ボルト／ビス
  6
CONTINUOUS
 62
    64
 10
-96.411318
 20
-55.099495
 11
-96.243893
 21
-55.2854
  0
CIRCLE
  8
ボルト／ビス
  6
CONTINUOUS
 62
    64
 10
-96.166608
 20
-55.04745
 40
0.216668
  0
ENDBLK
  0
BLOCK
  2
*GRP_0036
 70
    65
 10
0.0
 20
0.0
  0
LINE
  8
補助線
  6
BYBLOCK
 62
    64
 10
-96.228528
 20
-74.291733
 11
-96.104683
 21
-74.403268
  0
LINE
  8
補助線
  6
BYBLOCK
 62
    64
 10
-96.110835
 20
-74.285575
 11
-96.222372
 21
-74.409422
  0
LINE
  8
補助線
  6
BYBLOCK
 62
    64
 10
-106.94363
 20
-64.641708
 11
-106.819785
 21
-64.753243
  0
LINE
  8
補助線
  6
BYBLOCK
 62
    64
 10
-106.82594
 20
-64.63555
 11
-106.937475
 21
-64.759397
  0
LINE
  8
補助線
  6
BYBLOCK
 62
    64
 10
-117.534887
 20
-55.103218
 11
-117.65873
 21
-54.991683
  0
LINE
  8
補助線
  6
BYBLOCK
 62
    64
 10
-117.54104
 20
-54.985525
 11
-117.652578
 21
-55.109372
  0
LINE
  8
型材断面
  6
CONTINUOUS
 10
-95.361237
 20
-73.951345
 11
-95.32431
 21
-74.657485
  0
LINE
  8
型材断面
  6
CONTINUOUS
 10
-95.32431
 20
-74.657485
 11
-95.77045
 21
-75.152867
  0
LINE
  8
型材断面
  6
CONTINUOUS
 10
-95.77045
 20
-75.152867
 11
-96.476592
 21
-75.189797
  0
LINE
  8
型材断面
  6
CONTINUOUS
 10
-117.286825
 20
-54.205155
 11
-117.992965
 21
-54.242085
  0
LINE
  8
型材断面
  6
CONTINUOUS
 10
-117.992965
 20
-54.242085
 11
-118.439107
 21
-54.737465
  0
LINE
  8
型材断面
  6
CONTINUOUS
 10
-118.439107
 20
-54.737465
 11
-118.402178
 21
-55.44361
  0
LINE
  8
型材断面
  6
CONTINUOUS
 10
-96.476592
 20
-75.189797
 11
-118.402178
 21
-55.44361
  0
LINE
  8
型材断面
  6
CONTINUOUS
 10
-95.361237
 20
-73.951345
 11
-117.286825
 21
-54.205155
  0
CIRCLE
  8
ボルト／ビス
  6
CONTINUOUS
 10
-96.166605
 20
-74.3475
 40
0.250185
  0
CIRCLE
  8
ボルト／ビス
  6
CONTINUOUS
 10
-96.166605
 20
-74.3475
 40
0.301025
  0
LINE
  8
ボルト／ビス
  6
CONTINUOUS
 62
    64
 10
-95.921893
 20
-74.399545
 11
-95.999178
 21
-74.161595
  0
LINE
  8
ボルト／ビス
  6
CONTINUOUS
 62
    64
 10
-96.24389
 20
-74.10955
 11
-95.999178
 21
-74.161595
  0
LINE
  8
ボルト／ビス
  6
CONTINUOUS
 62
    64
 10
-96.08932
 20
-74.58545
 11
-96.334033
 21
-74.533405
  0
LINE
  8
ボルト／ビス
  6
CONTINUOUS
 62
    64
 10
-96.411318
 20
-74.295455
 11
-96.334033
 21
-74.533405
  0
LINE
  8
ボルト／ビス
  6
CONTINUOUS
 62
    64
 10
-95.921893
 20
-74.399545
 11
-96.08932
 21
-74.58545
  0
LINE
  8
ボルト／ビス
  6
CONTINUOUS
 62
    64
 10
-96.24389
 20
-74.10955
 11
-96.411318
 21
-74.295455
  0
CIRCLE
  8
ボルト／ビス
  6
CONTINUOUS
 62
    64
 10
-96.166605
 20
-74.3475
 40
0.216668
  0
CIRCLE
  8
ボルト／ビス
  6
CONTINUOUS
 10
-106.881707
 20
-64.697477
 40
0.250185
  0
CIRCLE
  8
ボルト／ビス
  6
CONTINUOUS
 10
-106.881707
 20
-64.697477
 40
0.301025
  0
LINE
  8
ボルト／ビス
  6
CONTINUOUS
 62
    64
 10
-106.636992
 20
-64.74952
 11
-106.71428
 21
-64.51157
  0
LINE
  8
ボルト／ビス
  6
CONTINUOUS
 62
    64
 10
-106.958993
 20
-64.459527
 11
-106.71428
 21
-64.51157
  0
LINE
  8
ボルト／ビス
  6
CONTINUOUS
 62
    64
 10
-106.80442
 20
-64.935425
 11
-107.049133
 21
-64.88338
  0
LINE
  8
ボルト／ビス
  6
CONTINUOUS
 62
    64
 10
-107.12642
 20
-64.645432
 11
-107.049133
 21
-64.88338
  0
LINE
  8
ボルト／ビス
  6
CONTINUOUS
 62
    64
 10
-106.636992
 20
-64.74952
 11
-106.80442
 21
-64.935425
  0
LINE
  8
ボルト／ビス
  6
CONTINUOUS
 62
    64
 10
-106.958993
 20
-64.459527
 11
-107.12642
 21
-64.645432
  0
CIRCLE
  8
ボルト／ビス
  6
CONTINUOUS
 62
    64
 10
-106.881707
 20
-64.697477
 40
0.216668
  0
CIRCLE
  8
ボルト／ビス
  6
CONTINUOUS
 10
-117.596807
 20
-55.04745
 40
0.250185
  0
CIRCLE
  8
ボルト／ビス
  6
CONTINUOUS
 10
-117.596807
 20
-55.04745
 40
0.301025
  0
LINE
  8
ボルト／ビス
  6
CONTINUOUS
 62
    64
 10
-117.674095
 20
-54.8095
 11
-117.429382
 21
-54.861545
  0
LINE
  8
ボルト／ビス
  6
CONTINUOUS
 62
    64
 10
-117.352098
 20
-55.099495
 11
-117.429382
 21
-54.861545
  0
LINE
  8
ボルト／ビス
  6
CONTINUOUS
 62
    64
 10
-117.841522
 20
-54.995405
 11
-117.764235
 21
-55.233355
  0
LINE
  8
ボルト／ビス
  6
CONTINUOUS
 62
    64
 10
-117.519523
 20
-55.2854
 11
-117.764235
 21
-55.233355
  0
LINE
  8
ボルト／ビス
  6
CONTINUOUS
 62
    64
 10
-117.674095
 20
-54.8095
 11
-117.841522
 21
-54.995405
  0
LINE
  8
ボルト／ビス
  6
CONTINUOUS
 62
    64
 10
-117.352098
 20
-55.099495
 11
-117.519523
 21
-55.2854
  0
CIRCLE
  8
ボルト／ビス
  6
CONTINUOUS
 62
    64
 10
-117.596807
 20
-55.04745
 40
0.216668
  0
ENDBLK
  0
BLOCK
  2
*GRP_0037
 70
    65
 10
0.0
 20
0.0
  0
LINE
  8
補助線
  6
BYBLOCK
 62
    64
 10
42.341267
 20
-74.291733
 11
42.465113
 21
-74.403268
  0
LINE
  8
補助線
  6
BYBLOCK
 62
    64
 10
42.45896
 20
-74.285575
 11
42.347422
 21
-74.409422
  0
LINE
  8
補助線
  6
BYBLOCK
 62
    64
 10
31.626165
 20
-64.641708
 11
31.75001
 21
-64.753243
  0
LINE
  8
補助線
  6
BYBLOCK
 62
    64
 10
31.743855
 20
-64.63555
 11
31.63232
 21
-64.759397
  0
LINE
  8
補助線
  6
BYBLOCK
 62
    64
 10
21.034908
 20
-55.103218
 11
20.911065
 21
-54.991683
  0
LINE
  8
補助線
  6
BYBLOCK
 62
    64
 10
21.028755
 20
-54.985525
 11
20.917217
 21
-55.109372
  0
LINE
  8
型材断面
  6
CONTINUOUS
 10
43.208557
 20
-73.951345
 11
43.245485
 21
-74.657485
  0
LINE
  8
型材断面
  6
CONTINUOUS
 10
43.245485
 20
-74.657485
 11
42.799345
 21
-75.152867
  0
LINE
  8
型材断面
  6
CONTINUOUS
 10
42.799345
 20
-75.152867
 11
42.093203
 21
-75.189797
  0
LINE
  8
型材断面
  6
CONTINUOUS
 10
21.28297
 20
-54.205155
 11
20.57683
 21
-54.242085
  0
LINE
  8
型材断面
  6
CONTINUOUS
 10
20.57683
 20
-54.242085
 11
20.130688
 21
-54.737465
  0
LINE
  8
型材断面
  6
CONTINUOUS
 10
20.130688
 20
-54.737465
 11
20.167618
 21
-55.44361
  0
LINE
  8
型材断面
  6
CONTINUOUS
 10
42.093203
 20
-75.189797
 11
20.167618
 21
-55.44361
  0
LINE
  8
型材断面
  6
CONTINUOUS
 10
43.208557
 20
-73.951345
 11
21.28297
 21
-54.205155
  0
CIRCLE
  8
ボルト／ビス
  6
CONTINUOUS
 10
42.40319
 20
-74.3475
 40
0.250185
  0
CIRCLE
  8
ボルト／ビス
  6
CONTINUOUS
 10
42.40319
 20
-74.3475
 40
0.301025
  0
LINE
  8
ボルト／ビス
  6
CONTINUOUS
 62
    64
 10
42.647903
 20
-74.399545
 11
42.570617
 21
-74.161595
  0
LINE
  8
ボルト／ビス
  6
CONTINUOUS
 62
    64
 10
42.325905
 20
-74.10955
 11
42.570617
 21
-74.161595
  0
LINE
  8
ボルト／ビス
  6
CONTINUOUS
 62
    64
 10
42.480475
 20
-74.58545
 11
42.235763
 21
-74.533405
  0
LINE
  8
ボルト／ビス
  6
CONTINUOUS
 62
    64
 10
42.158477
 20
-74.295455
 11
42.235763
 21
-74.533405
  0
LINE
  8
ボルト／ビス
  6
CONTINUOUS
 62
    64
 10
42.647903
 20
-74.399545
 11
42.480475
 21
-74.58545
  0
LINE
  8
ボルト／ビス
  6
CONTINUOUS
 62
    64
 10
42.325905
 20
-74.10955
 11
42.158477
 21
-74.295455
  0
CIRCLE
  8
ボルト／ビス
  6
CONTINUOUS
 62
    64
 10
42.40319
 20
-74.3475
 40
0.216668
  0
CIRCLE
  8
ボルト／ビス
  6
CONTINUOUS
 10
31.688088
 20
-64.697477
 40
0.250185
  0
CIRCLE
  8
ボルト／ビス
  6
CONTINUOUS
 10
31.688088
 20
-64.697477
 40
0.301025
  0
LINE
  8
ボルト／ビス
  6
CONTINUOUS
 62
    64
 10
31.932803
 20
-64.74952
 11
31.855515
 21
-64.51157
  0
LINE
  8
ボルト／ビス
  6
CONTINUOUS
 62
    64
 10
31.610802
 20
-64.459527
 11
31.855515
 21
-64.51157
  0
LINE
  8
ボルト／ビス
  6
CONTINUOUS
 62
    64
 10
31.765375
 20
-64.935425
 11
31.520663
 21
-64.88338
  0
LINE
  8
ボルト／ビス
  6
CONTINUOUS
 62
    64
 10
31.443375
 20
-64.645432
 11
31.520663
 21
-64.88338
  0
LINE
  8
ボルト／ビス
  6
CONTINUOUS
 62
    64
 10
31.932803
 20
-64.74952
 11
31.765375
 21
-64.935425
  0
LINE
  8
ボルト／ビス
  6
CONTINUOUS
 62
    64
 10
31.610802
 20
-64.459527
 11
31.443375
 21
-64.645432
  0
CIRCLE
  8
ボルト／ビス
  6
CONTINUOUS
 62
    64
 10
31.688088
 20
-64.697477
 40
0.216668
  0
CIRCLE
  8
ボルト／ビス
  6
CONTINUOUS
 10
20.972988
 20
-55.04745
 40
0.250185
  0
CIRCLE
  8
ボルト／ビス
  6
CONTINUOUS
 10
20.972988
 20
-55.04745
 40
0.301025
  0
LINE
  8
ボルト／ビス
  6
CONTINUOUS
 62
    64
 10
20.8957
 20
-54.8095
 11
21.140412
 21
-54.861545
  0
LINE
  8
ボルト／ビス
  6
CONTINUOUS
 62
    64
 10
21.217698
 20
-55.099495
 11
21.140412
 21
-54.861545
  0
LINE
  8
ボルト／ビス
  6
CONTINUOUS
 62
    64
 10
20.728272
 20
-54.995405
 11
20.80556
 21
-55.233355
  0
LINE
  8
ボルト／ビス
  6
CONTINUOUS
 62
    64
 10
21.050273
 20
-55.2854
 11
20.80556
 21
-55.233355
  0
LINE
  8
ボルト／ビス
  6
CONTINUOUS
 62
    64
 10
20.8957
 20
-54.8095
 11
20.728272
 21
-54.995405
  0
LINE
  8
ボルト／ビス
  6
CONTINUOUS
 62
    64
 10
21.217698
 20
-55.099495
 11
21.050273
 21
-55.2854
  0
CIRCLE
  8
ボルト／ビス
  6
CONTINUOUS
 62
    64
 10
20.972988
 20
-55.04745
 40
0.216668
  0
ENDBLK
  0
BLOCK
  2
*GRP_0038
 70
    65
 10
0.0
 20
0.0
  0
LINE
  8
補助線
  6
BYBLOCK
 62
    64
 10
21.034908
 20
-74.291733
 11
20.911062
 21
-74.403268
  0
LINE
  8
補助線
  6
BYBLOCK
 62
    64
 10
20.917215
 20
-74.285575
 11
21.028752
 21
-74.409422
  0
LINE
  8
補助線
  6
BYBLOCK
 62
    64
 10
31.75001
 20
-64.641708
 11
31.626165
 21
-64.753243
  0
LINE
  8
補助線
  6
BYBLOCK
 62
    64
 10
31.63232
 20
-64.63555
 11
31.743855
 21
-64.759397
  0
LINE
  8
補助線
  6
BYBLOCK
 62
    64
 10
42.341267
 20
-55.103218
 11
42.46511
 21
-54.991683
  0
LINE
  8
補助線
  6
BYBLOCK
 62
    64
 10
42.34742
 20
-54.985525
 11
42.458957
 21
-55.109372
  0
LINE
  8
型材断面
  6
CONTINUOUS
 10
20.167618
 20
-73.951345
 11
20.13069
 21
-74.657485
  0
LINE
  8
型材断面
  6
CONTINUOUS
 10
20.13069
 20
-74.657485
 11
20.57683
 21
-75.152867
  0
LINE
  8
型材断面
  6
CONTINUOUS
 10
20.57683
 20
-75.152867
 11
21.282972
 21
-75.189797
  0
LINE
  8
型材断面
  6
CONTINUOUS
 10
42.093205
 20
-54.205155
 11
42.799345
 21
-54.242085
  0
LINE
  8
型材断面
  6
CONTINUOUS
 10
42.799345
 20
-54.242085
 11
43.245487
 21
-54.737465
  0
LINE
  8
型材断面
  6
CONTINUOUS
 10
43.245487
 20
-54.737465
 11
43.208557
 21
-55.44361
  0
LINE
  8
型材断面
  6
CONTINUOUS
 10
21.282972
 20
-75.189797
 11
43.208557
 21
-55.44361
  0
LINE
  8
型材断面
  6
CONTINUOUS
 10
20.167618
 20
-73.951345
 11
42.093205
 21
-54.205155
  0
CIRCLE
  8
ボルト／ビス
  6
CONTINUOUS
 10
20.972985
 20
-74.3475
 40
0.250185
  0
CIRCLE
  8
ボルト／ビス
  6
CONTINUOUS
 10
20.972985
 20
-74.3475
 40
0.301025
  0
LINE
  8
ボルト／ビス
  6
CONTINUOUS
 62
    64
 10
20.728272
 20
-74.399545
 11
20.805558
 21
-74.161595
  0
LINE
  8
ボルト／ビス
  6
CONTINUOUS
 62
    64
 10
21.05027
 20
-74.10955
 11
20.805558
 21
-74.161595
  0
LINE
  8
ボルト／ビス
  6
CONTINUOUS
 62
    64
 10
20.8957
 20
-74.58545
 11
21.140412
 21
-74.533405
  0
LINE
  8
ボルト／ビス
  6
CONTINUOUS
 62
    64
 10
21.217698
 20
-74.295455
 11
21.140412
 21
-74.533405
  0
LINE
  8
ボルト／ビス
  6
CONTINUOUS
 62
    64
 10
20.728272
 20
-74.399545
 11
20.8957
 21
-74.58545
  0
LINE
  8
ボルト／ビス
  6
CONTINUOUS
 62
    64
 10
21.05027
 20
-74.10955
 11
21.217698
 21
-74.295455
  0
CIRCLE
  8
ボルト／ビス
  6
CONTINUOUS
 62
    64
 10
20.972985
 20
-74.3475
 40
0.216668
  0
CIRCLE
  8
ボルト／ビス
  6
CONTINUOUS
 10
31.688088
 20
-64.697477
 40
0.250185
  0
CIRCLE
  8
ボルト／ビス
  6
CONTINUOUS
 10
31.688088
 20
-64.697477
 40
0.301025
  0
LINE
  8
ボルト／ビス
  6
CONTINUOUS
 62
    64
 10
31.443373
 20
-64.74952
 11
31.52066
 21
-64.51157
  0
LINE
  8
ボルト／ビス
  6
CONTINUOUS
 62
    64
 10
31.765373
 20
-64.459527
 11
31.52066
 21
-64.51157
  0
LINE
  8
ボルト／ビス
  6
CONTINUOUS
 62
    64
 10
31.6108
 20
-64.935425
 11
31.855513
 21
-64.88338
  0
LINE
  8
ボルト／ビス
  6
CONTINUOUS
 62
    64
 10
31.9328
 20
-64.645432
 11
31.855513
 21
-64.88338
  0
LINE
  8
ボルト／ビス
  6
CONTINUOUS
 62
    64
 10
31.443373
 20
-64.74952
 11
31.6108
 21
-64.935425
  0
LINE
  8
ボルト／ビス
  6
CONTINUOUS
 62
    64
 10
31.765373
 20
-64.459527
 11
31.9328
 21
-64.645432
  0
CIRCLE
  8
ボルト／ビス
  6
CONTINUOUS
 62
    64
 10
31.688088
 20
-64.697477
 40
0.216668
  0
CIRCLE
  8
ボルト／ビス
  6
CONTINUOUS
 10
42.403188
 20
-55.04745
 40
0.250185
  0
CIRCLE
  8
ボルト／ビス
  6
CONTINUOUS
 10
42.403188
 20
-55.04745
 40
0.301025
  0
LINE
  8
ボルト／ビス
  6
CONTINUOUS
 62
    64
 10
42.480475
 20
-54.8095
 11
42.235763
 21
-54.861545
  0
LINE
  8
ボルト／ビス
  6
CONTINUOUS
 62
    64
 10
42.158477
 20
-55.099495
 11
42.235763
 21
-54.861545
  0
LINE
  8
ボルト／ビス
  6
CONTINUOUS
 62
    64
 10
42.647903
 20
-54.995405
 11
42.570615
 21
-55.233355
  0
LINE
  8
ボルト／ビス
  6
CONTINUOUS
 62
    64
 10
42.325902
 20
-55.2854
 11
42.570615
 21
-55.233355
  0
LINE
  8
ボルト／ビス
  6
CONTINUOUS
 62
    64
 10
42.480475
 20
-54.8095
 11
42.647903
 21
-54.995405
  0
LINE
  8
ボルト／ビス
  6
CONTINUOUS
 62
    64
 10
42.158477
 20
-55.099495
 11
42.325902
 21
-55.2854
  0
CIRCLE
  8
ボルト／ビス
  6
CONTINUOUS
 62
    64
 10
42.403188
 20
-55.04745
 40
0.216668
  0
ENDBLK
  0
BLOCK
  2
*GRP_0039
 70
    65
 10
0.0
 20
0.0
  0
LINE
  8
補助線
  6
BYBLOCK
 62
    64
 10
-26.94363
 20
-74.291733
 11
-26.819785
 21
-74.403268
  0
LINE
  8
補助線
  6
BYBLOCK
 62
    64
 10
-26.825937
 20
-74.285575
 11
-26.937475
 21
-74.409422
  0
LINE
  8
補助線
  6
BYBLOCK
 62
    64
 10
-37.658733
 20
-64.641708
 11
-37.534887
 21
-64.753243
  0
LINE
  8
補助線
  6
BYBLOCK
 62
    64
 10
-37.541043
 20
-64.63555
 11
-37.652578
 21
-64.759397
  0
LINE
  8
補助線
  6
BYBLOCK
 62
    64
 10
-48.24999
 20
-55.103218
 11
-48.373833
 21
-54.991683
  0
LINE
  8
補助線
  6
BYBLOCK
 62
    64
 10
-48.256142
 20
-54.985525
 11
-48.36768
 21
-55.109372
  0
LINE
  8
型材断面
  6
CONTINUOUS
 10
-26.07634
 20
-73.951345
 11
-26.039412
 21
-74.657485
  0
LINE
  8
型材断面
  6
CONTINUOUS
 10
-26.039412
 20
-74.657485
 11
-26.485552
 21
-75.152867
  0
LINE
  8
型材断面
  6
CONTINUOUS
 10
-26.485552
 20
-75.152867
 11
-27.191695
 21
-75.189797
  0
LINE
  8
型材断面
  6
CONTINUOUS
 10
-48.001927
 20
-54.205155
 11
-48.708068
 21
-54.242085
  0
LINE
  8
型材断面
  6
CONTINUOUS
 10
-48.708068
 20
-54.242085
 11
-49.15421
 21
-54.737465
  0
LINE
  8
型材断面
  6
CONTINUOUS
 10
-49.15421
 20
-54.737465
 11
-49.11728
 21
-55.44361
  0
LINE
  8
型材断面
  6
CONTINUOUS
 10
-27.191695
 20
-75.189797
 11
-49.11728
 21
-55.44361
  0
LINE
  8
型材断面
  6
CONTINUOUS
 10
-26.07634
 20
-73.951345
 11
-48.001927
 21
-54.205155
  0
CIRCLE
  8
ボルト／ビス
  6
CONTINUOUS
 10
-26.881707
 20
-74.3475
 40
0.250185
  0
CIRCLE
  8
ボルト／ビス
  6
CONTINUOUS
 10
-26.881707
 20
-74.3475
 40
0.301025
  0
LINE
  8
ボルト／ビス
  6
CONTINUOUS
 62
    64
 10
-26.636995
 20
-74.399545
 11
-26.71428
 21
-74.161595
  0
LINE
  8
ボルト／ビス
  6
CONTINUOUS
 62
    64
 10
-26.958993
 20
-74.10955
 11
-26.71428
 21
-74.161595
  0
LINE
  8
ボルト／ビス
  6
CONTINUOUS
 62
    64
 10
-26.804422
 20
-74.58545
 11
-27.049135
 21
-74.533405
  0
LINE
  8
ボルト／ビス
  6
CONTINUOUS
 62
    64
 10
-27.12642
 20
-74.295455
 11
-27.049135
 21
-74.533405
  0
LINE
  8
ボルト／ビス
  6
CONTINUOUS
 62
    64
 10
-26.636995
 20
-74.399545
 11
-26.804422
 21
-74.58545
  0
LINE
  8
ボルト／ビス
  6
CONTINUOUS
 62
    64
 10
-26.958993
 20
-74.10955
 11
-27.12642
 21
-74.295455
  0
CIRCLE
  8
ボルト／ビス
  6
CONTINUOUS
 62
    64
 10
-26.881707
 20
-74.3475
 40
0.216668
  0
CIRCLE
  8
ボルト／ビス
  6
CONTINUOUS
 10
-37.59681
 20
-64.697477
 40
0.250185
  0
CIRCLE
  8
ボルト／ビス
  6
CONTINUOUS
 10
-37.59681
 20
-64.697477
 40
0.301025
  0
LINE
  8
ボルト／ビス
  6
CONTINUOUS
 62
    64
 10
-37.352095
 20
-64.74952
 11
-37.429382
 21
-64.51157
  0
LINE
  8
ボルト／ビス
  6
CONTINUOUS
 62
    64
 10
-37.674095
 20
-64.459527
 11
-37.429382
 21
-64.51157
  0
LINE
  8
ボルト／ビス
  6
CONTINUOUS
 62
    64
 10
-37.519523
 20
-64.935425
 11
-37.764235
 21
-64.88338
  0
LINE
  8
ボルト／ビス
  6
CONTINUOUS
 62
    64
 10
-37.841522
 20
-64.645432
 11
-37.764235
 21
-64.88338
  0
LINE
  8
ボルト／ビス
  6
CONTINUOUS
 62
    64
 10
-37.352095
 20
-64.74952
 11
-37.519523
 21
-64.935425
  0
LINE
  8
ボルト／ビス
  6
CONTINUOUS
 62
    64
 10
-37.674095
 20
-64.459527
 11
-37.841522
 21
-64.645432
  0
CIRCLE
  8
ボルト／ビス
  6
CONTINUOUS
 62
    64
 10
-37.59681
 20
-64.697477
 40
0.216668
  0
CIRCLE
  8
ボルト／ビス
  6
CONTINUOUS
 10
-48.31191
 20
-55.04745
 40
0.250185
  0
CIRCLE
  8
ボルト／ビス
  6
CONTINUOUS
 10
-48.31191
 20
-55.04745
 40
0.301025
  0
LINE
  8
ボルト／ビス
  6
CONTINUOUS
 62
    64
 10
-48.389197
 20
-54.8095
 11
-48.144485
 21
-54.861545
  0
LINE
  8
ボルト／ビス
  6
CONTINUOUS
 62
    64
 10
-48.0672
 20
-55.099495
 11
-48.144485
 21
-54.861545
  0
LINE
  8
ボルト／ビス
  6
CONTINUOUS
 62
    64
 10
-48.556625
 20
-54.995405
 11
-48.479338
 21
-55.233355
  0
LINE
  8
ボルト／ビス
  6
CONTINUOUS
 62
    64
 10
-48.234625
 20
-55.2854
 11
-48.479338
 21
-55.233355
  0
LINE
  8
ボルト／ビス
  6
CONTINUOUS
 62
    64
 10
-48.389197
 20
-54.8095
 11
-48.556625
 21
-54.995405
  0
LINE
  8
ボルト／ビス
  6
CONTINUOUS
 62
    64
 10
-48.0672
 20
-55.099495
 11
-48.234625
 21
-55.2854
  0
CIRCLE
  8
ボルト／ビス
  6
CONTINUOUS
 62
    64
 10
-48.31191
 20
-55.04745
 40
0.216668
  0
ENDBLK
  0
BLOCK
  2
*GRP_0040
 70
    65
 10
0.0
 20
0.0
  0
LINE
  8
補助線
  6
BYBLOCK
 62
    64
 10
-48.24999
 20
-74.291733
 11
-48.373835
 21
-74.403268
  0
LINE
  8
補助線
  6
BYBLOCK
 62
    64
 10
-48.367682
 20
-74.285575
 11
-48.256145
 21
-74.409422
  0
LINE
  8
補助線
  6
BYBLOCK
 62
    64
 10
-37.534887
 20
-64.641708
 11
-37.658733
 21
-64.753243
  0
LINE
  8
補助線
  6
BYBLOCK
 62
    64
 10
-37.652578
 20
-64.63555
 11
-37.541043
 21
-64.759397
  0
LINE
  8
補助線
  6
BYBLOCK
 62
    64
 10
-26.94363
 20
-55.103218
 11
-26.819787
 21
-54.991683
  0
LINE
  8
補助線
  6
BYBLOCK
 62
    64
 10
-26.937478
 20
-54.985525
 11
-26.82594
 21
-55.109372
  0
LINE
  8
型材断面
  6
CONTINUOUS
 10
-49.11728
 20
-73.951345
 11
-49.154208
 21
-74.657485
  0
LINE
  8
型材断面
  6
CONTINUOUS
 10
-49.154208
 20
-74.657485
 11
-48.708068
 21
-75.152867
  0
LINE
  8
型材断面
  6
CONTINUOUS
 10
-48.708068
 20
-75.152867
 11
-48.001925
 21
-75.189797
  0
LINE
  8
型材断面
  6
CONTINUOUS
 10
-27.191693
 20
-54.205155
 11
-26.485552
 21
-54.242085
  0
LINE
  8
型材断面
  6
CONTINUOUS
 10
-26.485552
 20
-54.242085
 11
-26.03941
 21
-54.737465
  0
LINE
  8
型材断面
  6
CONTINUOUS
 10
-26.03941
 20
-54.737465
 11
-26.07634
 21
-55.44361
  0
LINE
  8
型材断面
  6
CONTINUOUS
 10
-48.001925
 20
-75.189797
 11
-26.07634
 21
-55.44361
  0
LINE
  8
型材断面
  6
CONTINUOUS
 10
-49.11728
 20
-73.951345
 11
-27.191693
 21
-54.205155
  0
CIRCLE
  8
ボルト／ビス
  6
CONTINUOUS
 10
-48.311913
 20
-74.3475
 40
0.250185
  0
CIRCLE
  8
ボルト／ビス
  6
CONTINUOUS
 10
-48.311913
 20
-74.3475
 40
0.301025
  0
LINE
  8
ボルト／ビス
  6
CONTINUOUS
 62
    64
 10
-48.556625
 20
-74.399545
 11
-48.47934
 21
-74.161595
  0
LINE
  8
ボルト／ビス
  6
CONTINUOUS
 62
    64
 10
-48.234627
 20
-74.10955
 11
-48.47934
 21
-74.161595
  0
LINE
  8
ボルト／ビス
  6
CONTINUOUS
 62
    64
 10
-48.389197
 20
-74.58545
 11
-48.144485
 21
-74.533405
  0
LINE
  8
ボルト／ビス
  6
CONTINUOUS
 62
    64
 10
-48.0672
 20
-74.295455
 11
-48.144485
 21
-74.533405
  0
LINE
  8
ボルト／ビス
  6
CONTINUOUS
 62
    64
 10
-48.556625
 20
-74.399545
 11
-48.389197
 21
-74.58545
  0
LINE
  8
ボルト／ビス
  6
CONTINUOUS
 62
    64
 10
-48.234627
 20
-74.10955
 11
-48.0672
 21
-74.295455
  0
CIRCLE
  8
ボルト／ビス
  6
CONTINUOUS
 62
    64
 10
-48.311913
 20
-74.3475
 40
0.216668
  0
CIRCLE
  8
ボルト／ビス
  6
CONTINUOUS
 10
-37.59681
 20
-64.697477
 40
0.250185
  0
CIRCLE
  8
ボルト／ビス
  6
CONTINUOUS
 10
-37.59681
 20
-64.697477
 40
0.301025
  0
LINE
  8
ボルト／ビス
  6
CONTINUOUS
 62
    64
 10
-37.841525
 20
-64.74952
 11
-37.764238
 21
-64.51157
  0
LINE
  8
ボルト／ビス
  6
CONTINUOUS
 62
    64
 10
-37.519525
 20
-64.459527
 11
-37.764238
 21
-64.51157
  0
LINE
  8
ボルト／ビス
  6
CONTINUOUS
 62
    64
 10
-37.674097
 20
-64.935425
 11
-37.429385
 21
-64.88338
  0
LINE
  8
ボルト／ビス
  6
CONTINUOUS
 62
    64
 10
-37.352098
 20
-64.645432
 11
-37.429385
 21
-64.88338
  0
LINE
  8
ボルト／ビス
  6
CONTINUOUS
 62
    64
 10
-37.841525
 20
-64.74952
 11
-37.674097
 21
-64.935425
  0
LINE
  8
ボルト／ビス
  6
CONTINUOUS
 62
    64
 10
-37.519525
 20
-64.459527
 11
-37.352098
 21
-64.645432
  0
CIRCLE
  8
ボルト／ビス
  6
CONTINUOUS
 62
    64
 10
-37.59681
 20
-64.697477
 40
0.216668
  0
CIRCLE
  8
ボルト／ビス
  6
CONTINUOUS
 10
-26.88171
 20
-55.04745
 40
0.250185
  0
CIRCLE
  8
ボルト／ビス
  6
CONTINUOUS
 10
-26.88171
 20
-55.04745
 40
0.301025
  0
LINE
  8
ボルト／ビス
  6
CONTINUOUS
 62
    64
 10
-26.804422
 20
-54.8095
 11
-27.049135
 21
-54.861545
  0
LINE
  8
ボルト／ビス
  6
CONTINUOUS
 62
    64
 10
-27.12642
 20
-55.099495
 11
-27.049135
 21
-54.861545
  0
LINE
  8
ボルト／ビス
  6
CONTINUOUS
 62
    64
 10
-26.636995
 20
-54.995405
 11
-26.714282
 21
-55.233355
  0
LINE
  8
ボルト／ビス
  6
CONTINUOUS
 62
    64
 10
-26.958995
 20
-55.2854
 11
-26.714282
 21
-55.233355
  0
LINE
  8
ボルト／ビス
  6
CONTINUOUS
 62
    64
 10
-26.804422
 20
-54.8095
 11
-26.636995
 21
-54.995405
  0
LINE
  8
ボルト／ビス
  6
CONTINUOUS
 62
    64
 10
-27.12642
 20
-55.099495
 11
-26.958995
 21
-55.2854
  0
CIRCLE
  8
ボルト／ビス
  6
CONTINUOUS
 62
    64
 10
-26.88171
 20
-55.04745
 40
0.216668
  0
ENDBLK
  0
BLOCK
  2
*DIM_0041
 70
    65
 10
0.0
 20
0.0
  0
LINE
  8
寸法
  6
CONTINUOUS
 10
129.968963
 20
-36.4855
 11
129.968963
 21
-26.388003
  0
LINE
  8
寸法
  6
CONTINUOUS
 10
162.092295
 20
-36.4855
 11
162.092295
 21
-26.388003
  0
LINE
  8
寸法
  6
CONTINUOUS
 10
129.968963
 20
-26.388003
 11
162.092295
 21
-26.388003
  0
POINT
  8
寸法
 10
129.968963
 20
-26.388003
  0
POINT
  8
寸法
 10
162.092295
 20
-26.388003
  0
TEXT
  7
TextStyle03
  8
寸法
  6
CONTINUOUS
 10
141.9
 20
-26.025
  1
963.7
 40
3.0
 72
     5
 11
150.15
 21
-26.025
  0
ENDBLK
  0
BLOCK
  2
*DIM_0042
 70
    65
 10
0.0
 20
0.0
  0
LINE
  8
寸法
  6
CONTINUOUS
 10
167.092295
 20
-41.4855
 11
176.706037
 21
-41.4855
  0
LINE
  8
寸法
  6
CONTINUOUS
 10
167.092295
 20
-84.152167
 11
176.706037
 21
-84.152167
  0
LINE
  8
寸法
  6
CONTINUOUS
 10
176.706037
 20
-41.4855
 11
176.706037
 21
-84.152167
  0
POINT
  8
寸法
 10
176.706037
 20
-41.4855
  0
POINT
  8
寸法
 10
176.706037
 20
-84.152167
  0
TEXT
  7
TextStyle03
  8
寸法
  6
CONTINUOUS
 10
176.325
 20
-66.10625
  1
1280
 40
3.0
 50
90.0
 72
     5
 11
176.325
 21
-59.54375
  0
ENDBLK
  0
BLOCK
  2
M8横
 70
    64
 10
-88.370132
 20
140.837665
  0
LINE
  8
ボルト／ビス
 10
-95.870132
 20
140.837665
 11
-80.870132
 21
140.837665
  0
LINE
  8
ボルト／ビス
 10
-80.870132
 20
145.837665
 11
-81.370132
 21
146.337665
  0
POLYLINE
  8
ボルト／ビス
 66
     1
  0
VERTEX
  8
ボルト／ビス
 10
-84.120132
 20
146.337665
  0
VERTEX
  8
ボルト／ビス
 10
-84.620132
 20
145.837665
  0
VERTEX
  8
ボルト／ビス
 10
-85.120132
 20
146.337665
  0
SEQEND
  0
POLYLINE
  8
ボルト／ビス
 66
     1
  0
VERTEX
  8
ボルト／ビス
 10
-91.620132
 20
146.337665
  0
VERTEX
  8
ボルト／ビス
 10
-92.120132
 20
145.837665
  0
VERTEX
  8
ボルト／ビス
 10
-92.620132
 20
146.337665
  0
SEQEND
  0
LINE
  8
ボルト／ビス
 10
-95.370132
 20
146.337665
 11
-95.870132
 21
145.837665
  0
LINE
  8
ボルト／ビス
 10
-95.870132
 20
140.837665
 11
-95.870132
 21
145.837665
  0
LINE
  8
ボルト／ビス
 10
-80.870132
 20
140.837665
 11
-80.870132
 21
145.837665
  0
LINE
  8
ボルト／ビス
 10
-95.370132
 20
146.337665
 11
-81.370132
 21
146.337665
  0
LINE
  8
ボルト／ビス
 10
-84.620132
 20
140.837665
 11
-84.620132
 21
145.837665
  0
LINE
  8
ボルト／ビス
 10
-92.120132
 20
140.837665
 11
-92.120132
 21
145.837665
  0
ENDBLK
  0
ENDSEC
  0
SECTION
  2
ENTITIES
  0
POLYLINE
  8
通り芯
  6
CONTINUOUS
 66
     1
 70
     1
  0
VERTEX
  8
通り芯
 10
-210.0
 20
-148.5
  0
VERTEX
  8
通り芯
 10
210.0
 20
-148.5
  0
VERTEX
  8
通り芯
 10
210.0
 20
148.5
  0
VERTEX
  8
通り芯
 10
-210.0
 20
148.5
  0
SEQEND
  0
INSERT
  2
*GRP_0001
  8
型材断面
  6
CONTINUOUS
 10
0.0
 20
0.0
  0
POLYLINE
  8
型材断面
  6
CONTINUOUS
 66
     1
 70
     1
  0
VERTEX
  8
型材断面
 10
20.695927
 20
-94.850355
  0
VERTEX
  8
型材断面
 10
-27.982748
 20
-94.850355
  0
VERTEX
  8
型材断面
 10
-27.982748
 20
-111.19502
  0
VERTEX
  8
型材断面
 10
20.695927
 20
-111.19502
  0
SEQEND
  0
LINE
  8
型材断面
  6
CONTINUOUS
 10
162.97617
 20
26.869993
 11
162.97617
 21
26.919993
  0
LINE
  8
型材断面
  6
CONTINUOUS
 10
162.47617
 20
28.536658
 11
161.742835
 21
28.536658
  0
LINE
  8
型材断面
  6
CONTINUOUS
 62
    47
 10
169.709335
 20
27.136962
 11
169.709335
 21
27.186962
  0
LINE
  8
型材断面
  6
CONTINUOUS
 62
    47
 10
169.709335
 20
27.136962
 11
169.209335
 21
27.136962
  0
LINE
  8
型材断面
  6
CONTINUOUS
 10
163.459335
 20
28.486962
 11
163.459335
 21
27.040298
  0
LINE
  8
型材断面
  6
CONTINUOUS
 10
163.909335
 20
27.040298
 11
163.459335
 21
27.040298
  0
LINE
  8
型材断面
  6
CONTINUOUS
 62
    47
 10
166.582028
 20
26.306963
 11
166.582028
 21
26.256963
  0
LINE
  8
型材断面
  6
CONTINUOUS
 62
    47
 10
166.582028
 20
26.256963
 11
166.248695
 21
26.256963
  0
LINE
  8
型材断面
  6
CONTINUOUS
 62
    47
 10
166.248695
 20
26.256963
 11
166.148695
 21
27.040298
  0
LINE
  8
型材断面
  6
CONTINUOUS
 62
    47
 10
165.74267
 20
27.040298
 11
166.148695
 21
27.040298
  0
LINE
  8
型材断面
  6
CONTINUOUS
 62
    47
 10
165.74267
 20
26.570298
 11
163.909335
 21
26.570298
  0
LINE
  8
型材断面
  6
CONTINUOUS
 10
162.97617
 20
26.869993
 11
162.47617
 21
26.869993
  0
LINE
  8
型材断面
  6
CONTINUOUS
 10
163.459335
 20
28.486962
 11
162.97617
 21
28.486962
  0
LINE
  8
型材断面
  6
CONTINUOUS
 62
    47
 10
169.209335
 20
26.570298
 11
166.582028
 21
26.570298
  0
INSERT
  2
*GRP_0002
  8
型材断面
  6
DOT
 10
0.0
 20
0.0
  0
INSERT
  2
*GRP_0003
  8
型材断面
  6
DOT
 10
0.0
 20
0.0
  0
LINE
  8
型材断面
  6
CONTINUOUS
 10
169.209335
 20
26.570298
 11
169.209335
 21
50.203325
  0
LINE
  8
型材断面
  6
CONTINUOUS
 10
169.709335
 20
27.136962
 11
169.709335
 21
50.203325
  0
LINE
  8
型材断面
  6
CONTINUOUS
 10
166.582028
 20
26.256963
 11
166.582028
 21
50.203325
  0
LINE
  8
型材断面
  6
CONTINUOUS
 10
166.248695
 20
26.256963
 11
166.248695
 21
50.203325
  0
LINE
  8
型材断面
  6
CONTINUOUS
 10
166.148695
 20
27.040298
 11
166.148695
 21
50.203325
  0
LINE
  8
型材断面
  6
CONTINUOUS
 10
165.74267
 20
26.570298
 11
165.74267
 21
50.203325
  0
LINE
  8
型材断面
  6
CONTINUOUS
 10
162.97617
 20
26.869993
 11
162.97617
 21
50.203325
  0
LINE
  8
型材断面
  6
CONTINUOUS
 10
161.742835
 20
28.536658
 11
161.742835
 21
50.203325
  0
LINE
  8
型材断面
  6
CONTINUOUS
 10
162.47617
 20
26.869993
 11
162.47617
 21
50.203325
  0
LINE
  8
型材断面
  6
CONTINUOUS
 10
163.459335
 20
27.040298
 11
163.459335
 21
50.203325
  0
LINE
  8
型材断面
  6
CONTINUOUS
 10
163.909335
 20
26.570298
 11
163.909335
 21
50.203325
  0
LINE
  8
型材断面
  6
CONTINUOUS
 10
162.97617
 20
73.53666
 11
162.97617
 21
73.48666
  0
LINE
  8
型材断面
  6
CONTINUOUS
 10
162.47617
 20
71.869993
 11
161.742835
 21
71.869993
  0
LINE
  8
型材断面
  6
CONTINUOUS
 62
    47
 10
169.709335
 20
73.269687
 11
169.709335
 21
73.219687
  0
LINE
  8
型材断面
  6
CONTINUOUS
 62
    47
 10
169.709335
 20
73.269687
 11
169.209335
 21
73.269687
  0
LINE
  8
型材断面
  6
CONTINUOUS
 10
163.459335
 20
71.919687
 11
163.459335
 21
73.366355
  0
LINE
  8
型材断面
  6
CONTINUOUS
 10
163.909335
 20
73.366355
 11
163.459335
 21
73.366355
  0
LINE
  8
型材断面
  6
CONTINUOUS
 62
    47
 10
166.582028
 20
74.099688
 11
166.582028
 21
74.149688
  0
LINE
  8
型材断面
  6
CONTINUOUS
 62
    47
 10
166.582028
 20
74.149688
 11
166.248695
 21
74.149688
  0
LINE
  8
型材断面
  6
CONTINUOUS
 62
    47
 10
166.248695
 20
74.149688
 11
166.148695
 21
73.366355
  0
LINE
  8
型材断面
  6
CONTINUOUS
 62
    47
 10
165.74267
 20
73.366355
 11
166.148695
 21
73.366355
  0
LINE
  8
型材断面
  6
CONTINUOUS
 62
    47
 10
165.74267
 20
73.836355
 11
163.909335
 21
73.836355
  0
LINE
  8
型材断面
  6
CONTINUOUS
 10
162.97617
 20
73.53666
 11
162.47617
 21
73.53666
  0
LINE
  8
型材断面
  6
CONTINUOUS
 10
163.459335
 20
71.919687
 11
162.97617
 21
71.919687
  0
LINE
  8
型材断面
  6
CONTINUOUS
 62
    47
 10
169.209335
 20
73.836355
 11
166.582028
 21
73.836355
  0
INSERT
  2
*GRP_0006
  8
型材断面
  6
DOT
 10
0.0
 20
0.0
  0
INSERT
  2
*GRP_0007
  8
型材断面
  6
DOT
 10
0.0
 20
0.0
  0
LINE
  8
型材断面
  6
CONTINUOUS
 10
169.209335
 20
73.836355
 11
169.209335
 21
50.203325
  0
LINE
  8
型材断面
  6
CONTINUOUS
 10
169.709335
 20
73.269687
 11
169.709335
 21
50.203325
  0
LINE
  8
型材断面
  6
CONTINUOUS
 10
166.582028
 20
74.149688
 11
166.582028
 21
50.203325
  0
LINE
  8
型材断面
  6
CONTINUOUS
 10
166.248695
 20
74.149688
 11
166.248695
 21
50.203325
  0
LINE
  8
型材断面
  6
CONTINUOUS
 10
166.148695
 20
73.366355
 11
166.148695
 21
50.203325
  0
LINE
  8
型材断面
  6
CONTINUOUS
 10
165.74267
 20
73.836355
 11
165.74267
 21
50.203325
  0
LINE
  8
型材断面
  6
CONTINUOUS
 10
162.97617
 20
73.53666
 11
162.97617
 21
50.203325
  0
LINE
  8
型材断面
  6
CONTINUOUS
 10
161.742835
 20
71.869993
 11
161.742835
 21
50.203325
  0
LINE
  8
型材断面
  6
CONTINUOUS
 10
162.47617
 20
73.53666
 11
162.47617
 21
50.203325
  0
LINE
  8
型材断面
  6
CONTINUOUS
 10
163.459335
 20
73.366355
 11
163.459335
 21
50.203325
  0
LINE
  8
型材断面
  6
CONTINUOUS
 10
163.909335
 20
73.836355
 11
163.909335
 21
50.203325
  0
LINE
  8
型材断面
  6
DASHDOT
 10
-37.596497
 20
-79.253555
 11
-37.596497
 21
71.869993
  0
LINE
  8
型材断面
  6
CONTINUOUS
 10
47.403498
 20
-69.937453
 11
47.353498
 21
-69.937453
  0
LINE
  8
型材断面
  6
CONTINUOUS
 10
45.73683
 20
-69.437453
 11
45.73683
 21
-68.70412
  0
LINE
  8
型材断面
  6
CONTINUOUS
 62
    47
 10
47.136525
 20
-76.67062
 11
47.086525
 21
-76.67062
  0
LINE
  8
型材断面
  6
CONTINUOUS
 62
    47
 10
47.136525
 20
-76.67062
 11
47.136525
 21
-76.17062
  0
LINE
  8
型材断面
  6
CONTINUOUS
 10
45.786525
 20
-70.42062
 11
47.233193
 21
-70.42062
  0
LINE
  8
型材断面
  6
CONTINUOUS
 10
47.233193
 20
-70.87062
 11
47.233193
 21
-70.42062
  0
LINE
  8
型材断面
  6
CONTINUOUS
 62
    47
 10
47.966525
 20
-73.543312
 11
48.016525
 21
-73.543312
  0
LINE
  8
型材断面
  6
CONTINUOUS
 62
    47
 10
48.016525
 20
-73.543312
 11
48.016525
 21
-73.209977
  0
LINE
  8
型材断面
  6
CONTINUOUS
 62
    47
 10
48.016525
 20
-73.209977
 11
47.233193
 21
-73.109977
  0
LINE
  8
型材断面
  6
CONTINUOUS
 62
    47
 10
47.233193
 20
-72.703953
 11
47.233193
 21
-73.109977
  0
LINE
  8
型材断面
  6
CONTINUOUS
 62
    47
 10
47.703192
 20
-72.703953
 11
47.703192
 21
-70.87062
  0
LINE
  8
型材断面
  6
CONTINUOUS
 10
47.403498
 20
-69.937453
 11
47.403498
 21
-69.437453
  0
LINE
  8
型材断面
  6
CONTINUOUS
 10
45.786525
 20
-70.42062
 11
45.786525
 21
-69.937453
  0
LINE
  8
型材断面
  6
CONTINUOUS
 62
    47
 10
47.703192
 20
-76.17062
 11
47.703192
 21
-73.543312
  0
INSERT
  2
*GRP_0010
  8
型材断面
  6
DOT
 10
0.0
 20
0.0
  0
INSERT
  2
*GRP_0011
  8
型材断面
  6
DOT
 10
0.0
 20
0.0
  0
LINE
  8
型材断面
  6
CONTINUOUS
 10
47.703192
 20
-76.17062
 11
-37.596497
 21
-76.17062
  0
LINE
  8
型材断面
  6
CONTINUOUS
 10
47.136525
 20
-76.67062
 11
-37.596497
 21
-76.67062
  0
LINE
  8
型材断面
  6
CONTINUOUS
 10
48.016525
 20
-73.543312
 11
-37.596497
 21
-73.543312
  0
LINE
  8
型材断面
  6
CONTINUOUS
 10
48.016525
 20
-73.209977
 11
-37.596497
 21
-73.209977
  0
LINE
  8
型材断面
  6
CONTINUOUS
 10
47.233193
 20
-73.109977
 11
-37.596497
 21
-73.109977
  0
LINE
  8
型材断面
  6
CONTINUOUS
 10
47.703192
 20
-72.703953
 11
-37.596497
 21
-72.703953
  0
LINE
  8
型材断面
  6
CONTINUOUS
 10
47.403498
 20
-69.937453
 11
-37.596497
 21
-69.937453
  0
LINE
  8
型材断面
  6
CONTINUOUS
 10
45.73683
 20
-68.70412
 11
-37.596497
 21
-68.70412
  0
LINE
  8
型材断面
  6
CONTINUOUS
 10
47.403498
 20
-69.437453
 11
-37.596497
 21
-69.437453
  0
LINE
  8
型材断面
  6
CONTINUOUS
 10
47.233193
 20
-70.42062
 11
-37.596497
 21
-70.42062
  0
LINE
  8
型材断面
  6
CONTINUOUS
 10
47.703192
 20
-70.87062
 11
-37.596497
 21
-70.87062
  0
LINE
  8
型材断面
  6
CONTINUOUS
 10
44.903498
 20
50.619993
 11
45.73683
 21
50.619993
  0
LINE
  8
型材断面
  6
CONTINUOUS
 10
44.903498
 20
49.786658
 11
45.73683
 21
49.786658
  0
LINE
  8
型材断面
  6
CONTINUOUS
 10
44.903498
 20
29.36999
 11
48.016525
 21
26.256963
  0
LINE
  8
型材断面
  6
CONTINUOUS
 10
44.903498
 20
29.36999
 11
44.903498
 21
49.786658
  0
LINE
  8
型材断面
  6
DASHDOT
 10
172.29227
 20
28.536658
 11
45.73683
 21
28.536658
  0
LINE
  8
型材断面
  6
DASHDOT
 10
45.73683
 20
-79.253555
 11
45.73683
 21
28.536658
  0
LINE
  8
型材断面
  6
CONTINUOUS
 10
44.903498
 20
71.03666
 11
48.016525
 21
74.149688
  0
LINE
  8
型材断面
  6
CONTINUOUS
 10
44.903498
 20
50.619993
 11
44.903498
 21
71.03666
  0
LINE
  8
型材断面
  6
DASHDOT
 10
172.29227
 20
71.869993
 11
45.73683
 21
71.869993
  0
LINE
  8
型材断面
  6
CONTINUOUS
 10
45.73683
 20
28.536658
 11
45.73683
 21
71.869993
  0
LINE
  8
型材断面
  6
CONTINUOUS
 10
47.703192
 20
26.570295
 11
47.703192
 21
73.836355
  0
LINE
  8
型材断面
  6
CONTINUOUS
 10
48.016525
 20
26.256963
 11
48.016525
 21
74.149688
  0
LINE
  8
型材断面
  6
CONTINUOUS
 10
47.403498
 20
26.86999
 11
47.403498
 21
73.53666
  0
LINE
  8
型材断面
  6
CONTINUOUS
 10
-122.596493
 20
-69.937453
 11
-122.546493
 21
-69.937453
  0
LINE
  8
型材断面
  6
CONTINUOUS
 10
-120.929825
 20
-69.437453
 11
-120.929825
 21
-68.70412
  0
LINE
  8
型材断面
  6
CONTINUOUS
 62
    47
 10
-122.32952
 20
-76.67062
 11
-122.27952
 21
-76.67062
  0
LINE
  8
型材断面
  6
CONTINUOUS
 62
    47
 10
-122.32952
 20
-76.67062
 11
-122.32952
 21
-76.17062
  0
LINE
  8
型材断面
  6
CONTINUOUS
 10
-120.97952
 20
-70.42062
 11
-122.426188
 21
-70.42062
  0
LINE
  8
型材断面
  6
CONTINUOUS
 10
-122.426188
 20
-70.87062
 11
-122.426188
 21
-70.42062
  0
LINE
  8
型材断面
  6
CONTINUOUS
 62
    47
 10
-123.15952
 20
-73.543312
 11
-123.20952
 21
-73.543312
  0
LINE
  8
型材断面
  6
CONTINUOUS
 62
    47
 10
-123.20952
 20
-73.543312
 11
-123.20952
 21
-73.209977
  0
LINE
  8
型材断面
  6
CONTINUOUS
 62
    47
 10
-123.20952
 20
-73.209977
 11
-122.426188
 21
-73.109977
  0
LINE
  8
型材断面
  6
CONTINUOUS
 62
    47
 10
-122.426188
 20
-72.703953
 11
-122.426188
 21
-73.109977
  0
LINE
  8
型材断面
  6
CONTINUOUS
 62
    47
 10
-122.896188
 20
-72.703953
 11
-122.896188
 21
-70.87062
  0
LINE
  8
型材断面
  6
CONTINUOUS
 10
-122.596493
 20
-69.937453
 11
-122.596493
 21
-69.437453
  0
LINE
  8
型材断面
  6
CONTINUOUS
 10
-120.97952
 20
-70.42062
 11
-120.97952
 21
-69.937453
  0
LINE
  8
型材断面
  6
CONTINUOUS
 62
    47
 10
-122.896188
 20
-76.17062
 11
-122.896188
 21
-73.543312
  0
INSERT
  2
*GRP_0013
  8
型材断面
  6
DOT
 10
0.0
 20
0.0
  0
INSERT
  2
*GRP_0014
  8
型材断面
  6
DOT
 10
0.0
 20
0.0
  0
LINE
  8
型材断面
  6
CONTINUOUS
 10
-122.896188
 20
-76.17062
 11
-37.596497
 21
-76.17062
  0
LINE
  8
型材断面
  6
CONTINUOUS
 10
-122.32952
 20
-76.67062
 11
-37.596497
 21
-76.67062
  0
LINE
  8
型材断面
  6
CONTINUOUS
 10
-123.20952
 20
-73.543312
 11
-37.596497
 21
-73.543312
  0
LINE
  8
型材断面
  6
CONTINUOUS
 10
-123.20952
 20
-73.209977
 11
-37.596497
 21
-73.209977
  0
LINE
  8
型材断面
  6
CONTINUOUS
 10
-122.426188
 20
-73.109977
 11
-37.596497
 21
-73.109977
  0
LINE
  8
型材断面
  6
CONTINUOUS
 10
-122.896188
 20
-72.703953
 11
-37.596497
 21
-72.703953
  0
LINE
  8
型材断面
  6
CONTINUOUS
 10
-122.596493
 20
-69.937453
 11
-37.596497
 21
-69.937453
  0
LINE
  8
型材断面
  6
CONTINUOUS
 10
-120.929825
 20
-68.70412
 11
-37.596497
 21
-68.70412
  0
LINE
  8
型材断面
  6
CONTINUOUS
 10
-122.596493
 20
-69.437453
 11
-37.596497
 21
-69.437453
  0
LINE
  8
型材断面
  6
CONTINUOUS
 10
-122.426188
 20
-70.42062
 11
-37.596497
 21
-70.42062
  0
LINE
  8
型材断面
  6
CONTINUOUS
 10
-122.896188
 20
-70.87062
 11
-37.596497
 21
-70.87062
  0
LINE
  8
型材断面
  6
CONTINUOUS
 10
-120.096493
 20
49.786658
 11
-120.929825
 21
49.786658
  0
LINE
  8
型材断面
  6
CONTINUOUS
 10
-120.096493
 20
50.619993
 11
-120.929825
 21
50.619993
  0
LINE
  8
型材断面
  6
DASHDOT
 10
172.29227
 20
50.203325
 11
-120.929825
 21
50.203325
  0
LINE
  8
型材断面
  6
CONTINUOUS
 10
-120.096493
 20
29.36999
 11
-123.20952
 21
26.256963
  0
LINE
  8
型材断面
  6
CONTINUOUS
 10
-120.096493
 20
29.36999
 11
-120.096493
 21
49.786658
  0
LINE
  8
型材断面
  6
DASHDOT
 10
-120.929825
 20
-79.253555
 11
-120.929825
 21
28.536658
  0
LINE
  8
型材断面
  6
CONTINUOUS
 10
-120.096493
 20
71.03666
 11
-123.20952
 21
74.149688
  0
LINE
  8
型材断面
  6
CONTINUOUS
 10
-120.096493
 20
50.619993
 11
-120.096493
 21
71.03666
  0
LINE
  8
型材断面
  6
CONTINUOUS
 10
-120.929825
 20
28.536658
 11
-120.929825
 21
71.869993
  0
LINE
  8
型材断面
  6
CONTINUOUS
 10
-122.896188
 20
26.570295
 11
-122.896188
 21
73.836355
  0
LINE
  8
型材断面
  6
CONTINUOUS
 10
-123.20952
 20
26.256963
 11
-123.20952
 21
74.149688
  0
LINE
  8
型材断面
  6
CONTINUOUS
 10
-122.596493
 20
26.86999
 11
-122.596493
 21
73.53666
  0
LINE
  8
型材断面
  6
CONTINUOUS
 10
45.73683
 20
28.536658
 11
-120.929825
 21
28.536658
  0
LINE
  8
型材断面
  6
CONTINUOUS
 10
47.703192
 20
26.570295
 11
-122.896188
 21
26.570295
  0
LINE
  8
型材断面
  6
CONTINUOUS
 10
48.016525
 20
26.256963
 11
-123.20952
 21
26.256963
  0
LINE
  8
型材断面
  6
CONTINUOUS
 10
47.403498
 20
26.86999
 11
-122.596493
 21
26.86999
  0
LINE
  8
型材断面
  6
CONTINUOUS
 10
45.73683
 20
71.869993
 11
-120.929825
 21
71.869993
  0
LINE
  8
型材断面
  6
CONTINUOUS
 10
47.703192
 20
73.836355
 11
-122.896188
 21
73.836355
  0
LINE
  8
型材断面
  6
CONTINUOUS
 10
48.016525
 20
74.149688
 11
-123.20952
 21
74.149688
  0
LINE
  8
型材断面
  6
CONTINUOUS
 10
47.403498
 20
73.53666
 11
-122.596493
 21
73.53666
  0
LINE
  8
型材断面
  6
CONTINUOUS
 10
-103.948495
 20
28.536658
 11
-103.948495
 21
29.36999
  0
LINE
  8
型材断面
  6
CONTINUOUS
 10
-104.78183
 20
28.536658
 11
-104.78183
 21
29.36999
  0
LINE
  8
型材断面
  6
CONTINUOUS
 10
-120.096493
 20
29.36999
 11
-104.78183
 21
29.36999
  0
LINE
  8
型材断面
  6
CONTINUOUS
 10
-70.649165
 20
28.536658
 11
-70.649165
 21
29.36999
  0
LINE
  8
型材断面
  6
CONTINUOUS
 10
-71.4825
 20
28.536658
 11
-71.4825
 21
29.36999
  0
LINE
  8
型材断面
  6
CONTINUOUS
 10
-103.948495
 20
29.36999
 11
-71.4825
 21
29.36999
  0
LINE
  8
型材断面
  6
CONTINUOUS
 10
-37.17983
 20
28.536658
 11
-37.17983
 21
29.36999
  0
LINE
  8
型材断面
  6
CONTINUOUS
 10
-38.013165
 20
28.536658
 11
-38.013165
 21
29.36999
  0
LINE
  8
型材断面
  6
CONTINUOUS
 10
-70.649165
 20
29.36999
 11
-38.013165
 21
29.36999
  0
LINE
  8
型材断面
  6
CONTINUOUS
 10
28.7555
 20
28.536658
 11
28.7555
 21
29.36999
  0
LINE
  8
型材断面
  6
CONTINUOUS
 10
29.588835
 20
28.536658
 11
29.588835
 21
29.36999
  0
LINE
  8
型材断面
  6
CONTINUOUS
 10
44.903498
 20
29.36999
 11
29.588835
 21
29.36999
  0
LINE
  8
型材断面
  6
CONTINUOUS
 10
-4.54383
 20
28.536658
 11
-4.54383
 21
29.36999
  0
LINE
  8
型材断面
  6
CONTINUOUS
 10
-3.710495
 20
28.536658
 11
-3.710495
 21
29.36999
  0
LINE
  8
型材断面
  6
CONTINUOUS
 10
28.7555
 20
29.36999
 11
-3.710495
 21
29.36999
  0
LINE
  8
型材断面
  6
CONTINUOUS
 10
-37.17983
 20
29.36999
 11
-4.54383
 21
29.36999
  0
LINE
  8
型材断面
  6
CONTINUOUS
 10
-103.948495
 20
71.869993
 11
-103.948495
 21
71.03666
  0
LINE
  8
型材断面
  6
CONTINUOUS
 10
-104.78183
 20
71.869993
 11
-104.78183
 21
71.03666
  0
LINE
  8
型材断面
  6
CONTINUOUS
 10
-120.096493
 20
71.03666
 11
-104.78183
 21
71.03666
  0
LINE
  8
型材断面
  6
CONTINUOUS
 10
-70.649165
 20
71.869993
 11
-70.649165
 21
71.03666
  0
LINE
  8
型材断面
  6
CONTINUOUS
 10
-71.4825
 20
71.869993
 11
-71.4825
 21
71.03666
  0
LINE
  8
型材断面
  6
CONTINUOUS
 10
-103.948495
 20
71.03666
 11
-71.4825
 21
71.03666
  0
LINE
  8
型材断面
  6
CONTINUOUS
 10
-37.17983
 20
71.869993
 11
-37.17983
 21
71.03666
  0
LINE
  8
型材断面
  6
CONTINUOUS
 10
-38.013165
 20
71.869993
 11
-38.013165
 21
71.03666
  0
LINE
  8
型材断面
  6
CONTINUOUS
 10
-70.649165
 20
71.03666
 11
-38.013165
 21
71.03666
  0
LINE
  8
型材断面
  6
CONTINUOUS
 10
28.7555
 20
71.869993
 11
28.7555
 21
71.03666
  0
LINE
  8
型材断面
  6
CONTINUOUS
 10
29.588835
 20
71.869993
 11
29.588835
 21
71.03666
  0
LINE
  8
型材断面
  6
CONTINUOUS
 10
44.903498
 20
71.03666
 11
29.588835
 21
71.03666
  0
LINE
  8
型材断面
  6
CONTINUOUS
 10
-4.54383
 20
71.869993
 11
-4.54383
 21
71.03666
  0
LINE
  8
型材断面
  6
CONTINUOUS
 10
-3.710495
 20
71.869993
 11
-3.710495
 21
71.03666
  0
LINE
  8
型材断面
  6
CONTINUOUS
 10
28.7555
 20
71.03666
 11
-3.710495
 21
71.03666
  0
LINE
  8
型材断面
  6
CONTINUOUS
 10
-37.17983
 20
71.03666
 11
-4.54383
 21
71.03666
  0
LINE
  8
型材断面
  6
CONTINUOUS
 10
-86.5505
 20
30.203322
 11
-89.0505
 21
30.203322
  0
LINE
  8
型材断面
  6
CONTINUOUS
 10
-53.081167
 20
30.203322
 11
-55.581167
 21
30.203322
  0
LINE
  8
型材断面
  6
CONTINUOUS
 10
-86.5505
 20
70.203327
 11
-89.0505
 21
70.203327
  0
LINE
  8
型材断面
  6
CONTINUOUS
 10
-53.081167
 20
70.203327
 11
-55.581167
 21
70.203327
  0
LINE
  8
型材断面
  6
CONTINUOUS
 10
-87.5505
 20
30.203322
 11
-87.5505
 21
70.203327
  0
LINE
  8
型材断面
  6
CONTINUOUS
 10
-86.5505
 20
30.203322
 11
-86.5505
 21
70.203327
  0
LINE
  8
型材断面
  6
CONTINUOUS
 10
-89.0505
 20
30.203322
 11
-89.0505
 21
70.203327
  0
LINE
  8
型材断面
  6
CONTINUOUS
 10
-88.0505
 20
30.203322
 11
-88.0505
 21
70.203327
  0
LINE
  8
型材断面
  6
CONTINUOUS
 10
-53.081167
 20
30.203322
 11
-53.081167
 21
70.203327
  0
LINE
  8
型材断面
  6
CONTINUOUS
 10
-54.081167
 20
30.203322
 11
-54.081167
 21
70.203327
  0
LINE
  8
型材断面
  6
CONTINUOUS
 10
-54.581167
 20
30.203322
 11
-54.581167
 21
70.203327
  0
LINE
  8
型材断面
  6
CONTINUOUS
 10
-55.581167
 20
30.203322
 11
-55.581167
 21
70.203327
  0
LINE
  8
型材断面
  6
DASHDOT
 10
-87.8005
 20
28.536658
 11
-87.8005
 21
71.869993
  0
LINE
  8
型材断面
  6
DASHDOT
 10
-54.331167
 20
28.536658
 11
-54.331167
 21
71.869993
  0
LINE
  8
型材断面
  6
CONTINUOUS
 10
11.357505
 20
30.203322
 11
13.857505
 21
30.203322
  0
LINE
  8
型材断面
  6
CONTINUOUS
 10
-22.111827
 20
30.203322
 11
-19.611827
 21
30.203322
  0
LINE
  8
型材断面
  6
CONTINUOUS
 10
11.357505
 20
70.203327
 11
13.857505
 21
70.203327
  0
LINE
  8
型材断面
  6
CONTINUOUS
 10
-22.111827
 20
70.203327
 11
-19.611827
 21
70.203327
  0
LINE
  8
型材断面
  6
CONTINUOUS
 10
12.357505
 20
30.203322
 11
12.357505
 21
70.203327
  0
LINE
  8
型材断面
  6
CONTINUOUS
 10
11.357505
 20
30.203322
 11
11.357505
 21
70.203327
  0
LINE
  8
型材断面
  6
CONTINUOUS
 10
13.857505
 20
30.203322
 11
13.857505
 21
70.203327
  0
LINE
  8
型材断面
  6
CONTINUOUS
 10
12.857505
 20
30.203322
 11
12.857505
 21
70.203327
  0
LINE
  8
型材断面
  6
CONTINUOUS
 10
-22.111827
 20
30.203322
 11
-22.111827
 21
70.203327
  0
LINE
  8
型材断面
  6
CONTINUOUS
 10
-21.111827
 20
30.203322
 11
-21.111827
 21
70.203327
  0
LINE
  8
型材断面
  6
CONTINUOUS
 10
-20.611827
 20
30.203322
 11
-20.611827
 21
70.203327
  0
LINE
  8
型材断面
  6
CONTINUOUS
 10
-19.611827
 20
30.203322
 11
-19.611827
 21
70.203327
  0
LINE
  8
型材断面
  6
DASHDOT
 10
12.607505
 20
28.536658
 11
12.607505
 21
71.869993
  0
LINE
  8
型材断面
  6
DASHDOT
 10
-20.861827
 20
28.536658
 11
-20.861827
 21
71.869993
  0
POLYLINE
  8
型材断面
  6
CONTINUOUS
 66
     1
 70
     1
  0
VERTEX
  8
型材断面
 10
-28.467552
 20
81.645915
  0
VERTEX
  8
型材断面
 10
-47.239483
 20
81.645915
  0
VERTEX
  8
型材断面
 10
-47.239483
 20
86.382757
  0
VERTEX
  8
型材断面
 10
-28.467552
 20
86.382757
  0
SEQEND
  0
POLYLINE
  8
型材断面
  6
CONTINUOUS
 66
     1
 70
     1
  0
VERTEX
  8
型材断面
 10
-28.467552
 20
18.760735
  0
VERTEX
  8
型材断面
 10
-47.239483
 20
18.760735
  0
VERTEX
  8
型材断面
 10
-47.239483
 20
14.023892
  0
VERTEX
  8
型材断面
 10
-28.467552
 20
14.023892
  0
SEQEND
  0
LINE
  8
型材断面
  6
CONTINUOUS
 10
-123.559962
 20
50.203325
 11
-126.15047
 21
51.698955
  0
LINE
  8
型材断面
  6
CONTINUOUS
 10
-123.559962
 20
50.203325
 11
-126.15047
 21
48.707695
  0
LINE
  8
型材断面
  6
CONTINUOUS
 10
-126.15047
 20
48.707695
 11
-126.15047
 21
51.698955
  0
LINE
  8
型材断面
  6
CONTINUOUS
 10
-104.263165
 20
74.50012
 11
-105.758795
 21
77.090627
  0
LINE
  8
型材断面
  6
CONTINUOUS
 10
-104.263165
 20
74.50012
 11
-102.767535
 21
77.090627
  0
LINE
  8
型材断面
  6
CONTINUOUS
 10
-102.767535
 20
77.090627
 11
-105.758795
 21
77.090627
  0
LINE
  8
型材断面
  6
CONTINUOUS
 10
-161.78204
 20
109.847463
 11
-161.185985
 21
107.256955
  0
LINE
  8
型材断面
  6
CONTINUOUS
 10
-161.78204
 20
109.847463
 11
-162.378097
 21
107.256955
  0
LINE
  8
型材断面
  6
CONTINUOUS
 10
-162.378097
 20
107.256955
 11
-161.185985
 21
107.256955
  0
LINE
  8
型材断面
  6
CONTINUOUS
 10
-167.804627
 20
103.978062
 11
-121.56285
 21
103.978062
  0
LINE
  8
型材断面
  6
CONTINUOUS
 10
-161.78204
 20
116.377338
 11
-163.27767
 21
113.78683
  0
LINE
  8
型材断面
  6
CONTINUOUS
 10
-161.78204
 20
116.377338
 11
-160.28641
 21
113.78683
  0
LINE
  8
型材断面
  6
CONTINUOUS
 10
-160.28641
 20
113.78683
 11
-163.27767
 21
113.78683
  0
LINE
  8
型材断面
  6
CONTINUOUS
 10
-167.804627
 20
112.848235
 11
-121.56285
 21
112.848235
  0
LINE
  8
型材断面
  6
CONTINUOUS
 10
-167.804627
 20
98.19003
 11
-121.56285
 21
98.19003
  0
LINE
  8
型材断面
  6
CONTINUOUS
 10
-104.263165
 20
25.90653
 11
-105.758795
 21
23.316022
  0
LINE
  8
型材断面
  6
CONTINUOUS
 10
-104.263165
 20
25.90653
 11
-102.767535
 21
23.316022
  0
LINE
  8
型材断面
  6
CONTINUOUS
 10
-102.767535
 20
23.316022
 11
-105.758795
 21
23.316022
  0
LINE
  8
型材断面
  6
CONTINUOUS
 10
48.366967
 20
50.203325
 11
50.957475
 21
51.698955
  0
LINE
  8
型材断面
  6
CONTINUOUS
 10
48.366967
 20
50.203325
 11
50.957475
 21
48.707695
  0
LINE
  8
型材断面
  6
CONTINUOUS
 10
50.957475
 20
48.707695
 11
50.957475
 21
51.698955
  0
LINE
  8
型材断面
  6
CONTINUOUS
 10
29.07017
 20
74.50012
 11
30.5658
 21
77.090627
  0
LINE
  8
型材断面
  6
CONTINUOUS
 10
29.07017
 20
74.50012
 11
27.57454
 21
77.090627
  0
LINE
  8
型材断面
  6
CONTINUOUS
 10
27.57454
 20
77.090627
 11
30.5658
 21
77.090627
  0
LINE
  8
型材断面
  6
CONTINUOUS
 10
29.07017
 20
25.90653
 11
30.5658
 21
23.316022
  0
LINE
  8
型材断面
  6
CONTINUOUS
 10
29.07017
 20
25.90653
 11
27.57454
 21
23.316022
  0
LINE
  8
型材断面
  6
CONTINUOUS
 10
27.57454
 20
23.316022
 11
30.5658
 21
23.316022
  0
LINE
  8
型材断面
  6
CONTINUOUS
 10
-37.596497
 20
74.50012
 11
-39.092127
 21
77.090627
  0
LINE
  8
型材断面
  6
CONTINUOUS
 10
-37.596497
 20
74.50012
 11
-36.100868
 21
77.090627
  0
LINE
  8
型材断面
  6
CONTINUOUS
 10
-36.100868
 20
77.090627
 11
-39.092127
 21
77.090627
  0
LINE
  8
型材断面
  6
CONTINUOUS
 10
-37.596497
 20
25.90653
 11
-39.092127
 21
23.316022
  0
LINE
  8
型材断面
  6
CONTINUOUS
 10
-37.596497
 20
25.90653
 11
-36.100868
 21
23.316022
  0
LINE
  8
型材断面
  6
CONTINUOUS
 10
-36.100868
 20
23.316022
 11
-39.092127
 21
23.316022
  0
LINE
  8
型材断面
  6
CONTINUOUS
 10
48.366963
 20
67.96999
 11
50.95747
 21
67.373933
  0
LINE
  8
型材断面
  6
CONTINUOUS
 10
48.366963
 20
67.96999
 11
50.95747
 21
68.566048
  0
LINE
  8
型材断面
  6
CONTINUOUS
 10
50.95747
 20
68.566048
 11
50.95747
 21
67.373933
  0
LINE
  8
型材断面
  6
CONTINUOUS
 10
48.366963
 20
32.43666
 11
50.95747
 21
33.032718
  0
LINE
  8
型材断面
  6
CONTINUOUS
 10
48.366963
 20
32.43666
 11
50.95747
 21
31.840603
  0
LINE
  8
型材断面
  6
CONTINUOUS
 10
50.95747
 20
31.840603
 11
50.95747
 21
33.032718
  0
LINE
  8
型材断面
  6
CONTINUOUS
 10
-123.559958
 20
67.96999
 11
-126.150465
 21
67.373933
  0
LINE
  8
型材断面
  6
CONTINUOUS
 10
-123.559958
 20
67.96999
 11
-126.150465
 21
68.566048
  0
LINE
  8
型材断面
  6
CONTINUOUS
 10
-126.150465
 20
68.566048
 11
-126.150465
 21
67.373933
  0
LINE
  8
型材断面
  6
CONTINUOUS
 10
-123.559958
 20
32.43666
 11
-126.150465
 21
33.032718
  0
LINE
  8
型材断面
  6
CONTINUOUS
 10
-123.559958
 20
32.43666
 11
-126.150465
 21
31.840603
  0
LINE
  8
型材断面
  6
CONTINUOUS
 10
-126.150465
 20
31.840603
 11
-126.150465
 21
33.032718
  0
LINE
  8
型材断面
  6
CONTINUOUS
 10
-167.804627
 20
92.401997
 11
-121.56285
 21
92.401997
  0
INSERT
  2
*GRP_0026
  8
型材断面
  6
DOT
 10
0.0
 20
0.0
  0
INSERT
  2
*GRP_0035
  8
型材断面
  6
CONTINUOUS
 10
0.0
 20
0.0
  0
INSERT
  2
*GRP_0036
  8
型材断面
  6
CONTINUOUS
 10
0.0
 20
0.0
  0
INSERT
  2
*GRP_0037
  8
型材断面
  6
CONTINUOUS
 10
0.0
 20
0.0
  0
INSERT
  2
*GRP_0038
  8
型材断面
  6
CONTINUOUS
 10
0.0
 20
0.0
  0
INSERT
  2
*GRP_0039
  8
型材断面
  6
CONTINUOUS
 10
0.0
 20
0.0
  0
INSERT
  2
*GRP_0040
  8
型材断面
  6
CONTINUOUS
 10
0.0
 20
0.0
  0
LINE
  8
型材断面
  6
CONTINUOUS
 10
147.121207
 20
-18.946673
 11
126.279103
 21
-18.946673
  0
POLYLINE
  8
ガラス
  6
CONTINUOUS
 66
     1
 70
     1
  0
VERTEX
  8
ガラス
 10
162.092295
 20
-41.4855
  0
VERTEX
  8
ガラス
 10
129.968963
 20
-41.4855
  0
VERTEX
  8
ガラス
 10
129.968963
 20
-84.152167
  0
VERTEX
  8
ガラス
 10
162.092295
 20
-84.152167
  0
SEQEND
  0
TEXT
  7
TextStyle03
  8
文字
  6
CONTINUOUS
 10
-23.65
 20
-100.575
  1
※トップライト枠高さ寸法
 40
3.0
 72
     5
 11
16.475
 21
-100.575
  0
TEXT
  7
TextStyle03
  8
文字
  6
CONTINUOUS
 10
-23.65
 20
-103.95
  1
　シングルガラス：214
 40
3.0
 72
     5
 11
11.6
 21
-103.95
  0
TEXT
  7
TextStyle03
  8
文字
  6
CONTINUOUS
 10
-23.65
 20
-107.325
  1
　ペアガラス：224
 40
3.0
 72
     5
 11
4.85
 21
-107.325
  0
TEXT
  7
TextStyle03
  8
文字
  6
CONTINUOUS
 10
78.1
 20
125.25
  1
シリーズ：ＳＴＤＬ
 40
5.0
 72
     5
 11
128.1
 21
125.25
  0
TEXT
  7
TextStyle03
  8
文字
  6
CONTINUOUS
 10
78.1
 20
119.625
  1
　　　　　（上下可動）1300×5000タイプ
 40
5.0
 72
     5
 11
184.35
 21
119.625
  0
TEXT
  7
TextStyle03
  8
文字
  6
CONTINUOUS
 10
78.1
 20
114.0
  1
図面名　：外観姿図
 40
5.0
 72
     5
 11
128.1
 21
114.0
  0
TEXT
  7
TextStyle03
  8
文字
  6
CONTINUOUS
 10
78.1
 20
108.375
  1
　　　　　　
 40
5.0
 72
     5
 11
111.225
 21
108.375
  0
TEXT
  7
TextStyle03
  8
文字
  6
CONTINUOUS
 10
-46.125
 20
82.325
  1
可動装置側
 40
3.0
 72
     5
 11
-29.625
 21
82.325
  0
TEXT
  7
TextStyle03
  8
文字
  6
CONTINUOUS
 10
-46.125
 20
15.05
  1
可動装置側
 40
3.0
 72
     5
 11
-29.625
 21
15.05
  0
TEXT
  7
TextStyle03
  8
文字
  6
CONTINUOUS
 10
-158.375
 20
39.1
  1
アンカーピッチ
 40
3.0
 50
90.0
 72
     5
 11
-158.375
 21
62.35
  0
TEXT
  7
TextStyle03
  8
文字
  6
CONTINUOUS
 10
-158.95
 20
108.45
  1
はケーシング位置を示す
 40
3.0
 72
     5
 11
-122.2
 21
108.45
  0
TEXT
  7
TextStyle03
  8
文字
  6
CONTINUOUS
 10
-158.95
 20
105.075
  1
４ヶ所中1ヶ所に設定
 40
3.0
 72
     5
 11
-127.2625
 21
105.075
  0
TEXT
  7
TextStyle03
  8
文字
  6
CONTINUOUS
 10
-158.95
 20
113.975
  1
は排水穴位置を示す
 40
3.0
 72
     5
 11
-128.95
 21
113.975
  0
TEXT
  7
TextStyle03
  8
文字
  6
CONTINUOUS
 10
-110.175
 20
109.3
  1
アンカーピッチ
 40
3.0
 72
     5
 11
-86.925
 21
109.3
  0
TEXT
  7
TextStyle03
  8
文字
  6
CONTINUOUS
 10
-162.675
 20
99.1
  1
アンカー数量　１８ヶ所
 40
3.0
 72
     5
 11
-125.925
 21
99.1
  0
TEXT
  7
TextStyle03
  8
文字
  6
CONTINUOUS
 10
-167.675
 20
93.325
  1
アームユニット数　※４～６ヶ所
 40
3.0
 72
     5
 11
-117.425
 21
93.325
  0
TEXT
  7
TextStyle03
  8
文字
  6
CONTINUOUS
 10
-167.675
 20
88.375
  1
※重量に依るのでご相談ください
 40
3.0
 72
     5
 11
-117.425
 21
88.375
  0
TEXT
  7
TextStyle03
  8
文字
  6
CONTINUOUS
 10
148.5
 20
-80.75
  1
×５枚
 40
3.0
 72
     5
 11
158.25
 21
-80.75
  0
TEXT
  7
TextStyle03
  8
文字
  6
CONTINUOUS
 10
128.625
 20
-18.475
  1
ガラス寸法
 40
3.0
 72
     5
 11
145.125
 21
-18.475
  0
INSERT
  2
*DIM_0004
  8
寸法
  6
CONTINUOUS
 10
0.0
 20
0.0
  0
INSERT
  2
*DIM_0005
  8
寸法
  6
CONTINUOUS
 10
0.0
 20
0.0
  0
INSERT
  2
*DIM_0008
  8
寸法
  6
CONTINUOUS
 10
0.0
 20
0.0
  0
INSERT
  2
*DIM_0009
  8
寸法
  6
CONTINUOUS
 10
0.0
 20
0.0
  0
INSERT
  2
*DIM_0012
  8
寸法
  6
CONTINUOUS
 10
0.0
 20
0.0
  0
INSERT
  2
*DIM_0015
  8
寸法
  6
CONTINUOUS
 10
0.0
 20
0.0
  0
INSERT
  2
*DIM_0016
  8
寸法
  6
CONTINUOUS
 10
0.0
 20
0.0
  0
INSERT
  2
*DIM_0017
  8
寸法
  6
CONTINUOUS
 10
0.0
 20
0.0
  0
INSERT
  2
*DIM_0018
  8
寸法
  6
CONTINUOUS
 10
0.0
 20
0.0
  0
INSERT
  2
*DIM_0019
  8
寸法
  6
CONTINUOUS
 10
0.0
 20
0.0
  0
INSERT
  2
*DIM_0020
  8
寸法
  6
CONTINUOUS
 10
0.0
 20
0.0
  0
INSERT
  2
*DIM_0021
  8
寸法
  6
CONTINUOUS
 10
0.0
 20
0.0
  0
INSERT
  2
*DIM_0022
  8
寸法
  6
CONTINUOUS
 10
0.0
 20
0.0
  0
INSERT
  2
*DIM_0023
  8
寸法
  6
CONTINUOUS
 10
0.0
 20
0.0
  0
INSERT
  2
*DIM_0024
  8
寸法
  6
CONTINUOUS
 10
0.0
 20
0.0
  0
INSERT
  2
*DIM_0025
  8
寸法
  6
CONTINUOUS
 10
0.0
 20
0.0
  0
INSERT
  2
*DIM_0031
  8
寸法
  6
CONTINUOUS
 10
0.0
 20
0.0
  0
INSERT
  2
*DIM_0032
  8
寸法
  6
CONTINUOUS
 10
0.0
 20
0.0
  0
INSERT
  2
*DIM_0033
  8
寸法
  6
CONTINUOUS
 10
0.0
 20
0.0
  0
INSERT
  2
*DIM_0034
  8
寸法
  6
CONTINUOUS
 10
0.0
 20
0.0
  0
INSERT
  2
*DIM_0041
  8
寸法
  6
CONTINUOUS
 10
0.0
 20
0.0
  0
INSERT
  2
*DIM_0042
  8
寸法
  6
CONTINUOUS
 10
0.0
 20
0.0
  0
LINE
  8
曲げ物
  6
CONTINUOUS
 10
30.462565
 20
52.082655
 11
26.767252
 21
48.387342
  0
LINE
  8
曲げ物
  6
CONTINUOUS
 10
29.759095
 20
50.546545
 11
28.303365
 21
49.090815
  0
LINE
  8
曲げ物
  6
CONTINUOUS
 10
28.926455
 20
51.379185
 11
27.470725
 21
49.923455
  0
LINE
  8
曲げ物
  6
CONTINUOUS
 10
-1.5399
 20
52.082655
 11
-5.235213
 21
48.387342
  0
LINE
  8
曲げ物
  6
CONTINUOUS
 10
-2.24337
 20
50.546545
 11
-3.6991
 21
49.090815
  0
LINE
  8
曲げ物
  6
CONTINUOUS
 10
-3.07601
 20
51.379185
 11
-4.53174
 21
49.923455
  0
LINE
  8
曲げ物
  6
CONTINUOUS
 10
-35.641367
 20
52.082655
 11
-39.33668
 21
48.387342
  0
LINE
  8
曲げ物
  6
CONTINUOUS
 10
-36.344837
 20
50.546545
 11
-37.800568
 21
49.090815
  0
LINE
  8
曲げ物
  6
CONTINUOUS
 10
-37.177477
 20
51.379185
 11
-38.633208
 21
49.923455
  0
LINE
  8
曲げ物
  6
CONTINUOUS
 10
-68.729455
 20
52.082655
 11
-72.424767
 21
48.387342
  0
LINE
  8
曲げ物
  6
CONTINUOUS
 10
-69.432925
 20
50.546545
 11
-70.888655
 21
49.090815
  0
LINE
  8
曲げ物
  6
CONTINUOUS
 10
-70.265565
 20
51.379185
 11
-71.721295
 21
49.923455
  0
LINE
  8
曲げ物
  6
CONTINUOUS
 10
-101.995103
 20
52.082655
 11
-105.690415
 21
48.387342
  0
LINE
  8
曲げ物
  6
CONTINUOUS
 10
-102.698572
 20
50.546545
 11
-104.154303
 21
49.090815
  0
LINE
  8
曲げ物
  6
CONTINUOUS
 10
-103.531213
 20
51.379185
 11
-104.986942
 21
49.923455
  0
ENDSEC
  0
EOF
