  0
SECTION
  2
HEADER
  9
$EXTMIN
 10
-210.0
 20
-148.5
  9
$EXTMAX
 10
210.0
 20
148.5
  9
$PDMODE
 70
    32
  9
$PDSIZE
 40
1.5
  9
$LTSCALE
 40
10.0
  0
ENDSEC
  0
SECTION
  2
TABLES
  0
TABLE
  2
LTYPE
 70
    15
  0
LTYPE
  2
CONTINUOUS
 70
    64
  3
実線
 72
    65
 73
     0
 40
0.0
  0
LTYPE
  2
DASHED
 70
    64
  3
破線A
 72
    65
 73
     2
 40
0.6
 49
0.4
 49
-0.2
  0
LTYPE
  2
DASHEDX2
 70
    64
  3
破線B
 72
    65
 73
     2
 40
1.3
 49
0.9
 49
-0.4
  0
LTYPE
  2
DASHDOT
 70
    64
  3
１点鎖線A
 72
    65
 73
     4
 40
0.5375
 49
0.375
 49
-0.05
 49
0.0625
 49
-0.05
  0
LTYPE
  2
DASHDOTX2
 70
    64
  3
１点鎖線B
 72
    65
 73
     4
 40
1.075
 49
0.75
 49
-0.1
 49
0.125
 49
-0.1
  0
LTYPE
  2
DIVIDE2
 70
    64
  3
２点鎖線A
 72
    65
 73
     6
 40
0.5125
 49
0.3
 49
-0.0375
 49
0.05
 49
-0.0375
 49
0.05
 49
-0.0375
  0
LTYPE
  2
DIVIDE
 70
    64
  3
２点鎖線B
 72
    65
 73
     6
 40
1.05
 49
0.55
 49
-0.1
 49
0.1
 49
-0.1
 49
0.1
 49
-0.1
  0
LTYPE
  2
DOT
 70
    64
  3
点線A
 72
    65
 73
     2
 40
0.1125
 49
0.0625
 49
-0.05
  0
LTYPE
  2
DOTX2
 70
    64
  3
点線B
 72
    65
 73
     2
 40
0.275
 49
0.15
 49
-0.125
  0
LTYPE
  2
CONTINUOUS
 70
    64
  3
実線
 72
    65
 73
     0
 40
0.0
  0
LTYPE
  2
CONTINUOUS
 70
    64
  3
実線
 72
    65
 73
     0
 40
0.0
  0
LTYPE
  2
CONTINUOUS
 70
    64
  3
実線
 72
    65
 73
     0
 40
0.0
  0
LTYPE
  2
CONTINUOUS
 70
    64
  3
実線
 72
    65
 73
     0
 40
0.0
  0
LTYPE
  2
CONTINUOUS
 70
    64
  3
実線
 72
    65
 73
     0
 40
0.0
  0
LTYPE
  2
CONTINUOUS
 70
    64
  3
実線
 72
    65
 73
     0
 40
0.0
  0
ENDTAB
  0
TABLE
  2
LAYER
 70
    34
  0
LAYER
  2
通り芯
 70
     0
 62
    15
  6
CONTINUOUS
  0
LAYER
  2
補助線
 70
     0
 62
    16
  6
DOT
  0
LAYER
  2
躯体
 70
     0
 62
    31
  6
CONTINUOUS
  0
LAYER
  2
型材
 70
     0
 62
    32
  6
CONTINUOUS
  0
LAYER
  2
型材断面
 70
     0
 62
    47
  6
CONTINUOUS
  0
LAYER
  2
ガラス
 70
     0
 62
    48
  6
CONTINUOUS
  0
LAYER
  2
ゴム等
 70
     0
 62
    63
  6
CONTINUOUS
  0
LAYER
  2
ボルト／ビス
 70
     0
 62
    64
  6
CONTINUOUS
  0
LAYER
  2
文字
 70
     0
 62
    79
  6
CONTINUOUS
  0
LAYER
  2
寸法
 70
     0
 62
    80
  6
CONTINUOUS
  0
LAYER
  2
ﾊｯﾁﾝｸﾞ
 70
     0
 62
    95
  6
CONTINUOUS
  0
LAYER
  2
別途部材
 70
     0
 62
    96
  6
CONTINUOUS
  0
LAYER
  2
曲げ物
 70
     0
 62
   111
  6
CONTINUOUS
  0
LAYER
  2
鉄骨等
 70
     0
 62
   112
  6
CONTINUOUS
  0
LAYER
  2
St
 70
     0
 62
   127
  6
CONTINUOUS
  0
LAYER
  2
その他部品等
 70
     0
 62
   128
  6
CONTINUOUS
  0
LAYER
  2
ｶﾞｽｹｯﾄ
 70
     0
 62
   143
  6
CONTINUOUS
  0
LAYER
  2
ｽｹｯﾁ
 70
     0
 62
    14
  6
CONTINUOUS
  0
LAYER
  2
0
 70
     0
 62
    17
  6
CONTINUOUS
  0
LAYER
  2
1
 70
     0
 62
    30
  6
CONTINUOUS
  0
LAYER
  2
4
 70
     0
 62
    33
  6
CONTINUOUS
  0
LAYER
  2
ﾚｲﾔ3
 70
     0
 62
    46
  6
CONTINUOUS
  0
LAYER
  2
外形線
 70
     0
 62
    49
  6
CONTINUOUS
  0
LAYER
  2
部品
 70
     0
 62
    14
  6
CONTINUOUS
  0
LAYER
  2
サッシ芯
 70
     0
 62
    17
  6
DASHDOTX2
  0
LAYER
  2
寸法線
 70
     0
 62
    62
  6
CONTINUOUS
  0
LAYER
  2
姿図外形線
 70
     0
 62
    65
  6
CONTINUOUS
  0
LAYER
  2
姿補助線
 70
     0
 62
    30
  6
CONTINUOUS
  0
LAYER
  2
透視線
 70
     0
 62
    78
  6
DOT
  0
LAYER
  2
用紙
 70
     0
 62
    81
  6
CONTINUOUS
  0
LAYER
  2
実線図枠
 70
     0
 62
    94
  6
CONTINUOUS
  0
LAYER
  2
補助図枠
 70
     0
 62
    97
  6
CONTINUOUS
  0
LAYER
  2
建具記号
 70
     0
 62
   110
  6
CONTINUOUS
  0
LAYER
  2
補助文字
 70
     0
 62
   113
  6
CONTINUOUS
  0
ENDTAB
  0
TABLE
  2
STYLE
 70
    10
  0
STYLE
  2
STANDARD
 70
     0
 40
1.0
 41
1.0
 42
1.0
 50
0.0
 71
     0
  3
TXT
  4
BIGFONT
  0
STYLE
  2
TATE
 70
     4
 40
1.0
 41
1.0
 42
1.0
 50
0.0
 71
     0
  3
TXT
  4
BIGFONT
  0
STYLE
  2
TextStyle03
 70
     0
 40
1.0
 41
1.0
 42
1.0
 50
0.0
 71
     0
  3
MONOTXT
  4
BIGFONT
  0
STYLE
  2
TextStyle04
 70
     0
 40
1.0
 41
1.0
 42
1.0
 50
0.0
 71
     0
  3
MONOTXT
  4
BIGFONT
  0
STYLE
  2
TextStyle05
 70
     0
 40
1.0
 41
1.0
 42
1.0
 50
0.0
 71
     0
  3
MONOTXT
  4
BIGFONT
  0
STYLE
  2
TextStyle06
 70
     0
 40
1.0
 41
1.0
 42
1.0
 50
0.0
 71
     0
  3
MONOTXT
  4
BIGFONT
  0
STYLE
  2
TextStyle07
 70
     0
 40
1.0
 41
1.0
 42
1.0
 50
0.0
 71
     0
  3
MONOTXT
  4
BIGFONT
  0
STYLE
  2
TextStyle08
 70
     0
 40
1.0
 41
1.0
 42
1.0
 50
0.0
 71
     0
  3
MONOTXT
  4
BIGFONT
  0
STYLE
  2
TextStyle09
 70
     0
 40
1.0
 41
1.0
 42
1.0
 50
0.0
 71
     0
  3
MONOTXT
  4
BIGFONT
  0
STYLE
  2
TextStyle10
 70
     0
 40
1.0
 41
1.0
 42
1.0
 50
0.0
 71
     0
  3
MONOTXT
  4
BIGFONT
  0
ENDTAB
  0
ENDSEC
  0
SECTION
  2
BLOCKS
  0
BLOCK
  2
*GRP_0001
 70
    65
 10
0.0
 20
0.0
  0
LINE
  8
型材断面
  6
CONTINUOUS
 10
195.0
 20
133.5
 11
195.0
 21
-133.5
  0
LINE
  8
型材断面
  6
CONTINUOUS
 10
195.0
 20
-133.5
 11
-185.0
 21
-133.5
  0
LINE
  8
型材断面
  6
CONTINUOUS
 10
-185.0
 20
-133.5
 11
-185.0
 21
133.5
  0
LINE
  8
型材断面
  6
CONTINUOUS
 10
195.0
 20
133.5
 11
-185.0
 21
133.5
  0
LINE
  8
型材断面
  6
CONTINUOUS
 10
145.0
 20
-133.5
 11
145.0
 21
-118.5
  0
LINE
  8
型材断面
  6
CONTINUOUS
 10
195.0
 20
-118.5
 11
145.0
 21
-118.5
  0
ENDBLK
  0
BLOCK
  2
*GRP_0002
 70
    65
 10
0.0
 20
0.0
  0
INSERT
  2
M8横
  8
ゴム等
  6
CONTINUOUS
 10
163.336003
 20
27.710297
 50
90.0
 41
0.033333
 42
0.033333
  0
LINE
  8
ボルト／ビス
  6
CONTINUOUS
 10
163.126005
 20
27.843633
 11
163.109338
 21
27.826965
  0
LINE
  8
ボルト／ビス
  6
CONTINUOUS
 10
163.109338
 20
27.593633
 11
163.126005
 21
27.576965
  0
LINE
  8
ボルト／ビス
  6
CONTINUOUS
 10
163.126005
 20
27.576965
 11
163.126005
 21
27.843633
  0
LINE
  8
ボルト／ビス
  6
CONTINUOUS
 10
163.109338
 20
27.593633
 11
163.109338
 21
27.826965
  0
LINE
  8
ボルト／ビス
  6
CONTINUOUS
 10
163.109338
 20
27.826965
 11
163.15267
 21
27.826965
  0
LINE
  8
ボルト／ビス
  6
CONTINUOUS
 10
163.126005
 20
27.843633
 11
163.15267
 21
27.843633
  0
LINE
  8
ボルト／ビス
  6
CONTINUOUS
 10
163.126005
 20
27.576965
 11
163.15267
 21
27.576965
  0
LINE
  8
ボルト／ビス
  6
CONTINUOUS
 10
163.109338
 20
27.593633
 11
163.15267
 21
27.593633
  0
LINE
  8
ボルト／ビス
  6
CONTINUOUS
 10
163.336003
 20
27.343633
 11
163.336003
 21
28.076965
  0
LINE
  8
ボルト／ビス
  6
CONTINUOUS
 10
163.376002
 20
28.126965
 11
163.459335
 21
28.126965
  0
LINE
  8
ボルト／ビス
  6
CONTINUOUS
 10
163.459335
 20
28.126965
 11
163.459335
 21
27.293633
  0
LINE
  8
ボルト／ビス
  6
CONTINUOUS
 10
163.459335
 20
27.293633
 11
163.376002
 21
27.293633
  0
LINE
  8
ボルト／ビス
  6
CONTINUOUS
 10
163.376002
 20
28.126965
 11
163.376002
 21
27.293633
  0
LINE
  8
ボルト／ビス
  6
CONTINUOUS
 10
163.336003
 20
27.343633
 11
163.376002
 21
27.343633
  0
LINE
  8
ボルト／ビス
  6
CONTINUOUS
 10
163.336003
 20
28.076965
 11
163.376002
 21
28.076965
  0
LINE
  8
ボルト／ビス
  6
CONTINUOUS
 10
163.386002
 20
27.710297
 11
163.336003
 21
27.710297
  0
ENDBLK
  0
BLOCK
  2
*GRP_0003
 70
    65
 10
0.0
 20
0.0
  0
LINE
  8
ボルト／ビス
  6
CONTINUOUS
 10
162.47617
 20
27.50363
 11
162.409503
 21
27.50363
  0
LINE
  8
ボルト／ビス
  6
CONTINUOUS
 10
162.409503
 20
27.50363
 11
162.409503
 21
28.236962
  0
LINE
  8
ボルト／ビス
  6
CONTINUOUS
 10
162.409503
 20
28.236962
 11
162.47617
 21
28.236962
  0
LINE
  8
ボルト／ビス
  6
CONTINUOUS
 10
162.47617
 20
27.50363
 11
162.47617
 21
28.236962
  0
LINE
  8
ボルト／ビス
  6
CONTINUOUS
 10
162.37617
 20
27.570298
 11
162.409503
 21
27.570298
  0
LINE
  8
ボルト／ビス
  6
CONTINUOUS
 10
162.37617
 20
27.570298
 11
162.37617
 21
28.170298
  0
LINE
  8
ボルト／ビス
  6
CONTINUOUS
 10
162.37617
 20
28.170298
 11
162.409503
 21
28.170298
  0
LINE
  8
ボルト／ビス
  6
CONTINUOUS
 62
    64
 10
162.17617
 20
27.709922
 11
162.187845
 21
27.677847
  0
ARC
  8
ボルト／ビス
  6
CONTINUOUS
 62
    64
 10
162.281149
 20
27.725964
 40
0.104978
 50
152.721967
 51
180.0
  0
ARC
  8
ボルト／ビス
  6
CONTINUOUS
 62
    64
 10
162.578573
 20
27.870302
 40
0.402402
 50
166.165002
 51
193.834985
  0
LINE
  8
ボルト／ビス
  6
CONTINUOUS
 62
    64
 10
162.17617
 20
28.030673
 11
162.187845
 21
28.062747
  0
ARC
  8
ボルト／ビス
  6
CONTINUOUS
 62
    64
 10
162.281149
 20
28.014639
 40
0.104978
 50
180.0
 51
207.278033
  0
LINE
  8
ボルト／ビス
  6
CONTINUOUS
 62
    64
 10
162.17617
 20
27.709922
 11
162.17617
 21
28.030673
  0
LINE
  8
ボルト／ビス
  6
CONTINUOUS
 62
    64
 10
162.187845
 20
28.062747
 11
162.309503
 21
28.062747
  0
LINE
  8
ボルト／ビス
  6
CONTINUOUS
 62
    64
 10
162.187845
 20
27.966523
 11
162.309503
 21
27.966523
  0
LINE
  8
ボルト／ビス
  6
CONTINUOUS
 62
    64
 10
162.187845
 20
27.677847
 11
162.309503
 21
27.677847
  0
LINE
  8
ボルト／ビス
  6
CONTINUOUS
 62
    64
 10
162.187845
 20
27.774072
 11
162.309503
 21
27.774072
  0
LINE
  8
ボルト／ビス
  6
CONTINUOUS
 10
162.309503
 20
27.677847
 11
162.309503
 21
28.062747
  0
LINE
  8
ボルト／ビス
  6
CONTINUOUS
 10
162.309503
 20
27.670298
 11
162.37617
 21
27.670298
  0
LINE
  8
ボルト／ビス
  6
CONTINUOUS
 10
162.309503
 20
27.670298
 11
162.309503
 21
28.070298
  0
LINE
  8
ボルト／ビス
  6
CONTINUOUS
 10
162.309503
 20
28.070298
 11
162.37617
 21
28.070298
  0
ENDBLK
  0
BLOCK
  2
*DIM_0004
 70
    65
 10
0.0
 20
0.0
  0
LINE
  8
寸法
  6
CONTINUOUS
 10
161.248695
 20
26.256963
 11
142.14273
 21
26.256963
  0
LINE
  8
寸法
  6
CONTINUOUS
 10
142.14273
 20
28.536658
 11
142.14273
 21
26.256963
  0
POINT
  8
寸法
 10
142.14273
 20
28.536658
  0
POINT
  8
寸法
 10
142.14273
 20
26.256963
  0
TEXT
  7
TextStyle03
  8
寸法
  6
CONTINUOUS
 10
141.75
 20
17.34375
  1
68.4
 40
3.0
 50
90.0
 72
     5
 11
141.75
 21
23.90625
  0
ENDBLK
  0
BLOCK
  2
*DIM_0005
 70
    65
 10
0.0
 20
0.0
  0
LINE
  8
寸法
  6
CONTINUOUS
 10
169.209335
 20
21.570298
 11
169.209335
 21
13.661277
  0
LINE
  8
寸法
  6
CONTINUOUS
 10
161.742835
 20
23.536658
 11
161.742835
 21
13.661277
  0
LINE
  8
寸法
  6
CONTINUOUS
 10
169.209335
 20
13.661277
 11
161.742835
 21
13.661277
  0
POINT
  8
寸法
 10
169.209335
 20
13.661277
  0
POINT
  8
寸法
 10
161.742835
 20
13.661277
  0
TEXT
  7
TextStyle03
  8
寸法
  6
CONTINUOUS
 10
163.0375
 20
14.025
  1
224
 40
3.0
 72
     5
 11
167.9125
 21
14.025
  0
ENDBLK
  0
BLOCK
  2
*GRP_0006
 70
    65
 10
0.0
 20
0.0
  0
INSERT
  2
M8横
  8
ゴム等
  6
CONTINUOUS
 10
163.336003
 20
72.696352
 50
270.0
 41
0.033333
 42
-0.033333
  0
LINE
  8
ボルト／ビス
  6
CONTINUOUS
 10
163.126005
 20
72.56302
 11
163.109338
 21
72.579688
  0
LINE
  8
ボルト／ビス
  6
CONTINUOUS
 10
163.109338
 20
72.81302
 11
163.126005
 21
72.829688
  0
LINE
  8
ボルト／ビス
  6
CONTINUOUS
 10
163.126005
 20
72.829688
 11
163.126005
 21
72.56302
  0
LINE
  8
ボルト／ビス
  6
CONTINUOUS
 10
163.109338
 20
72.81302
 11
163.109338
 21
72.579688
  0
LINE
  8
ボルト／ビス
  6
CONTINUOUS
 10
163.109338
 20
72.579688
 11
163.15267
 21
72.579688
  0
LINE
  8
ボルト／ビス
  6
CONTINUOUS
 10
163.126005
 20
72.56302
 11
163.15267
 21
72.56302
  0
LINE
  8
ボルト／ビス
  6
CONTINUOUS
 10
163.126005
 20
72.829688
 11
163.15267
 21
72.829688
  0
LINE
  8
ボルト／ビス
  6
CONTINUOUS
 10
163.109338
 20
72.81302
 11
163.15267
 21
72.81302
  0
LINE
  8
ボルト／ビス
  6
CONTINUOUS
 10
163.336003
 20
73.06302
 11
163.336003
 21
72.329688
  0
LINE
  8
ボルト／ビス
  6
CONTINUOUS
 10
163.376002
 20
72.279687
 11
163.459335
 21
72.279687
  0
LINE
  8
ボルト／ビス
  6
CONTINUOUS
 10
163.459335
 20
72.279687
 11
163.459335
 21
73.11302
  0
LINE
  8
ボルト／ビス
  6
CONTINUOUS
 10
163.459335
 20
73.11302
 11
163.376002
 21
73.11302
  0
LINE
  8
ボルト／ビス
  6
CONTINUOUS
 10
163.376002
 20
72.279687
 11
163.376002
 21
73.11302
  0
LINE
  8
ボルト／ビス
  6
CONTINUOUS
 10
163.336003
 20
73.06302
 11
163.376002
 21
73.06302
  0
LINE
  8
ボルト／ビス
  6
CONTINUOUS
 10
163.336003
 20
72.329688
 11
163.376002
 21
72.329688
  0
LINE
  8
ボルト／ビス
  6
CONTINUOUS
 10
163.386002
 20
72.696352
 11
163.336003
 21
72.696352
  0
ENDBLK
  0
BLOCK
  2
*GRP_0007
 70
    65
 10
0.0
 20
0.0
  0
LINE
  8
ボルト／ビス
  6
CONTINUOUS
 10
162.47617
 20
72.903023
 11
162.409503
 21
72.903023
  0
LINE
  8
ボルト／ビス
  6
CONTINUOUS
 10
162.409503
 20
72.903023
 11
162.409503
 21
72.169687
  0
LINE
  8
ボルト／ビス
  6
CONTINUOUS
 10
162.409503
 20
72.169687
 11
162.47617
 21
72.169687
  0
LINE
  8
ボルト／ビス
  6
CONTINUOUS
 10
162.47617
 20
72.903023
 11
162.47617
 21
72.169687
  0
LINE
  8
ボルト／ビス
  6
CONTINUOUS
 10
162.37617
 20
72.836355
 11
162.409503
 21
72.836355
  0
LINE
  8
ボルト／ビス
  6
CONTINUOUS
 10
162.37617
 20
72.836355
 11
162.37617
 21
72.236355
  0
LINE
  8
ボルト／ビス
  6
CONTINUOUS
 10
162.37617
 20
72.236355
 11
162.409503
 21
72.236355
  0
LINE
  8
ボルト／ビス
  6
CONTINUOUS
 62
    64
 10
162.17617
 20
72.69673
 11
162.187845
 21
72.728805
  0
ARC
  8
ボルト／ビス
  6
CONTINUOUS
 62
    64
 10
162.281149
 20
72.680698
 40
0.104978
 50
180.0
 51
207.278033
  0
ARC
  8
ボルト／ビス
  6
CONTINUOUS
 62
    64
 10
162.578573
 20
72.536361
 40
0.402402
 50
166.165015
 51
193.834998
  0
LINE
  8
ボルト／ビス
  6
CONTINUOUS
 62
    64
 10
162.17617
 20
72.37598
 11
162.187845
 21
72.343905
  0
ARC
  8
ボルト／ビス
  6
CONTINUOUS
 62
    64
 10
162.281149
 20
72.392023
 40
0.104978
 50
152.721967
 51
180.0
  0
LINE
  8
ボルト／ビス
  6
CONTINUOUS
 62
    64
 10
162.17617
 20
72.69673
 11
162.17617
 21
72.37598
  0
LINE
  8
ボルト／ビス
  6
CONTINUOUS
 62
    64
 10
162.187845
 20
72.343905
 11
162.309503
 21
72.343905
  0
LINE
  8
ボルト／ビス
  6
CONTINUOUS
 62
    64
 10
162.187845
 20
72.44013
 11
162.309503
 21
72.44013
  0
LINE
  8
ボルト／ビス
  6
CONTINUOUS
 62
    64
 10
162.187845
 20
72.728805
 11
162.309503
 21
72.728805
  0
LINE
  8
ボルト／ビス
  6
CONTINUOUS
 62
    64
 10
162.187845
 20
72.63258
 11
162.309503
 21
72.63258
  0
LINE
  8
ボルト／ビス
  6
CONTINUOUS
 10
162.309503
 20
72.728805
 11
162.309503
 21
72.343905
  0
LINE
  8
ボルト／ビス
  6
CONTINUOUS
 10
162.309503
 20
72.736355
 11
162.37617
 21
72.736355
  0
LINE
  8
ボルト／ビス
  6
CONTINUOUS
 10
162.309503
 20
72.736355
 11
162.309503
 21
72.336355
  0
LINE
  8
ボルト／ビス
  6
CONTINUOUS
 10
162.309503
 20
72.336355
 11
162.37617
 21
72.336355
  0
ENDBLK
  0
BLOCK
  2
*DIM_0008
 70
    65
 10
0.0
 20
0.0
  0
LINE
  8
寸法
  6
CONTINUOUS
 10
161.248695
 20
74.149688
 11
142.14273
 21
74.149688
  0
LINE
  8
寸法
  6
CONTINUOUS
 10
142.14273
 20
71.869993
 11
142.14273
 21
74.149688
  0
POINT
  8
寸法
 10
142.14273
 20
71.869993
  0
POINT
  8
寸法
 10
142.14273
 20
74.149688
  0
TEXT
  7
TextStyle03
  8
寸法
  6
CONTINUOUS
 10
141.75
 20
76.46875
  1
68.4
 40
3.0
 50
90.0
 72
     5
 11
141.75
 21
83.03125
  0
ENDBLK
  0
BLOCK
  2
*DIM_0009
 70
    65
 10
0.0
 20
0.0
  0
LINE
  8
寸法
  6
CONTINUOUS
 10
142.14273
 20
71.869993
 11
142.14273
 21
28.536658
  0
POINT
  8
寸法
 10
142.14273
 20
71.869993
  0
POINT
  8
寸法
 10
142.14273
 20
28.536658
  0
TEXT
  7
TextStyle03
  8
寸法
  6
CONTINUOUS
 10
141.75
 20
38.48125
  1
呼称寸法　1300
 40
3.0
 50
90.0
 72
     5
 11
141.75
 21
61.91875
  0
ENDBLK
  0
BLOCK
  2
*GRP_0010
 70
    65
 10
0.0
 20
0.0
  0
INSERT
  2
M8横
  8
ゴム等
  6
CONTINUOUS
 10
79.896522
 20
-70.297288
 50
180.0
 41
0.033333
 42
-0.033333
  0
LINE
  8
ボルト／ビス
  6
CONTINUOUS
 10
79.76319
 20
-70.087288
 11
79.779855
 21
-70.070622
  0
LINE
  8
ボルト／ビス
  6
CONTINUOUS
 10
80.01319
 20
-70.070622
 11
80.029855
 21
-70.087288
  0
LINE
  8
ボルト／ビス
  6
CONTINUOUS
 10
80.029855
 20
-70.087288
 11
79.76319
 21
-70.087288
  0
LINE
  8
ボルト／ビス
  6
CONTINUOUS
 10
80.01319
 20
-70.070622
 11
79.779855
 21
-70.070622
  0
LINE
  8
ボルト／ビス
  6
CONTINUOUS
 10
79.779855
 20
-70.070622
 11
79.779855
 21
-70.113952
  0
LINE
  8
ボルト／ビス
  6
CONTINUOUS
 10
79.76319
 20
-70.087288
 11
79.76319
 21
-70.113952
  0
LINE
  8
ボルト／ビス
  6
CONTINUOUS
 10
80.029855
 20
-70.087288
 11
80.029855
 21
-70.113952
  0
LINE
  8
ボルト／ビス
  6
CONTINUOUS
 10
80.01319
 20
-70.070622
 11
80.01319
 21
-70.113952
  0
LINE
  8
ボルト／ビス
  6
CONTINUOUS
 10
80.26319
 20
-70.297288
 11
79.529855
 21
-70.297288
  0
LINE
  8
ボルト／ビス
  6
CONTINUOUS
 10
79.479855
 20
-70.337288
 11
79.479855
 21
-70.42062
  0
LINE
  8
ボルト／ビス
  6
CONTINUOUS
 10
79.479855
 20
-70.42062
 11
80.31319
 21
-70.42062
  0
LINE
  8
ボルト／ビス
  6
CONTINUOUS
 10
80.31319
 20
-70.42062
 11
80.31319
 21
-70.337288
  0
LINE
  8
ボルト／ビス
  6
CONTINUOUS
 10
79.479855
 20
-70.337288
 11
80.31319
 21
-70.337288
  0
LINE
  8
ボルト／ビス
  6
CONTINUOUS
 10
80.26319
 20
-70.297288
 11
80.26319
 21
-70.337288
  0
LINE
  8
ボルト／ビス
  6
CONTINUOUS
 10
79.529855
 20
-70.297288
 11
79.529855
 21
-70.337288
  0
LINE
  8
ボルト／ビス
  6
CONTINUOUS
 10
79.896522
 20
-70.347288
 11
79.896522
 21
-70.297288
  0
ENDBLK
  0
BLOCK
  2
*GRP_0011
 70
    65
 10
0.0
 20
0.0
  0
LINE
  8
ボルト／ビス
  6
CONTINUOUS
 10
80.10319
 20
-69.437453
 11
80.10319
 21
-69.370788
  0
LINE
  8
ボルト／ビス
  6
CONTINUOUS
 10
80.10319
 20
-69.370788
 11
79.369858
 21
-69.370788
  0
LINE
  8
ボルト／ビス
  6
CONTINUOUS
 10
79.369858
 20
-69.370788
 11
79.369858
 21
-69.437453
  0
LINE
  8
ボルト／ビス
  6
CONTINUOUS
 10
80.10319
 20
-69.437453
 11
79.369858
 21
-69.437453
  0
LINE
  8
ボルト／ビス
  6
CONTINUOUS
 10
80.036525
 20
-69.337453
 11
80.036525
 21
-69.370788
  0
LINE
  8
ボルト／ビス
  6
CONTINUOUS
 10
80.036525
 20
-69.337453
 11
79.436525
 21
-69.337453
  0
LINE
  8
ボルト／ビス
  6
CONTINUOUS
 10
79.436525
 20
-69.337453
 11
79.436525
 21
-69.370788
  0
LINE
  8
ボルト／ビス
  6
CONTINUOUS
 62
    64
 10
79.8969
 20
-69.137453
 11
79.928975
 21
-69.149128
  0
ARC
  8
ボルト／ビス
  6
CONTINUOUS
 62
    64
 10
79.88086
 20
-69.242431
 40
0.104978
 50
90.0
 51
117.278033
  0
ARC
  8
ボルト／ビス
  6
CONTINUOUS
 62
    64
 10
79.736523
 20
-69.539855
 40
0.402402
 50
76.165015
 51
103.834998
  0
LINE
  8
ボルト／ビス
  6
CONTINUOUS
 62
    64
 10
79.57615
 20
-69.137453
 11
79.544075
 21
-69.149128
  0
ARC
  8
ボルト／ビス
  6
CONTINUOUS
 62
    64
 10
79.592185
 20
-69.242431
 40
0.104978
 50
62.721967
 51
90.0
  0
LINE
  8
ボルト／ビス
  6
CONTINUOUS
 62
    64
 10
79.8969
 20
-69.137453
 11
79.57615
 21
-69.137453
  0
LINE
  8
ボルト／ビス
  6
CONTINUOUS
 62
    64
 10
79.544075
 20
-69.149128
 11
79.544075
 21
-69.270788
  0
LINE
  8
ボルト／ビス
  6
CONTINUOUS
 62
    64
 10
79.6403
 20
-69.149128
 11
79.6403
 21
-69.270788
  0
LINE
  8
ボルト／ビス
  6
CONTINUOUS
 62
    64
 10
79.928975
 20
-69.149128
 11
79.928975
 21
-69.270788
  0
LINE
  8
ボルト／ビス
  6
CONTINUOUS
 62
    64
 10
79.83275
 20
-69.149128
 11
79.83275
 21
-69.270788
  0
LINE
  8
ボルト／ビス
  6
CONTINUOUS
 10
79.928975
 20
-69.270788
 11
79.544075
 21
-69.270788
  0
LINE
  8
ボルト／ビス
  6
CONTINUOUS
 10
79.936525
 20
-69.270788
 11
79.936525
 21
-69.337453
  0
LINE
  8
ボルト／ビス
  6
CONTINUOUS
 10
79.936525
 20
-69.270788
 11
79.536525
 21
-69.270788
  0
LINE
  8
ボルト／ビス
  6
CONTINUOUS
 10
79.536525
 20
-69.270788
 11
79.536525
 21
-69.337453
  0
ENDBLK
  0
BLOCK
  2
*GRP_0012
 70
    65
 10
0.0
 20
0.0
  0
INSERT
  2
M8横
  8
ゴム等
  6
CONTINUOUS
 10
-121.756182
 20
-70.297288
 41
0.033333
 42
0.033333
  0
LINE
  8
ボルト／ビス
  6
CONTINUOUS
 10
-121.62285
 20
-70.087288
 11
-121.639515
 21
-70.070622
  0
LINE
  8
ボルト／ビス
  6
CONTINUOUS
 10
-121.87285
 20
-70.070622
 11
-121.889515
 21
-70.087288
  0
LINE
  8
ボルト／ビス
  6
CONTINUOUS
 10
-121.889515
 20
-70.087288
 11
-121.62285
 21
-70.087288
  0
LINE
  8
ボルト／ビス
  6
CONTINUOUS
 10
-121.87285
 20
-70.070622
 11
-121.639515
 21
-70.070622
  0
LINE
  8
ボルト／ビス
  6
CONTINUOUS
 10
-121.639515
 20
-70.070622
 11
-121.639515
 21
-70.113952
  0
LINE
  8
ボルト／ビス
  6
CONTINUOUS
 10
-121.62285
 20
-70.087288
 11
-121.62285
 21
-70.113952
  0
LINE
  8
ボルト／ビス
  6
CONTINUOUS
 10
-121.889515
 20
-70.087288
 11
-121.889515
 21
-70.113952
  0
LINE
  8
ボルト／ビス
  6
CONTINUOUS
 10
-121.87285
 20
-70.070622
 11
-121.87285
 21
-70.113952
  0
LINE
  8
ボルト／ビス
  6
CONTINUOUS
 10
-122.12285
 20
-70.297288
 11
-121.389515
 21
-70.297288
  0
LINE
  8
ボルト／ビス
  6
CONTINUOUS
 10
-121.339515
 20
-70.337288
 11
-121.339515
 21
-70.42062
  0
LINE
  8
ボルト／ビス
  6
CONTINUOUS
 10
-121.339515
 20
-70.42062
 11
-122.17285
 21
-70.42062
  0
LINE
  8
ボルト／ビス
  6
CONTINUOUS
 10
-122.17285
 20
-70.42062
 11
-122.17285
 21
-70.337288
  0
LINE
  8
ボルト／ビス
  6
CONTINUOUS
 10
-121.339515
 20
-70.337288
 11
-122.17285
 21
-70.337288
  0
LINE
  8
ボルト／ビス
  6
CONTINUOUS
 10
-122.12285
 20
-70.297288
 11
-122.12285
 21
-70.337288
  0
LINE
  8
ボルト／ビス
  6
CONTINUOUS
 10
-121.389515
 20
-70.297288
 11
-121.389515
 21
-70.337288
  0
LINE
  8
ボルト／ビス
  6
CONTINUOUS
 10
-121.756182
 20
-70.347288
 11
-121.756182
 21
-70.297288
  0
ENDBLK
  0
BLOCK
  2
*GRP_0013
 70
    65
 10
0.0
 20
0.0
  0
LINE
  8
ボルト／ビス
  6
CONTINUOUS
 10
-121.96285
 20
-69.437453
 11
-121.96285
 21
-69.370788
  0
LINE
  8
ボルト／ビス
  6
CONTINUOUS
 10
-121.96285
 20
-69.370788
 11
-121.229518
 21
-69.370788
  0
LINE
  8
ボルト／ビス
  6
CONTINUOUS
 10
-121.229518
 20
-69.370788
 11
-121.229518
 21
-69.437453
  0
LINE
  8
ボルト／ビス
  6
CONTINUOUS
 10
-121.96285
 20
-69.437453
 11
-121.229518
 21
-69.437453
  0
LINE
  8
ボルト／ビス
  6
CONTINUOUS
 10
-121.896185
 20
-69.337453
 11
-121.896185
 21
-69.370788
  0
LINE
  8
ボルト／ビス
  6
CONTINUOUS
 10
-121.896185
 20
-69.337453
 11
-121.296185
 21
-69.337453
  0
LINE
  8
ボルト／ビス
  6
CONTINUOUS
 10
-121.296185
 20
-69.337453
 11
-121.296185
 21
-69.370788
  0
LINE
  8
ボルト／ビス
  6
CONTINUOUS
 62
    64
 10
-121.75656
 20
-69.137453
 11
-121.788635
 21
-69.149128
  0
ARC
  8
ボルト／ビス
  6
CONTINUOUS
 62
    64
 10
-121.740524
 20
-69.242431
 40
0.104978
 50
62.721967
 51
90.0
  0
ARC
  8
ボルト／ビス
  6
CONTINUOUS
 62
    64
 10
-121.596186
 20
-69.539855
 40
0.402402
 50
76.165002
 51
103.834985
  0
LINE
  8
ボルト／ビス
  6
CONTINUOUS
 62
    64
 10
-121.43581
 20
-69.137453
 11
-121.403735
 21
-69.149128
  0
ARC
  8
ボルト／ビス
  6
CONTINUOUS
 62
    64
 10
-121.451849
 20
-69.242431
 40
0.104978
 50
90.0
 51
117.278033
  0
LINE
  8
ボルト／ビス
  6
CONTINUOUS
 62
    64
 10
-121.75656
 20
-69.137453
 11
-121.43581
 21
-69.137453
  0
LINE
  8
ボルト／ビス
  6
CONTINUOUS
 62
    64
 10
-121.403735
 20
-69.149128
 11
-121.403735
 21
-69.270788
  0
LINE
  8
ボルト／ビス
  6
CONTINUOUS
 62
    64
 10
-121.49996
 20
-69.149128
 11
-121.49996
 21
-69.270788
  0
LINE
  8
ボルト／ビス
  6
CONTINUOUS
 62
    64
 10
-121.788635
 20
-69.149128
 11
-121.788635
 21
-69.270788
  0
LINE
  8
ボルト／ビス
  6
CONTINUOUS
 62
    64
 10
-121.69241
 20
-69.149128
 11
-121.69241
 21
-69.270788
  0
LINE
  8
ボルト／ビス
  6
CONTINUOUS
 10
-121.788635
 20
-69.270788
 11
-121.403735
 21
-69.270788
  0
LINE
  8
ボルト／ビス
  6
CONTINUOUS
 10
-121.796185
 20
-69.270788
 11
-121.796185
 21
-69.337453
  0
LINE
  8
ボルト／ビス
  6
CONTINUOUS
 10
-121.796185
 20
-69.270788
 11
-121.396185
 21
-69.270788
  0
LINE
  8
ボルト／ビス
  6
CONTINUOUS
 10
-121.396185
 20
-69.270788
 11
-121.396185
 21
-69.337453
  0
ENDBLK
  0
BLOCK
  2
*GRP_0014
 70
    65
 10
0.0
 20
0.0
  0
LINE
  8
型材断面
  6
DOT
 10
80.73683
 20
-53.270785
 11
80.68683
 21
-53.270785
  0
LINE
  8
型材断面
  6
DOT
 10
79.070162
 20
-52.770785
 11
79.070162
 21
-52.037453
  0
LINE
  8
型材断面
  6
DOT
 10
79.119858
 20
-53.753953
 11
80.566525
 21
-53.753953
  0
LINE
  8
型材断面
  6
DOT
 10
80.566525
 20
-54.203953
 11
80.566525
 21
-53.753953
  0
LINE
  8
型材断面
  6
DOT
 62
    47
 10
81.299857
 20
-56.876645
 11
81.349857
 21
-56.876645
  0
LINE
  8
型材断面
  6
DOT
 62
    47
 10
81.349857
 20
-56.876645
 11
81.349857
 21
-56.54331
  0
LINE
  8
型材断面
  6
DOT
 62
    47
 10
81.349857
 20
-56.54331
 11
80.566525
 21
-56.44331
  0
LINE
  8
型材断面
  6
DOT
 62
    47
 10
80.566525
 20
-56.037285
 11
80.566525
 21
-56.44331
  0
LINE
  8
型材断面
  6
DOT
 62
    47
 10
81.036525
 20
-56.037285
 11
81.036525
 21
-54.203953
  0
LINE
  8
型材断面
  6
DOT
 10
80.73683
 20
-53.270785
 11
80.73683
 21
-52.770785
  0
LINE
  8
型材断面
  6
DOT
 10
79.119858
 20
-53.753953
 11
79.119858
 21
-53.270785
  0
INSERT
  2
*GRP_0039
  8
型材断面
  6
DOT
 10
0.0
 20
0.0
  0
INSERT
  2
*GRP_0040
  8
型材断面
  6
DOT
 10
0.0
 20
0.0
  0
LINE
  8
型材断面
  6
DOT
 10
81.349857
 20
-56.876645
 11
-20.92983
 21
-56.876645
  0
LINE
  8
型材断面
  6
DOT
 10
81.349857
 20
-56.54331
 11
-20.92983
 21
-56.54331
  0
LINE
  8
型材断面
  6
DOT
 10
80.566525
 20
-56.44331
 11
-20.92983
 21
-56.44331
  0
LINE
  8
型材断面
  6
DOT
 10
81.036525
 20
-56.037285
 11
-20.92983
 21
-56.037285
  0
LINE
  8
型材断面
  6
DOT
 10
80.73683
 20
-53.270785
 11
-20.92983
 21
-53.270785
  0
LINE
  8
型材断面
  6
DOT
 10
79.070162
 20
-52.037453
 11
-20.92983
 21
-52.037453
  0
LINE
  8
型材断面
  6
DOT
 10
80.73683
 20
-52.770785
 11
-20.92983
 21
-52.770785
  0
LINE
  8
型材断面
  6
DOT
 10
80.566525
 20
-53.753953
 11
-20.92983
 21
-53.753953
  0
LINE
  8
型材断面
  6
DOT
 10
81.036525
 20
-54.203953
 11
-20.92983
 21
-54.203953
  0
LINE
  8
型材断面
  6
DOT
 10
-122.59649
 20
-53.270785
 11
-122.54649
 21
-53.270785
  0
LINE
  8
型材断面
  6
DOT
 10
-120.929822
 20
-52.770785
 11
-120.929822
 21
-52.037453
  0
LINE
  8
型材断面
  6
DOT
 10
-120.979518
 20
-53.753953
 11
-122.426185
 21
-53.753953
  0
LINE
  8
型材断面
  6
DOT
 10
-122.426185
 20
-54.203953
 11
-122.426185
 21
-53.753953
  0
LINE
  8
型材断面
  6
DOT
 62
    47
 10
-123.159518
 20
-56.876645
 11
-123.209518
 21
-56.876645
  0
LINE
  8
型材断面
  6
DOT
 62
    47
 10
-123.209518
 20
-56.876645
 11
-123.209518
 21
-56.54331
  0
LINE
  8
型材断面
  6
DOT
 62
    47
 10
-123.209518
 20
-56.54331
 11
-122.426185
 21
-56.44331
  0
LINE
  8
型材断面
  6
DOT
 62
    47
 10
-122.426185
 20
-56.037285
 11
-122.426185
 21
-56.44331
  0
LINE
  8
型材断面
  6
DOT
 62
    47
 10
-122.896185
 20
-56.037285
 11
-122.896185
 21
-54.203953
  0
LINE
  8
型材断面
  6
DOT
 10
-122.59649
 20
-53.270785
 11
-122.59649
 21
-52.770785
  0
LINE
  8
型材断面
  6
DOT
 10
-120.979518
 20
-53.753953
 11
-120.979518
 21
-53.270785
  0
INSERT
  2
*GRP_0041
  8
型材断面
  6
DOT
 10
0.0
 20
0.0
  0
INSERT
  2
*GRP_0042
  8
型材断面
  6
DOT
 10
0.0
 20
0.0
  0
LINE
  8
型材断面
  6
DOT
 10
-123.209518
 20
-56.876645
 11
-20.92983
 21
-56.876645
  0
LINE
  8
型材断面
  6
DOT
 10
-123.209518
 20
-56.54331
 11
-20.92983
 21
-56.54331
  0
LINE
  8
型材断面
  6
DOT
 10
-122.426185
 20
-56.44331
 11
-20.92983
 21
-56.44331
  0
LINE
  8
型材断面
  6
DOT
 10
-122.896185
 20
-56.037285
 11
-20.92983
 21
-56.037285
  0
LINE
  8
型材断面
  6
DOT
 10
-122.59649
 20
-53.270785
 11
-20.92983
 21
-53.270785
  0
LINE
  8
型材断面
  6
DOT
 10
-120.929822
 20
-52.037453
 11
-20.92983
 21
-52.037453
  0
LINE
  8
型材断面
  6
DOT
 10
-122.59649
 20
-52.770785
 11
-20.92983
 21
-52.770785
  0
LINE
  8
型材断面
  6
DOT
 10
-122.426185
 20
-53.753953
 11
-20.92983
 21
-53.753953
  0
LINE
  8
型材断面
  6
DOT
 10
-122.896185
 20
-54.203953
 11
-20.92983
 21
-54.203953
  0
ENDBLK
  0
BLOCK
  2
*GRP_0015
 70
    65
 10
0.0
 20
0.0
  0
LINE
  8
補助線
  6
BYBLOCK
 62
    64
 10
-117.53489
 20
-74.291733
 11
-117.658735
 21
-74.403268
  0
LINE
  8
補助線
  6
BYBLOCK
 62
    64
 10
-117.652582
 20
-74.285575
 11
-117.541045
 21
-74.409422
  0
LINE
  8
補助線
  6
BYBLOCK
 62
    64
 10
-106.819787
 20
-64.641708
 11
-106.943632
 21
-64.753243
  0
LINE
  8
補助線
  6
BYBLOCK
 62
    64
 10
-106.937478
 20
-64.63555
 11
-106.825943
 21
-64.759397
  0
LINE
  8
補助線
  6
BYBLOCK
 62
    64
 10
-96.22853
 20
-55.103218
 11
-96.104687
 21
-54.991683
  0
LINE
  8
補助線
  6
BYBLOCK
 62
    64
 10
-96.222378
 20
-54.985525
 11
-96.11084
 21
-55.109372
  0
LINE
  8
型材断面
  6
CONTINUOUS
 10
-118.40218
 20
-73.951345
 11
-118.439107
 21
-74.657485
  0
LINE
  8
型材断面
  6
CONTINUOUS
 10
-118.439107
 20
-74.657485
 11
-117.992968
 21
-75.152867
  0
LINE
  8
型材断面
  6
CONTINUOUS
 10
-117.992968
 20
-75.152867
 11
-117.286825
 21
-75.189797
  0
LINE
  8
型材断面
  6
CONTINUOUS
 10
-96.476592
 20
-54.205155
 11
-95.770453
 21
-54.242085
  0
LINE
  8
型材断面
  6
CONTINUOUS
 10
-95.770453
 20
-54.242085
 11
-95.32431
 21
-54.737465
  0
LINE
  8
型材断面
  6
CONTINUOUS
 10
-95.32431
 20
-54.737465
 11
-95.36124
 21
-55.44361
  0
LINE
  8
型材断面
  6
CONTINUOUS
 10
-117.286825
 20
-75.189797
 11
-95.36124
 21
-55.44361
  0
LINE
  8
型材断面
  6
CONTINUOUS
 10
-118.40218
 20
-73.951345
 11
-96.476592
 21
-54.205155
  0
CIRCLE
  8
ボルト／ビス
  6
CONTINUOUS
 10
-117.596813
 20
-74.3475
 40
0.250185
  0
CIRCLE
  8
ボルト／ビス
  6
CONTINUOUS
 10
-117.596813
 20
-74.3475
 40
0.301025
  0
LINE
  8
ボルト／ビス
  6
CONTINUOUS
 62
    64
 10
-117.841525
 20
-74.399545
 11
-117.76424
 21
-74.161595
  0
LINE
  8
ボルト／ビス
  6
CONTINUOUS
 62
    64
 10
-117.519528
 20
-74.10955
 11
-117.76424
 21
-74.161595
  0
LINE
  8
ボルト／ビス
  6
CONTINUOUS
 62
    64
 10
-117.674097
 20
-74.58545
 11
-117.429385
 21
-74.533405
  0
LINE
  8
ボルト／ビス
  6
CONTINUOUS
 62
    64
 10
-117.3521
 20
-74.295455
 11
-117.429385
 21
-74.533405
  0
LINE
  8
ボルト／ビス
  6
CONTINUOUS
 62
    64
 10
-117.841525
 20
-74.399545
 11
-117.674097
 21
-74.58545
  0
LINE
  8
ボルト／ビス
  6
CONTINUOUS
 62
    64
 10
-117.519528
 20
-74.10955
 11
-117.3521
 21
-74.295455
  0
CIRCLE
  8
ボルト／ビス
  6
CONTINUOUS
 62
    64
 10
-117.596813
 20
-74.3475
 40
0.216668
  0
CIRCLE
  8
ボルト／ビス
  6
CONTINUOUS
 10
-106.88171
 20
-64.697477
 40
0.250185
  0
CIRCLE
  8
ボルト／ビス
  6
CONTINUOUS
 10
-106.88171
 20
-64.697477
 40
0.301025
  0
LINE
  8
ボルト／ビス
  6
CONTINUOUS
 62
    64
 10
-107.126425
 20
-64.74952
 11
-107.049137
 21
-64.51157
  0
LINE
  8
ボルト／ビス
  6
CONTINUOUS
 62
    64
 10
-106.804425
 20
-64.459527
 11
-107.049137
 21
-64.51157
  0
LINE
  8
ボルト／ビス
  6
CONTINUOUS
 62
    64
 10
-106.958997
 20
-64.935425
 11
-106.714285
 21
-64.88338
  0
LINE
  8
ボルト／ビス
  6
CONTINUOUS
 62
    64
 10
-106.636997
 20
-64.645432
 11
-106.714285
 21
-64.88338
  0
LINE
  8
ボルト／ビス
  6
CONTINUOUS
 62
    64
 10
-107.126425
 20
-64.74952
 11
-106.958997
 21
-64.935425
  0
LINE
  8
ボルト／ビス
  6
CONTINUOUS
 62
    64
 10
-106.804425
 20
-64.459527
 11
-106.636997
 21
-64.645432
  0
CIRCLE
  8
ボルト／ビス
  6
CONTINUOUS
 62
    64
 10
-106.88171
 20
-64.697477
 40
0.216668
  0
CIRCLE
  8
ボルト／ビス
  6
CONTINUOUS
 10
-96.16661
 20
-55.04745
 40
0.250185
  0
CIRCLE
  8
ボルト／ビス
  6
CONTINUOUS
 10
-96.16661
 20
-55.04745
 40
0.301025
  0
LINE
  8
ボルト／ビス
  6
CONTINUOUS
 62
    64
 10
-96.089322
 20
-54.8095
 11
-96.334035
 21
-54.861545
  0
LINE
  8
ボルト／ビス
  6
CONTINUOUS
 62
    64
 10
-96.41132
 20
-55.099495
 11
-96.334035
 21
-54.861545
  0
LINE
  8
ボルト／ビス
  6
CONTINUOUS
 62
    64
 10
-95.921895
 20
-54.995405
 11
-95.999183
 21
-55.233355
  0
LINE
  8
ボルト／ビス
  6
CONTINUOUS
 62
    64
 10
-96.243895
 20
-55.2854
 11
-95.999183
 21
-55.233355
  0
LINE
  8
ボルト／ビス
  6
CONTINUOUS
 62
    64
 10
-96.089322
 20
-54.8095
 11
-95.921895
 21
-54.995405
  0
LINE
  8
ボルト／ビス
  6
CONTINUOUS
 62
    64
 10
-96.41132
 20
-55.099495
 11
-96.243895
 21
-55.2854
  0
CIRCLE
  8
ボルト／ビス
  6
CONTINUOUS
 62
    64
 10
-96.16661
 20
-55.04745
 40
0.216668
  0
ENDBLK
  0
BLOCK
  2
*GRP_0016
 70
    65
 10
0.0
 20
0.0
  0
LINE
  8
補助線
  6
BYBLOCK
 62
    64
 10
-96.22853
 20
-74.291733
 11
-96.104685
 21
-74.403268
  0
LINE
  8
補助線
  6
BYBLOCK
 62
    64
 10
-96.110837
 20
-74.285575
 11
-96.222375
 21
-74.409422
  0
LINE
  8
補助線
  6
BYBLOCK
 62
    64
 10
-106.943632
 20
-64.641708
 11
-106.819787
 21
-64.753243
  0
LINE
  8
補助線
  6
BYBLOCK
 62
    64
 10
-106.825943
 20
-64.63555
 11
-106.937478
 21
-64.759397
  0
LINE
  8
補助線
  6
BYBLOCK
 62
    64
 10
-117.53489
 20
-55.103218
 11
-117.658733
 21
-54.991683
  0
LINE
  8
補助線
  6
BYBLOCK
 62
    64
 10
-117.541043
 20
-54.985525
 11
-117.65258
 21
-55.109372
  0
LINE
  8
型材断面
  6
CONTINUOUS
 10
-95.36124
 20
-73.951345
 11
-95.324312
 21
-74.657485
  0
LINE
  8
型材断面
  6
CONTINUOUS
 10
-95.324312
 20
-74.657485
 11
-95.770453
 21
-75.152867
  0
LINE
  8
型材断面
  6
CONTINUOUS
 10
-95.770453
 20
-75.152867
 11
-96.476595
 21
-75.189797
  0
LINE
  8
型材断面
  6
CONTINUOUS
 10
-117.286827
 20
-54.205155
 11
-117.992968
 21
-54.242085
  0
LINE
  8
型材断面
  6
CONTINUOUS
 10
-117.992968
 20
-54.242085
 11
-118.43911
 21
-54.737465
  0
LINE
  8
型材断面
  6
CONTINUOUS
 10
-118.43911
 20
-54.737465
 11
-118.40218
 21
-55.44361
  0
LINE
  8
型材断面
  6
CONTINUOUS
 10
-96.476595
 20
-75.189797
 11
-118.40218
 21
-55.44361
  0
LINE
  8
型材断面
  6
CONTINUOUS
 10
-95.36124
 20
-73.951345
 11
-117.286827
 21
-54.205155
  0
CIRCLE
  8
ボルト／ビス
  6
CONTINUOUS
 10
-96.166608
 20
-74.3475
 40
0.250185
  0
CIRCLE
  8
ボルト／ビス
  6
CONTINUOUS
 10
-96.166608
 20
-74.3475
 40
0.301025
  0
LINE
  8
ボルト／ビス
  6
CONTINUOUS
 62
    64
 10
-95.921895
 20
-74.399545
 11
-95.99918
 21
-74.161595
  0
LINE
  8
ボルト／ビス
  6
CONTINUOUS
 62
    64
 10
-96.243893
 20
-74.10955
 11
-95.99918
 21
-74.161595
  0
LINE
  8
ボルト／ビス
  6
CONTINUOUS
 62
    64
 10
-96.089322
 20
-74.58545
 11
-96.334035
 21
-74.533405
  0
LINE
  8
ボルト／ビス
  6
CONTINUOUS
 62
    64
 10
-96.41132
 20
-74.295455
 11
-96.334035
 21
-74.533405
  0
LINE
  8
ボルト／ビス
  6
CONTINUOUS
 62
    64
 10
-95.921895
 20
-74.399545
 11
-96.089322
 21
-74.58545
  0
LINE
  8
ボルト／ビス
  6
CONTINUOUS
 62
    64
 10
-96.243893
 20
-74.10955
 11
-96.41132
 21
-74.295455
  0
CIRCLE
  8
ボルト／ビス
  6
CONTINUOUS
 62
    64
 10
-96.166608
 20
-74.3475
 40
0.216668
  0
CIRCLE
  8
ボルト／ビス
  6
CONTINUOUS
 10
-106.88171
 20
-64.697477
 40
0.250185
  0
CIRCLE
  8
ボルト／ビス
  6
CONTINUOUS
 10
-106.88171
 20
-64.697477
 40
0.301025
  0
LINE
  8
ボルト／ビス
  6
CONTINUOUS
 62
    64
 10
-106.636995
 20
-64.74952
 11
-106.714283
 21
-64.51157
  0
LINE
  8
ボルト／ビス
  6
CONTINUOUS
 62
    64
 10
-106.958995
 20
-64.459527
 11
-106.714283
 21
-64.51157
  0
LINE
  8
ボルト／ビス
  6
CONTINUOUS
 62
    64
 10
-106.804422
 20
-64.935425
 11
-107.049135
 21
-64.88338
  0
LINE
  8
ボルト／ビス
  6
CONTINUOUS
 62
    64
 10
-107.126422
 20
-64.645432
 11
-107.049135
 21
-64.88338
  0
LINE
  8
ボルト／ビス
  6
CONTINUOUS
 62
    64
 10
-106.636995
 20
-64.74952
 11
-106.804422
 21
-64.935425
  0
LINE
  8
ボルト／ビス
  6
CONTINUOUS
 62
    64
 10
-106.958995
 20
-64.459527
 11
-107.126422
 21
-64.645432
  0
CIRCLE
  8
ボルト／ビス
  6
CONTINUOUS
 62
    64
 10
-106.88171
 20
-64.697477
 40
0.216668
  0
CIRCLE
  8
ボルト／ビス
  6
CONTINUOUS
 10
-117.59681
 20
-55.04745
 40
0.250185
  0
CIRCLE
  8
ボルト／ビス
  6
CONTINUOUS
 10
-117.59681
 20
-55.04745
 40
0.301025
  0
LINE
  8
ボルト／ビス
  6
CONTINUOUS
 62
    64
 10
-117.674097
 20
-54.8095
 11
-117.429385
 21
-54.861545
  0
LINE
  8
ボルト／ビス
  6
CONTINUOUS
 62
    64
 10
-117.3521
 20
-55.099495
 11
-117.429385
 21
-54.861545
  0
LINE
  8
ボルト／ビス
  6
CONTINUOUS
 62
    64
 10
-117.841525
 20
-54.995405
 11
-117.764238
 21
-55.233355
  0
LINE
  8
ボルト／ビス
  6
CONTINUOUS
 62
    64
 10
-117.519525
 20
-55.2854
 11
-117.764238
 21
-55.233355
  0
LINE
  8
ボルト／ビス
  6
CONTINUOUS
 62
    64
 10
-117.674097
 20
-54.8095
 11
-117.841525
 21
-54.995405
  0
LINE
  8
ボルト／ビス
  6
CONTINUOUS
 62
    64
 10
-117.3521
 20
-55.099495
 11
-117.519525
 21
-55.2854
  0
CIRCLE
  8
ボルト／ビス
  6
CONTINUOUS
 62
    64
 10
-117.59681
 20
-55.04745
 40
0.216668
  0
ENDBLK
  0
BLOCK
  2
*GRP_0017
 70
    65
 10
0.0
 20
0.0
  0
LINE
  8
補助線
  6
BYBLOCK
 62
    64
 10
75.6746
 20
-74.291733
 11
75.798445
 21
-74.403268
  0
LINE
  8
補助線
  6
BYBLOCK
 62
    64
 10
75.792293
 20
-74.285575
 11
75.680755
 21
-74.409422
  0
LINE
  8
補助線
  6
BYBLOCK
 62
    64
 10
64.959497
 20
-64.641708
 11
65.083343
 21
-64.753243
  0
LINE
  8
補助線
  6
BYBLOCK
 62
    64
 10
65.077188
 20
-64.63555
 11
64.965653
 21
-64.759397
  0
LINE
  8
補助線
  6
BYBLOCK
 62
    64
 10
54.36824
 20
-55.103218
 11
54.244398
 21
-54.991683
  0
LINE
  8
補助線
  6
BYBLOCK
 62
    64
 10
54.362088
 20
-54.985525
 11
54.25055
 21
-55.109372
  0
LINE
  8
型材断面
  6
CONTINUOUS
 10
76.54189
 20
-73.951345
 11
76.578817
 21
-74.657485
  0
LINE
  8
型材断面
  6
CONTINUOUS
 10
76.578817
 20
-74.657485
 11
76.132677
 21
-75.152867
  0
LINE
  8
型材断面
  6
CONTINUOUS
 10
76.132677
 20
-75.152867
 11
75.426535
 21
-75.189797
  0
LINE
  8
型材断面
  6
CONTINUOUS
 10
54.616302
 20
-54.205155
 11
53.910162
 21
-54.242085
  0
LINE
  8
型材断面
  6
CONTINUOUS
 10
53.910162
 20
-54.242085
 11
53.46402
 21
-54.737465
  0
LINE
  8
型材断面
  6
CONTINUOUS
 10
53.46402
 20
-54.737465
 11
53.50095
 21
-55.44361
  0
LINE
  8
型材断面
  6
CONTINUOUS
 10
75.426535
 20
-75.189797
 11
53.50095
 21
-55.44361
  0
LINE
  8
型材断面
  6
CONTINUOUS
 10
76.54189
 20
-73.951345
 11
54.616302
 21
-54.205155
  0
CIRCLE
  8
ボルト／ビス
  6
CONTINUOUS
 10
75.736522
 20
-74.3475
 40
0.250185
  0
CIRCLE
  8
ボルト／ビス
  6
CONTINUOUS
 10
75.736522
 20
-74.3475
 40
0.301025
  0
LINE
  8
ボルト／ビス
  6
CONTINUOUS
 62
    64
 10
75.981235
 20
-74.399545
 11
75.90395
 21
-74.161595
  0
LINE
  8
ボルト／ビス
  6
CONTINUOUS
 62
    64
 10
75.659238
 20
-74.10955
 11
75.90395
 21
-74.161595
  0
LINE
  8
ボルト／ビス
  6
CONTINUOUS
 62
    64
 10
75.813808
 20
-74.58545
 11
75.569095
 21
-74.533405
  0
LINE
  8
ボルト／ビス
  6
CONTINUOUS
 62
    64
 10
75.49181
 20
-74.295455
 11
75.569095
 21
-74.533405
  0
LINE
  8
ボルト／ビス
  6
CONTINUOUS
 62
    64
 10
75.981235
 20
-74.399545
 11
75.813808
 21
-74.58545
  0
LINE
  8
ボルト／ビス
  6
CONTINUOUS
 62
    64
 10
75.659238
 20
-74.10955
 11
75.49181
 21
-74.295455
  0
CIRCLE
  8
ボルト／ビス
  6
CONTINUOUS
 62
    64
 10
75.736522
 20
-74.3475
 40
0.216668
  0
CIRCLE
  8
ボルト／ビス
  6
CONTINUOUS
 10
65.02142
 20
-64.697477
 40
0.250185
  0
CIRCLE
  8
ボルト／ビス
  6
CONTINUOUS
 10
65.02142
 20
-64.697477
 40
0.301025
  0
LINE
  8
ボルト／ビス
  6
CONTINUOUS
 62
    64
 10
65.266135
 20
-64.74952
 11
65.188847
 21
-64.51157
  0
LINE
  8
ボルト／ビス
  6
CONTINUOUS
 62
    64
 10
64.944135
 20
-64.459527
 11
65.188847
 21
-64.51157
  0
LINE
  8
ボルト／ビス
  6
CONTINUOUS
 62
    64
 10
65.098707
 20
-64.935425
 11
64.853995
 21
-64.88338
  0
LINE
  8
ボルト／ビス
  6
CONTINUOUS
 62
    64
 10
64.776707
 20
-64.645432
 11
64.853995
 21
-64.88338
  0
LINE
  8
ボルト／ビス
  6
CONTINUOUS
 62
    64
 10
65.266135
 20
-64.74952
 11
65.098707
 21
-64.935425
  0
LINE
  8
ボルト／ビス
  6
CONTINUOUS
 62
    64
 10
64.944135
 20
-64.459527
 11
64.776707
 21
-64.645432
  0
CIRCLE
  8
ボルト／ビス
  6
CONTINUOUS
 62
    64
 10
65.02142
 20
-64.697477
 40
0.216668
  0
CIRCLE
  8
ボルト／ビス
  6
CONTINUOUS
 10
54.30632
 20
-55.04745
 40
0.250185
  0
CIRCLE
  8
ボルト／ビス
  6
CONTINUOUS
 10
54.30632
 20
-55.04745
 40
0.301025
  0
LINE
  8
ボルト／ビス
  6
CONTINUOUS
 62
    64
 10
54.229032
 20
-54.8095
 11
54.473745
 21
-54.861545
  0
LINE
  8
ボルト／ビス
  6
CONTINUOUS
 62
    64
 10
54.55103
 20
-55.099495
 11
54.473745
 21
-54.861545
  0
LINE
  8
ボルト／ビス
  6
CONTINUOUS
 62
    64
 10
54.061605
 20
-54.995405
 11
54.138892
 21
-55.233355
  0
LINE
  8
ボルト／ビス
  6
CONTINUOUS
 62
    64
 10
54.383605
 20
-55.2854
 11
54.138892
 21
-55.233355
  0
LINE
  8
ボルト／ビス
  6
CONTINUOUS
 62
    64
 10
54.229032
 20
-54.8095
 11
54.061605
 21
-54.995405
  0
LINE
  8
ボルト／ビス
  6
CONTINUOUS
 62
    64
 10
54.55103
 20
-55.099495
 11
54.383605
 21
-55.2854
  0
CIRCLE
  8
ボルト／ビス
  6
CONTINUOUS
 62
    64
 10
54.30632
 20
-55.04745
 40
0.216668
  0
ENDBLK
  0
BLOCK
  2
*GRP_0018
 70
    65
 10
0.0
 20
0.0
  0
LINE
  8
補助線
  6
BYBLOCK
 62
    64
 10
54.36824
 20
-74.291733
 11
54.244395
 21
-74.403268
  0
LINE
  8
補助線
  6
BYBLOCK
 62
    64
 10
54.250547
 20
-74.285575
 11
54.362085
 21
-74.409422
  0
LINE
  8
補助線
  6
BYBLOCK
 62
    64
 10
65.083343
 20
-64.641708
 11
64.959497
 21
-64.753243
  0
LINE
  8
補助線
  6
BYBLOCK
 62
    64
 10
64.965653
 20
-64.63555
 11
65.077188
 21
-64.759397
  0
LINE
  8
補助線
  6
BYBLOCK
 62
    64
 10
75.6746
 20
-55.103218
 11
75.798443
 21
-54.991683
  0
LINE
  8
補助線
  6
BYBLOCK
 62
    64
 10
75.680753
 20
-54.985525
 11
75.79229
 21
-55.109372
  0
LINE
  8
型材断面
  6
CONTINUOUS
 10
53.50095
 20
-73.951345
 11
53.464022
 21
-74.657485
  0
LINE
  8
型材断面
  6
CONTINUOUS
 10
53.464022
 20
-74.657485
 11
53.910162
 21
-75.152867
  0
LINE
  8
型材断面
  6
CONTINUOUS
 10
53.910162
 20
-75.152867
 11
54.616305
 21
-75.189797
  0
LINE
  8
型材断面
  6
CONTINUOUS
 10
75.426538
 20
-54.205155
 11
76.132677
 21
-54.242085
  0
LINE
  8
型材断面
  6
CONTINUOUS
 10
76.132677
 20
-54.242085
 11
76.57882
 21
-54.737465
  0
LINE
  8
型材断面
  6
CONTINUOUS
 10
76.57882
 20
-54.737465
 11
76.54189
 21
-55.44361
  0
LINE
  8
型材断面
  6
CONTINUOUS
 10
54.616305
 20
-75.189797
 11
76.54189
 21
-55.44361
  0
LINE
  8
型材断面
  6
CONTINUOUS
 10
53.50095
 20
-73.951345
 11
75.426538
 21
-54.205155
  0
CIRCLE
  8
ボルト／ビス
  6
CONTINUOUS
 10
54.306317
 20
-74.3475
 40
0.250185
  0
CIRCLE
  8
ボルト／ビス
  6
CONTINUOUS
 10
54.306317
 20
-74.3475
 40
0.301025
  0
LINE
  8
ボルト／ビス
  6
CONTINUOUS
 62
    64
 10
54.061605
 20
-74.399545
 11
54.13889
 21
-74.161595
  0
LINE
  8
ボルト／ビス
  6
CONTINUOUS
 62
    64
 10
54.383603
 20
-74.10955
 11
54.13889
 21
-74.161595
  0
LINE
  8
ボルト／ビス
  6
CONTINUOUS
 62
    64
 10
54.229032
 20
-74.58545
 11
54.473745
 21
-74.533405
  0
LINE
  8
ボルト／ビス
  6
CONTINUOUS
 62
    64
 10
54.55103
 20
-74.295455
 11
54.473745
 21
-74.533405
  0
LINE
  8
ボルト／ビス
  6
CONTINUOUS
 62
    64
 10
54.061605
 20
-74.399545
 11
54.229032
 21
-74.58545
  0
LINE
  8
ボルト／ビス
  6
CONTINUOUS
 62
    64
 10
54.383603
 20
-74.10955
 11
54.55103
 21
-74.295455
  0
CIRCLE
  8
ボルト／ビス
  6
CONTINUOUS
 62
    64
 10
54.306317
 20
-74.3475
 40
0.216668
  0
CIRCLE
  8
ボルト／ビス
  6
CONTINUOUS
 10
65.02142
 20
-64.697477
 40
0.250185
  0
CIRCLE
  8
ボルト／ビス
  6
CONTINUOUS
 10
65.02142
 20
-64.697477
 40
0.301025
  0
LINE
  8
ボルト／ビス
  6
CONTINUOUS
 62
    64
 10
64.776705
 20
-64.74952
 11
64.853992
 21
-64.51157
  0
LINE
  8
ボルト／ビス
  6
CONTINUOUS
 62
    64
 10
65.098705
 20
-64.459527
 11
64.853992
 21
-64.51157
  0
LINE
  8
ボルト／ビス
  6
CONTINUOUS
 62
    64
 10
64.944132
 20
-64.935425
 11
65.188845
 21
-64.88338
  0
LINE
  8
ボルト／ビス
  6
CONTINUOUS
 62
    64
 10
65.266132
 20
-64.645432
 11
65.188845
 21
-64.88338
  0
LINE
  8
ボルト／ビス
  6
CONTINUOUS
 62
    64
 10
64.776705
 20
-64.74952
 11
64.944132
 21
-64.935425
  0
LINE
  8
ボルト／ビス
  6
CONTINUOUS
 62
    64
 10
65.098705
 20
-64.459527
 11
65.266132
 21
-64.645432
  0
CIRCLE
  8
ボルト／ビス
  6
CONTINUOUS
 62
    64
 10
65.02142
 20
-64.697477
 40
0.216668
  0
CIRCLE
  8
ボルト／ビス
  6
CONTINUOUS
 10
75.73652
 20
-55.04745
 40
0.250185
  0
CIRCLE
  8
ボルト／ビス
  6
CONTINUOUS
 10
75.73652
 20
-55.04745
 40
0.301025
  0
LINE
  8
ボルト／ビス
  6
CONTINUOUS
 62
    64
 10
75.813808
 20
-54.8095
 11
75.569095
 21
-54.861545
  0
LINE
  8
ボルト／ビス
  6
CONTINUOUS
 62
    64
 10
75.49181
 20
-55.099495
 11
75.569095
 21
-54.861545
  0
LINE
  8
ボルト／ビス
  6
CONTINUOUS
 62
    64
 10
75.981235
 20
-54.995405
 11
75.903947
 21
-55.233355
  0
LINE
  8
ボルト／ビス
  6
CONTINUOUS
 62
    64
 10
75.659235
 20
-55.2854
 11
75.903947
 21
-55.233355
  0
LINE
  8
ボルト／ビス
  6
CONTINUOUS
 62
    64
 10
75.813808
 20
-54.8095
 11
75.981235
 21
-54.995405
  0
LINE
  8
ボルト／ビス
  6
CONTINUOUS
 62
    64
 10
75.49181
 20
-55.099495
 11
75.659235
 21
-55.2854
  0
CIRCLE
  8
ボルト／ビス
  6
CONTINUOUS
 62
    64
 10
75.73652
 20
-55.04745
 40
0.216668
  0
ENDBLK
  0
BLOCK
  2
*GRP_0019
 70
    65
 10
0.0
 20
0.0
  0
LINE
  8
補助線
  6
BYBLOCK
 62
    64
 10
-10.276965
 20
-74.291733
 11
-10.15312
 21
-74.403268
  0
LINE
  8
補助線
  6
BYBLOCK
 62
    64
 10
-10.159273
 20
-74.285575
 11
-10.27081
 21
-74.409422
  0
LINE
  8
補助線
  6
BYBLOCK
 62
    64
 10
-20.992068
 20
-64.641708
 11
-20.868222
 21
-64.753243
  0
LINE
  8
補助線
  6
BYBLOCK
 62
    64
 10
-20.874377
 20
-64.63555
 11
-20.985912
 21
-64.759397
  0
LINE
  8
補助線
  6
BYBLOCK
 62
    64
 10
-31.583325
 20
-55.103218
 11
-31.707168
 21
-54.991683
  0
LINE
  8
補助線
  6
BYBLOCK
 62
    64
 10
-31.589477
 20
-54.985525
 11
-31.701015
 21
-55.109372
  0
LINE
  8
型材断面
  6
CONTINUOUS
 10
-9.409675
 20
-73.951345
 11
-9.372747
 21
-74.657485
  0
LINE
  8
型材断面
  6
CONTINUOUS
 10
-9.372747
 20
-74.657485
 11
-9.818887
 21
-75.152867
  0
LINE
  8
型材断面
  6
CONTINUOUS
 10
-9.818887
 20
-75.152867
 11
-10.52503
 21
-75.189797
  0
LINE
  8
型材断面
  6
CONTINUOUS
 10
-31.335263
 20
-54.205155
 11
-32.041403
 21
-54.242085
  0
LINE
  8
型材断面
  6
CONTINUOUS
 10
-32.041403
 20
-54.242085
 11
-32.487545
 21
-54.737465
  0
LINE
  8
型材断面
  6
CONTINUOUS
 10
-32.487545
 20
-54.737465
 11
-32.450615
 21
-55.44361
  0
LINE
  8
型材断面
  6
CONTINUOUS
 10
-10.52503
 20
-75.189797
 11
-32.450615
 21
-55.44361
  0
LINE
  8
型材断面
  6
CONTINUOUS
 10
-9.409675
 20
-73.951345
 11
-31.335263
 21
-54.205155
  0
CIRCLE
  8
ボルト／ビス
  6
CONTINUOUS
 10
-10.215042
 20
-74.3475
 40
0.250185
  0
CIRCLE
  8
ボルト／ビス
  6
CONTINUOUS
 10
-10.215042
 20
-74.3475
 40
0.301025
  0
LINE
  8
ボルト／ビス
  6
CONTINUOUS
 62
    64
 10
-9.97033
 20
-74.399545
 11
-10.047615
 21
-74.161595
  0
LINE
  8
ボルト／ビス
  6
CONTINUOUS
 62
    64
 10
-10.292328
 20
-74.10955
 11
-10.047615
 21
-74.161595
  0
LINE
  8
ボルト／ビス
  6
CONTINUOUS
 62
    64
 10
-10.137758
 20
-74.58545
 11
-10.38247
 21
-74.533405
  0
LINE
  8
ボルト／ビス
  6
CONTINUOUS
 62
    64
 10
-10.459755
 20
-74.295455
 11
-10.38247
 21
-74.533405
  0
LINE
  8
ボルト／ビス
  6
CONTINUOUS
 62
    64
 10
-9.97033
 20
-74.399545
 11
-10.137758
 21
-74.58545
  0
LINE
  8
ボルト／ビス
  6
CONTINUOUS
 62
    64
 10
-10.292328
 20
-74.10955
 11
-10.459755
 21
-74.295455
  0
CIRCLE
  8
ボルト／ビス
  6
CONTINUOUS
 62
    64
 10
-10.215042
 20
-74.3475
 40
0.216668
  0
CIRCLE
  8
ボルト／ビス
  6
CONTINUOUS
 10
-20.930145
 20
-64.697477
 40
0.250185
  0
CIRCLE
  8
ボルト／ビス
  6
CONTINUOUS
 10
-20.930145
 20
-64.697477
 40
0.301025
  0
LINE
  8
ボルト／ビス
  6
CONTINUOUS
 62
    64
 10
-20.68543
 20
-64.74952
 11
-20.762717
 21
-64.51157
  0
LINE
  8
ボルト／ビス
  6
CONTINUOUS
 62
    64
 10
-21.00743
 20
-64.459527
 11
-20.762717
 21
-64.51157
  0
LINE
  8
ボルト／ビス
  6
CONTINUOUS
 62
    64
 10
-20.852858
 20
-64.935425
 11
-21.09757
 21
-64.88338
  0
LINE
  8
ボルト／ビス
  6
CONTINUOUS
 62
    64
 10
-21.174857
 20
-64.645432
 11
-21.09757
 21
-64.88338
  0
LINE
  8
ボルト／ビス
  6
CONTINUOUS
 62
    64
 10
-20.68543
 20
-64.74952
 11
-20.852858
 21
-64.935425
  0
LINE
  8
ボルト／ビス
  6
CONTINUOUS
 62
    64
 10
-21.00743
 20
-64.459527
 11
-21.174857
 21
-64.645432
  0
CIRCLE
  8
ボルト／ビス
  6
CONTINUOUS
 62
    64
 10
-20.930145
 20
-64.697477
 40
0.216668
  0
CIRCLE
  8
ボルト／ビス
  6
CONTINUOUS
 10
-31.645245
 20
-55.04745
 40
0.250185
  0
CIRCLE
  8
ボルト／ビス
  6
CONTINUOUS
 10
-31.645245
 20
-55.04745
 40
0.301025
  0
LINE
  8
ボルト／ビス
  6
CONTINUOUS
 62
    64
 10
-31.722533
 20
-54.8095
 11
-31.47782
 21
-54.861545
  0
LINE
  8
ボルト／ビス
  6
CONTINUOUS
 62
    64
 10
-31.400535
 20
-55.099495
 11
-31.47782
 21
-54.861545
  0
LINE
  8
ボルト／ビス
  6
CONTINUOUS
 62
    64
 10
-31.88996
 20
-54.995405
 11
-31.812673
 21
-55.233355
  0
LINE
  8
ボルト／ビス
  6
CONTINUOUS
 62
    64
 10
-31.56796
 20
-55.2854
 11
-31.812673
 21
-55.233355
  0
LINE
  8
ボルト／ビス
  6
CONTINUOUS
 62
    64
 10
-31.722533
 20
-54.8095
 11
-31.88996
 21
-54.995405
  0
LINE
  8
ボルト／ビス
  6
CONTINUOUS
 62
    64
 10
-31.400535
 20
-55.099495
 11
-31.56796
 21
-55.2854
  0
CIRCLE
  8
ボルト／ビス
  6
CONTINUOUS
 62
    64
 10
-31.645245
 20
-55.04745
 40
0.216668
  0
ENDBLK
  0
BLOCK
  2
*GRP_0020
 70
    65
 10
0.0
 20
0.0
  0
LINE
  8
補助線
  6
BYBLOCK
 62
    64
 10
-31.583325
 20
-74.291733
 11
-31.70717
 21
-74.403268
  0
LINE
  8
補助線
  6
BYBLOCK
 62
    64
 10
-31.701018
 20
-74.285575
 11
-31.58948
 21
-74.409422
  0
LINE
  8
補助線
  6
BYBLOCK
 62
    64
 10
-20.868222
 20
-64.641708
 11
-20.992068
 21
-64.753243
  0
LINE
  8
補助線
  6
BYBLOCK
 62
    64
 10
-20.985912
 20
-64.63555
 11
-20.874377
 21
-64.759397
  0
LINE
  8
補助線
  6
BYBLOCK
 62
    64
 10
-10.276965
 20
-55.103218
 11
-10.153122
 21
-54.991683
  0
LINE
  8
補助線
  6
BYBLOCK
 62
    64
 10
-10.270813
 20
-54.985525
 11
-10.159275
 21
-55.109372
  0
LINE
  8
型材断面
  6
CONTINUOUS
 10
-32.450615
 20
-73.951345
 11
-32.487543
 21
-74.657485
  0
LINE
  8
型材断面
  6
CONTINUOUS
 10
-32.487543
 20
-74.657485
 11
-32.041403
 21
-75.152867
  0
LINE
  8
型材断面
  6
CONTINUOUS
 10
-32.041403
 20
-75.152867
 11
-31.33526
 21
-75.189797
  0
LINE
  8
型材断面
  6
CONTINUOUS
 10
-10.525028
 20
-54.205155
 11
-9.818887
 21
-54.242085
  0
LINE
  8
型材断面
  6
CONTINUOUS
 10
-9.818887
 20
-54.242085
 11
-9.372745
 21
-54.737465
  0
LINE
  8
型材断面
  6
CONTINUOUS
 10
-9.372745
 20
-54.737465
 11
-9.409675
 21
-55.44361
  0
LINE
  8
型材断面
  6
CONTINUOUS
 10
-31.33526
 20
-75.189797
 11
-9.409675
 21
-55.44361
  0
LINE
  8
型材断面
  6
CONTINUOUS
 10
-32.450615
 20
-73.951345
 11
-10.525028
 21
-54.205155
  0
CIRCLE
  8
ボルト／ビス
  6
CONTINUOUS
 10
-31.645248
 20
-74.3475
 40
0.250185
  0
CIRCLE
  8
ボルト／ビス
  6
CONTINUOUS
 10
-31.645248
 20
-74.3475
 40
0.301025
  0
LINE
  8
ボルト／ビス
  6
CONTINUOUS
 62
    64
 10
-31.88996
 20
-74.399545
 11
-31.812675
 21
-74.161595
  0
LINE
  8
ボルト／ビス
  6
CONTINUOUS
 62
    64
 10
-31.567962
 20
-74.10955
 11
-31.812675
 21
-74.161595
  0
LINE
  8
ボルト／ビス
  6
CONTINUOUS
 62
    64
 10
-31.722533
 20
-74.58545
 11
-31.47782
 21
-74.533405
  0
LINE
  8
ボルト／ビス
  6
CONTINUOUS
 62
    64
 10
-31.400535
 20
-74.295455
 11
-31.47782
 21
-74.533405
  0
LINE
  8
ボルト／ビス
  6
CONTINUOUS
 62
    64
 10
-31.88996
 20
-74.399545
 11
-31.722533
 21
-74.58545
  0
LINE
  8
ボルト／ビス
  6
CONTINUOUS
 62
    64
 10
-31.567962
 20
-74.10955
 11
-31.400535
 21
-74.295455
  0
CIRCLE
  8
ボルト／ビス
  6
CONTINUOUS
 62
    64
 10
-31.645248
 20
-74.3475
 40
0.216668
  0
CIRCLE
  8
ボルト／ビス
  6
CONTINUOUS
 10
-20.930145
 20
-64.697477
 40
0.250185
  0
CIRCLE
  8
ボルト／ビス
  6
CONTINUOUS
 10
-20.930145
 20
-64.697477
 40
0.301025
  0
LINE
  8
ボルト／ビス
  6
CONTINUOUS
 62
    64
 10
-21.17486
 20
-64.74952
 11
-21.097573
 21
-64.51157
  0
LINE
  8
ボルト／ビス
  6
CONTINUOUS
 62
    64
 10
-20.85286
 20
-64.459527
 11
-21.097573
 21
-64.51157
  0
LINE
  8
ボルト／ビス
  6
CONTINUOUS
 62
    64
 10
-21.007432
 20
-64.935425
 11
-20.76272
 21
-64.88338
  0
LINE
  8
ボルト／ビス
  6
CONTINUOUS
 62
    64
 10
-20.685433
 20
-64.645432
 11
-20.76272
 21
-64.88338
  0
LINE
  8
ボルト／ビス
  6
CONTINUOUS
 62
    64
 10
-21.17486
 20
-64.74952
 11
-21.007432
 21
-64.935425
  0
LINE
  8
ボルト／ビス
  6
CONTINUOUS
 62
    64
 10
-20.85286
 20
-64.459527
 11
-20.685433
 21
-64.645432
  0
CIRCLE
  8
ボルト／ビス
  6
CONTINUOUS
 62
    64
 10
-20.930145
 20
-64.697477
 40
0.216668
  0
CIRCLE
  8
ボルト／ビス
  6
CONTINUOUS
 10
-10.215045
 20
-55.04745
 40
0.250185
  0
CIRCLE
  8
ボルト／ビス
  6
CONTINUOUS
 10
-10.215045
 20
-55.04745
 40
0.301025
  0
LINE
  8
ボルト／ビス
  6
CONTINUOUS
 62
    64
 10
-10.137758
 20
-54.8095
 11
-10.38247
 21
-54.861545
  0
LINE
  8
ボルト／ビス
  6
CONTINUOUS
 62
    64
 10
-10.459755
 20
-55.099495
 11
-10.38247
 21
-54.861545
  0
LINE
  8
ボルト／ビス
  6
CONTINUOUS
 62
    64
 10
-9.97033
 20
-54.995405
 11
-10.047617
 21
-55.233355
  0
LINE
  8
ボルト／ビス
  6
CONTINUOUS
 62
    64
 10
-10.29233
 20
-55.2854
 11
-10.047617
 21
-55.233355
  0
LINE
  8
ボルト／ビス
  6
CONTINUOUS
 62
    64
 10
-10.137758
 20
-54.8095
 11
-9.97033
 21
-54.995405
  0
LINE
  8
ボルト／ビス
  6
CONTINUOUS
 62
    64
 10
-10.459755
 20
-55.099495
 11
-10.29233
 21
-55.2854
  0
CIRCLE
  8
ボルト／ビス
  6
CONTINUOUS
 62
    64
 10
-10.215045
 20
-55.04745
 40
0.216668
  0
ENDBLK
  0
BLOCK
  2
*DIM_0021
 70
    65
 10
0.0
 20
0.0
  0
LINE
  8
寸法
  6
CONTINUOUS
 10
84.070162
 20
-68.70412
 11
102.688635
 21
-68.70412
  0
LINE
  8
寸法
  6
CONTINUOUS
 10
86.036525
 20
-76.17062
 11
102.688635
 21
-76.17062
  0
LINE
  8
寸法
  6
CONTINUOUS
 10
102.688635
 20
-68.70412
 11
102.688635
 21
-76.17062
  0
POINT
  8
寸法
 10
102.688635
 20
-68.70412
  0
POINT
  8
寸法
 10
102.688635
 20
-76.17062
  0
TEXT
  7
TextStyle03
  8
寸法
  6
CONTINUOUS
 10
102.275
 20
-74.8875
  1
224
 40
3.0
 50
90.0
 72
     5
 11
102.275
 21
-70.0125
  0
ENDBLK
  0
BLOCK
  2
*DIM_0022
 70
    65
 10
0.0
 20
0.0
  0
LINE
  8
寸法
  6
BYBLOCK
 62
     0
 10
-104.263162
 20
24.90653
 11
-104.263162
 21
19.822478
  0
LINE
  8
寸法
  6
BYBLOCK
 62
     0
 10
-20.92983
 20
24.90653
 11
-20.92983
 21
19.822478
  0
LINE
  8
寸法
  6
BYBLOCK
 62
     0
 10
-104.263162
 20
19.822478
 11
-20.92983
 21
19.822478
  0
POINT
  8
寸法
 62
     0
 10
-104.263162
 20
19.822478
  0
POINT
  8
寸法
 62
     0
 10
-20.92983
 20
19.822478
  0
TEXT
  7
TextStyle03
  8
寸法
  6
CONTINUOUS
 62
     0
 10
-65.90625
 20
20.175
  1
2500
 40
3.0
 72
     5
 11
-59.34375
 21
20.175
  0
ENDBLK
  0
BLOCK
  2
*DIM_0023
 70
    65
 10
0.0
 20
0.0
  0
LINE
  8
寸法
  6
BYBLOCK
 62
     0
 10
62.403502
 20
24.90653
 11
62.403502
 21
19.822478
  0
LINE
  8
寸法
  6
BYBLOCK
 62
     0
 10
-20.92983
 20
19.822478
 11
62.403502
 21
19.822478
  0
POINT
  8
寸法
 62
     0
 10
62.403502
 20
19.822478
  0
TEXT
  7
TextStyle03
  8
寸法
  6
CONTINUOUS
 62
     0
 10
17.41875
 20
20.175
  1
2500
 40
3.0
 72
     5
 11
23.98125
 21
20.175
  0
ENDBLK
  0
BLOCK
  2
*DIM_0024
 70
    65
 10
0.0
 20
0.0
  0
LINE
  8
寸法
  6
BYBLOCK
 62
     0
 10
82.700297
 20
67.96999
 11
89.47759
 21
67.96999
  0
LINE
  8
寸法
  6
BYBLOCK
 62
     0
 10
89.47759
 20
71.86999
 11
89.47759
 21
67.96999
  0
POINT
  8
寸法
 62
     0
 10
89.47759
 20
71.86999
  0
POINT
  8
寸法
 62
     0
 10
89.47759
 20
67.96999
  0
TEXT
  7
TextStyle03
  8
寸法
  6
CONTINUOUS
 62
     0
 10
89.1
 20
72.5375
  1
117
 40
3.0
 50
90.0
 72
     5
 11
89.1
 21
77.4125
  0
ENDBLK
  0
BLOCK
  2
*DIM_0025
 70
    65
 10
0.0
 20
0.0
  0
LINE
  8
寸法
  6
BYBLOCK
 62
     0
 10
82.700297
 20
32.43666
 11
89.47759
 21
32.43666
  0
LINE
  8
寸法
  6
BYBLOCK
 62
     0
 10
89.47759
 20
28.53666
 11
89.47759
 21
32.43666
  0
POINT
  8
寸法
 62
     0
 10
89.47759
 20
28.53666
  0
POINT
  8
寸法
 62
     0
 10
89.47759
 20
32.43666
  0
TEXT
  7
TextStyle03
  8
寸法
  6
CONTINUOUS
 62
     0
 10
89.525
 20
22.5875
  1
117
 40
3.0
 50
90.0
 72
     5
 11
89.525
 21
27.4625
  0
ENDBLK
  0
BLOCK
  2
*DIM_0026
 70
    65
 10
0.0
 20
0.0
  0
LINE
  8
寸法
  6
BYBLOCK
 62
     0
 10
-123.92983
 20
38.536658
 11
-152.874995
 21
38.536658
  0
LINE
  8
寸法
  6
BYBLOCK
 62
     0
 10
-123.92983
 20
61.869993
 11
-152.874995
 21
61.869993
  0
LINE
  8
寸法
  6
BYBLOCK
 62
     0
 10
-152.874995
 20
38.536658
 11
-152.874995
 21
61.869993
  0
POINT
  8
寸法
 62
     0
 10
-152.874995
 20
38.536658
  0
POINT
  8
寸法
 62
     0
 10
-152.874995
 20
61.869993
  0
TEXT
  7
TextStyle03
  8
寸法
  6
CONTINUOUS
 62
     0
 10
-153.2
 20
47.7375
  1
700
 40
3.0
 50
90.0
 72
     5
 11
-153.2
 21
52.6125
  0
ENDBLK
  0
BLOCK
  2
*DIM_0027
 70
    65
 10
0.0
 20
0.0
  0
LINE
  8
寸法
  6
BYBLOCK
 62
     0
 10
-114.263162
 20
74.86999
 11
-114.263162
 21
103.978062
  0
LINE
  8
寸法
  6
BYBLOCK
 62
     0
 10
-90.92983
 20
74.86999
 11
-90.92983
 21
103.978062
  0
LINE
  8
寸法
  6
BYBLOCK
 62
     0
 10
-114.263162
 20
103.978062
 11
-90.92983
 21
103.978062
  0
POINT
  8
寸法
 62
     0
 10
-114.263162
 20
103.978062
  0
POINT
  8
寸法
 62
     0
 10
-90.92983
 20
103.978062
  0
TEXT
  7
TextStyle03
  8
寸法
  6
CONTINUOUS
 62
     0
 10
-105.0625
 20
104.325
  1
700
 40
3.0
 72
     5
 11
-100.1875
 21
104.325
  0
ENDBLK
  0
BLOCK
  2
*DIM_0028
 70
    65
 10
0.0
 20
0.0
  0
LINE
  8
寸法
  6
BYBLOCK
 62
     0
 10
-67.596497
 20
74.86999
 11
-67.596497
 21
103.978062
  0
LINE
  8
寸法
  6
BYBLOCK
 62
     0
 10
-90.92983
 20
103.978062
 11
-67.596497
 21
103.978062
  0
POINT
  8
寸法
 62
     0
 10
-67.596497
 20
103.978062
  0
TEXT
  7
TextStyle03
  8
寸法
  6
CONTINUOUS
 62
     0
 10
-81.7375
 20
104.325
  1
700
 40
3.0
 72
     5
 11
-76.8625
 21
104.325
  0
ENDBLK
  0
BLOCK
  2
*DIM_0029
 70
    65
 10
0.0
 20
0.0
  0
LINE
  8
寸法
  6
BYBLOCK
 62
     0
 10
-44.263163
 20
74.86999
 11
-44.263163
 21
103.978062
  0
LINE
  8
寸法
  6
BYBLOCK
 62
     0
 10
-67.596497
 20
103.978062
 11
-44.263163
 21
103.978062
  0
POINT
  8
寸法
 62
     0
 10
-44.263163
 20
103.978062
  0
TEXT
  7
TextStyle03
  8
寸法
  6
CONTINUOUS
 62
     0
 10
-58.3875
 20
104.325
  1
700
 40
3.0
 72
     5
 11
-53.5125
 21
104.325
  0
ENDBLK
  0
BLOCK
  2
*DIM_0030
 70
    65
 10
0.0
 20
0.0
  0
LINE
  8
寸法
  6
BYBLOCK
 62
     0
 10
-20.92983
 20
74.86999
 11
-20.92983
 21
103.978062
  0
LINE
  8
寸法
  6
BYBLOCK
 62
     0
 10
-44.263163
 20
103.978062
 11
-20.92983
 21
103.978062
  0
POINT
  8
寸法
 62
     0
 10
-20.92983
 20
103.978062
  0
TEXT
  7
TextStyle03
  8
寸法
  6
CONTINUOUS
 62
     0
 10
-35.0625
 20
104.325
  1
700
 40
3.0
 72
     5
 11
-30.1875
 21
104.325
  0
ENDBLK
  0
BLOCK
  2
*DIM_0031
 70
    65
 10
0.0
 20
0.0
  0
LINE
  8
寸法
  6
BYBLOCK
 62
     0
 10
2.403502
 20
74.86999
 11
2.403502
 21
103.978062
  0
LINE
  8
寸法
  6
BYBLOCK
 62
     0
 10
-20.92983
 20
103.978062
 11
2.403502
 21
103.978062
  0
POINT
  8
寸法
 62
     0
 10
2.403502
 20
103.978062
  0
TEXT
  7
TextStyle03
  8
寸法
  6
CONTINUOUS
 62
     0
 10
-11.7375
 20
104.325
  1
700
 40
3.0
 72
     5
 11
-6.8625
 21
104.325
  0
ENDBLK
  0
BLOCK
  2
*DIM_0032
 70
    65
 10
0.0
 20
0.0
  0
LINE
  8
寸法
  6
BYBLOCK
 62
     0
 10
25.736838
 20
74.86999
 11
25.736838
 21
103.978062
  0
LINE
  8
寸法
  6
BYBLOCK
 62
     0
 10
2.403502
 20
103.978062
 11
25.736838
 21
103.978062
  0
POINT
  8
寸法
 62
     0
 10
25.736838
 20
103.978062
  0
TEXT
  7
TextStyle03
  8
寸法
  6
CONTINUOUS
 62
     0
 10
11.6125
 20
104.325
  1
700
 40
3.0
 72
     5
 11
16.4875
 21
104.325
  0
ENDBLK
  0
BLOCK
  2
*DIM_0033
 70
    65
 10
0.0
 20
0.0
  0
LINE
  8
寸法
  6
BYBLOCK
 62
     0
 10
49.07017
 20
74.86999
 11
49.07017
 21
103.978062
  0
LINE
  8
寸法
  6
BYBLOCK
 62
     0
 10
25.736838
 20
103.978062
 11
49.07017
 21
103.978062
  0
POINT
  8
寸法
 62
     0
 10
49.07017
 20
103.978062
  0
TEXT
  7
TextStyle03
  8
寸法
  6
CONTINUOUS
 62
     0
 10
34.9375
 20
104.325
  1
700
 40
3.0
 72
     5
 11
39.8125
 21
104.325
  0
ENDBLK
  0
BLOCK
  2
*DIM_0034
 70
    65
 10
0.0
 20
0.0
  0
LINE
  8
寸法
  6
BYBLOCK
 62
     0
 10
72.403502
 20
74.86999
 11
72.403502
 21
103.978062
  0
LINE
  8
寸法
  6
BYBLOCK
 62
     0
 10
49.07017
 20
103.978062
 11
72.403502
 21
103.978062
  0
POINT
  8
寸法
 62
     0
 10
72.403502
 20
103.978062
  0
TEXT
  7
TextStyle03
  8
寸法
  6
CONTINUOUS
 62
     0
 10
58.2625
 20
104.325
  1
700
 40
3.0
 72
     5
 11
63.1375
 21
104.325
  0
ENDBLK
  0
BLOCK
  2
*DIM_0035
 70
    65
 10
0.0
 20
0.0
  0
LINE
  8
寸法
  6
CONTINUOUS
 10
84.070162
 20
-68.70412
 11
102.688635
 21
-68.70412
  0
LINE
  8
寸法
  6
CONTINUOUS
 10
84.070162
 20
-52.037453
 11
102.688635
 21
-52.037453
  0
LINE
  8
寸法
  6
CONTINUOUS
 10
102.688635
 20
-68.70412
 11
102.688635
 21
-52.037453
  0
POINT
  8
寸法
 10
102.688635
 20
-68.70412
  0
POINT
  8
寸法
 10
102.688635
 20
-52.037453
  0
TEXT
  7
TextStyle03
  8
寸法
  6
CONTINUOUS
 10
105.65
 20
-69.46875
  1
上昇473以上
 40
3.0
 50
90.0
 72
     5
 11
105.65
 21
-51.28125
  0
ENDBLK
  0
BLOCK
  2
*DIM_0036
 70
    65
 10
0.0
 20
0.0
  0
LINE
  8
寸法
  6
CONTINUOUS
 10
81.349857
 20
-68.209977
 11
81.349857
 21
-32.437345
  0
LINE
  8
寸法
  6
CONTINUOUS
 10
79.070162
 20
-32.437345
 11
81.349857
 21
-32.437345
  0
POINT
  8
寸法
 10
79.070162
 20
-32.437345
  0
POINT
  8
寸法
 10
81.349857
 20
-32.437345
  0
TEXT
  7
TextStyle03
  8
寸法
  6
CONTINUOUS
 10
83.64375
 20
-32.075
  1
68.4
 40
3.0
 72
     5
 11
90.20625
 21
-32.075
  0
ENDBLK
  0
BLOCK
  2
*DIM_0037
 70
    65
 10
0.0
 20
0.0
  0
LINE
  8
寸法
  6
CONTINUOUS
 10
-123.209518
 20
-68.209977
 11
-123.209518
 21
-32.437345
  0
LINE
  8
寸法
  6
CONTINUOUS
 10
-120.929822
 20
-32.437345
 11
-123.209518
 21
-32.437345
  0
POINT
  8
寸法
 10
-120.929822
 20
-32.437345
  0
POINT
  8
寸法
 10
-123.209518
 20
-32.437345
  0
TEXT
  7
TextStyle03
  8
寸法
  6
CONTINUOUS
 10
-132.13125
 20
-32.075
  1
68.4
 40
3.0
 72
     5
 11
-125.56875
 21
-32.075
  0
ENDBLK
  0
BLOCK
  2
*DIM_0038
 70
    65
 10
0.0
 20
0.0
  0
LINE
  8
寸法
  6
CONTINUOUS
 10
79.070162
 20
-32.437345
 11
-120.929822
 21
-32.437345
  0
POINT
  8
寸法
 10
79.070162
 20
-32.437345
  0
POINT
  8
寸法
 10
-120.929822
 20
-32.437345
  0
TEXT
  7
TextStyle03
  8
寸法
  6
CONTINUOUS
 10
-32.66875
 20
-32.075
  1
呼称寸法　6000
 40
3.0
 72
     5
 11
-9.23125
 21
-32.075
  0
ENDBLK
  0
BLOCK
  2
*GRP_0039
 70
    65
 10
0.0
 20
0.0
  0
INSERT
  2
M8横
  8
ゴム等
  6
DOT
 10
79.896522
 20
-53.63062
 50
180.0
 41
0.033333
 42
-0.033333
  0
LINE
  8
ボルト／ビス
  6
DOT
 10
79.76319
 20
-53.42062
 11
79.779855
 21
-53.403955
  0
LINE
  8
ボルト／ビス
  6
DOT
 10
80.01319
 20
-53.403955
 11
80.029855
 21
-53.42062
  0
LINE
  8
ボルト／ビス
  6
DOT
 10
80.029855
 20
-53.42062
 11
79.76319
 21
-53.42062
  0
LINE
  8
ボルト／ビス
  6
DOT
 10
80.01319
 20
-53.403955
 11
79.779855
 21
-53.403955
  0
LINE
  8
ボルト／ビス
  6
DOT
 10
79.779855
 20
-53.403955
 11
79.779855
 21
-53.447285
  0
LINE
  8
ボルト／ビス
  6
DOT
 10
79.76319
 20
-53.42062
 11
79.76319
 21
-53.447285
  0
LINE
  8
ボルト／ビス
  6
DOT
 10
80.029855
 20
-53.42062
 11
80.029855
 21
-53.447285
  0
LINE
  8
ボルト／ビス
  6
DOT
 10
80.01319
 20
-53.403955
 11
80.01319
 21
-53.447285
  0
LINE
  8
ボルト／ビス
  6
DOT
 10
80.26319
 20
-53.63062
 11
79.529855
 21
-53.63062
  0
LINE
  8
ボルト／ビス
  6
DOT
 10
79.479855
 20
-53.67062
 11
79.479855
 21
-53.753953
  0
LINE
  8
ボルト／ビス
  6
DOT
 10
79.479855
 20
-53.753953
 11
80.31319
 21
-53.753953
  0
LINE
  8
ボルト／ビス
  6
DOT
 10
80.31319
 20
-53.753953
 11
80.31319
 21
-53.67062
  0
LINE
  8
ボルト／ビス
  6
DOT
 10
79.479855
 20
-53.67062
 11
80.31319
 21
-53.67062
  0
LINE
  8
ボルト／ビス
  6
DOT
 10
80.26319
 20
-53.63062
 11
80.26319
 21
-53.67062
  0
LINE
  8
ボルト／ビス
  6
DOT
 10
79.529855
 20
-53.63062
 11
79.529855
 21
-53.67062
  0
LINE
  8
ボルト／ビス
  6
DOT
 10
79.896522
 20
-53.68062
 11
79.896522
 21
-53.63062
  0
ENDBLK
  0
BLOCK
  2
*GRP_0040
 70
    65
 10
0.0
 20
0.0
  0
LINE
  8
ボルト／ビス
  6
DOT
 10
80.10319
 20
-52.770785
 11
80.10319
 21
-52.70412
  0
LINE
  8
ボルト／ビス
  6
DOT
 10
80.10319
 20
-52.70412
 11
79.369858
 21
-52.70412
  0
LINE
  8
ボルト／ビス
  6
DOT
 10
79.369858
 20
-52.70412
 11
79.369858
 21
-52.770785
  0
LINE
  8
ボルト／ビス
  6
DOT
 10
80.10319
 20
-52.770785
 11
79.369858
 21
-52.770785
  0
LINE
  8
ボルト／ビス
  6
DOT
 10
80.036525
 20
-52.670785
 11
80.036525
 21
-52.70412
  0
LINE
  8
ボルト／ビス
  6
DOT
 10
80.036525
 20
-52.670785
 11
79.436525
 21
-52.670785
  0
LINE
  8
ボルト／ビス
  6
DOT
 10
79.436525
 20
-52.670785
 11
79.436525
 21
-52.70412
  0
LINE
  8
ボルト／ビス
  6
DOT
 62
    64
 10
79.8969
 20
-52.470785
 11
79.928975
 21
-52.48246
  0
ARC
  8
ボルト／ビス
  6
DOT
 62
    64
 10
79.88086
 20
-52.575764
 40
0.104978
 50
90.0
 51
117.278033
  0
ARC
  8
ボルト／ビス
  6
DOT
 62
    64
 10
79.736523
 20
-52.873188
 40
0.402402
 50
76.165015
 51
103.834998
  0
LINE
  8
ボルト／ビス
  6
DOT
 62
    64
 10
79.57615
 20
-52.470785
 11
79.544075
 21
-52.48246
  0
ARC
  8
ボルト／ビス
  6
DOT
 62
    64
 10
79.592185
 20
-52.575764
 40
0.104978
 50
62.721967
 51
90.0
  0
LINE
  8
ボルト／ビス
  6
DOT
 62
    64
 10
79.8969
 20
-52.470785
 11
79.57615
 21
-52.470785
  0
LINE
  8
ボルト／ビス
  6
DOT
 62
    64
 10
79.544075
 20
-52.48246
 11
79.544075
 21
-52.60412
  0
LINE
  8
ボルト／ビス
  6
DOT
 62
    64
 10
79.6403
 20
-52.48246
 11
79.6403
 21
-52.60412
  0
LINE
  8
ボルト／ビス
  6
DOT
 62
    64
 10
79.928975
 20
-52.48246
 11
79.928975
 21
-52.60412
  0
LINE
  8
ボルト／ビス
  6
DOT
 62
    64
 10
79.83275
 20
-52.48246
 11
79.83275
 21
-52.60412
  0
LINE
  8
ボルト／ビス
  6
DOT
 10
79.928975
 20
-52.60412
 11
79.544075
 21
-52.60412
  0
LINE
  8
ボルト／ビス
  6
DOT
 10
79.936525
 20
-52.60412
 11
79.936525
 21
-52.670785
  0
LINE
  8
ボルト／ビス
  6
DOT
 10
79.936525
 20
-52.60412
 11
79.536525
 21
-52.60412
  0
LINE
  8
ボルト／ビス
  6
DOT
 10
79.536525
 20
-52.60412
 11
79.536525
 21
-52.670785
  0
ENDBLK
  0
BLOCK
  2
*GRP_0041
 70
    65
 10
0.0
 20
0.0
  0
INSERT
  2
M8横
  8
ゴム等
  6
DOT
 10
-121.756182
 20
-53.63062
 41
0.033333
 42
0.033333
  0
LINE
  8
ボルト／ビス
  6
DOT
 10
-121.62285
 20
-53.42062
 11
-121.639515
 21
-53.403955
  0
LINE
  8
ボルト／ビス
  6
DOT
 10
-121.87285
 20
-53.403955
 11
-121.889515
 21
-53.42062
  0
LINE
  8
ボルト／ビス
  6
DOT
 10
-121.889515
 20
-53.42062
 11
-121.62285
 21
-53.42062
  0
LINE
  8
ボルト／ビス
  6
DOT
 10
-121.87285
 20
-53.403955
 11
-121.639515
 21
-53.403955
  0
LINE
  8
ボルト／ビス
  6
DOT
 10
-121.639515
 20
-53.403955
 11
-121.639515
 21
-53.447285
  0
LINE
  8
ボルト／ビス
  6
DOT
 10
-121.62285
 20
-53.42062
 11
-121.62285
 21
-53.447285
  0
LINE
  8
ボルト／ビス
  6
DOT
 10
-121.889515
 20
-53.42062
 11
-121.889515
 21
-53.447285
  0
LINE
  8
ボルト／ビス
  6
DOT
 10
-121.87285
 20
-53.403955
 11
-121.87285
 21
-53.447285
  0
LINE
  8
ボルト／ビス
  6
DOT
 10
-122.12285
 20
-53.63062
 11
-121.389515
 21
-53.63062
  0
LINE
  8
ボルト／ビス
  6
DOT
 10
-121.339515
 20
-53.67062
 11
-121.339515
 21
-53.753953
  0
LINE
  8
ボルト／ビス
  6
DOT
 10
-121.339515
 20
-53.753953
 11
-122.17285
 21
-53.753953
  0
LINE
  8
ボルト／ビス
  6
DOT
 10
-122.17285
 20
-53.753953
 11
-122.17285
 21
-53.67062
  0
LINE
  8
ボルト／ビス
  6
DOT
 10
-121.339515
 20
-53.67062
 11
-122.17285
 21
-53.67062
  0
LINE
  8
ボルト／ビス
  6
DOT
 10
-122.12285
 20
-53.63062
 11
-122.12285
 21
-53.67062
  0
LINE
  8
ボルト／ビス
  6
DOT
 10
-121.389515
 20
-53.63062
 11
-121.389515
 21
-53.67062
  0
LINE
  8
ボルト／ビス
  6
DOT
 10
-121.756182
 20
-53.68062
 11
-121.756182
 21
-53.63062
  0
ENDBLK
  0
BLOCK
  2
*GRP_0042
 70
    65
 10
0.0
 20
0.0
  0
LINE
  8
ボルト／ビス
  6
DOT
 10
-121.96285
 20
-52.770785
 11
-121.96285
 21
-52.70412
  0
LINE
  8
ボルト／ビス
  6
DOT
 10
-121.96285
 20
-52.70412
 11
-121.229518
 21
-52.70412
  0
LINE
  8
ボルト／ビス
  6
DOT
 10
-121.229518
 20
-52.70412
 11
-121.229518
 21
-52.770785
  0
LINE
  8
ボルト／ビス
  6
DOT
 10
-121.96285
 20
-52.770785
 11
-121.229518
 21
-52.770785
  0
LINE
  8
ボルト／ビス
  6
DOT
 10
-121.896185
 20
-52.670785
 11
-121.896185
 21
-52.70412
  0
LINE
  8
ボルト／ビス
  6
DOT
 10
-121.896185
 20
-52.670785
 11
-121.296185
 21
-52.670785
  0
LINE
  8
ボルト／ビス
  6
DOT
 10
-121.296185
 20
-52.670785
 11
-121.296185
 21
-52.70412
  0
LINE
  8
ボルト／ビス
  6
DOT
 62
    64
 10
-121.75656
 20
-52.470785
 11
-121.788635
 21
-52.48246
  0
ARC
  8
ボルト／ビス
  6
DOT
 62
    64
 10
-121.740524
 20
-52.575764
 40
0.104978
 50
62.721967
 51
90.0
  0
ARC
  8
ボルト／ビス
  6
DOT
 62
    64
 10
-121.596186
 20
-52.873188
 40
0.402402
 50
76.165002
 51
103.834985
  0
LINE
  8
ボルト／ビス
  6
DOT
 62
    64
 10
-121.43581
 20
-52.470785
 11
-121.403735
 21
-52.48246
  0
ARC
  8
ボルト／ビス
  6
DOT
 62
    64
 10
-121.451849
 20
-52.575764
 40
0.104978
 50
90.0
 51
117.278033
  0
LINE
  8
ボルト／ビス
  6
DOT
 62
    64
 10
-121.75656
 20
-52.470785
 11
-121.43581
 21
-52.470785
  0
LINE
  8
ボルト／ビス
  6
DOT
 62
    64
 10
-121.403735
 20
-52.48246
 11
-121.403735
 21
-52.60412
  0
LINE
  8
ボルト／ビス
  6
DOT
 62
    64
 10
-121.49996
 20
-52.48246
 11
-121.49996
 21
-52.60412
  0
LINE
  8
ボルト／ビス
  6
DOT
 62
    64
 10
-121.788635
 20
-52.48246
 11
-121.788635
 21
-52.60412
  0
LINE
  8
ボルト／ビス
  6
DOT
 62
    64
 10
-121.69241
 20
-52.48246
 11
-121.69241
 21
-52.60412
  0
LINE
  8
ボルト／ビス
  6
DOT
 10
-121.788635
 20
-52.60412
 11
-121.403735
 21
-52.60412
  0
LINE
  8
ボルト／ビス
  6
DOT
 10
-121.796185
 20
-52.60412
 11
-121.796185
 21
-52.670785
  0
LINE
  8
ボルト／ビス
  6
DOT
 10
-121.796185
 20
-52.60412
 11
-121.396185
 21
-52.60412
  0
LINE
  8
ボルト／ビス
  6
DOT
 10
-121.396185
 20
-52.60412
 11
-121.396185
 21
-52.670785
  0
ENDBLK
  0
BLOCK
  2
*DIM_0043
 70
    65
 10
0.0
 20
0.0
  0
LINE
  8
寸法
  6
CONTINUOUS
 10
132.486687
 20
-34.69195
 11
132.486687
 21
-23.912925
  0
LINE
  8
寸法
  6
CONTINUOUS
 10
164.586687
 20
-34.69195
 11
164.586687
 21
-23.912925
  0
LINE
  8
寸法
  6
CONTINUOUS
 10
132.486687
 20
-23.912925
 11
164.586687
 21
-23.912925
  0
POINT
  8
寸法
 10
132.486687
 20
-23.912925
  0
POINT
  8
寸法
 10
164.586687
 20
-23.912925
  0
TEXT
  7
TextStyle03
  8
寸法
  6
CONTINUOUS
 10
146.0875
 20
-23.55
  1
963
 40
3.0
 72
     5
 11
150.9625
 21
-23.55
  0
ENDBLK
  0
BLOCK
  2
*DIM_0044
 70
    65
 10
0.0
 20
0.0
  0
LINE
  8
寸法
  6
CONTINUOUS
 10
169.586687
 20
-39.69195
 11
181.379255
 21
-39.69195
  0
LINE
  8
寸法
  6
CONTINUOUS
 10
169.586687
 20
-82.358618
 11
181.379255
 21
-82.358618
  0
LINE
  8
寸法
  6
CONTINUOUS
 10
181.379255
 20
-39.69195
 11
181.379255
 21
-82.358618
  0
POINT
  8
寸法
 10
181.379255
 20
-39.69195
  0
POINT
  8
寸法
 10
181.379255
 20
-82.358618
  0
TEXT
  7
TextStyle03
  8
寸法
  6
CONTINUOUS
 10
181.0
 20
-64.30625
  1
1280
 40
3.0
 50
90.0
 72
     5
 11
181.0
 21
-57.74375
  0
ENDBLK
  0
BLOCK
  2
M8横
 70
    64
 10
-88.370132
 20
140.837665
  0
LINE
  8
ボルト／ビス
 10
-95.870132
 20
140.837665
 11
-80.870132
 21
140.837665
  0
LINE
  8
ボルト／ビス
 10
-80.870132
 20
145.837665
 11
-81.370132
 21
146.337665
  0
POLYLINE
  8
ボルト／ビス
 66
     1
  0
VERTEX
  8
ボルト／ビス
 10
-84.120132
 20
146.337665
  0
VERTEX
  8
ボルト／ビス
 10
-84.620132
 20
145.837665
  0
VERTEX
  8
ボルト／ビス
 10
-85.120132
 20
146.337665
  0
SEQEND
  0
POLYLINE
  8
ボルト／ビス
 66
     1
  0
VERTEX
  8
ボルト／ビス
 10
-91.620132
 20
146.337665
  0
VERTEX
  8
ボルト／ビス
 10
-92.120132
 20
145.837665
  0
VERTEX
  8
ボルト／ビス
 10
-92.620132
 20
146.337665
  0
SEQEND
  0
LINE
  8
ボルト／ビス
 10
-95.370132
 20
146.337665
 11
-95.870132
 21
145.837665
  0
LINE
  8
ボルト／ビス
 10
-95.870132
 20
140.837665
 11
-95.870132
 21
145.837665
  0
LINE
  8
ボルト／ビス
 10
-80.870132
 20
140.837665
 11
-80.870132
 21
145.837665
  0
LINE
  8
ボルト／ビス
 10
-95.370132
 20
146.337665
 11
-81.370132
 21
146.337665
  0
LINE
  8
ボルト／ビス
 10
-84.620132
 20
140.837665
 11
-84.620132
 21
145.837665
  0
LINE
  8
ボルト／ビス
 10
-92.120132
 20
140.837665
 11
-92.120132
 21
145.837665
  0
ENDBLK
  0
ENDSEC
  0
SECTION
  2
ENTITIES
  0
POLYLINE
  8
通り芯
  6
CONTINUOUS
 66
     1
 70
     1
  0
VERTEX
  8
通り芯
 10
-210.0
 20
-148.5
  0
VERTEX
  8
通り芯
 10
210.0
 20
-148.5
  0
VERTEX
  8
通り芯
 10
210.0
 20
148.5
  0
VERTEX
  8
通り芯
 10
-210.0
 20
148.5
  0
SEQEND
  0
INSERT
  2
*GRP_0001
  8
型材断面
  6
CONTINUOUS
 10
0.0
 20
0.0
  0
LINE
  8
型材断面
  6
CONTINUOUS
 10
162.97617
 20
26.869993
 11
162.97617
 21
26.919993
  0
LINE
  8
型材断面
  6
CONTINUOUS
 10
162.47617
 20
28.536658
 11
161.742835
 21
28.536658
  0
LINE
  8
型材断面
  6
CONTINUOUS
 62
    47
 10
169.709335
 20
27.136962
 11
169.709335
 21
27.186962
  0
LINE
  8
型材断面
  6
CONTINUOUS
 62
    47
 10
169.709335
 20
27.136962
 11
169.209335
 21
27.136962
  0
LINE
  8
型材断面
  6
CONTINUOUS
 10
163.459335
 20
28.486962
 11
163.459335
 21
27.040298
  0
LINE
  8
型材断面
  6
CONTINUOUS
 10
163.909335
 20
27.040298
 11
163.459335
 21
27.040298
  0
LINE
  8
型材断面
  6
CONTINUOUS
 62
    47
 10
166.582028
 20
26.306963
 11
166.582028
 21
26.256963
  0
LINE
  8
型材断面
  6
CONTINUOUS
 62
    47
 10
166.582028
 20
26.256963
 11
166.248695
 21
26.256963
  0
LINE
  8
型材断面
  6
CONTINUOUS
 62
    47
 10
166.248695
 20
26.256963
 11
166.148695
 21
27.040298
  0
LINE
  8
型材断面
  6
CONTINUOUS
 62
    47
 10
165.74267
 20
27.040298
 11
166.148695
 21
27.040298
  0
LINE
  8
型材断面
  6
CONTINUOUS
 62
    47
 10
165.74267
 20
26.570298
 11
163.909335
 21
26.570298
  0
LINE
  8
型材断面
  6
CONTINUOUS
 10
162.97617
 20
26.869993
 11
162.47617
 21
26.869993
  0
LINE
  8
型材断面
  6
CONTINUOUS
 10
163.459335
 20
28.486962
 11
162.97617
 21
28.486962
  0
LINE
  8
型材断面
  6
CONTINUOUS
 62
    47
 10
169.209335
 20
26.570298
 11
166.582028
 21
26.570298
  0
INSERT
  2
*GRP_0002
  8
型材断面
  6
DOT
 10
0.0
 20
0.0
  0
INSERT
  2
*GRP_0003
  8
型材断面
  6
DOT
 10
0.0
 20
0.0
  0
LINE
  8
型材断面
  6
CONTINUOUS
 10
169.209335
 20
26.570298
 11
169.209335
 21
50.203325
  0
LINE
  8
型材断面
  6
CONTINUOUS
 10
169.709335
 20
27.136962
 11
169.709335
 21
50.203325
  0
LINE
  8
型材断面
  6
CONTINUOUS
 10
166.582028
 20
26.256963
 11
166.582028
 21
50.203325
  0
LINE
  8
型材断面
  6
CONTINUOUS
 10
166.248695
 20
26.256963
 11
166.248695
 21
50.203325
  0
LINE
  8
型材断面
  6
CONTINUOUS
 10
166.148695
 20
27.040298
 11
166.148695
 21
50.203325
  0
LINE
  8
型材断面
  6
CONTINUOUS
 10
165.74267
 20
26.570298
 11
165.74267
 21
50.203325
  0
LINE
  8
型材断面
  6
CONTINUOUS
 10
162.97617
 20
26.869993
 11
162.97617
 21
50.203325
  0
LINE
  8
型材断面
  6
CONTINUOUS
 10
161.742835
 20
28.536658
 11
161.742835
 21
50.203325
  0
LINE
  8
型材断面
  6
CONTINUOUS
 10
162.47617
 20
26.869993
 11
162.47617
 21
50.203325
  0
LINE
  8
型材断面
  6
CONTINUOUS
 10
163.459335
 20
27.040298
 11
163.459335
 21
50.203325
  0
LINE
  8
型材断面
  6
CONTINUOUS
 10
163.909335
 20
26.570298
 11
163.909335
 21
50.203325
  0
LINE
  8
型材断面
  6
CONTINUOUS
 10
162.97617
 20
73.53666
 11
162.97617
 21
73.48666
  0
LINE
  8
型材断面
  6
CONTINUOUS
 10
162.47617
 20
71.869993
 11
161.742835
 21
71.869993
  0
LINE
  8
型材断面
  6
CONTINUOUS
 62
    47
 10
169.709335
 20
73.269687
 11
169.709335
 21
73.219687
  0
LINE
  8
型材断面
  6
CONTINUOUS
 62
    47
 10
169.709335
 20
73.269687
 11
169.209335
 21
73.269687
  0
LINE
  8
型材断面
  6
CONTINUOUS
 10
163.459335
 20
71.919687
 11
163.459335
 21
73.366355
  0
LINE
  8
型材断面
  6
CONTINUOUS
 10
163.909335
 20
73.366355
 11
163.459335
 21
73.366355
  0
LINE
  8
型材断面
  6
CONTINUOUS
 62
    47
 10
166.582028
 20
74.099688
 11
166.582028
 21
74.149688
  0
LINE
  8
型材断面
  6
CONTINUOUS
 62
    47
 10
166.582028
 20
74.149688
 11
166.248695
 21
74.149688
  0
LINE
  8
型材断面
  6
CONTINUOUS
 62
    47
 10
166.248695
 20
74.149688
 11
166.148695
 21
73.366355
  0
LINE
  8
型材断面
  6
CONTINUOUS
 62
    47
 10
165.74267
 20
73.366355
 11
166.148695
 21
73.366355
  0
LINE
  8
型材断面
  6
CONTINUOUS
 62
    47
 10
165.74267
 20
73.836355
 11
163.909335
 21
73.836355
  0
LINE
  8
型材断面
  6
CONTINUOUS
 10
162.97617
 20
73.53666
 11
162.47617
 21
73.53666
  0
LINE
  8
型材断面
  6
CONTINUOUS
 10
163.459335
 20
71.919687
 11
162.97617
 21
71.919687
  0
LINE
  8
型材断面
  6
CONTINUOUS
 62
    47
 10
169.209335
 20
73.836355
 11
166.582028
 21
73.836355
  0
INSERT
  2
*GRP_0006
  8
型材断面
  6
DOT
 10
0.0
 20
0.0
  0
INSERT
  2
*GRP_0007
  8
型材断面
  6
DOT
 10
0.0
 20
0.0
  0
LINE
  8
型材断面
  6
CONTINUOUS
 10
169.209335
 20
73.836355
 11
169.209335
 21
50.203325
  0
LINE
  8
型材断面
  6
CONTINUOUS
 10
169.709335
 20
73.269687
 11
169.709335
 21
50.203325
  0
LINE
  8
型材断面
  6
CONTINUOUS
 10
166.582028
 20
74.149688
 11
166.582028
 21
50.203325
  0
LINE
  8
型材断面
  6
CONTINUOUS
 10
166.248695
 20
74.149688
 11
166.248695
 21
50.203325
  0
LINE
  8
型材断面
  6
CONTINUOUS
 10
166.148695
 20
73.366355
 11
166.148695
 21
50.203325
  0
LINE
  8
型材断面
  6
CONTINUOUS
 10
165.74267
 20
73.836355
 11
165.74267
 21
50.203325
  0
LINE
  8
型材断面
  6
CONTINUOUS
 10
162.97617
 20
73.53666
 11
162.97617
 21
50.203325
  0
LINE
  8
型材断面
  6
CONTINUOUS
 10
161.742835
 20
71.869993
 11
161.742835
 21
50.203325
  0
LINE
  8
型材断面
  6
CONTINUOUS
 10
162.47617
 20
73.53666
 11
162.47617
 21
50.203325
  0
LINE
  8
型材断面
  6
CONTINUOUS
 10
163.459335
 20
73.366355
 11
163.459335
 21
50.203325
  0
LINE
  8
型材断面
  6
CONTINUOUS
 10
163.909335
 20
73.836355
 11
163.909335
 21
50.203325
  0
POLYLINE
  8
型材断面
  6
CONTINUOUS
 66
     1
 70
     1
  0
VERTEX
  8
型材断面
 10
37.362595
 20
-94.850355
  0
VERTEX
  8
型材断面
 10
-11.31608
 20
-94.850355
  0
VERTEX
  8
型材断面
 10
-11.31608
 20
-111.19502
  0
VERTEX
  8
型材断面
 10
37.362595
 20
-111.19502
  0
SEQEND
  0
LINE
  8
型材断面
  6
DASHDOT
 10
-20.92983
 20
-79.253555
 11
-20.92983
 21
71.869993
  0
LINE
  8
型材断面
  6
CONTINUOUS
 10
80.73683
 20
-69.937453
 11
80.68683
 21
-69.937453
  0
LINE
  8
型材断面
  6
CONTINUOUS
 10
79.070162
 20
-69.437453
 11
79.070162
 21
-68.70412
  0
LINE
  8
型材断面
  6
CONTINUOUS
 62
    47
 10
80.469858
 20
-76.67062
 11
80.419858
 21
-76.67062
  0
LINE
  8
型材断面
  6
CONTINUOUS
 62
    47
 10
80.469858
 20
-76.67062
 11
80.469858
 21
-76.17062
  0
LINE
  8
型材断面
  6
CONTINUOUS
 10
79.119858
 20
-70.42062
 11
80.566525
 21
-70.42062
  0
LINE
  8
型材断面
  6
CONTINUOUS
 10
80.566525
 20
-70.87062
 11
80.566525
 21
-70.42062
  0
LINE
  8
型材断面
  6
CONTINUOUS
 62
    47
 10
81.299857
 20
-73.543312
 11
81.349857
 21
-73.543312
  0
LINE
  8
型材断面
  6
CONTINUOUS
 62
    47
 10
81.349857
 20
-73.543312
 11
81.349857
 21
-73.209977
  0
LINE
  8
型材断面
  6
CONTINUOUS
 62
    47
 10
81.349857
 20
-73.209977
 11
80.566525
 21
-73.109977
  0
LINE
  8
型材断面
  6
CONTINUOUS
 62
    47
 10
80.566525
 20
-72.703953
 11
80.566525
 21
-73.109977
  0
LINE
  8
型材断面
  6
CONTINUOUS
 62
    47
 10
81.036525
 20
-72.703953
 11
81.036525
 21
-70.87062
  0
LINE
  8
型材断面
  6
CONTINUOUS
 10
80.73683
 20
-69.937453
 11
80.73683
 21
-69.437453
  0
LINE
  8
型材断面
  6
CONTINUOUS
 10
79.119858
 20
-70.42062
 11
79.119858
 21
-69.937453
  0
LINE
  8
型材断面
  6
CONTINUOUS
 62
    47
 10
81.036525
 20
-76.17062
 11
81.036525
 21
-73.543312
  0
INSERT
  2
*GRP_0010
  8
型材断面
  6
DOT
 10
0.0
 20
0.0
  0
INSERT
  2
*GRP_0011
  8
型材断面
  6
DOT
 10
0.0
 20
0.0
  0
LINE
  8
型材断面
  6
CONTINUOUS
 10
81.036525
 20
-76.17062
 11
-20.92983
 21
-76.17062
  0
LINE
  8
型材断面
  6
CONTINUOUS
 10
80.469858
 20
-76.67062
 11
-20.92983
 21
-76.67062
  0
LINE
  8
型材断面
  6
CONTINUOUS
 10
81.349857
 20
-73.543312
 11
-20.92983
 21
-73.543312
  0
LINE
  8
型材断面
  6
CONTINUOUS
 10
81.349857
 20
-73.209977
 11
-20.92983
 21
-73.209977
  0
LINE
  8
型材断面
  6
CONTINUOUS
 10
80.566525
 20
-73.109977
 11
-20.92983
 21
-73.109977
  0
LINE
  8
型材断面
  6
CONTINUOUS
 10
81.036525
 20
-72.703953
 11
-20.92983
 21
-72.703953
  0
LINE
  8
型材断面
  6
CONTINUOUS
 10
80.73683
 20
-69.937453
 11
-20.92983
 21
-69.937453
  0
LINE
  8
型材断面
  6
CONTINUOUS
 10
79.070162
 20
-68.70412
 11
-20.92983
 21
-68.70412
  0
LINE
  8
型材断面
  6
CONTINUOUS
 10
80.73683
 20
-69.437453
 11
-20.92983
 21
-69.437453
  0
LINE
  8
型材断面
  6
CONTINUOUS
 10
80.566525
 20
-70.42062
 11
-20.92983
 21
-70.42062
  0
LINE
  8
型材断面
  6
CONTINUOUS
 10
81.036525
 20
-70.87062
 11
-20.92983
 21
-70.87062
  0
LINE
  8
型材断面
  6
CONTINUOUS
 10
78.23683
 20
50.619993
 11
79.070162
 21
50.619993
  0
LINE
  8
型材断面
  6
CONTINUOUS
 10
78.23683
 20
49.786658
 11
79.070162
 21
49.786658
  0
LINE
  8
型材断面
  6
CONTINUOUS
 10
78.23683
 20
29.36999
 11
81.349857
 21
26.256963
  0
LINE
  8
型材断面
  6
CONTINUOUS
 10
78.23683
 20
29.36999
 11
78.23683
 21
49.786658
  0
LINE
  8
型材断面
  6
DASHDOT
 10
79.070162
 20
-79.253555
 11
79.070162
 21
28.536658
  0
LINE
  8
型材断面
  6
CONTINUOUS
 10
78.23683
 20
71.03666
 11
81.349857
 21
74.149688
  0
LINE
  8
型材断面
  6
CONTINUOUS
 10
78.23683
 20
50.619993
 11
78.23683
 21
71.03666
  0
LINE
  8
型材断面
  6
CONTINUOUS
 10
79.070162
 20
28.536658
 11
79.070162
 21
71.869993
  0
LINE
  8
型材断面
  6
CONTINUOUS
 10
81.036525
 20
26.570295
 11
81.036525
 21
73.836355
  0
LINE
  8
型材断面
  6
CONTINUOUS
 10
81.349857
 20
26.256963
 11
81.349857
 21
74.149688
  0
LINE
  8
型材断面
  6
CONTINUOUS
 10
80.73683
 20
26.86999
 11
80.73683
 21
73.53666
  0
LINE
  8
型材断面
  6
CONTINUOUS
 10
-122.59649
 20
-69.937453
 11
-122.54649
 21
-69.937453
  0
LINE
  8
型材断面
  6
CONTINUOUS
 10
-120.929822
 20
-69.437453
 11
-120.929822
 21
-68.70412
  0
LINE
  8
型材断面
  6
CONTINUOUS
 62
    47
 10
-122.329518
 20
-76.67062
 11
-122.279518
 21
-76.67062
  0
LINE
  8
型材断面
  6
CONTINUOUS
 62
    47
 10
-122.329518
 20
-76.67062
 11
-122.329518
 21
-76.17062
  0
LINE
  8
型材断面
  6
CONTINUOUS
 10
-120.979518
 20
-70.42062
 11
-122.426185
 21
-70.42062
  0
LINE
  8
型材断面
  6
CONTINUOUS
 10
-122.426185
 20
-70.87062
 11
-122.426185
 21
-70.42062
  0
LINE
  8
型材断面
  6
CONTINUOUS
 62
    47
 10
-123.159518
 20
-73.543312
 11
-123.209518
 21
-73.543312
  0
LINE
  8
型材断面
  6
CONTINUOUS
 62
    47
 10
-123.209518
 20
-73.543312
 11
-123.209518
 21
-73.209977
  0
LINE
  8
型材断面
  6
CONTINUOUS
 62
    47
 10
-123.209518
 20
-73.209977
 11
-122.426185
 21
-73.109977
  0
LINE
  8
型材断面
  6
CONTINUOUS
 62
    47
 10
-122.426185
 20
-72.703953
 11
-122.426185
 21
-73.109977
  0
LINE
  8
型材断面
  6
CONTINUOUS
 62
    47
 10
-122.896185
 20
-72.703953
 11
-122.896185
 21
-70.87062
  0
LINE
  8
型材断面
  6
CONTINUOUS
 10
-122.59649
 20
-69.937453
 11
-122.59649
 21
-69.437453
  0
LINE
  8
型材断面
  6
CONTINUOUS
 10
-120.979518
 20
-70.42062
 11
-120.979518
 21
-69.937453
  0
LINE
  8
型材断面
  6
CONTINUOUS
 62
    47
 10
-122.896185
 20
-76.17062
 11
-122.896185
 21
-73.543312
  0
INSERT
  2
*GRP_0012
  8
型材断面
  6
DOT
 10
0.0
 20
0.0
  0
INSERT
  2
*GRP_0013
  8
型材断面
  6
DOT
 10
0.0
 20
0.0
  0
LINE
  8
型材断面
  6
CONTINUOUS
 10
-122.896185
 20
-76.17062
 11
-20.92983
 21
-76.17062
  0
LINE
  8
型材断面
  6
CONTINUOUS
 10
-122.329518
 20
-76.67062
 11
-20.92983
 21
-76.67062
  0
LINE
  8
型材断面
  6
CONTINUOUS
 10
-123.209518
 20
-73.543312
 11
-20.92983
 21
-73.543312
  0
LINE
  8
型材断面
  6
CONTINUOUS
 10
-123.209518
 20
-73.209977
 11
-20.92983
 21
-73.209977
  0
LINE
  8
型材断面
  6
CONTINUOUS
 10
-122.426185
 20
-73.109977
 11
-20.92983
 21
-73.109977
  0
LINE
  8
型材断面
  6
CONTINUOUS
 10
-122.896185
 20
-72.703953
 11
-20.92983
 21
-72.703953
  0
LINE
  8
型材断面
  6
CONTINUOUS
 10
-122.59649
 20
-69.937453
 11
-20.92983
 21
-69.937453
  0
LINE
  8
型材断面
  6
CONTINUOUS
 10
-120.929822
 20
-68.70412
 11
-20.92983
 21
-68.70412
  0
LINE
  8
型材断面
  6
CONTINUOUS
 10
-122.59649
 20
-69.437453
 11
-20.92983
 21
-69.437453
  0
LINE
  8
型材断面
  6
CONTINUOUS
 10
-122.426185
 20
-70.42062
 11
-20.92983
 21
-70.42062
  0
LINE
  8
型材断面
  6
CONTINUOUS
 10
-122.896185
 20
-70.87062
 11
-20.92983
 21
-70.87062
  0
LINE
  8
型材断面
  6
CONTINUOUS
 10
-120.09649
 20
49.786658
 11
-120.929822
 21
49.786658
  0
LINE
  8
型材断面
  6
CONTINUOUS
 10
-120.09649
 20
50.619993
 11
-120.929822
 21
50.619993
  0
LINE
  8
型材断面
  6
CONTINUOUS
 10
-120.09649
 20
29.36999
 11
-123.209518
 21
26.256963
  0
LINE
  8
型材断面
  6
CONTINUOUS
 10
-120.09649
 20
29.36999
 11
-120.09649
 21
49.786658
  0
LINE
  8
型材断面
  6
DASHDOT
 10
-120.929822
 20
-79.253555
 11
-120.929822
 21
28.536658
  0
LINE
  8
型材断面
  6
CONTINUOUS
 10
-120.09649
 20
71.03666
 11
-123.209518
 21
74.149688
  0
LINE
  8
型材断面
  6
CONTINUOUS
 10
-120.09649
 20
50.619993
 11
-120.09649
 21
71.03666
  0
LINE
  8
型材断面
  6
CONTINUOUS
 10
-120.929822
 20
28.536658
 11
-120.929822
 21
71.869993
  0
LINE
  8
型材断面
  6
CONTINUOUS
 10
-122.896185
 20
26.570295
 11
-122.896185
 21
73.836355
  0
LINE
  8
型材断面
  6
CONTINUOUS
 10
-123.209518
 20
26.256963
 11
-123.209518
 21
74.149688
  0
LINE
  8
型材断面
  6
CONTINUOUS
 10
-122.59649
 20
26.86999
 11
-122.59649
 21
73.53666
  0
LINE
  8
型材断面
  6
CONTINUOUS
 10
79.070162
 20
28.536658
 11
-120.929822
 21
28.536658
  0
LINE
  8
型材断面
  6
CONTINUOUS
 10
81.036525
 20
26.570295
 11
-122.896185
 21
26.570295
  0
LINE
  8
型材断面
  6
CONTINUOUS
 10
81.349857
 20
26.256963
 11
-123.209518
 21
26.256963
  0
LINE
  8
型材断面
  6
CONTINUOUS
 10
80.73683
 20
26.86999
 11
-122.59649
 21
26.86999
  0
LINE
  8
型材断面
  6
CONTINUOUS
 10
79.070162
 20
71.869993
 11
-120.929822
 21
71.869993
  0
LINE
  8
型材断面
  6
CONTINUOUS
 10
81.036525
 20
73.836355
 11
-122.896185
 21
73.836355
  0
LINE
  8
型材断面
  6
CONTINUOUS
 10
81.349857
 20
74.149688
 11
-123.209518
 21
74.149688
  0
LINE
  8
型材断面
  6
CONTINUOUS
 10
80.73683
 20
73.53666
 11
-122.59649
 21
73.53666
  0
LINE
  8
型材断面
  6
CONTINUOUS
 10
-86.573165
 20
30.203322
 11
-89.073165
 21
30.203322
  0
LINE
  8
型材断面
  6
CONTINUOUS
 10
-53.1265
 20
30.203322
 11
-55.6265
 21
30.203322
  0
LINE
  8
型材断面
  6
CONTINUOUS
 10
-19.67983
 20
30.203322
 11
-22.17983
 21
30.203322
  0
LINE
  8
型材断面
  6
CONTINUOUS
 10
-103.959825
 20
29.36999
 11
-103.959825
 21
28.536658
  0
LINE
  8
型材断面
  6
CONTINUOUS
 10
-104.79316
 20
29.36999
 11
-104.79316
 21
28.536658
  0
LINE
  8
型材断面
  6
CONTINUOUS
 10
-120.09649
 20
29.36999
 11
-104.79316
 21
29.36999
  0
LINE
  8
型材断面
  6
CONTINUOUS
 10
-70.683165
 20
29.36999
 11
-70.683165
 21
28.536658
  0
LINE
  8
型材断面
  6
CONTINUOUS
 10
-71.5165
 20
29.36999
 11
-71.5165
 21
28.536658
  0
LINE
  8
型材断面
  6
CONTINUOUS
 10
-37.236498
 20
29.36999
 11
-37.236498
 21
28.536658
  0
LINE
  8
型材断面
  6
CONTINUOUS
 10
-38.069833
 20
29.36999
 11
-38.069833
 21
28.536658
  0
LINE
  8
型材断面
  6
CONTINUOUS
 10
-103.959825
 20
29.36999
 11
-71.5165
 21
29.36999
  0
LINE
  8
型材断面
  6
CONTINUOUS
 10
-70.683165
 20
29.36999
 11
-38.069833
 21
29.36999
  0
LINE
  8
型材断面
  6
CONTINUOUS
 10
-86.573165
 20
70.203327
 11
-89.073165
 21
70.203327
  0
LINE
  8
型材断面
  6
CONTINUOUS
 10
-53.1265
 20
70.203327
 11
-55.6265
 21
70.203327
  0
LINE
  8
型材断面
  6
CONTINUOUS
 10
-19.67983
 20
70.203327
 11
-22.17983
 21
70.203327
  0
LINE
  8
型材断面
  6
CONTINUOUS
 10
-89.073165
 20
30.203322
 11
-89.073165
 21
70.203327
  0
LINE
  8
型材断面
  6
CONTINUOUS
 10
-88.073165
 20
30.203322
 11
-88.073165
 21
70.203327
  0
LINE
  8
型材断面
  6
CONTINUOUS
 10
-87.573165
 20
30.203322
 11
-87.573165
 21
70.203327
  0
LINE
  8
型材断面
  6
CONTINUOUS
 10
-86.573165
 20
30.203322
 11
-86.573165
 21
70.203327
  0
LINE
  8
型材断面
  6
CONTINUOUS
 10
-53.1265
 20
30.203322
 11
-53.1265
 21
70.203327
  0
LINE
  8
型材断面
  6
CONTINUOUS
 10
-54.1265
 20
30.203322
 11
-54.1265
 21
70.203327
  0
LINE
  8
型材断面
  6
CONTINUOUS
 10
-55.6265
 20
30.203322
 11
-55.6265
 21
70.203327
  0
LINE
  8
型材断面
  6
CONTINUOUS
 10
-54.6265
 20
30.203322
 11
-54.6265
 21
70.203327
  0
LINE
  8
型材断面
  6
CONTINUOUS
 10
-19.67983
 20
30.203322
 11
-19.67983
 21
70.203327
  0
LINE
  8
型材断面
  6
CONTINUOUS
 10
-20.67983
 20
30.203322
 11
-20.67983
 21
70.203327
  0
LINE
  8
型材断面
  6
CONTINUOUS
 10
-21.17983
 20
30.203322
 11
-21.17983
 21
70.203327
  0
LINE
  8
型材断面
  6
CONTINUOUS
 10
-22.17983
 20
30.203322
 11
-22.17983
 21
70.203327
  0
LINE
  8
型材断面
  6
DASHDOT
 10
-87.823165
 20
28.536658
 11
-87.823165
 21
71.869993
  0
LINE
  8
型材断面
  6
DASHDOT
 10
-54.3765
 20
28.536658
 11
-54.3765
 21
71.869993
  0
LINE
  8
型材断面
  6
CONTINUOUS
 10
44.713505
 20
30.203322
 11
47.213505
 21
30.203322
  0
LINE
  8
型材断面
  6
CONTINUOUS
 10
11.26684
 20
30.203322
 11
13.76684
 21
30.203322
  0
LINE
  8
型材断面
  6
CONTINUOUS
 10
62.100165
 20
29.36999
 11
62.100165
 21
28.536658
  0
LINE
  8
型材断面
  6
CONTINUOUS
 10
62.9335
 20
29.36999
 11
62.9335
 21
28.536658
  0
LINE
  8
型材断面
  6
CONTINUOUS
 10
78.23683
 20
29.36999
 11
62.9335
 21
29.36999
  0
LINE
  8
型材断面
  6
CONTINUOUS
 10
28.823505
 20
29.36999
 11
28.823505
 21
28.536658
  0
LINE
  8
型材断面
  6
CONTINUOUS
 10
29.65684
 20
29.36999
 11
29.65684
 21
28.536658
  0
LINE
  8
型材断面
  6
CONTINUOUS
 10
-4.623163
 20
29.36999
 11
-4.623163
 21
28.536658
  0
LINE
  8
型材断面
  6
CONTINUOUS
 10
-3.789827
 20
29.36999
 11
-3.789827
 21
28.536658
  0
LINE
  8
型材断面
  6
CONTINUOUS
 10
62.100165
 20
29.36999
 11
29.65684
 21
29.36999
  0
LINE
  8
型材断面
  6
CONTINUOUS
 10
28.823505
 20
29.36999
 11
-3.789827
 21
29.36999
  0
LINE
  8
型材断面
  6
CONTINUOUS
 10
44.713505
 20
70.203327
 11
47.213505
 21
70.203327
  0
LINE
  8
型材断面
  6
CONTINUOUS
 10
11.26684
 20
70.203327
 11
13.76684
 21
70.203327
  0
LINE
  8
型材断面
  6
CONTINUOUS
 10
47.213505
 20
30.203322
 11
47.213505
 21
70.203327
  0
LINE
  8
型材断面
  6
CONTINUOUS
 10
46.213505
 20
30.203322
 11
46.213505
 21
70.203327
  0
LINE
  8
型材断面
  6
CONTINUOUS
 10
45.713505
 20
30.203322
 11
45.713505
 21
70.203327
  0
LINE
  8
型材断面
  6
CONTINUOUS
 10
44.713505
 20
30.203322
 11
44.713505
 21
70.203327
  0
LINE
  8
型材断面
  6
CONTINUOUS
 10
11.26684
 20
30.203322
 11
11.26684
 21
70.203327
  0
LINE
  8
型材断面
  6
CONTINUOUS
 10
12.26684
 20
30.203322
 11
12.26684
 21
70.203327
  0
LINE
  8
型材断面
  6
CONTINUOUS
 10
13.76684
 20
30.203322
 11
13.76684
 21
70.203327
  0
LINE
  8
型材断面
  6
CONTINUOUS
 10
12.76684
 20
30.203322
 11
12.76684
 21
70.203327
  0
LINE
  8
型材断面
  6
DASHDOT
 10
45.963505
 20
28.536658
 11
45.963505
 21
71.869993
  0
LINE
  8
型材断面
  6
DASHDOT
 10
12.51684
 20
28.536658
 11
12.51684
 21
71.869993
  0
LINE
  8
型材断面
  6
CONTINUOUS
 10
-37.236498
 20
29.36999
 11
-4.623163
 21
29.36999
  0
LINE
  8
型材断面
  6
CONTINUOUS
 10
-103.959825
 20
71.03666
 11
-103.959825
 21
71.869993
  0
LINE
  8
型材断面
  6
CONTINUOUS
 10
-104.79316
 20
71.03666
 11
-104.79316
 21
71.869993
  0
LINE
  8
型材断面
  6
CONTINUOUS
 10
-120.09649
 20
71.03666
 11
-104.79316
 21
71.03666
  0
LINE
  8
型材断面
  6
CONTINUOUS
 10
-70.683165
 20
71.03666
 11
-70.683165
 21
71.869993
  0
LINE
  8
型材断面
  6
CONTINUOUS
 10
-71.5165
 20
71.03666
 11
-71.5165
 21
71.869993
  0
LINE
  8
型材断面
  6
CONTINUOUS
 10
-37.236498
 20
71.03666
 11
-37.236498
 21
71.869993
  0
LINE
  8
型材断面
  6
CONTINUOUS
 10
-38.069833
 20
71.03666
 11
-38.069833
 21
71.869993
  0
LINE
  8
型材断面
  6
CONTINUOUS
 10
-103.959825
 20
71.03666
 11
-71.5165
 21
71.03666
  0
LINE
  8
型材断面
  6
CONTINUOUS
 10
-70.683165
 20
71.03666
 11
-38.069833
 21
71.03666
  0
LINE
  8
型材断面
  6
CONTINUOUS
 10
62.100165
 20
71.03666
 11
62.100165
 21
71.869993
  0
LINE
  8
型材断面
  6
CONTINUOUS
 10
62.9335
 20
71.03666
 11
62.9335
 21
71.869993
  0
LINE
  8
型材断面
  6
CONTINUOUS
 10
78.23683
 20
71.03666
 11
62.9335
 21
71.03666
  0
LINE
  8
型材断面
  6
CONTINUOUS
 10
28.823505
 20
71.03666
 11
28.823505
 21
71.869993
  0
LINE
  8
型材断面
  6
CONTINUOUS
 10
29.65684
 20
71.03666
 11
29.65684
 21
71.869993
  0
LINE
  8
型材断面
  6
CONTINUOUS
 10
-4.623163
 20
71.03666
 11
-4.623163
 21
71.869993
  0
LINE
  8
型材断面
  6
CONTINUOUS
 10
-3.789827
 20
71.03666
 11
-3.789827
 21
71.869993
  0
LINE
  8
型材断面
  6
CONTINUOUS
 10
62.100165
 20
71.03666
 11
29.65684
 21
71.03666
  0
LINE
  8
型材断面
  6
CONTINUOUS
 10
28.823505
 20
71.03666
 11
-3.789827
 21
71.03666
  0
LINE
  8
型材断面
  6
CONTINUOUS
 10
-37.236498
 20
71.03666
 11
-4.623163
 21
71.03666
  0
POLYLINE
  8
型材断面
  6
CONTINUOUS
 66
     1
 70
     1
  0
VERTEX
  8
型材断面
 10
-11.52982
 20
81.645915
  0
VERTEX
  8
型材断面
 10
-30.30175
 20
81.645915
  0
VERTEX
  8
型材断面
 10
-30.30175
 20
86.382757
  0
VERTEX
  8
型材断面
 10
-11.52982
 20
86.382757
  0
SEQEND
  0
POLYLINE
  8
型材断面
  6
CONTINUOUS
 66
     1
 70
     1
  0
VERTEX
  8
型材断面
 10
-11.52982
 20
18.760735
  0
VERTEX
  8
型材断面
 10
-30.30175
 20
18.760735
  0
VERTEX
  8
型材断面
 10
-30.30175
 20
14.023892
  0
VERTEX
  8
型材断面
 10
-11.52982
 20
14.023892
  0
SEQEND
  0
LINE
  8
型材断面
  6
CONTINUOUS
 10
-123.55996
 20
50.203325
 11
-126.150468
 21
51.698955
  0
LINE
  8
型材断面
  6
CONTINUOUS
 10
-123.55996
 20
50.203325
 11
-126.150468
 21
48.707695
  0
LINE
  8
型材断面
  6
CONTINUOUS
 10
-126.150468
 20
48.707695
 11
-126.150468
 21
51.698955
  0
LINE
  8
型材断面
  6
CONTINUOUS
 10
-104.263162
 20
74.50012
 11
-105.758792
 21
77.090627
  0
LINE
  8
型材断面
  6
CONTINUOUS
 10
-104.263162
 20
74.50012
 11
-102.767533
 21
77.090627
  0
LINE
  8
型材断面
  6
CONTINUOUS
 10
-102.767533
 20
77.090627
 11
-105.758792
 21
77.090627
  0
LINE
  8
型材断面
  6
CONTINUOUS
 10
-20.92983
 20
74.50012
 11
-22.42546
 21
77.090627
  0
LINE
  8
型材断面
  6
CONTINUOUS
 10
-20.92983
 20
74.50012
 11
-19.4342
 21
77.090627
  0
LINE
  8
型材断面
  6
CONTINUOUS
 10
-19.4342
 20
77.090627
 11
-22.42546
 21
77.090627
  0
LINE
  8
型材断面
  6
CONTINUOUS
 10
62.403502
 20
74.50012
 11
60.907872
 21
77.090627
  0
LINE
  8
型材断面
  6
CONTINUOUS
 10
62.403502
 20
74.50012
 11
63.899133
 21
77.090627
  0
LINE
  8
型材断面
  6
CONTINUOUS
 10
63.899133
 20
77.090627
 11
60.907872
 21
77.090627
  0
LINE
  8
型材断面
  6
CONTINUOUS
 10
-161.782038
 20
109.847463
 11
-161.185982
 21
107.256955
  0
LINE
  8
型材断面
  6
CONTINUOUS
 10
-161.782038
 20
109.847463
 11
-162.378095
 21
107.256955
  0
LINE
  8
型材断面
  6
CONTINUOUS
 10
-162.378095
 20
107.256955
 11
-161.185982
 21
107.256955
  0
LINE
  8
型材断面
  6
CONTINUOUS
 10
-167.804625
 20
103.978062
 11
-121.562848
 21
103.978062
  0
LINE
  8
型材断面
  6
CONTINUOUS
 10
-161.782038
 20
116.377338
 11
-163.277668
 21
113.78683
  0
LINE
  8
型材断面
  6
CONTINUOUS
 10
-161.782038
 20
116.377338
 11
-160.286408
 21
113.78683
  0
LINE
  8
型材断面
  6
CONTINUOUS
 10
-160.286408
 20
113.78683
 11
-163.277668
 21
113.78683
  0
LINE
  8
型材断面
  6
CONTINUOUS
 10
-167.804625
 20
112.848235
 11
-121.562848
 21
112.848235
  0
LINE
  8
型材断面
  6
CONTINUOUS
 10
-167.804625
 20
98.19003
 11
-121.562848
 21
98.19003
  0
LINE
  8
型材断面
  6
CONTINUOUS
 10
-104.263162
 20
25.90653
 11
-105.758792
 21
23.316022
  0
LINE
  8
型材断面
  6
CONTINUOUS
 10
-104.263162
 20
25.90653
 11
-102.767533
 21
23.316022
  0
LINE
  8
型材断面
  6
CONTINUOUS
 10
-102.767533
 20
23.316022
 11
-105.758792
 21
23.316022
  0
LINE
  8
型材断面
  6
CONTINUOUS
 10
-20.92983
 20
25.90653
 11
-22.42546
 21
23.316022
  0
LINE
  8
型材断面
  6
CONTINUOUS
 10
-20.92983
 20
25.90653
 11
-19.4342
 21
23.316022
  0
LINE
  8
型材断面
  6
CONTINUOUS
 10
-19.4342
 20
23.316022
 11
-22.42546
 21
23.316022
  0
LINE
  8
型材断面
  6
CONTINUOUS
 10
62.403502
 20
25.90653
 11
60.907872
 21
23.316022
  0
LINE
  8
型材断面
  6
CONTINUOUS
 10
62.403502
 20
25.90653
 11
63.899133
 21
23.316022
  0
LINE
  8
型材断面
  6
CONTINUOUS
 10
63.899133
 20
23.316022
 11
60.907872
 21
23.316022
  0
LINE
  8
型材断面
  6
CONTINUOUS
 10
81.7003
 20
50.203325
 11
84.290807
 21
51.698955
  0
LINE
  8
型材断面
  6
CONTINUOUS
 10
81.7003
 20
50.203325
 11
84.290807
 21
48.707695
  0
LINE
  8
型材断面
  6
CONTINUOUS
 10
84.290807
 20
48.707695
 11
84.290807
 21
51.698955
  0
LINE
  8
型材断面
  6
CONTINUOUS
 10
81.700297
 20
67.96999
 11
84.290805
 21
67.373933
  0
LINE
  8
型材断面
  6
CONTINUOUS
 10
81.700297
 20
67.96999
 11
84.290805
 21
68.566048
  0
LINE
  8
型材断面
  6
CONTINUOUS
 10
84.290805
 20
68.566048
 11
84.290805
 21
67.373933
  0
LINE
  8
型材断面
  6
CONTINUOUS
 10
81.700297
 20
32.43666
 11
84.290805
 21
33.032718
  0
LINE
  8
型材断面
  6
CONTINUOUS
 10
81.700297
 20
32.43666
 11
84.290805
 21
31.840603
  0
LINE
  8
型材断面
  6
CONTINUOUS
 10
84.290805
 20
31.840603
 11
84.290805
 21
33.032718
  0
LINE
  8
型材断面
  6
CONTINUOUS
 10
-123.559958
 20
67.96999
 11
-126.150465
 21
67.373933
  0
LINE
  8
型材断面
  6
CONTINUOUS
 10
-123.559958
 20
67.96999
 11
-126.150465
 21
68.566048
  0
LINE
  8
型材断面
  6
CONTINUOUS
 10
-126.150465
 20
68.566048
 11
-126.150465
 21
67.373933
  0
LINE
  8
型材断面
  6
CONTINUOUS
 10
-123.559958
 20
32.43666
 11
-126.150465
 21
33.032718
  0
LINE
  8
型材断面
  6
CONTINUOUS
 10
-123.559958
 20
32.43666
 11
-126.150465
 21
31.840603
  0
LINE
  8
型材断面
  6
CONTINUOUS
 10
-126.150465
 20
31.840603
 11
-126.150465
 21
33.032718
  0
LINE
  8
型材断面
  6
CONTINUOUS
 10
-167.804625
 20
92.401997
 11
-121.562848
 21
92.401997
  0
INSERT
  2
*GRP_0014
  8
型材断面
  6
DOT
 10
0.0
 20
0.0
  0
INSERT
  2
*GRP_0015
  8
型材断面
  6
CONTINUOUS
 10
0.0
 20
0.0
  0
INSERT
  2
*GRP_0016
  8
型材断面
  6
CONTINUOUS
 10
0.0
 20
0.0
  0
INSERT
  2
*GRP_0017
  8
型材断面
  6
CONTINUOUS
 10
0.0
 20
0.0
  0
INSERT
  2
*GRP_0018
  8
型材断面
  6
CONTINUOUS
 10
0.0
 20
0.0
  0
INSERT
  2
*GRP_0019
  8
型材断面
  6
CONTINUOUS
 10
0.0
 20
0.0
  0
INSERT
  2
*GRP_0020
  8
型材断面
  6
CONTINUOUS
 10
0.0
 20
0.0
  0
LINE
  8
型材断面
  6
DASHDOT
 10
172.29227
 20
50.203325
 11
-120.929822
 21
50.203325
  0
LINE
  8
型材断面
  6
DASHDOT
 10
172.29227
 20
28.536658
 11
79.070162
 21
28.536658
  0
LINE
  8
型材断面
  6
DASHDOT
 10
172.29227
 20
71.869993
 11
79.070162
 21
71.869993
  0
LINE
  8
型材断面
  6
CONTINUOUS
 10
129.460292
 20
-18.115557
 11
148.310138
 21
-18.115557
  0
POLYLINE
  8
ガラス
  6
CONTINUOUS
 66
     1
 70
     1
  0
VERTEX
  8
ガラス
 10
164.586687
 20
-39.69195
  0
VERTEX
  8
ガラス
 10
132.486687
 20
-39.69195
  0
VERTEX
  8
ガラス
 10
132.486687
 20
-82.358618
  0
VERTEX
  8
ガラス
 10
164.586687
 20
-82.358618
  0
SEQEND
  0
TEXT
  7
TextStyle03
  8
文字
  6
CONTINUOUS
 10
78.1
 20
125.25
  1
シリーズ：ＳＴＤＬ
 40
5.0
 72
     5
 11
128.1
 21
125.25
  0
TEXT
  7
TextStyle03
  8
文字
  6
CONTINUOUS
 10
78.1
 20
119.625
  1
　　　　　（上下可動）1300×6000タイプ
 40
5.0
 72
     5
 11
184.35
 21
119.625
  0
TEXT
  7
TextStyle03
  8
文字
  6
CONTINUOUS
 10
78.1
 20
114.0
  1
図面名　：外観姿図
 40
5.0
 72
     5
 11
128.1
 21
114.0
  0
TEXT
  7
TextStyle03
  8
文字
  6
CONTINUOUS
 10
78.1
 20
108.375
  1
　　　　　　
 40
5.0
 72
     5
 11
111.225
 21
108.375
  0
TEXT
  7
TextStyle03
  8
文字
  6
CONTINUOUS
 10
-7.0
 20
-100.575
  1
※トップライト枠高さ寸法
 40
3.0
 72
     5
 11
33.125
 21
-100.575
  0
TEXT
  7
TextStyle03
  8
文字
  6
CONTINUOUS
 10
-7.0
 20
-103.95
  1
　シングルガラス：214
 40
3.0
 72
     5
 11
28.25
 21
-103.95
  0
TEXT
  7
TextStyle03
  8
文字
  6
CONTINUOUS
 10
-7.0
 20
-107.325
  1
　ペアガラス：224
 40
3.0
 72
     5
 11
21.5
 21
-107.325
  0
TEXT
  7
TextStyle03
  8
文字
  6
CONTINUOUS
 10
-29.225
 20
82.325
  1
可動装置側
 40
3.0
 72
     5
 11
-12.725
 21
82.325
  0
TEXT
  7
TextStyle03
  8
文字
  6
CONTINUOUS
 10
-29.225
 20
15.05
  1
可動装置側
 40
3.0
 72
     5
 11
-12.725
 21
15.05
  0
TEXT
  7
TextStyle03
  8
文字
  6
CONTINUOUS
 10
-158.4
 20
39.1
  1
アンカーピッチ
 40
3.0
 50
90.0
 72
     5
 11
-158.4
 21
62.35
  0
TEXT
  7
TextStyle03
  8
文字
  6
CONTINUOUS
 10
-158.975
 20
108.45
  1
はケーシング位置を示す
 40
3.0
 72
     5
 11
-122.225
 21
108.45
  0
TEXT
  7
TextStyle03
  8
文字
  6
CONTINUOUS
 10
-158.975
 20
105.075
  1
４ヶ所中1ヶ所に設定
 40
3.0
 72
     5
 11
-127.2875
 21
105.075
  0
TEXT
  7
TextStyle03
  8
文字
  6
CONTINUOUS
 10
-158.975
 20
113.975
  1
は排水穴位置を示す
 40
3.0
 72
     5
 11
-128.975
 21
113.975
  0
TEXT
  7
TextStyle03
  8
文字
  6
CONTINUOUS
 10
-107.5
 20
109.0
  1
アンカーピッチ
 40
3.0
 72
     5
 11
-84.25
 21
109.0
  0
TEXT
  7
TextStyle03
  8
文字
  6
CONTINUOUS
 10
-162.7
 20
99.1
  1
アンカー数量　２２ヶ所
 40
3.0
 72
     5
 11
-125.95
 21
99.1
  0
TEXT
  7
TextStyle03
  8
文字
  6
CONTINUOUS
 10
-167.7
 20
88.375
  1
※重量に依るのでご相談ください
 40
3.0
 72
     5
 11
-117.45
 21
88.375
  0
TEXT
  7
TextStyle03
  8
文字
  6
CONTINUOUS
 10
-167.7
 20
93.325
  1
アームユニット数　※６～８ヶ所
 40
3.0
 72
     5
 11
-117.45
 21
93.325
  0
TEXT
  7
TextStyle03
  8
文字
  6
CONTINUOUS
 10
130.325
 20
-16.775
  1
ガラス寸法
 40
3.0
 72
     5
 11
146.825
 21
-16.775
  0
TEXT
  7
TextStyle03
  8
文字
  6
CONTINUOUS
 10
151.575
 20
-79.525
  1
×６枚
 40
3.0
 72
     5
 11
161.325
 21
-79.525
  0
INSERT
  2
*DIM_0004
  8
寸法
  6
CONTINUOUS
 10
0.0
 20
0.0
  0
INSERT
  2
*DIM_0005
  8
寸法
  6
CONTINUOUS
 10
0.0
 20
0.0
  0
INSERT
  2
*DIM_0008
  8
寸法
  6
CONTINUOUS
 10
0.0
 20
0.0
  0
INSERT
  2
*DIM_0009
  8
寸法
  6
CONTINUOUS
 10
0.0
 20
0.0
  0
INSERT
  2
*DIM_0021
  8
寸法
  6
CONTINUOUS
 10
0.0
 20
0.0
  0
INSERT
  2
*DIM_0022
  8
寸法
  6
CONTINUOUS
 10
0.0
 20
0.0
  0
INSERT
  2
*DIM_0023
  8
寸法
  6
CONTINUOUS
 10
0.0
 20
0.0
  0
INSERT
  2
*DIM_0024
  8
寸法
  6
CONTINUOUS
 10
0.0
 20
0.0
  0
INSERT
  2
*DIM_0025
  8
寸法
  6
CONTINUOUS
 10
0.0
 20
0.0
  0
INSERT
  2
*DIM_0026
  8
寸法
  6
CONTINUOUS
 10
0.0
 20
0.0
  0
INSERT
  2
*DIM_0027
  8
寸法
  6
CONTINUOUS
 10
0.0
 20
0.0
  0
INSERT
  2
*DIM_0028
  8
寸法
  6
CONTINUOUS
 10
0.0
 20
0.0
  0
INSERT
  2
*DIM_0029
  8
寸法
  6
CONTINUOUS
 10
0.0
 20
0.0
  0
INSERT
  2
*DIM_0030
  8
寸法
  6
CONTINUOUS
 10
0.0
 20
0.0
  0
INSERT
  2
*DIM_0031
  8
寸法
  6
CONTINUOUS
 10
0.0
 20
0.0
  0
INSERT
  2
*DIM_0032
  8
寸法
  6
CONTINUOUS
 10
0.0
 20
0.0
  0
INSERT
  2
*DIM_0033
  8
寸法
  6
CONTINUOUS
 10
0.0
 20
0.0
  0
INSERT
  2
*DIM_0034
  8
寸法
  6
CONTINUOUS
 10
0.0
 20
0.0
  0
INSERT
  2
*DIM_0035
  8
寸法
  6
CONTINUOUS
 10
0.0
 20
0.0
  0
INSERT
  2
*DIM_0036
  8
寸法
  6
CONTINUOUS
 10
0.0
 20
0.0
  0
INSERT
  2
*DIM_0037
  8
寸法
  6
CONTINUOUS
 10
0.0
 20
0.0
  0
INSERT
  2
*DIM_0038
  8
寸法
  6
CONTINUOUS
 10
0.0
 20
0.0
  0
INSERT
  2
*DIM_0043
  8
寸法
  6
CONTINUOUS
 10
0.0
 20
0.0
  0
INSERT
  2
*DIM_0044
  8
寸法
  6
CONTINUOUS
 10
0.0
 20
0.0
  0
LINE
  8
曲げ物
  6
CONTINUOUS
 10
63.7959
 20
52.406972
 11
60.100588
 21
48.71166
  0
LINE
  8
曲げ物
  6
CONTINUOUS
 10
63.09243
 20
50.870862
 11
61.6367
 21
49.415133
  0
LINE
  8
曲げ物
  6
CONTINUOUS
 10
62.25979
 20
51.703502
 11
60.80406
 21
50.247773
  0
LINE
  8
曲げ物
  6
CONTINUOUS
 10
31.1686
 20
52.406972
 11
27.473287
 21
48.71166
  0
LINE
  8
曲げ物
  6
CONTINUOUS
 10
30.46513
 20
50.870862
 11
29.0094
 21
49.415133
  0
LINE
  8
曲げ物
  6
CONTINUOUS
 10
29.63249
 20
51.703502
 11
28.17676
 21
50.247773
  0
LINE
  8
曲げ物
  6
CONTINUOUS
 10
-1.78385
 20
52.406972
 11
-5.479162
 21
48.71166
  0
LINE
  8
曲げ物
  6
CONTINUOUS
 10
-2.48732
 20
50.870862
 11
-3.94305
 21
49.415133
  0
LINE
  8
曲げ物
  6
CONTINUOUS
 10
-3.31996
 20
51.703502
 11
-4.77569
 21
50.247773
  0
LINE
  8
曲げ物
  6
CONTINUOUS
 10
-35.164253
 20
52.406972
 11
-38.859565
 21
48.71166
  0
LINE
  8
曲げ物
  6
CONTINUOUS
 10
-35.867723
 20
50.870862
 11
-37.323452
 21
49.415133
  0
LINE
  8
曲げ物
  6
CONTINUOUS
 10
-36.700363
 20
51.703502
 11
-38.156092
 21
50.247773
  0
LINE
  8
曲げ物
  6
CONTINUOUS
 10
-68.117782
 20
52.406972
 11
-71.813095
 21
48.71166
  0
LINE
  8
曲げ物
  6
CONTINUOUS
 10
-68.821252
 20
50.870862
 11
-70.276983
 21
49.415133
  0
LINE
  8
曲げ物
  6
CONTINUOUS
 10
-69.653892
 20
51.703502
 11
-71.109623
 21
50.247773
  0
LINE
  8
曲げ物
  6
CONTINUOUS
 10
-101.78349
 20
52.406972
 11
-105.478802
 21
48.71166
  0
LINE
  8
曲げ物
  6
CONTINUOUS
 10
-102.48696
 20
50.870862
 11
-103.94269
 21
49.415133
  0
LINE
  8
曲げ物
  6
CONTINUOUS
 10
-103.3196
 20
51.703502
 11
-104.77533
 21
50.247773
  0
ENDSEC
  0
EOF
