  0
SECTION
  2
HEADER
  9
$EXTMIN
 10
-210.0
 20
-148.5
  9
$EXTMAX
 10
210.0
 20
148.5
  9
$PDMODE
 70
    32
  9
$PDSIZE
 40
1.5
  9
$LTSCALE
 40
10.0
  0
ENDSEC
  0
SECTION
  2
TABLES
  0
TABLE
  2
LTYPE
 70
    15
  0
LTYPE
  2
CONTINUOUS
 70
    64
  3
実線
 72
    65
 73
     0
 40
0.0
  0
LTYPE
  2
DASHED
 70
    64
  3
破線A
 72
    65
 73
     2
 40
0.6
 49
0.4
 49
-0.2
  0
LTYPE
  2
DASHEDX2
 70
    64
  3
破線B
 72
    65
 73
     2
 40
1.3
 49
0.9
 49
-0.4
  0
LTYPE
  2
DASHDOT
 70
    64
  3
１点鎖線A
 72
    65
 73
     4
 40
0.5375
 49
0.375
 49
-0.05
 49
0.0625
 49
-0.05
  0
LTYPE
  2
DASHDOTX2
 70
    64
  3
１点鎖線B
 72
    65
 73
     4
 40
1.075
 49
0.75
 49
-0.1
 49
0.125
 49
-0.1
  0
LTYPE
  2
DIVIDE2
 70
    64
  3
２点鎖線A
 72
    65
 73
     6
 40
0.5125
 49
0.3
 49
-0.0375
 49
0.05
 49
-0.0375
 49
0.05
 49
-0.0375
  0
LTYPE
  2
DIVIDE
 70
    64
  3
２点鎖線B
 72
    65
 73
     6
 40
1.05
 49
0.55
 49
-0.1
 49
0.1
 49
-0.1
 49
0.1
 49
-0.1
  0
LTYPE
  2
DOT
 70
    64
  3
点線A
 72
    65
 73
     2
 40
0.1125
 49
0.0625
 49
-0.05
  0
LTYPE
  2
DOTX2
 70
    64
  3
点線B
 72
    65
 73
     2
 40
0.275
 49
0.15
 49
-0.125
  0
LTYPE
  2
CONTINUOUS
 70
    64
  3
実線
 72
    65
 73
     0
 40
0.0
  0
LTYPE
  2
CONTINUOUS
 70
    64
  3
実線
 72
    65
 73
     0
 40
0.0
  0
LTYPE
  2
CONTINUOUS
 70
    64
  3
実線
 72
    65
 73
     0
 40
0.0
  0
LTYPE
  2
CONTINUOUS
 70
    64
  3
実線
 72
    65
 73
     0
 40
0.0
  0
LTYPE
  2
CONTINUOUS
 70
    64
  3
実線
 72
    65
 73
     0
 40
0.0
  0
LTYPE
  2
CONTINUOUS
 70
    64
  3
実線
 72
    65
 73
     0
 40
0.0
  0
ENDTAB
  0
TABLE
  2
LAYER
 70
    34
  0
LAYER
  2
通り芯
 70
     0
 62
    15
  6
CONTINUOUS
  0
LAYER
  2
補助線
 70
     0
 62
    16
  6
DOT
  0
LAYER
  2
躯体
 70
     0
 62
    31
  6
CONTINUOUS
  0
LAYER
  2
型材
 70
     0
 62
    32
  6
CONTINUOUS
  0
LAYER
  2
型材断面
 70
     0
 62
    47
  6
CONTINUOUS
  0
LAYER
  2
ガラス
 70
     0
 62
    48
  6
CONTINUOUS
  0
LAYER
  2
ゴム等
 70
     0
 62
    63
  6
CONTINUOUS
  0
LAYER
  2
ボルト／ビス
 70
     0
 62
    64
  6
CONTINUOUS
  0
LAYER
  2
文字
 70
     0
 62
    79
  6
CONTINUOUS
  0
LAYER
  2
寸法
 70
     0
 62
    80
  6
CONTINUOUS
  0
LAYER
  2
ﾊｯﾁﾝｸﾞ
 70
     0
 62
    95
  6
CONTINUOUS
  0
LAYER
  2
別途部材
 70
     0
 62
    96
  6
CONTINUOUS
  0
LAYER
  2
曲げ物
 70
     0
 62
   111
  6
CONTINUOUS
  0
LAYER
  2
鉄骨等
 70
     0
 62
   112
  6
CONTINUOUS
  0
LAYER
  2
St
 70
     0
 62
   127
  6
CONTINUOUS
  0
LAYER
  2
その他部品等
 70
     0
 62
   128
  6
CONTINUOUS
  0
LAYER
  2
ｶﾞｽｹｯﾄ
 70
     0
 62
   143
  6
CONTINUOUS
  0
LAYER
  2
ｽｹｯﾁ
 70
     0
 62
    14
  6
CONTINUOUS
  0
LAYER
  2
0
 70
     0
 62
    17
  6
CONTINUOUS
  0
LAYER
  2
1
 70
     0
 62
    30
  6
CONTINUOUS
  0
LAYER
  2
4
 70
     0
 62
    33
  6
CONTINUOUS
  0
LAYER
  2
ﾚｲﾔ3
 70
     0
 62
    46
  6
CONTINUOUS
  0
LAYER
  2
外形線
 70
     0
 62
    49
  6
CONTINUOUS
  0
LAYER
  2
部品
 70
     0
 62
    14
  6
CONTINUOUS
  0
LAYER
  2
サッシ芯
 70
     0
 62
    17
  6
DASHDOTX2
  0
LAYER
  2
寸法線
 70
     0
 62
    62
  6
CONTINUOUS
  0
LAYER
  2
姿図外形線
 70
     0
 62
    65
  6
CONTINUOUS
  0
LAYER
  2
姿補助線
 70
     0
 62
    30
  6
CONTINUOUS
  0
LAYER
  2
透視線
 70
     0
 62
    78
  6
DOT
  0
LAYER
  2
用紙
 70
     0
 62
    81
  6
CONTINUOUS
  0
LAYER
  2
実線図枠
 70
     0
 62
    94
  6
CONTINUOUS
  0
LAYER
  2
補助図枠
 70
     0
 62
    97
  6
CONTINUOUS
  0
LAYER
  2
建具記号
 70
     0
 62
   110
  6
CONTINUOUS
  0
LAYER
  2
補助文字
 70
     0
 62
   113
  6
CONTINUOUS
  0
ENDTAB
  0
TABLE
  2
STYLE
 70
    10
  0
STYLE
  2
STANDARD
 70
     0
 40
1.0
 41
1.0
 42
1.0
 50
0.0
 71
     0
  3
TXT
  4
BIGFONT
  0
STYLE
  2
TATE
 70
     4
 40
1.0
 41
1.0
 42
1.0
 50
0.0
 71
     0
  3
TXT
  4
BIGFONT
  0
STYLE
  2
TextStyle03
 70
     0
 40
1.0
 41
1.0
 42
1.0
 50
0.0
 71
     0
  3
MONOTXT
  4
BIGFONT
  0
STYLE
  2
TextStyle04
 70
     0
 40
1.0
 41
1.0
 42
1.0
 50
0.0
 71
     0
  3
MONOTXT
  4
BIGFONT
  0
STYLE
  2
TextStyle05
 70
     0
 40
1.0
 41
1.0
 42
1.0
 50
0.0
 71
     0
  3
MONOTXT
  4
BIGFONT
  0
STYLE
  2
TextStyle06
 70
     0
 40
1.0
 41
1.0
 42
1.0
 50
0.0
 71
     0
  3
MONOTXT
  4
BIGFONT
  0
STYLE
  2
TextStyle07
 70
     0
 40
1.0
 41
1.0
 42
1.0
 50
0.0
 71
     0
  3
MONOTXT
  4
BIGFONT
  0
STYLE
  2
TextStyle08
 70
     0
 40
1.0
 41
1.0
 42
1.0
 50
0.0
 71
     0
  3
MONOTXT
  4
BIGFONT
  0
STYLE
  2
TextStyle09
 70
     0
 40
1.0
 41
1.0
 42
1.0
 50
0.0
 71
     0
  3
MONOTXT
  4
BIGFONT
  0
STYLE
  2
TextStyle10
 70
     0
 40
1.0
 41
1.0
 42
1.0
 50
0.0
 71
     0
  3
MONOTXT
  4
BIGFONT
  0
ENDTAB
  0
ENDSEC
  0
SECTION
  2
BLOCKS
  0
BLOCK
  2
*GRP_0001
 70
    65
 10
0.0
 20
0.0
  0
LINE
  8
型材断面
  6
CONTINUOUS
 10
195.0
 20
133.5
 11
195.0
 21
-133.5
  0
LINE
  8
型材断面
  6
CONTINUOUS
 10
195.0
 20
-133.5
 11
-185.0
 21
-133.5
  0
LINE
  8
型材断面
  6
CONTINUOUS
 10
-185.0
 20
-133.5
 11
-185.0
 21
133.5
  0
LINE
  8
型材断面
  6
CONTINUOUS
 10
195.0
 20
133.5
 11
-185.0
 21
133.5
  0
LINE
  8
型材断面
  6
CONTINUOUS
 10
145.0
 20
-133.5
 11
145.0
 21
-118.5
  0
LINE
  8
型材断面
  6
CONTINUOUS
 10
195.0
 20
-118.5
 11
145.0
 21
-118.5
  0
ENDBLK
  0
BLOCK
  2
*GRP_0002
 70
    65
 10
0.0
 20
0.0
  0
INSERT
  2
M8横
  8
ゴム等
  6
CONTINUOUS
 10
163.336003
 20
61.029685
 50
270.0
 41
0.033333
 42
-0.033333
  0
LINE
  8
ボルト／ビス
  6
CONTINUOUS
 10
163.126005
 20
60.896352
 11
163.109338
 21
60.91302
  0
LINE
  8
ボルト／ビス
  6
CONTINUOUS
 10
163.109338
 20
61.146352
 11
163.126005
 21
61.16302
  0
LINE
  8
ボルト／ビス
  6
CONTINUOUS
 10
163.126005
 20
61.16302
 11
163.126005
 21
60.896352
  0
LINE
  8
ボルト／ビス
  6
CONTINUOUS
 10
163.109338
 20
61.146352
 11
163.109338
 21
60.91302
  0
LINE
  8
ボルト／ビス
  6
CONTINUOUS
 10
163.109338
 20
60.91302
 11
163.15267
 21
60.91302
  0
LINE
  8
ボルト／ビス
  6
CONTINUOUS
 10
163.126005
 20
60.896352
 11
163.15267
 21
60.896352
  0
LINE
  8
ボルト／ビス
  6
CONTINUOUS
 10
163.126005
 20
61.16302
 11
163.15267
 21
61.16302
  0
LINE
  8
ボルト／ビス
  6
CONTINUOUS
 10
163.109338
 20
61.146352
 11
163.15267
 21
61.146352
  0
LINE
  8
ボルト／ビス
  6
CONTINUOUS
 10
163.336003
 20
61.396352
 11
163.336003
 21
60.66302
  0
LINE
  8
ボルト／ビス
  6
CONTINUOUS
 10
163.376002
 20
60.61302
 11
163.459335
 21
60.61302
  0
LINE
  8
ボルト／ビス
  6
CONTINUOUS
 10
163.459335
 20
60.61302
 11
163.459335
 21
61.446352
  0
LINE
  8
ボルト／ビス
  6
CONTINUOUS
 10
163.459335
 20
61.446352
 11
163.376002
 21
61.446352
  0
LINE
  8
ボルト／ビス
  6
CONTINUOUS
 10
163.376002
 20
60.61302
 11
163.376002
 21
61.446352
  0
LINE
  8
ボルト／ビス
  6
CONTINUOUS
 10
163.336003
 20
61.396352
 11
163.376002
 21
61.396352
  0
LINE
  8
ボルト／ビス
  6
CONTINUOUS
 10
163.336003
 20
60.66302
 11
163.376002
 21
60.66302
  0
LINE
  8
ボルト／ビス
  6
CONTINUOUS
 10
163.386002
 20
61.029685
 11
163.336003
 21
61.029685
  0
ENDBLK
  0
BLOCK
  2
*GRP_0003
 70
    65
 10
0.0
 20
0.0
  0
LINE
  8
ボルト／ビス
  6
CONTINUOUS
 10
162.47617
 20
61.236355
 11
162.409503
 21
61.236355
  0
LINE
  8
ボルト／ビス
  6
CONTINUOUS
 10
162.409503
 20
61.236355
 11
162.409503
 21
60.50302
  0
LINE
  8
ボルト／ビス
  6
CONTINUOUS
 10
162.409503
 20
60.50302
 11
162.47617
 21
60.50302
  0
LINE
  8
ボルト／ビス
  6
CONTINUOUS
 10
162.47617
 20
61.236355
 11
162.47617
 21
60.50302
  0
LINE
  8
ボルト／ビス
  6
CONTINUOUS
 10
162.37617
 20
61.169687
 11
162.409503
 21
61.169687
  0
LINE
  8
ボルト／ビス
  6
CONTINUOUS
 10
162.37617
 20
61.169687
 11
162.37617
 21
60.569687
  0
LINE
  8
ボルト／ビス
  6
CONTINUOUS
 10
162.37617
 20
60.569687
 11
162.409503
 21
60.569687
  0
LINE
  8
ボルト／ビス
  6
CONTINUOUS
 62
    64
 10
162.17617
 20
61.030062
 11
162.187845
 21
61.062138
  0
ARC
  8
ボルト／ビス
  6
CONTINUOUS
 62
    64
 10
162.281149
 20
61.014031
 40
0.104978
 50
180.0
 51
207.278033
  0
ARC
  8
ボルト／ビス
  6
CONTINUOUS
 62
    64
 10
162.578573
 20
60.869693
 40
0.402402
 50
166.165015
 51
193.834998
  0
LINE
  8
ボルト／ビス
  6
CONTINUOUS
 62
    64
 10
162.17617
 20
60.709312
 11
162.187845
 21
60.677238
  0
ARC
  8
ボルト／ビス
  6
CONTINUOUS
 62
    64
 10
162.281149
 20
60.725355
 40
0.104978
 50
152.721967
 51
180.0
  0
LINE
  8
ボルト／ビス
  6
CONTINUOUS
 62
    64
 10
162.17617
 20
61.030062
 11
162.17617
 21
60.709312
  0
LINE
  8
ボルト／ビス
  6
CONTINUOUS
 62
    64
 10
162.187845
 20
60.677238
 11
162.309503
 21
60.677238
  0
LINE
  8
ボルト／ビス
  6
CONTINUOUS
 62
    64
 10
162.187845
 20
60.773462
 11
162.309503
 21
60.773462
  0
LINE
  8
ボルト／ビス
  6
CONTINUOUS
 62
    64
 10
162.187845
 20
61.062138
 11
162.309503
 21
61.062138
  0
LINE
  8
ボルト／ビス
  6
CONTINUOUS
 62
    64
 10
162.187845
 20
60.965913
 11
162.309503
 21
60.965913
  0
LINE
  8
ボルト／ビス
  6
CONTINUOUS
 10
162.309503
 20
61.062138
 11
162.309503
 21
60.677238
  0
LINE
  8
ボルト／ビス
  6
CONTINUOUS
 10
162.309503
 20
61.069687
 11
162.37617
 21
61.069687
  0
LINE
  8
ボルト／ビス
  6
CONTINUOUS
 10
162.309503
 20
61.069687
 11
162.309503
 21
60.669687
  0
LINE
  8
ボルト／ビス
  6
CONTINUOUS
 10
162.309503
 20
60.669687
 11
162.37617
 21
60.669687
  0
ENDBLK
  0
BLOCK
  2
*GRP_0004
 70
    65
 10
0.0
 20
0.0
  0
INSERT
  2
M8横
  8
ゴム等
  6
CONTINUOUS
 10
163.336003
 20
39.376965
 50
90.0
 41
0.033333
 42
0.033333
  0
LINE
  8
ボルト／ビス
  6
CONTINUOUS
 10
163.126005
 20
39.5103
 11
163.109338
 21
39.493633
  0
LINE
  8
ボルト／ビス
  6
CONTINUOUS
 10
163.109338
 20
39.2603
 11
163.126005
 21
39.243633
  0
LINE
  8
ボルト／ビス
  6
CONTINUOUS
 10
163.126005
 20
39.243633
 11
163.126005
 21
39.5103
  0
LINE
  8
ボルト／ビス
  6
CONTINUOUS
 10
163.109338
 20
39.2603
 11
163.109338
 21
39.493633
  0
LINE
  8
ボルト／ビス
  6
CONTINUOUS
 10
163.109338
 20
39.493633
 11
163.15267
 21
39.493633
  0
LINE
  8
ボルト／ビス
  6
CONTINUOUS
 10
163.126005
 20
39.5103
 11
163.15267
 21
39.5103
  0
LINE
  8
ボルト／ビス
  6
CONTINUOUS
 10
163.126005
 20
39.243633
 11
163.15267
 21
39.243633
  0
LINE
  8
ボルト／ビス
  6
CONTINUOUS
 10
163.109338
 20
39.2603
 11
163.15267
 21
39.2603
  0
LINE
  8
ボルト／ビス
  6
CONTINUOUS
 10
163.336003
 20
39.0103
 11
163.336003
 21
39.743633
  0
LINE
  8
ボルト／ビス
  6
CONTINUOUS
 10
163.376002
 20
39.793633
 11
163.459335
 21
39.793633
  0
LINE
  8
ボルト／ビス
  6
CONTINUOUS
 10
163.459335
 20
39.793633
 11
163.459335
 21
38.9603
  0
LINE
  8
ボルト／ビス
  6
CONTINUOUS
 10
163.459335
 20
38.9603
 11
163.376002
 21
38.9603
  0
LINE
  8
ボルト／ビス
  6
CONTINUOUS
 10
163.376002
 20
39.793633
 11
163.376002
 21
38.9603
  0
LINE
  8
ボルト／ビス
  6
CONTINUOUS
 10
163.336003
 20
39.0103
 11
163.376002
 21
39.0103
  0
LINE
  8
ボルト／ビス
  6
CONTINUOUS
 10
163.336003
 20
39.743633
 11
163.376002
 21
39.743633
  0
LINE
  8
ボルト／ビス
  6
CONTINUOUS
 10
163.386002
 20
39.376965
 11
163.336003
 21
39.376965
  0
ENDBLK
  0
BLOCK
  2
*GRP_0005
 70
    65
 10
0.0
 20
0.0
  0
LINE
  8
ボルト／ビス
  6
CONTINUOUS
 10
162.47617
 20
39.170298
 11
162.409503
 21
39.170298
  0
LINE
  8
ボルト／ビス
  6
CONTINUOUS
 10
162.409503
 20
39.170298
 11
162.409503
 21
39.90363
  0
LINE
  8
ボルト／ビス
  6
CONTINUOUS
 10
162.409503
 20
39.90363
 11
162.47617
 21
39.90363
  0
LINE
  8
ボルト／ビス
  6
CONTINUOUS
 10
162.47617
 20
39.170298
 11
162.47617
 21
39.90363
  0
LINE
  8
ボルト／ビス
  6
CONTINUOUS
 10
162.37617
 20
39.236965
 11
162.409503
 21
39.236965
  0
LINE
  8
ボルト／ビス
  6
CONTINUOUS
 10
162.37617
 20
39.236965
 11
162.37617
 21
39.836965
  0
LINE
  8
ボルト／ビス
  6
CONTINUOUS
 10
162.37617
 20
39.836965
 11
162.409503
 21
39.836965
  0
LINE
  8
ボルト／ビス
  6
CONTINUOUS
 62
    64
 10
162.17617
 20
39.37659
 11
162.187845
 21
39.344515
  0
ARC
  8
ボルト／ビス
  6
CONTINUOUS
 62
    64
 10
162.281149
 20
39.392632
 40
0.104978
 50
152.721967
 51
180.0
  0
ARC
  8
ボルト／ビス
  6
CONTINUOUS
 62
    64
 10
162.578573
 20
39.536969
 40
0.402402
 50
166.165002
 51
193.834985
  0
LINE
  8
ボルト／ビス
  6
CONTINUOUS
 62
    64
 10
162.17617
 20
39.69734
 11
162.187845
 21
39.729415
  0
ARC
  8
ボルト／ビス
  6
CONTINUOUS
 62
    64
 10
162.281149
 20
39.681307
 40
0.104978
 50
180.0
 51
207.278033
  0
LINE
  8
ボルト／ビス
  6
CONTINUOUS
 62
    64
 10
162.17617
 20
39.37659
 11
162.17617
 21
39.69734
  0
LINE
  8
ボルト／ビス
  6
CONTINUOUS
 62
    64
 10
162.187845
 20
39.729415
 11
162.309503
 21
39.729415
  0
LINE
  8
ボルト／ビス
  6
CONTINUOUS
 62
    64
 10
162.187845
 20
39.63319
 11
162.309503
 21
39.63319
  0
LINE
  8
ボルト／ビス
  6
CONTINUOUS
 62
    64
 10
162.187845
 20
39.344515
 11
162.309503
 21
39.344515
  0
LINE
  8
ボルト／ビス
  6
CONTINUOUS
 62
    64
 10
162.187845
 20
39.44074
 11
162.309503
 21
39.44074
  0
LINE
  8
ボルト／ビス
  6
CONTINUOUS
 10
162.309503
 20
39.344515
 11
162.309503
 21
39.729415
  0
LINE
  8
ボルト／ビス
  6
CONTINUOUS
 10
162.309503
 20
39.336965
 11
162.37617
 21
39.336965
  0
LINE
  8
ボルト／ビス
  6
CONTINUOUS
 10
162.309503
 20
39.336965
 11
162.309503
 21
39.736965
  0
LINE
  8
ボルト／ビス
  6
CONTINUOUS
 10
162.309503
 20
39.736965
 11
162.37617
 21
39.736965
  0
ENDBLK
  0
BLOCK
  2
*DIM_0006
 70
    65
 10
0.0
 20
0.0
  0
LINE
  8
寸法
  6
CONTINUOUS
 10
161.248695
 20
62.48302
 11
142.14273
 21
62.48302
  0
LINE
  8
寸法
  6
CONTINUOUS
 10
142.14273
 20
60.203325
 11
142.14273
 21
62.48302
  0
POINT
  8
寸法
 10
142.14273
 20
60.203325
 50
-90.0
  0
POINT
  8
寸法
 10
142.14273
 20
62.48302
 50
-90.0
  0
TEXT
  7
TextStyle03
  8
寸法
  6
CONTINUOUS
 10
141.775
 20
64.76875
  1
68.4
 40
3.0
 50
90.0
 72
     5
 11
141.775
 21
71.33125
  0
ENDBLK
  0
BLOCK
  2
*DIM_0007
 70
    65
 10
0.0
 20
0.0
  0
LINE
  8
寸法
  6
CONTINUOUS
 10
161.248695
 20
37.92363
 11
142.14273
 21
37.92363
  0
LINE
  8
寸法
  6
CONTINUOUS
 10
142.14273
 20
40.203325
 11
142.14273
 21
37.92363
  0
POINT
  8
寸法
 10
142.14273
 20
40.203325
 50
-90.0
  0
POINT
  8
寸法
 10
142.14273
 20
37.92363
 50
-90.0
  0
TEXT
  7
TextStyle03
  8
寸法
  6
CONTINUOUS
 10
141.775
 20
28.99375
  1
68.4
 40
3.0
 50
90.0
 72
     5
 11
141.775
 21
35.55625
  0
ENDBLK
  0
BLOCK
  2
*DIM_0008
 70
    65
 10
0.0
 20
0.0
  0
LINE
  8
寸法
  6
CONTINUOUS
 10
142.14273
 20
60.203325
 11
142.14273
 21
40.203325
  0
POINT
  8
寸法
 10
142.14273
 20
60.203325
 50
-90.0
  0
POINT
  8
寸法
 10
142.14273
 20
40.203325
 50
-90.0
  0
TEXT
  7
TextStyle03
  8
寸法
  6
CONTINUOUS
 10
141.775
 20
39.3
  1
呼称寸法　600
 40
3.0
 50
90.0
 72
     5
 11
141.775
 21
61.05
  0
ENDBLK
  0
BLOCK
  2
*DIM_0009
 70
    65
 10
0.0
 20
0.0
  0
LINE
  8
寸法
  6
CONTINUOUS
 10
169.209335
 20
33.236965
 11
169.209335
 21
25.327945
  0
LINE
  8
寸法
  6
CONTINUOUS
 10
161.742835
 20
35.203325
 11
161.742835
 21
25.327945
  0
LINE
  8
寸法
  6
CONTINUOUS
 10
169.209335
 20
25.327945
 11
161.742835
 21
25.327945
  0
POINT
  8
寸法
 10
169.209335
 20
25.327945
  0
POINT
  8
寸法
 10
161.742835
 20
25.327945
  0
TEXT
  7
TextStyle03
  8
寸法
  6
CONTINUOUS
 10
163.0375
 20
25.7
  1
224
 40
3.0
 72
     5
 11
167.9125
 21
25.7
  0
ENDBLK
  0
BLOCK
  2
*GRP_0010
 70
    65
 10
0.0
 20
0.0
  0
INSERT
  2
M8横
  8
ゴム等
  6
CONTINUOUS
 10
4.896528
 20
-70.297288
 50
180.0
 41
0.033333
 42
-0.033333
  0
LINE
  8
ボルト／ビス
  6
CONTINUOUS
 10
4.763195
 20
-70.087288
 11
4.77986
 21
-70.070622
  0
LINE
  8
ボルト／ビス
  6
CONTINUOUS
 10
5.013195
 20
-70.070622
 11
5.02986
 21
-70.087288
  0
LINE
  8
ボルト／ビス
  6
CONTINUOUS
 10
5.02986
 20
-70.087288
 11
4.763195
 21
-70.087288
  0
LINE
  8
ボルト／ビス
  6
CONTINUOUS
 10
5.013195
 20
-70.070622
 11
4.77986
 21
-70.070622
  0
LINE
  8
ボルト／ビス
  6
CONTINUOUS
 10
4.77986
 20
-70.070622
 11
4.77986
 21
-70.113952
  0
LINE
  8
ボルト／ビス
  6
CONTINUOUS
 10
4.763195
 20
-70.087288
 11
4.763195
 21
-70.113952
  0
LINE
  8
ボルト／ビス
  6
CONTINUOUS
 10
5.02986
 20
-70.087288
 11
5.02986
 21
-70.113952
  0
LINE
  8
ボルト／ビス
  6
CONTINUOUS
 10
5.013195
 20
-70.070622
 11
5.013195
 21
-70.113952
  0
LINE
  8
ボルト／ビス
  6
CONTINUOUS
 10
5.263195
 20
-70.297288
 11
4.52986
 21
-70.297288
  0
LINE
  8
ボルト／ビス
  6
CONTINUOUS
 10
4.47986
 20
-70.337288
 11
4.47986
 21
-70.42062
  0
LINE
  8
ボルト／ビス
  6
CONTINUOUS
 10
4.47986
 20
-70.42062
 11
5.313195
 21
-70.42062
  0
LINE
  8
ボルト／ビス
  6
CONTINUOUS
 10
5.313195
 20
-70.42062
 11
5.313195
 21
-70.337288
  0
LINE
  8
ボルト／ビス
  6
CONTINUOUS
 10
4.47986
 20
-70.337288
 11
5.313195
 21
-70.337288
  0
LINE
  8
ボルト／ビス
  6
CONTINUOUS
 10
5.263195
 20
-70.297288
 11
5.263195
 21
-70.337288
  0
LINE
  8
ボルト／ビス
  6
CONTINUOUS
 10
4.52986
 20
-70.297288
 11
4.52986
 21
-70.337288
  0
LINE
  8
ボルト／ビス
  6
CONTINUOUS
 10
4.896528
 20
-70.347288
 11
4.896528
 21
-70.297288
  0
ENDBLK
  0
BLOCK
  2
*GRP_0011
 70
    65
 10
0.0
 20
0.0
  0
LINE
  8
ボルト／ビス
  6
CONTINUOUS
 10
5.103195
 20
-69.437453
 11
5.103195
 21
-69.370788
  0
LINE
  8
ボルト／ビス
  6
CONTINUOUS
 10
5.103195
 20
-69.370788
 11
4.369863
 21
-69.370788
  0
LINE
  8
ボルト／ビス
  6
CONTINUOUS
 10
4.369863
 20
-69.370788
 11
4.369863
 21
-69.437453
  0
LINE
  8
ボルト／ビス
  6
CONTINUOUS
 10
5.103195
 20
-69.437453
 11
4.369863
 21
-69.437453
  0
LINE
  8
ボルト／ビス
  6
CONTINUOUS
 10
5.03653
 20
-69.337453
 11
5.03653
 21
-69.370788
  0
LINE
  8
ボルト／ビス
  6
CONTINUOUS
 10
5.03653
 20
-69.337453
 11
4.43653
 21
-69.337453
  0
LINE
  8
ボルト／ビス
  6
CONTINUOUS
 10
4.43653
 20
-69.337453
 11
4.43653
 21
-69.370788
  0
LINE
  8
ボルト／ビス
  6
CONTINUOUS
 62
    64
 10
4.896905
 20
-69.137453
 11
4.92898
 21
-69.149128
  0
ARC
  8
ボルト／ビス
  6
CONTINUOUS
 62
    64
 10
4.880866
 20
-69.242431
 40
0.104978
 50
90.0
 51
117.278033
  0
ARC
  8
ボルト／ビス
  6
CONTINUOUS
 62
    64
 10
4.736529
 20
-69.539855
 40
0.402402
 50
76.165015
 51
103.834998
  0
LINE
  8
ボルト／ビス
  6
CONTINUOUS
 62
    64
 10
4.576155
 20
-69.137453
 11
4.54408
 21
-69.149128
  0
ARC
  8
ボルト／ビス
  6
CONTINUOUS
 62
    64
 10
4.592191
 20
-69.242431
 40
0.104978
 50
62.721967
 51
90.0
  0
LINE
  8
ボルト／ビス
  6
CONTINUOUS
 62
    64
 10
4.896905
 20
-69.137453
 11
4.576155
 21
-69.137453
  0
LINE
  8
ボルト／ビス
  6
CONTINUOUS
 62
    64
 10
4.54408
 20
-69.149128
 11
4.54408
 21
-69.270788
  0
LINE
  8
ボルト／ビス
  6
CONTINUOUS
 62
    64
 10
4.640305
 20
-69.149128
 11
4.640305
 21
-69.270788
  0
LINE
  8
ボルト／ビス
  6
CONTINUOUS
 62
    64
 10
4.92898
 20
-69.149128
 11
4.92898
 21
-69.270788
  0
LINE
  8
ボルト／ビス
  6
CONTINUOUS
 62
    64
 10
4.832755
 20
-69.149128
 11
4.832755
 21
-69.270788
  0
LINE
  8
ボルト／ビス
  6
CONTINUOUS
 10
4.92898
 20
-69.270788
 11
4.54408
 21
-69.270788
  0
LINE
  8
ボルト／ビス
  6
CONTINUOUS
 10
4.93653
 20
-69.270788
 11
4.93653
 21
-69.337453
  0
LINE
  8
ボルト／ビス
  6
CONTINUOUS
 10
4.93653
 20
-69.270788
 11
4.53653
 21
-69.270788
  0
LINE
  8
ボルト／ビス
  6
CONTINUOUS
 10
4.53653
 20
-69.270788
 11
4.53653
 21
-69.337453
  0
ENDBLK
  0
BLOCK
  2
*GRP_0012
 70
    65
 10
0.0
 20
0.0
  0
INSERT
  2
M8横
  8
ゴム等
  6
CONTINUOUS
 10
-80.089523
 20
-70.297288
 41
0.033333
 42
0.033333
  0
LINE
  8
ボルト／ビス
  6
CONTINUOUS
 10
-79.95619
 20
-70.087288
 11
-79.972855
 21
-70.070622
  0
LINE
  8
ボルト／ビス
  6
CONTINUOUS
 10
-80.20619
 20
-70.070622
 11
-80.222855
 21
-70.087288
  0
LINE
  8
ボルト／ビス
  6
CONTINUOUS
 10
-80.222855
 20
-70.087288
 11
-79.95619
 21
-70.087288
  0
LINE
  8
ボルト／ビス
  6
CONTINUOUS
 10
-80.20619
 20
-70.070622
 11
-79.972855
 21
-70.070622
  0
LINE
  8
ボルト／ビス
  6
CONTINUOUS
 10
-79.972855
 20
-70.070622
 11
-79.972855
 21
-70.113952
  0
LINE
  8
ボルト／ビス
  6
CONTINUOUS
 10
-79.95619
 20
-70.087288
 11
-79.95619
 21
-70.113952
  0
LINE
  8
ボルト／ビス
  6
CONTINUOUS
 10
-80.222855
 20
-70.087288
 11
-80.222855
 21
-70.113952
  0
LINE
  8
ボルト／ビス
  6
CONTINUOUS
 10
-80.20619
 20
-70.070622
 11
-80.20619
 21
-70.113952
  0
LINE
  8
ボルト／ビス
  6
CONTINUOUS
 10
-80.45619
 20
-70.297288
 11
-79.722855
 21
-70.297288
  0
LINE
  8
ボルト／ビス
  6
CONTINUOUS
 10
-79.672855
 20
-70.337288
 11
-79.672855
 21
-70.42062
  0
LINE
  8
ボルト／ビス
  6
CONTINUOUS
 10
-79.672855
 20
-70.42062
 11
-80.50619
 21
-70.42062
  0
LINE
  8
ボルト／ビス
  6
CONTINUOUS
 10
-80.50619
 20
-70.42062
 11
-80.50619
 21
-70.337288
  0
LINE
  8
ボルト／ビス
  6
CONTINUOUS
 10
-79.672855
 20
-70.337288
 11
-80.50619
 21
-70.337288
  0
LINE
  8
ボルト／ビス
  6
CONTINUOUS
 10
-80.45619
 20
-70.297288
 11
-80.45619
 21
-70.337288
  0
LINE
  8
ボルト／ビス
  6
CONTINUOUS
 10
-79.722855
 20
-70.297288
 11
-79.722855
 21
-70.337288
  0
LINE
  8
ボルト／ビス
  6
CONTINUOUS
 10
-80.089523
 20
-70.347288
 11
-80.089523
 21
-70.297288
  0
ENDBLK
  0
BLOCK
  2
*GRP_0013
 70
    65
 10
0.0
 20
0.0
  0
LINE
  8
ボルト／ビス
  6
CONTINUOUS
 10
-80.29619
 20
-69.437453
 11
-80.29619
 21
-69.370788
  0
LINE
  8
ボルト／ビス
  6
CONTINUOUS
 10
-80.29619
 20
-69.370788
 11
-79.562857
 21
-69.370788
  0
LINE
  8
ボルト／ビス
  6
CONTINUOUS
 10
-79.562857
 20
-69.370788
 11
-79.562857
 21
-69.437453
  0
LINE
  8
ボルト／ビス
  6
CONTINUOUS
 10
-80.29619
 20
-69.437453
 11
-79.562857
 21
-69.437453
  0
LINE
  8
ボルト／ビス
  6
CONTINUOUS
 10
-80.229525
 20
-69.337453
 11
-80.229525
 21
-69.370788
  0
LINE
  8
ボルト／ビス
  6
CONTINUOUS
 10
-80.229525
 20
-69.337453
 11
-79.629525
 21
-69.337453
  0
LINE
  8
ボルト／ビス
  6
CONTINUOUS
 10
-79.629525
 20
-69.337453
 11
-79.629525
 21
-69.370788
  0
LINE
  8
ボルト／ビス
  6
CONTINUOUS
 62
    64
 10
-80.0899
 20
-69.137453
 11
-80.121975
 21
-69.149128
  0
ARC
  8
ボルト／ビス
  6
CONTINUOUS
 62
    64
 10
-80.073863
 20
-69.242431
 40
0.104978
 50
62.721967
 51
90.0
  0
ARC
  8
ボルト／ビス
  6
CONTINUOUS
 62
    64
 10
-79.929525
 20
-69.539855
 40
0.402402
 50
76.165002
 51
103.834985
  0
LINE
  8
ボルト／ビス
  6
CONTINUOUS
 62
    64
 10
-79.76915
 20
-69.137453
 11
-79.737075
 21
-69.149128
  0
ARC
  8
ボルト／ビス
  6
CONTINUOUS
 62
    64
 10
-79.785188
 20
-69.242431
 40
0.104978
 50
90.0
 51
117.278033
  0
LINE
  8
ボルト／ビス
  6
CONTINUOUS
 62
    64
 10
-80.0899
 20
-69.137453
 11
-79.76915
 21
-69.137453
  0
LINE
  8
ボルト／ビス
  6
CONTINUOUS
 62
    64
 10
-79.737075
 20
-69.149128
 11
-79.737075
 21
-69.270788
  0
LINE
  8
ボルト／ビス
  6
CONTINUOUS
 62
    64
 10
-79.8333
 20
-69.149128
 11
-79.8333
 21
-69.270788
  0
LINE
  8
ボルト／ビス
  6
CONTINUOUS
 62
    64
 10
-80.121975
 20
-69.149128
 11
-80.121975
 21
-69.270788
  0
LINE
  8
ボルト／ビス
  6
CONTINUOUS
 62
    64
 10
-80.02575
 20
-69.149128
 11
-80.02575
 21
-69.270788
  0
LINE
  8
ボルト／ビス
  6
CONTINUOUS
 10
-80.121975
 20
-69.270788
 11
-79.737075
 21
-69.270788
  0
LINE
  8
ボルト／ビス
  6
CONTINUOUS
 10
-80.129525
 20
-69.270788
 11
-80.129525
 21
-69.337453
  0
LINE
  8
ボルト／ビス
  6
CONTINUOUS
 10
-80.129525
 20
-69.270788
 11
-79.729525
 21
-69.270788
  0
LINE
  8
ボルト／ビス
  6
CONTINUOUS
 10
-79.729525
 20
-69.270788
 11
-79.729525
 21
-69.337453
  0
ENDBLK
  0
BLOCK
  2
*DIM_0014
 70
    65
 10
0.0
 20
0.0
  0
LINE
  8
寸法
  6
CONTINUOUS
 10
9.070168
 20
-68.70412
 11
27.68864
 21
-68.70412
  0
LINE
  8
寸法
  6
CONTINUOUS
 10
11.03653
 20
-76.17062
 11
27.68864
 21
-76.17062
  0
LINE
  8
寸法
  6
CONTINUOUS
 10
27.68864
 20
-68.70412
 11
27.68864
 21
-76.17062
  0
POINT
  8
寸法
 10
27.68864
 20
-68.70412
  0
POINT
  8
寸法
 10
27.68864
 20
-76.17062
  0
TEXT
  7
TextStyle03
  8
寸法
  6
CONTINUOUS
 10
27.3
 20
-74.8875
  1
224
 40
3.0
 50
90.0
 72
     5
 11
27.3
 21
-70.0125
  0
ENDBLK
  0
BLOCK
  2
*DIM_0015
 70
    65
 10
0.0
 20
0.0
  0
LINE
  8
寸法
  6
BYBLOCK
 62
     0
 10
-62.596495
 20
36.573195
 11
-62.596495
 21
31.407712
  0
LINE
  8
寸法
  6
BYBLOCK
 62
     0
 10
-12.5965
 20
36.573195
 11
-12.5965
 21
31.407712
  0
LINE
  8
寸法
  6
BYBLOCK
 62
     0
 10
-62.596495
 20
31.407712
 11
-12.5965
 21
31.407712
  0
POINT
  8
寸法
 62
     0
 10
-62.596495
 20
31.407712
  0
POINT
  8
寸法
 62
     0
 10
-12.5965
 20
31.407712
  0
TEXT
  7
TextStyle03
  8
寸法
  6
CONTINUOUS
 62
     0
 10
-40.85625
 20
31.75
  1
1500
 40
3.0
 72
     5
 11
-34.29375
 21
31.75
  0
ENDBLK
  0
BLOCK
  2
*DIM_0016
 70
    65
 10
0.0
 20
0.0
  0
LINE
  8
寸法
  6
BYBLOCK
 62
     0
 10
7.700297
 20
56.303325
 11
14.47759
 21
56.303325
  0
LINE
  8
寸法
  6
BYBLOCK
 62
     0
 10
14.47759
 20
60.203325
 11
14.47759
 21
56.303325
  0
POINT
  8
寸法
 62
     0
 10
14.47759
 20
60.203325
  0
POINT
  8
寸法
 62
     0
 10
14.47759
 20
56.303325
  0
TEXT
  7
TextStyle03
  8
寸法
  6
CONTINUOUS
 62
     0
 10
14.25
 20
60.8625
  1
117
 40
3.0
 50
90.0
 72
     5
 11
14.25
 21
65.7375
  0
ENDBLK
  0
BLOCK
  2
*DIM_0017
 70
    65
 10
0.0
 20
0.0
  0
LINE
  8
寸法
  6
BYBLOCK
 62
     0
 10
7.700297
 20
44.103325
 11
14.47759
 21
44.103325
  0
LINE
  8
寸法
  6
BYBLOCK
 62
     0
 10
14.47759
 20
40.203325
 11
14.47759
 21
44.103325
  0
POINT
  8
寸法
 62
     0
 10
14.47759
 20
40.203325
  0
POINT
  8
寸法
 62
     0
 10
14.47759
 20
44.103325
  0
TEXT
  7
TextStyle03
  8
寸法
  6
CONTINUOUS
 62
     0
 10
14.425
 20
34.3875
  1
117
 40
3.0
 50
90.0
 72
     5
 11
14.425
 21
39.2625
  0
ENDBLK
  0
BLOCK
  2
*DIM_0018
 70
    65
 10
0.0
 20
0.0
  0
LINE
  8
寸法
  6
BYBLOCK
 62
     0
 10
-82.263162
 20
56.869993
 11
-95.556
 21
56.869993
  0
LINE
  8
寸法
  6
BYBLOCK
 62
     0
 10
-82.263162
 20
43.536658
 11
-95.556
 21
43.536658
  0
LINE
  8
寸法
  6
BYBLOCK
 62
     0
 10
-95.556
 20
56.869993
 11
-95.556
 21
43.536658
  0
POINT
  8
寸法
 62
     0
 10
-95.556
 20
56.869993
  0
POINT
  8
寸法
 62
     0
 10
-95.556
 20
43.536658
  0
TEXT
  7
TextStyle03
  8
寸法
  6
CONTINUOUS
 62
     0
 10
-95.9
 20
47.7375
  1
400
 40
3.0
 50
90.0
 72
     5
 11
-95.9
 21
52.6125
  0
ENDBLK
  0
BLOCK
  2
*DIM_0019
 70
    65
 10
0.0
 20
0.0
  0
LINE
  8
寸法
  6
BYBLOCK
 62
     0
 10
-72.596497
 20
63.203325
 11
-72.596497
 21
92.950945
  0
LINE
  8
寸法
  6
BYBLOCK
 62
     0
 10
-49.263165
 20
63.203325
 11
-49.263165
 21
92.950945
  0
LINE
  8
寸法
  6
BYBLOCK
 62
     0
 10
-72.596497
 20
92.950945
 11
-49.263165
 21
92.950945
  0
POINT
  8
寸法
 62
     0
 10
-72.596497
 20
92.950945
  0
POINT
  8
寸法
 62
     0
 10
-49.263165
 20
92.950945
  0
TEXT
  7
TextStyle03
  8
寸法
  6
CONTINUOUS
 62
     0
 10
-63.3375
 20
93.325
  1
700
 40
3.0
 72
     5
 11
-58.4625
 21
93.325
  0
ENDBLK
  0
BLOCK
  2
*DIM_0020
 70
    65
 10
0.0
 20
0.0
  0
LINE
  8
寸法
  6
BYBLOCK
 62
     0
 10
-25.92983
 20
63.203325
 11
-25.92983
 21
92.950945
  0
LINE
  8
寸法
  6
BYBLOCK
 62
     0
 10
-49.263165
 20
92.950945
 11
-25.92983
 21
92.950945
  0
POINT
  8
寸法
 62
     0
 10
-25.92983
 20
92.950945
  0
TEXT
  7
TextStyle03
  8
寸法
  6
CONTINUOUS
 62
     0
 10
-40.0125
 20
93.325
  1
700
 40
3.0
 72
     5
 11
-35.1375
 21
93.325
  0
ENDBLK
  0
BLOCK
  2
*DIM_0021
 70
    65
 10
0.0
 20
0.0
  0
LINE
  8
寸法
  6
BYBLOCK
 62
     0
 10
-2.596497
 20
63.203325
 11
-2.596497
 21
92.950945
  0
LINE
  8
寸法
  6
BYBLOCK
 62
     0
 10
-25.92983
 20
92.950945
 11
-2.596497
 21
92.950945
  0
POINT
  8
寸法
 62
     0
 10
-2.596497
 20
92.950945
  0
TEXT
  7
TextStyle03
  8
寸法
  6
CONTINUOUS
 62
     0
 10
-16.6625
 20
93.325
  1
700
 40
3.0
 72
     5
 11
-11.7875
 21
93.325
  0
ENDBLK
  0
BLOCK
  2
*GRP_0022
 70
    65
 10
0.0
 20
0.0
  0
LINE
  8
型材断面
  6
DOT
 10
5.736835
 20
-62.60412
 11
5.686835
 21
-62.60412
  0
LINE
  8
型材断面
  6
DOT
 10
4.070168
 20
-62.10412
 11
4.070168
 21
-61.370788
  0
LINE
  8
型材断面
  6
DOT
 10
4.119863
 20
-63.087288
 11
5.56653
 21
-63.087288
  0
LINE
  8
型材断面
  6
DOT
 10
5.56653
 20
-63.537288
 11
5.56653
 21
-63.087288
  0
LINE
  8
型材断面
  6
DOT
 62
    47
 10
6.299863
 20
-66.20998
 11
6.349863
 21
-66.20998
  0
LINE
  8
型材断面
  6
DOT
 62
    47
 10
6.349863
 20
-66.20998
 11
6.349863
 21
-65.876645
  0
LINE
  8
型材断面
  6
DOT
 62
    47
 10
6.349863
 20
-65.876645
 11
5.56653
 21
-65.776645
  0
LINE
  8
型材断面
  6
DOT
 62
    47
 10
5.56653
 20
-65.37062
 11
5.56653
 21
-65.776645
  0
LINE
  8
型材断面
  6
DOT
 62
    47
 10
6.03653
 20
-65.37062
 11
6.03653
 21
-63.537288
  0
LINE
  8
型材断面
  6
DOT
 10
5.736835
 20
-62.60412
 11
5.736835
 21
-62.10412
  0
LINE
  8
型材断面
  6
DOT
 10
4.119863
 20
-63.087288
 11
4.119863
 21
-62.60412
  0
INSERT
  2
*GRP_0023
  8
型材断面
  6
DOT
 10
0.0
 20
0.0
  0
INSERT
  2
*GRP_0024
  8
型材断面
  6
DOT
 10
0.0
 20
0.0
  0
LINE
  8
型材断面
  6
DOT
 10
6.349863
 20
-66.20998
 11
-37.596497
 21
-66.20998
  0
LINE
  8
型材断面
  6
DOT
 10
6.349863
 20
-65.876645
 11
-37.596497
 21
-65.876645
  0
LINE
  8
型材断面
  6
DOT
 10
5.56653
 20
-65.776645
 11
-37.596497
 21
-65.776645
  0
LINE
  8
型材断面
  6
DOT
 10
6.03653
 20
-65.37062
 11
-37.596497
 21
-65.37062
  0
LINE
  8
型材断面
  6
DOT
 10
5.736835
 20
-62.60412
 11
-37.596497
 21
-62.60412
  0
LINE
  8
型材断面
  6
DOT
 10
4.070168
 20
-61.370788
 11
-37.596497
 21
-61.370788
  0
LINE
  8
型材断面
  6
DOT
 10
5.736835
 20
-62.10412
 11
-37.596497
 21
-62.10412
  0
LINE
  8
型材断面
  6
DOT
 10
5.56653
 20
-63.087288
 11
-37.596497
 21
-63.087288
  0
LINE
  8
型材断面
  6
DOT
 10
6.03653
 20
-63.537288
 11
-37.596497
 21
-63.537288
  0
LINE
  8
型材断面
  6
DOT
 10
-80.92983
 20
-62.60412
 11
-80.87983
 21
-62.60412
  0
LINE
  8
型材断面
  6
DOT
 10
-79.263162
 20
-62.10412
 11
-79.263162
 21
-61.370788
  0
LINE
  8
型材断面
  6
DOT
 10
-79.312857
 20
-63.087288
 11
-80.759525
 21
-63.087288
  0
LINE
  8
型材断面
  6
DOT
 10
-80.759525
 20
-63.537288
 11
-80.759525
 21
-63.087288
  0
LINE
  8
型材断面
  6
DOT
 62
    47
 10
-81.492857
 20
-66.20998
 11
-81.542857
 21
-66.20998
  0
LINE
  8
型材断面
  6
DOT
 62
    47
 10
-81.542857
 20
-66.20998
 11
-81.542857
 21
-65.876645
  0
LINE
  8
型材断面
  6
DOT
 62
    47
 10
-81.542857
 20
-65.876645
 11
-80.759525
 21
-65.776645
  0
LINE
  8
型材断面
  6
DOT
 62
    47
 10
-80.759525
 20
-65.37062
 11
-80.759525
 21
-65.776645
  0
LINE
  8
型材断面
  6
DOT
 62
    47
 10
-81.229525
 20
-65.37062
 11
-81.229525
 21
-63.537288
  0
LINE
  8
型材断面
  6
DOT
 10
-80.92983
 20
-62.60412
 11
-80.92983
 21
-62.10412
  0
LINE
  8
型材断面
  6
DOT
 10
-79.312857
 20
-63.087288
 11
-79.312857
 21
-62.60412
  0
INSERT
  2
*GRP_0025
  8
型材断面
  6
DOT
 10
0.0
 20
0.0
  0
INSERT
  2
*GRP_0026
  8
型材断面
  6
DOT
 10
0.0
 20
0.0
  0
LINE
  8
型材断面
  6
DOT
 10
-81.542857
 20
-66.20998
 11
-37.596497
 21
-66.20998
  0
LINE
  8
型材断面
  6
DOT
 10
-81.542857
 20
-65.876645
 11
-37.596497
 21
-65.876645
  0
LINE
  8
型材断面
  6
DOT
 10
-80.759525
 20
-65.776645
 11
-37.596497
 21
-65.776645
  0
LINE
  8
型材断面
  6
DOT
 10
-81.229525
 20
-65.37062
 11
-37.596497
 21
-65.37062
  0
LINE
  8
型材断面
  6
DOT
 10
-80.92983
 20
-62.60412
 11
-37.596497
 21
-62.60412
  0
LINE
  8
型材断面
  6
DOT
 10
-79.263162
 20
-61.370788
 11
-37.596497
 21
-61.370788
  0
LINE
  8
型材断面
  6
DOT
 10
-80.92983
 20
-62.10412
 11
-37.596497
 21
-62.10412
  0
LINE
  8
型材断面
  6
DOT
 10
-80.759525
 20
-63.087288
 11
-37.596497
 21
-63.087288
  0
LINE
  8
型材断面
  6
DOT
 10
-81.229525
 20
-63.537288
 11
-37.596497
 21
-63.537288
  0
ENDBLK
  0
BLOCK
  2
*GRP_0023
 70
    65
 10
0.0
 20
0.0
  0
INSERT
  2
M8横
  8
ゴム等
  6
DOT
 10
4.896528
 20
-62.963955
 50
180.0
 41
0.033333
 42
-0.033333
  0
LINE
  8
ボルト／ビス
  6
DOT
 10
4.763195
 20
-62.753955
 11
4.77986
 21
-62.73729
  0
LINE
  8
ボルト／ビス
  6
DOT
 10
5.013195
 20
-62.73729
 11
5.02986
 21
-62.753955
  0
LINE
  8
ボルト／ビス
  6
DOT
 10
5.02986
 20
-62.753955
 11
4.763195
 21
-62.753955
  0
LINE
  8
ボルト／ビス
  6
DOT
 10
5.013195
 20
-62.73729
 11
4.77986
 21
-62.73729
  0
LINE
  8
ボルト／ビス
  6
DOT
 10
4.77986
 20
-62.73729
 11
4.77986
 21
-62.78062
  0
LINE
  8
ボルト／ビス
  6
DOT
 10
4.763195
 20
-62.753955
 11
4.763195
 21
-62.78062
  0
LINE
  8
ボルト／ビス
  6
DOT
 10
5.02986
 20
-62.753955
 11
5.02986
 21
-62.78062
  0
LINE
  8
ボルト／ビス
  6
DOT
 10
5.013195
 20
-62.73729
 11
5.013195
 21
-62.78062
  0
LINE
  8
ボルト／ビス
  6
DOT
 10
5.263195
 20
-62.963955
 11
4.52986
 21
-62.963955
  0
LINE
  8
ボルト／ビス
  6
DOT
 10
4.47986
 20
-63.003955
 11
4.47986
 21
-63.087288
  0
LINE
  8
ボルト／ビス
  6
DOT
 10
4.47986
 20
-63.087288
 11
5.313195
 21
-63.087288
  0
LINE
  8
ボルト／ビス
  6
DOT
 10
5.313195
 20
-63.087288
 11
5.313195
 21
-63.003955
  0
LINE
  8
ボルト／ビス
  6
DOT
 10
4.47986
 20
-63.003955
 11
5.313195
 21
-63.003955
  0
LINE
  8
ボルト／ビス
  6
DOT
 10
5.263195
 20
-62.963955
 11
5.263195
 21
-63.003955
  0
LINE
  8
ボルト／ビス
  6
DOT
 10
4.52986
 20
-62.963955
 11
4.52986
 21
-63.003955
  0
LINE
  8
ボルト／ビス
  6
DOT
 10
4.896528
 20
-63.013955
 11
4.896528
 21
-62.963955
  0
ENDBLK
  0
BLOCK
  2
*GRP_0024
 70
    65
 10
0.0
 20
0.0
  0
LINE
  8
ボルト／ビス
  6
DOT
 10
5.103195
 20
-62.10412
 11
5.103195
 21
-62.037455
  0
LINE
  8
ボルト／ビス
  6
DOT
 10
5.103195
 20
-62.037455
 11
4.369863
 21
-62.037455
  0
LINE
  8
ボルト／ビス
  6
DOT
 10
4.369863
 20
-62.037455
 11
4.369863
 21
-62.10412
  0
LINE
  8
ボルト／ビス
  6
DOT
 10
5.103195
 20
-62.10412
 11
4.369863
 21
-62.10412
  0
LINE
  8
ボルト／ビス
  6
DOT
 10
5.03653
 20
-62.00412
 11
5.03653
 21
-62.037455
  0
LINE
  8
ボルト／ビス
  6
DOT
 10
5.03653
 20
-62.00412
 11
4.43653
 21
-62.00412
  0
LINE
  8
ボルト／ビス
  6
DOT
 10
4.43653
 20
-62.00412
 11
4.43653
 21
-62.037455
  0
LINE
  8
ボルト／ビス
  6
DOT
 62
    64
 10
4.896905
 20
-61.80412
 11
4.92898
 21
-61.815795
  0
ARC
  8
ボルト／ビス
  6
DOT
 62
    64
 10
4.880866
 20
-61.909098
 40
0.104978
 50
90.0
 51
117.278033
  0
ARC
  8
ボルト／ビス
  6
DOT
 62
    64
 10
4.736529
 20
-62.206522
 40
0.402402
 50
76.165015
 51
103.834998
  0
LINE
  8
ボルト／ビス
  6
DOT
 62
    64
 10
4.576155
 20
-61.80412
 11
4.54408
 21
-61.815795
  0
ARC
  8
ボルト／ビス
  6
DOT
 62
    64
 10
4.592191
 20
-61.909098
 40
0.104978
 50
62.721967
 51
90.0
  0
LINE
  8
ボルト／ビス
  6
DOT
 62
    64
 10
4.896905
 20
-61.80412
 11
4.576155
 21
-61.80412
  0
LINE
  8
ボルト／ビス
  6
DOT
 62
    64
 10
4.54408
 20
-61.815795
 11
4.54408
 21
-61.937455
  0
LINE
  8
ボルト／ビス
  6
DOT
 62
    64
 10
4.640305
 20
-61.815795
 11
4.640305
 21
-61.937455
  0
LINE
  8
ボルト／ビス
  6
DOT
 62
    64
 10
4.92898
 20
-61.815795
 11
4.92898
 21
-61.937455
  0
LINE
  8
ボルト／ビス
  6
DOT
 62
    64
 10
4.832755
 20
-61.815795
 11
4.832755
 21
-61.937455
  0
LINE
  8
ボルト／ビス
  6
DOT
 10
4.92898
 20
-61.937455
 11
4.54408
 21
-61.937455
  0
LINE
  8
ボルト／ビス
  6
DOT
 10
4.93653
 20
-61.937455
 11
4.93653
 21
-62.00412
  0
LINE
  8
ボルト／ビス
  6
DOT
 10
4.93653
 20
-61.937455
 11
4.53653
 21
-61.937455
  0
LINE
  8
ボルト／ビス
  6
DOT
 10
4.53653
 20
-61.937455
 11
4.53653
 21
-62.00412
  0
ENDBLK
  0
BLOCK
  2
*GRP_0025
 70
    65
 10
0.0
 20
0.0
  0
INSERT
  2
M8横
  8
ゴム等
  6
DOT
 10
-80.089523
 20
-62.963955
 41
0.033333
 42
0.033333
  0
LINE
  8
ボルト／ビス
  6
DOT
 10
-79.95619
 20
-62.753955
 11
-79.972855
 21
-62.73729
  0
LINE
  8
ボルト／ビス
  6
DOT
 10
-80.20619
 20
-62.73729
 11
-80.222855
 21
-62.753955
  0
LINE
  8
ボルト／ビス
  6
DOT
 10
-80.222855
 20
-62.753955
 11
-79.95619
 21
-62.753955
  0
LINE
  8
ボルト／ビス
  6
DOT
 10
-80.20619
 20
-62.73729
 11
-79.972855
 21
-62.73729
  0
LINE
  8
ボルト／ビス
  6
DOT
 10
-79.972855
 20
-62.73729
 11
-79.972855
 21
-62.78062
  0
LINE
  8
ボルト／ビス
  6
DOT
 10
-79.95619
 20
-62.753955
 11
-79.95619
 21
-62.78062
  0
LINE
  8
ボルト／ビス
  6
DOT
 10
-80.222855
 20
-62.753955
 11
-80.222855
 21
-62.78062
  0
LINE
  8
ボルト／ビス
  6
DOT
 10
-80.20619
 20
-62.73729
 11
-80.20619
 21
-62.78062
  0
LINE
  8
ボルト／ビス
  6
DOT
 10
-80.45619
 20
-62.963955
 11
-79.722855
 21
-62.963955
  0
LINE
  8
ボルト／ビス
  6
DOT
 10
-79.672855
 20
-63.003955
 11
-79.672855
 21
-63.087288
  0
LINE
  8
ボルト／ビス
  6
DOT
 10
-79.672855
 20
-63.087288
 11
-80.50619
 21
-63.087288
  0
LINE
  8
ボルト／ビス
  6
DOT
 10
-80.50619
 20
-63.087288
 11
-80.50619
 21
-63.003955
  0
LINE
  8
ボルト／ビス
  6
DOT
 10
-79.672855
 20
-63.003955
 11
-80.50619
 21
-63.003955
  0
LINE
  8
ボルト／ビス
  6
DOT
 10
-80.45619
 20
-62.963955
 11
-80.45619
 21
-63.003955
  0
LINE
  8
ボルト／ビス
  6
DOT
 10
-79.722855
 20
-62.963955
 11
-79.722855
 21
-63.003955
  0
LINE
  8
ボルト／ビス
  6
DOT
 10
-80.089523
 20
-63.013955
 11
-80.089523
 21
-62.963955
  0
ENDBLK
  0
BLOCK
  2
*GRP_0026
 70
    65
 10
0.0
 20
0.0
  0
LINE
  8
ボルト／ビス
  6
DOT
 10
-80.29619
 20
-62.10412
 11
-80.29619
 21
-62.037455
  0
LINE
  8
ボルト／ビス
  6
DOT
 10
-80.29619
 20
-62.037455
 11
-79.562857
 21
-62.037455
  0
LINE
  8
ボルト／ビス
  6
DOT
 10
-79.562857
 20
-62.037455
 11
-79.562857
 21
-62.10412
  0
LINE
  8
ボルト／ビス
  6
DOT
 10
-80.29619
 20
-62.10412
 11
-79.562857
 21
-62.10412
  0
LINE
  8
ボルト／ビス
  6
DOT
 10
-80.229525
 20
-62.00412
 11
-80.229525
 21
-62.037455
  0
LINE
  8
ボルト／ビス
  6
DOT
 10
-80.229525
 20
-62.00412
 11
-79.629525
 21
-62.00412
  0
LINE
  8
ボルト／ビス
  6
DOT
 10
-79.629525
 20
-62.00412
 11
-79.629525
 21
-62.037455
  0
LINE
  8
ボルト／ビス
  6
DOT
 62
    64
 10
-80.0899
 20
-61.80412
 11
-80.121975
 21
-61.815795
  0
ARC
  8
ボルト／ビス
  6
DOT
 62
    64
 10
-80.073863
 20
-61.909098
 40
0.104978
 50
62.721967
 51
90.0
  0
ARC
  8
ボルト／ビス
  6
DOT
 62
    64
 10
-79.929525
 20
-62.206522
 40
0.402402
 50
76.165002
 51
103.834985
  0
LINE
  8
ボルト／ビス
  6
DOT
 62
    64
 10
-79.76915
 20
-61.80412
 11
-79.737075
 21
-61.815795
  0
ARC
  8
ボルト／ビス
  6
DOT
 62
    64
 10
-79.785188
 20
-61.909098
 40
0.104978
 50
90.0
 51
117.278033
  0
LINE
  8
ボルト／ビス
  6
DOT
 62
    64
 10
-80.0899
 20
-61.80412
 11
-79.76915
 21
-61.80412
  0
LINE
  8
ボルト／ビス
  6
DOT
 62
    64
 10
-79.737075
 20
-61.815795
 11
-79.737075
 21
-61.937455
  0
LINE
  8
ボルト／ビス
  6
DOT
 62
    64
 10
-79.8333
 20
-61.815795
 11
-79.8333
 21
-61.937455
  0
LINE
  8
ボルト／ビス
  6
DOT
 62
    64
 10
-80.121975
 20
-61.815795
 11
-80.121975
 21
-61.937455
  0
LINE
  8
ボルト／ビス
  6
DOT
 62
    64
 10
-80.02575
 20
-61.815795
 11
-80.02575
 21
-61.937455
  0
LINE
  8
ボルト／ビス
  6
DOT
 10
-80.121975
 20
-61.937455
 11
-79.737075
 21
-61.937455
  0
LINE
  8
ボルト／ビス
  6
DOT
 10
-80.129525
 20
-61.937455
 11
-80.129525
 21
-62.00412
  0
LINE
  8
ボルト／ビス
  6
DOT
 10
-80.129525
 20
-61.937455
 11
-79.729525
 21
-61.937455
  0
LINE
  8
ボルト／ビス
  6
DOT
 10
-79.729525
 20
-61.937455
 11
-79.729525
 21
-62.00412
  0
ENDBLK
  0
BLOCK
  2
*GRP_0027
 70
    65
 10
0.0
 20
0.0
  0
LINE
  8
補助線
  6
BYBLOCK
 62
    64
 10
-75.85568
 20
-74.31009
 11
-76.004605
 21
-74.384915
  0
LINE
  8
補助線
  6
BYBLOCK
 62
    64
 10
-75.967555
 20
-74.273038
 11
-75.89273
 21
-74.421965
  0
LINE
  8
補助線
  6
BYBLOCK
 62
    64
 10
-65.9372
 20
-69.326732
 11
-66.086128
 21
-69.401558
  0
LINE
  8
補助線
  6
BYBLOCK
 62
    64
 10
-66.049078
 20
-69.28968
 11
-65.974252
 21
-69.438608
  0
LINE
  8
補助線
  6
BYBLOCK
 62
    64
 10
-56.16765
 20
-64.4182
 11
-56.018722
 21
-64.343375
  0
LINE
  8
補助線
  6
BYBLOCK
 62
    64
 10
-56.1306
 20
-64.306322
 11
-56.055775
 21
-64.45525
  0
LINE
  8
型材断面
  6
CONTINUOUS
 10
-76.60212
 20
-73.752525
 11
-76.824423
 21
-74.423777
  0
LINE
  8
型材断面
  6
CONTINUOUS
 10
-76.824423
 20
-74.423777
 11
-76.52512
 21
-75.019482
  0
LINE
  8
型材断面
  6
CONTINUOUS
 10
-76.52512
 20
-75.019482
 11
-75.853867
 21
-75.241785
  0
LINE
  8
型材断面
  6
CONTINUOUS
 10
-56.169463
 20
-63.486507
 11
-55.498207
 21
-63.70881
  0
LINE
  8
型材断面
  6
CONTINUOUS
 10
-55.498207
 20
-63.70881
 11
-55.198905
 21
-64.304515
  0
LINE
  8
型材断面
  6
CONTINUOUS
 10
-55.198905
 20
-64.304515
 11
-55.42121
 21
-64.975767
  0
LINE
  8
型材断面
  6
CONTINUOUS
 10
-76.60212
 20
-73.752525
 11
-56.169463
 21
-63.486507
  0
LINE
  8
型材断面
  6
CONTINUOUS
 10
-75.853867
 20
-75.241785
 11
-55.42121
 21
-64.975767
  0
CIRCLE
  8
ボルト／ビス
  6
CONTINUOUS
 10
-75.930142
 20
-74.347502
 40
0.250185
  0
CIRCLE
  8
ボルト／ビス
  6
CONTINUOUS
 10
-75.930142
 20
-74.347502
 40
0.301025
  0
LINE
  8
ボルト／ビス
  6
CONTINUOUS
 62
    64
 10
-76.179907
 20
-74.333
 11
-76.042462
 21
-74.12395
  0
LINE
  8
ボルト／ビス
  6
CONTINUOUS
 62
    64
 10
-75.792698
 20
-74.138453
 11
-76.042462
 21
-74.12395
  0
LINE
  8
ボルト／ビス
  6
CONTINUOUS
 62
    64
 10
-76.067587
 20
-74.556552
 11
-75.817822
 21
-74.571055
  0
LINE
  8
ボルト／ビス
  6
CONTINUOUS
 62
    64
 10
-75.680378
 20
-74.362005
 11
-75.817822
 21
-74.571055
  0
LINE
  8
ボルト／ビス
  6
CONTINUOUS
 62
    64
 10
-76.179907
 20
-74.333
 11
-76.067587
 21
-74.556552
  0
LINE
  8
ボルト／ビス
  6
CONTINUOUS
 62
    64
 10
-75.792698
 20
-74.138453
 11
-75.680378
 21
-74.362005
  0
CIRCLE
  8
ボルト／ビス
  6
CONTINUOUS
 62
    64
 10
-75.930142
 20
-74.347502
 40
0.216668
  0
CIRCLE
  8
ボルト／ビス
  6
CONTINUOUS
 10
-66.011665
 20
-69.364145
 40
0.250185
  0
CIRCLE
  8
ボルト／ビス
  6
CONTINUOUS
 10
-66.011665
 20
-69.364145
 40
0.301025
  0
LINE
  8
ボルト／ビス
  6
CONTINUOUS
 62
    64
 10
-66.26143
 20
-69.34964
 11
-66.123985
 21
-69.14059
  0
LINE
  8
ボルト／ビス
  6
CONTINUOUS
 62
    64
 10
-65.87422
 20
-69.155092
 11
-66.123985
 21
-69.14059
  0
LINE
  8
ボルト／ビス
  6
CONTINUOUS
 62
    64
 10
-66.14911
 20
-69.573195
 11
-65.899342
 21
-69.5877
  0
LINE
  8
ボルト／ビス
  6
CONTINUOUS
 62
    64
 10
-65.7619
 20
-69.37865
 11
-65.899342
 21
-69.5877
  0
LINE
  8
ボルト／ビス
  6
CONTINUOUS
 62
    64
 10
-66.26143
 20
-69.34964
 11
-66.14911
 21
-69.573195
  0
LINE
  8
ボルト／ビス
  6
CONTINUOUS
 62
    64
 10
-65.87422
 20
-69.155092
 11
-65.7619
 21
-69.37865
  0
CIRCLE
  8
ボルト／ビス
  6
CONTINUOUS
 62
    64
 10
-66.011665
 20
-69.364145
 40
0.216668
  0
CIRCLE
  8
ボルト／ビス
  6
CONTINUOUS
 10
-56.093188
 20
-64.380788
 40
0.250185
  0
CIRCLE
  8
ボルト／ビス
  6
CONTINUOUS
 10
-56.093188
 20
-64.380788
 40
0.301025
  0
LINE
  8
ボルト／ビス
  6
CONTINUOUS
 62
    64
 10
-55.955742
 20
-64.171738
 11
-56.205508
 21
-64.157235
  0
LINE
  8
ボルト／ビス
  6
CONTINUOUS
 62
    64
 10
-56.342952
 20
-64.366285
 11
-56.205508
 21
-64.157235
  0
LINE
  8
ボルト／ビス
  6
CONTINUOUS
 62
    64
 10
-55.843422
 20
-64.395292
 11
-55.980865
 21
-64.60434
  0
LINE
  8
ボルト／ビス
  6
CONTINUOUS
 62
    64
 10
-56.230632
 20
-64.589837
 11
-55.980865
 21
-64.60434
  0
LINE
  8
ボルト／ビス
  6
CONTINUOUS
 62
    64
 10
-55.955742
 20
-64.171738
 11
-55.843422
 21
-64.395292
  0
LINE
  8
ボルト／ビス
  6
CONTINUOUS
 62
    64
 10
-56.342952
 20
-64.366285
 11
-56.230632
 21
-64.589837
  0
CIRCLE
  8
ボルト／ビス
  6
CONTINUOUS
 62
    64
 10
-56.093188
 20
-64.380788
 40
0.216668
  0
ENDBLK
  0
BLOCK
  2
*GRP_0028
 70
    65
 10
0.0
 20
0.0
  0
LINE
  8
補助線
  6
BYBLOCK
 62
    64
 10
-56.16765
 20
-74.31009
 11
-56.018725
 21
-74.384915
  0
LINE
  8
補助線
  6
BYBLOCK
 62
    64
 10
-56.055775
 20
-74.273038
 11
-56.1306
 21
-74.421965
  0
LINE
  8
補助線
  6
BYBLOCK
 62
    64
 10
-66.08613
 20
-69.326732
 11
-65.937202
 21
-69.401558
  0
LINE
  8
補助線
  6
BYBLOCK
 62
    64
 10
-65.974252
 20
-69.28968
 11
-66.049078
 21
-69.438608
  0
LINE
  8
補助線
  6
BYBLOCK
 62
    64
 10
-75.85568
 20
-64.4182
 11
-76.004608
 21
-64.343375
  0
LINE
  8
補助線
  6
BYBLOCK
 62
    64
 10
-75.89273
 20
-64.306322
 11
-75.967555
 21
-64.45525
  0
LINE
  8
型材断面
  6
CONTINUOUS
 10
-55.42121
 20
-73.752525
 11
-55.198908
 21
-74.423777
  0
LINE
  8
型材断面
  6
CONTINUOUS
 10
-55.198908
 20
-74.423777
 11
-55.49821
 21
-75.019482
  0
LINE
  8
型材断面
  6
CONTINUOUS
 10
-55.49821
 20
-75.019482
 11
-56.169463
 21
-75.241785
  0
LINE
  8
型材断面
  6
CONTINUOUS
 10
-75.853867
 20
-63.486507
 11
-76.525122
 21
-63.70881
  0
LINE
  8
型材断面
  6
CONTINUOUS
 10
-76.525122
 20
-63.70881
 11
-76.824425
 21
-64.304515
  0
LINE
  8
型材断面
  6
CONTINUOUS
 10
-76.824425
 20
-64.304515
 11
-76.60212
 21
-64.975767
  0
LINE
  8
型材断面
  6
CONTINUOUS
 10
-55.42121
 20
-73.752525
 11
-75.853867
 21
-63.486507
  0
LINE
  8
型材断面
  6
CONTINUOUS
 10
-56.169463
 20
-75.241785
 11
-76.60212
 21
-64.975767
  0
CIRCLE
  8
ボルト／ビス
  6
CONTINUOUS
 10
-56.093188
 20
-74.347502
 40
0.250185
  0
CIRCLE
  8
ボルト／ビス
  6
CONTINUOUS
 10
-56.093188
 20
-74.347502
 40
0.301025
  0
LINE
  8
ボルト／ビス
  6
CONTINUOUS
 62
    64
 10
-55.843422
 20
-74.333
 11
-55.980868
 21
-74.12395
  0
LINE
  8
ボルト／ビス
  6
CONTINUOUS
 62
    64
 10
-56.230632
 20
-74.138453
 11
-55.980868
 21
-74.12395
  0
LINE
  8
ボルト／ビス
  6
CONTINUOUS
 62
    64
 10
-55.955742
 20
-74.556552
 11
-56.205508
 21
-74.571055
  0
LINE
  8
ボルト／ビス
  6
CONTINUOUS
 62
    64
 10
-56.342952
 20
-74.362005
 11
-56.205508
 21
-74.571055
  0
LINE
  8
ボルト／ビス
  6
CONTINUOUS
 62
    64
 10
-55.843422
 20
-74.333
 11
-55.955742
 21
-74.556552
  0
LINE
  8
ボルト／ビス
  6
CONTINUOUS
 62
    64
 10
-56.230632
 20
-74.138453
 11
-56.342952
 21
-74.362005
  0
CIRCLE
  8
ボルト／ビス
  6
CONTINUOUS
 62
    64
 10
-56.093188
 20
-74.347502
 40
0.216668
  0
CIRCLE
  8
ボルト／ビス
  6
CONTINUOUS
 10
-66.011665
 20
-69.364145
 40
0.250185
  0
CIRCLE
  8
ボルト／ビス
  6
CONTINUOUS
 10
-66.011665
 20
-69.364145
 40
0.301025
  0
LINE
  8
ボルト／ビス
  6
CONTINUOUS
 62
    64
 10
-65.7619
 20
-69.34964
 11
-65.899345
 21
-69.14059
  0
LINE
  8
ボルト／ビス
  6
CONTINUOUS
 62
    64
 10
-66.14911
 20
-69.155092
 11
-65.899345
 21
-69.14059
  0
LINE
  8
ボルト／ビス
  6
CONTINUOUS
 62
    64
 10
-65.87422
 20
-69.573195
 11
-66.123988
 21
-69.5877
  0
LINE
  8
ボルト／ビス
  6
CONTINUOUS
 62
    64
 10
-66.26143
 20
-69.37865
 11
-66.123988
 21
-69.5877
  0
LINE
  8
ボルト／ビス
  6
CONTINUOUS
 62
    64
 10
-65.7619
 20
-69.34964
 11
-65.87422
 21
-69.573195
  0
LINE
  8
ボルト／ビス
  6
CONTINUOUS
 62
    64
 10
-66.14911
 20
-69.155092
 11
-66.26143
 21
-69.37865
  0
CIRCLE
  8
ボルト／ビス
  6
CONTINUOUS
 62
    64
 10
-66.011665
 20
-69.364145
 40
0.216668
  0
CIRCLE
  8
ボルト／ビス
  6
CONTINUOUS
 10
-75.930142
 20
-64.380788
 40
0.250185
  0
CIRCLE
  8
ボルト／ビス
  6
CONTINUOUS
 10
-75.930142
 20
-64.380788
 40
0.301025
  0
LINE
  8
ボルト／ビス
  6
CONTINUOUS
 62
    64
 10
-76.067587
 20
-64.171738
 11
-75.817822
 21
-64.157235
  0
LINE
  8
ボルト／ビス
  6
CONTINUOUS
 62
    64
 10
-75.680378
 20
-64.366285
 11
-75.817822
 21
-64.157235
  0
LINE
  8
ボルト／ビス
  6
CONTINUOUS
 62
    64
 10
-76.179907
 20
-64.395292
 11
-76.042465
 21
-64.60434
  0
LINE
  8
ボルト／ビス
  6
CONTINUOUS
 62
    64
 10
-75.792698
 20
-64.589837
 11
-76.042465
 21
-64.60434
  0
LINE
  8
ボルト／ビス
  6
CONTINUOUS
 62
    64
 10
-76.067587
 20
-64.171738
 11
-76.179907
 21
-64.395292
  0
LINE
  8
ボルト／ビス
  6
CONTINUOUS
 62
    64
 10
-75.680378
 20
-64.366285
 11
-75.792698
 21
-64.589837
  0
CIRCLE
  8
ボルト／ビス
  6
CONTINUOUS
 62
    64
 10
-75.930142
 20
-64.380788
 40
0.216668
  0
ENDBLK
  0
BLOCK
  2
*GRP_0029
 70
    65
 10
0.0
 20
0.0
  0
LINE
  8
補助線
  6
BYBLOCK
 62
    64
 10
0.662065
 20
-74.31009
 11
0.81099
 21
-74.384915
  0
LINE
  8
補助線
  6
BYBLOCK
 62
    64
 10
0.77394
 20
-74.273038
 11
0.699115
 21
-74.421965
  0
LINE
  8
補助線
  6
BYBLOCK
 62
    64
 10
-9.256415
 20
-69.326732
 11
-9.107488
 21
-69.401558
  0
LINE
  8
補助線
  6
BYBLOCK
 62
    64
 10
-9.144538
 20
-69.28968
 11
-9.219362
 21
-69.438608
  0
LINE
  8
補助線
  6
BYBLOCK
 62
    64
 10
-19.025965
 20
-64.4182
 11
-19.174892
 21
-64.343375
  0
LINE
  8
補助線
  6
BYBLOCK
 62
    64
 10
-19.063015
 20
-64.306322
 11
-19.13784
 21
-64.45525
  0
LINE
  8
型材断面
  6
CONTINUOUS
 10
1.408505
 20
-73.752525
 11
1.630808
 21
-74.423777
  0
LINE
  8
型材断面
  6
CONTINUOUS
 10
1.630808
 20
-74.423777
 11
1.331505
 21
-75.019482
  0
LINE
  8
型材断面
  6
CONTINUOUS
 10
1.331505
 20
-75.019482
 11
0.660253
 21
-75.241785
  0
LINE
  8
型材断面
  6
CONTINUOUS
 10
-19.024153
 20
-63.486507
 11
-19.695407
 21
-63.70881
  0
LINE
  8
型材断面
  6
CONTINUOUS
 10
-19.695407
 20
-63.70881
 11
-19.99471
 21
-64.304515
  0
LINE
  8
型材断面
  6
CONTINUOUS
 10
-19.99471
 20
-64.304515
 11
-19.772405
 21
-64.975767
  0
LINE
  8
型材断面
  6
CONTINUOUS
 10
1.408505
 20
-73.752525
 11
-19.024153
 21
-63.486507
  0
LINE
  8
型材断面
  6
CONTINUOUS
 10
0.660253
 20
-75.241785
 11
-19.772405
 21
-64.975767
  0
CIRCLE
  8
ボルト／ビス
  6
CONTINUOUS
 10
0.736528
 20
-74.347502
 40
0.250185
  0
CIRCLE
  8
ボルト／ビス
  6
CONTINUOUS
 10
0.736528
 20
-74.347502
 40
0.301025
  0
LINE
  8
ボルト／ビス
  6
CONTINUOUS
 62
    64
 10
0.986292
 20
-74.333
 11
0.848848
 21
-74.12395
  0
LINE
  8
ボルト／ビス
  6
CONTINUOUS
 62
    64
 10
0.599083
 20
-74.138453
 11
0.848848
 21
-74.12395
  0
LINE
  8
ボルト／ビス
  6
CONTINUOUS
 62
    64
 10
0.873972
 20
-74.556552
 11
0.624208
 21
-74.571055
  0
LINE
  8
ボルト／ビス
  6
CONTINUOUS
 62
    64
 10
0.486763
 20
-74.362005
 11
0.624208
 21
-74.571055
  0
LINE
  8
ボルト／ビス
  6
CONTINUOUS
 62
    64
 10
0.986292
 20
-74.333
 11
0.873972
 21
-74.556552
  0
LINE
  8
ボルト／ビス
  6
CONTINUOUS
 62
    64
 10
0.599083
 20
-74.138453
 11
0.486763
 21
-74.362005
  0
CIRCLE
  8
ボルト／ビス
  6
CONTINUOUS
 62
    64
 10
0.736528
 20
-74.347502
 40
0.216668
  0
CIRCLE
  8
ボルト／ビス
  6
CONTINUOUS
 10
-9.18195
 20
-69.364145
 40
0.250185
  0
CIRCLE
  8
ボルト／ビス
  6
CONTINUOUS
 10
-9.18195
 20
-69.364145
 40
0.301025
  0
LINE
  8
ボルト／ビス
  6
CONTINUOUS
 62
    64
 10
-8.932185
 20
-69.34964
 11
-9.06963
 21
-69.14059
  0
LINE
  8
ボルト／ビス
  6
CONTINUOUS
 62
    64
 10
-9.319395
 20
-69.155092
 11
-9.06963
 21
-69.14059
  0
LINE
  8
ボルト／ビス
  6
CONTINUOUS
 62
    64
 10
-9.044505
 20
-69.573195
 11
-9.294272
 21
-69.5877
  0
LINE
  8
ボルト／ビス
  6
CONTINUOUS
 62
    64
 10
-9.431715
 20
-69.37865
 11
-9.294272
 21
-69.5877
  0
LINE
  8
ボルト／ビス
  6
CONTINUOUS
 62
    64
 10
-8.932185
 20
-69.34964
 11
-9.044505
 21
-69.573195
  0
LINE
  8
ボルト／ビス
  6
CONTINUOUS
 62
    64
 10
-9.319395
 20
-69.155092
 11
-9.431715
 21
-69.37865
  0
CIRCLE
  8
ボルト／ビス
  6
CONTINUOUS
 62
    64
 10
-9.18195
 20
-69.364145
 40
0.216668
  0
CIRCLE
  8
ボルト／ビス
  6
CONTINUOUS
 10
-19.100428
 20
-64.380788
 40
0.250185
  0
CIRCLE
  8
ボルト／ビス
  6
CONTINUOUS
 10
-19.100428
 20
-64.380788
 40
0.301025
  0
LINE
  8
ボルト／ビス
  6
CONTINUOUS
 62
    64
 10
-19.237872
 20
-64.171738
 11
-18.988108
 21
-64.157235
  0
LINE
  8
ボルト／ビス
  6
CONTINUOUS
 62
    64
 10
-18.850662
 20
-64.366285
 11
-18.988108
 21
-64.157235
  0
LINE
  8
ボルト／ビス
  6
CONTINUOUS
 62
    64
 10
-19.350192
 20
-64.395292
 11
-19.21275
 21
-64.60434
  0
LINE
  8
ボルト／ビス
  6
CONTINUOUS
 62
    64
 10
-18.962982
 20
-64.589837
 11
-19.21275
 21
-64.60434
  0
LINE
  8
ボルト／ビス
  6
CONTINUOUS
 62
    64
 10
-19.237872
 20
-64.171738
 11
-19.350192
 21
-64.395292
  0
LINE
  8
ボルト／ビス
  6
CONTINUOUS
 62
    64
 10
-18.850662
 20
-64.366285
 11
-18.962982
 21
-64.589837
  0
CIRCLE
  8
ボルト／ビス
  6
CONTINUOUS
 62
    64
 10
-19.100428
 20
-64.380788
 40
0.216668
  0
ENDBLK
  0
BLOCK
  2
*GRP_0030
 70
    65
 10
0.0
 20
0.0
  0
LINE
  8
補助線
  6
BYBLOCK
 62
    64
 10
-19.025965
 20
-74.31009
 11
-19.17489
 21
-74.384915
  0
LINE
  8
補助線
  6
BYBLOCK
 62
    64
 10
-19.13784
 20
-74.273038
 11
-19.063015
 21
-74.421965
  0
LINE
  8
補助線
  6
BYBLOCK
 62
    64
 10
-9.107485
 20
-69.326732
 11
-9.256412
 21
-69.401558
  0
LINE
  8
補助線
  6
BYBLOCK
 62
    64
 10
-9.219362
 20
-69.28968
 11
-9.144538
 21
-69.438608
  0
LINE
  8
補助線
  6
BYBLOCK
 62
    64
 10
0.662065
 20
-64.4182
 11
0.810993
 21
-64.343375
  0
LINE
  8
補助線
  6
BYBLOCK
 62
    64
 10
0.699115
 20
-64.306322
 11
0.77394
 21
-64.45525
  0
LINE
  8
型材断面
  6
CONTINUOUS
 10
-19.772405
 20
-73.752525
 11
-19.994708
 21
-74.423777
  0
LINE
  8
型材断面
  6
CONTINUOUS
 10
-19.994708
 20
-74.423777
 11
-19.695405
 21
-75.019482
  0
LINE
  8
型材断面
  6
CONTINUOUS
 10
-19.695405
 20
-75.019482
 11
-19.024153
 21
-75.241785
  0
LINE
  8
型材断面
  6
CONTINUOUS
 10
0.660253
 20
-63.486507
 11
1.331508
 21
-63.70881
  0
LINE
  8
型材断面
  6
CONTINUOUS
 10
1.331508
 20
-63.70881
 11
1.63081
 21
-64.304515
  0
LINE
  8
型材断面
  6
CONTINUOUS
 10
1.63081
 20
-64.304515
 11
1.408505
 21
-64.975767
  0
LINE
  8
型材断面
  6
CONTINUOUS
 10
-19.772405
 20
-73.752525
 11
0.660253
 21
-63.486507
  0
LINE
  8
型材断面
  6
CONTINUOUS
 10
-19.024153
 20
-75.241785
 11
1.408505
 21
-64.975767
  0
CIRCLE
  8
ボルト／ビス
  6
CONTINUOUS
 10
-19.100428
 20
-74.347502
 40
0.250185
  0
CIRCLE
  8
ボルト／ビス
  6
CONTINUOUS
 10
-19.100428
 20
-74.347502
 40
0.301025
  0
LINE
  8
ボルト／ビス
  6
CONTINUOUS
 62
    64
 10
-19.350192
 20
-74.333
 11
-19.212748
 21
-74.12395
  0
LINE
  8
ボルト／ビス
  6
CONTINUOUS
 62
    64
 10
-18.962982
 20
-74.138453
 11
-19.212748
 21
-74.12395
  0
LINE
  8
ボルト／ビス
  6
CONTINUOUS
 62
    64
 10
-19.237872
 20
-74.556552
 11
-18.988108
 21
-74.571055
  0
LINE
  8
ボルト／ビス
  6
CONTINUOUS
 62
    64
 10
-18.850662
 20
-74.362005
 11
-18.988108
 21
-74.571055
  0
LINE
  8
ボルト／ビス
  6
CONTINUOUS
 62
    64
 10
-19.350192
 20
-74.333
 11
-19.237872
 21
-74.556552
  0
LINE
  8
ボルト／ビス
  6
CONTINUOUS
 62
    64
 10
-18.962982
 20
-74.138453
 11
-18.850662
 21
-74.362005
  0
CIRCLE
  8
ボルト／ビス
  6
CONTINUOUS
 62
    64
 10
-19.100428
 20
-74.347502
 40
0.216668
  0
CIRCLE
  8
ボルト／ビス
  6
CONTINUOUS
 10
-9.18195
 20
-69.364145
 40
0.250185
  0
CIRCLE
  8
ボルト／ビス
  6
CONTINUOUS
 10
-9.18195
 20
-69.364145
 40
0.301025
  0
LINE
  8
ボルト／ビス
  6
CONTINUOUS
 62
    64
 10
-9.431715
 20
-69.34964
 11
-9.29427
 21
-69.14059
  0
LINE
  8
ボルト／ビス
  6
CONTINUOUS
 62
    64
 10
-9.044505
 20
-69.155092
 11
-9.29427
 21
-69.14059
  0
LINE
  8
ボルト／ビス
  6
CONTINUOUS
 62
    64
 10
-9.319395
 20
-69.573195
 11
-9.069628
 21
-69.5877
  0
LINE
  8
ボルト／ビス
  6
CONTINUOUS
 62
    64
 10
-8.932185
 20
-69.37865
 11
-9.069628
 21
-69.5877
  0
LINE
  8
ボルト／ビス
  6
CONTINUOUS
 62
    64
 10
-9.431715
 20
-69.34964
 11
-9.319395
 21
-69.573195
  0
LINE
  8
ボルト／ビス
  6
CONTINUOUS
 62
    64
 10
-9.044505
 20
-69.155092
 11
-8.932185
 21
-69.37865
  0
CIRCLE
  8
ボルト／ビス
  6
CONTINUOUS
 62
    64
 10
-9.18195
 20
-69.364145
 40
0.216668
  0
CIRCLE
  8
ボルト／ビス
  6
CONTINUOUS
 10
0.736528
 20
-64.380788
 40
0.250185
  0
CIRCLE
  8
ボルト／ビス
  6
CONTINUOUS
 10
0.736528
 20
-64.380788
 40
0.301025
  0
LINE
  8
ボルト／ビス
  6
CONTINUOUS
 62
    64
 10
0.873972
 20
-64.171738
 11
0.624208
 21
-64.157235
  0
LINE
  8
ボルト／ビス
  6
CONTINUOUS
 62
    64
 10
0.486763
 20
-64.366285
 11
0.624208
 21
-64.157235
  0
LINE
  8
ボルト／ビス
  6
CONTINUOUS
 62
    64
 10
0.986292
 20
-64.395292
 11
0.84885
 21
-64.60434
  0
LINE
  8
ボルト／ビス
  6
CONTINUOUS
 62
    64
 10
0.599083
 20
-64.589837
 11
0.84885
 21
-64.60434
  0
LINE
  8
ボルト／ビス
  6
CONTINUOUS
 62
    64
 10
0.873972
 20
-64.171738
 11
0.986292
 21
-64.395292
  0
LINE
  8
ボルト／ビス
  6
CONTINUOUS
 62
    64
 10
0.486763
 20
-64.366285
 11
0.599083
 21
-64.589837
  0
CIRCLE
  8
ボルト／ビス
  6
CONTINUOUS
 62
    64
 10
0.736528
 20
-64.380788
 40
0.216668
  0
ENDBLK
  0
BLOCK
  2
*DIM_0031
 70
    65
 10
0.0
 20
0.0
  0
LINE
  8
寸法
  6
CONTINUOUS
 10
9.070168
 20
-68.70412
 11
27.68864
 21
-68.70412
  0
LINE
  8
寸法
  6
CONTINUOUS
 10
9.070168
 20
-61.370788
 11
27.68864
 21
-61.370788
  0
LINE
  8
寸法
  6
CONTINUOUS
 10
27.68864
 20
-68.70412
 11
27.68864
 21
-61.370788
  0
POINT
  8
寸法
 10
27.68864
 20
-68.70412
  0
POINT
  8
寸法
 10
27.68864
 20
-61.370788
  0
TEXT
  7
TextStyle03
  8
寸法
  6
CONTINUOUS
 10
30.675
 20
-74.14375
  1
上昇179以上
 40
3.0
 50
90.0
 72
     5
 11
30.675
 21
-55.95625
  0
ENDBLK
  0
BLOCK
  2
*DIM_0032
 70
    65
 10
0.0
 20
0.0
  0
LINE
  8
寸法
  6
CONTINUOUS
 10
110.017113
 20
-50.151728
 11
110.017113
 21
-41.907272
  0
LINE
  8
寸法
  6
CONTINUOUS
 10
150.677112
 20
-50.151728
 11
150.677112
 21
-41.907272
  0
LINE
  8
寸法
  6
CONTINUOUS
 10
110.017113
 20
-41.907272
 11
150.677112
 21
-41.907272
  0
POINT
  8
寸法
 10
110.017113
 20
-41.907272
  0
POINT
  8
寸法
 10
150.677112
 20
-41.907272
  0
TEXT
  7
TextStyle03
  8
寸法
  6
CONTINUOUS
 10
125.35625
 20
-41.55
  1
1219.8
 40
3.0
 72
     5
 11
135.29375
 21
-41.55
  0
ENDBLK
  0
BLOCK
  2
*DIM_0033
 70
    65
 10
0.0
 20
0.0
  0
LINE
  8
寸法
  6
CONTINUOUS
 10
155.677112
 20
-55.151728
 11
165.431712
 21
-55.151728
  0
LINE
  8
寸法
  6
CONTINUOUS
 10
155.677112
 20
-74.48506
 11
165.431712
 21
-74.48506
  0
LINE
  8
寸法
  6
CONTINUOUS
 10
165.431712
 20
-55.151728
 11
165.431712
 21
-74.48506
  0
POINT
  8
寸法
 10
165.431712
 20
-55.151728
  0
POINT
  8
寸法
 10
165.431712
 20
-74.48506
  0
TEXT
  7
TextStyle03
  8
寸法
  6
CONTINUOUS
 10
165.05
 20
-67.2625
  1
580
 40
3.0
 50
90.0
 72
     5
 11
165.05
 21
-62.3875
  0
ENDBLK
  0
BLOCK
  2
*DIM_0034
 70
    65
 10
0.0
 20
0.0
  0
LINE
  8
寸法
  6
CONTINUOUS
 10
6.349863
 20
-68.209977
 11
6.349863
 21
-32.437345
  0
LINE
  8
寸法
  6
CONTINUOUS
 10
4.070168
 20
-32.437345
 11
6.349863
 21
-32.437345
  0
POINT
  8
寸法
 10
4.070168
 20
-32.437345
  0
POINT
  8
寸法
 10
6.349863
 20
-32.437345
  0
TEXT
  7
TextStyle03
  8
寸法
  6
CONTINUOUS
 10
8.66875
 20
-32.075
  1
68.4
 40
3.0
 72
     5
 11
15.23125
 21
-32.075
  0
ENDBLK
  0
BLOCK
  2
*DIM_0035
 70
    65
 10
0.0
 20
0.0
  0
LINE
  8
寸法
  6
CONTINUOUS
 10
-81.542857
 20
-68.209977
 11
-81.542857
 21
-32.437345
  0
LINE
  8
寸法
  6
CONTINUOUS
 10
-79.263162
 20
-32.437345
 11
-81.542857
 21
-32.437345
  0
POINT
  8
寸法
 10
-79.263162
 20
-32.437345
  0
POINT
  8
寸法
 10
-81.542857
 20
-32.437345
  0
TEXT
  7
TextStyle03
  8
寸法
  6
CONTINUOUS
 10
-90.45625
 20
-32.075
  1
68.4
 40
3.0
 72
     5
 11
-83.89375
 21
-32.075
  0
ENDBLK
  0
BLOCK
  2
*DIM_0036
 70
    65
 10
0.0
 20
0.0
  0
LINE
  8
寸法
  6
CONTINUOUS
 10
4.070168
 20
-32.437345
 11
-79.263162
 21
-32.437345
  0
POINT
  8
寸法
 10
4.070168
 20
-32.437345
  0
POINT
  8
寸法
 10
-79.263162
 20
-32.437345
  0
TEXT
  7
TextStyle03
  8
寸法
  6
CONTINUOUS
 10
-49.31875
 20
-32.075
  1
呼称寸法　2500
 40
3.0
 72
     5
 11
-25.88125
 21
-32.075
  0
ENDBLK
  0
BLOCK
  2
M8横
 70
    64
 10
-88.370132
 20
140.837665
  0
LINE
  8
ボルト／ビス
 10
-95.870132
 20
140.837665
 11
-80.870132
 21
140.837665
  0
LINE
  8
ボルト／ビス
 10
-80.870132
 20
145.837665
 11
-81.370132
 21
146.337665
  0
POLYLINE
  8
ボルト／ビス
 66
     1
  0
VERTEX
  8
ボルト／ビス
 10
-84.120132
 20
146.337665
  0
VERTEX
  8
ボルト／ビス
 10
-84.620132
 20
145.837665
  0
VERTEX
  8
ボルト／ビス
 10
-85.120132
 20
146.337665
  0
SEQEND
  0
POLYLINE
  8
ボルト／ビス
 66
     1
  0
VERTEX
  8
ボルト／ビス
 10
-91.620132
 20
146.337665
  0
VERTEX
  8
ボルト／ビス
 10
-92.120132
 20
145.837665
  0
VERTEX
  8
ボルト／ビス
 10
-92.620132
 20
146.337665
  0
SEQEND
  0
LINE
  8
ボルト／ビス
 10
-95.370132
 20
146.337665
 11
-95.870132
 21
145.837665
  0
LINE
  8
ボルト／ビス
 10
-95.870132
 20
140.837665
 11
-95.870132
 21
145.837665
  0
LINE
  8
ボルト／ビス
 10
-80.870132
 20
140.837665
 11
-80.870132
 21
145.837665
  0
LINE
  8
ボルト／ビス
 10
-95.370132
 20
146.337665
 11
-81.370132
 21
146.337665
  0
LINE
  8
ボルト／ビス
 10
-84.620132
 20
140.837665
 11
-84.620132
 21
145.837665
  0
LINE
  8
ボルト／ビス
 10
-92.120132
 20
140.837665
 11
-92.120132
 21
145.837665
  0
ENDBLK
  0
ENDSEC
  0
SECTION
  2
ENTITIES
  0
POLYLINE
  8
通り芯
  6
CONTINUOUS
 66
     1
 70
     1
  0
VERTEX
  8
通り芯
 10
-210.0
 20
-148.5
  0
VERTEX
  8
通り芯
 10
210.0
 20
-148.5
  0
VERTEX
  8
通り芯
 10
210.0
 20
148.5
  0
VERTEX
  8
通り芯
 10
-210.0
 20
148.5
  0
SEQEND
  0
INSERT
  2
*GRP_0001
  8
型材断面
  6
CONTINUOUS
 10
0.0
 20
0.0
  0
LINE
  8
型材断面
  6
CONTINUOUS
 10
162.97617
 20
61.869993
 11
162.97617
 21
61.819993
  0
LINE
  8
型材断面
  6
CONTINUOUS
 10
162.47617
 20
60.203325
 11
161.742835
 21
60.203325
  0
LINE
  8
型材断面
  6
CONTINUOUS
 62
    47
 10
169.709335
 20
61.60302
 11
169.709335
 21
61.55302
  0
LINE
  8
型材断面
  6
CONTINUOUS
 62
    47
 10
169.709335
 20
61.60302
 11
169.209335
 21
61.60302
  0
LINE
  8
型材断面
  6
CONTINUOUS
 10
163.459335
 20
60.25302
 11
163.459335
 21
61.699688
  0
LINE
  8
型材断面
  6
CONTINUOUS
 10
163.909335
 20
61.699688
 11
163.459335
 21
61.699688
  0
LINE
  8
型材断面
  6
CONTINUOUS
 62
    47
 10
166.582028
 20
62.43302
 11
166.582028
 21
62.48302
  0
LINE
  8
型材断面
  6
CONTINUOUS
 62
    47
 10
166.582028
 20
62.48302
 11
166.248695
 21
62.48302
  0
LINE
  8
型材断面
  6
CONTINUOUS
 62
    47
 10
166.248695
 20
62.48302
 11
166.148695
 21
61.699688
  0
LINE
  8
型材断面
  6
CONTINUOUS
 62
    47
 10
165.74267
 20
61.699688
 11
166.148695
 21
61.699688
  0
LINE
  8
型材断面
  6
CONTINUOUS
 62
    47
 10
165.74267
 20
62.169687
 11
163.909335
 21
62.169687
  0
LINE
  8
型材断面
  6
CONTINUOUS
 10
162.97617
 20
61.869993
 11
162.47617
 21
61.869993
  0
LINE
  8
型材断面
  6
CONTINUOUS
 10
163.459335
 20
60.25302
 11
162.97617
 21
60.25302
  0
LINE
  8
型材断面
  6
CONTINUOUS
 62
    47
 10
169.209335
 20
62.169687
 11
166.582028
 21
62.169687
  0
INSERT
  2
*GRP_0002
  8
型材断面
  6
DOT
 10
0.0
 20
0.0
  0
INSERT
  2
*GRP_0003
  8
型材断面
  6
DOT
 10
0.0
 20
0.0
  0
LINE
  8
型材断面
  6
CONTINUOUS
 10
169.209335
 20
62.169687
 11
169.209335
 21
50.203325
  0
LINE
  8
型材断面
  6
CONTINUOUS
 10
169.709335
 20
61.60302
 11
169.709335
 21
50.203325
  0
LINE
  8
型材断面
  6
CONTINUOUS
 10
166.582028
 20
62.48302
 11
166.582028
 21
50.203325
  0
LINE
  8
型材断面
  6
CONTINUOUS
 10
166.248695
 20
62.48302
 11
166.248695
 21
50.203325
  0
LINE
  8
型材断面
  6
CONTINUOUS
 10
166.148695
 20
61.699688
 11
166.148695
 21
50.203325
  0
LINE
  8
型材断面
  6
CONTINUOUS
 10
165.74267
 20
62.169687
 11
165.74267
 21
50.203325
  0
LINE
  8
型材断面
  6
CONTINUOUS
 10
162.97617
 20
61.869993
 11
162.97617
 21
50.203325
  0
LINE
  8
型材断面
  6
CONTINUOUS
 10
161.742835
 20
60.203325
 11
161.742835
 21
50.203325
  0
LINE
  8
型材断面
  6
CONTINUOUS
 10
162.47617
 20
61.869993
 11
162.47617
 21
50.203325
  0
LINE
  8
型材断面
  6
CONTINUOUS
 10
163.459335
 20
61.699688
 11
163.459335
 21
50.203325
  0
LINE
  8
型材断面
  6
CONTINUOUS
 10
163.909335
 20
62.169687
 11
163.909335
 21
50.203325
  0
LINE
  8
型材断面
  6
CONTINUOUS
 10
162.97617
 20
38.53666
 11
162.97617
 21
38.58666
  0
LINE
  8
型材断面
  6
CONTINUOUS
 10
162.47617
 20
40.203325
 11
161.742835
 21
40.203325
  0
LINE
  8
型材断面
  6
CONTINUOUS
 62
    47
 10
169.709335
 20
38.80363
 11
169.709335
 21
38.85363
  0
LINE
  8
型材断面
  6
CONTINUOUS
 62
    47
 10
169.709335
 20
38.80363
 11
169.209335
 21
38.80363
  0
LINE
  8
型材断面
  6
CONTINUOUS
 10
163.459335
 20
40.15363
 11
163.459335
 21
38.706965
  0
LINE
  8
型材断面
  6
CONTINUOUS
 10
163.909335
 20
38.706965
 11
163.459335
 21
38.706965
  0
LINE
  8
型材断面
  6
CONTINUOUS
 62
    47
 10
166.582028
 20
37.97363
 11
166.582028
 21
37.92363
  0
LINE
  8
型材断面
  6
CONTINUOUS
 62
    47
 10
166.582028
 20
37.92363
 11
166.248695
 21
37.92363
  0
LINE
  8
型材断面
  6
CONTINUOUS
 62
    47
 10
166.248695
 20
37.92363
 11
166.148695
 21
38.706965
  0
LINE
  8
型材断面
  6
CONTINUOUS
 62
    47
 10
165.74267
 20
38.706965
 11
166.148695
 21
38.706965
  0
LINE
  8
型材断面
  6
CONTINUOUS
 62
    47
 10
165.74267
 20
38.236965
 11
163.909335
 21
38.236965
  0
LINE
  8
型材断面
  6
CONTINUOUS
 10
162.97617
 20
38.53666
 11
162.47617
 21
38.53666
  0
LINE
  8
型材断面
  6
CONTINUOUS
 10
163.459335
 20
40.15363
 11
162.97617
 21
40.15363
  0
LINE
  8
型材断面
  6
CONTINUOUS
 62
    47
 10
169.209335
 20
38.236965
 11
166.582028
 21
38.236965
  0
INSERT
  2
*GRP_0004
  8
型材断面
  6
DOT
 10
0.0
 20
0.0
  0
INSERT
  2
*GRP_0005
  8
型材断面
  6
DOT
 10
0.0
 20
0.0
  0
LINE
  8
型材断面
  6
CONTINUOUS
 10
169.209335
 20
38.236965
 11
169.209335
 21
50.203325
  0
LINE
  8
型材断面
  6
CONTINUOUS
 10
169.709335
 20
38.80363
 11
169.709335
 21
50.203325
  0
LINE
  8
型材断面
  6
CONTINUOUS
 10
166.582028
 20
37.92363
 11
166.582028
 21
50.203325
  0
LINE
  8
型材断面
  6
CONTINUOUS
 10
166.248695
 20
37.92363
 11
166.248695
 21
50.203325
  0
LINE
  8
型材断面
  6
CONTINUOUS
 10
166.148695
 20
38.706965
 11
166.148695
 21
50.203325
  0
LINE
  8
型材断面
  6
CONTINUOUS
 10
165.74267
 20
38.236965
 11
165.74267
 21
50.203325
  0
LINE
  8
型材断面
  6
CONTINUOUS
 10
162.97617
 20
38.53666
 11
162.97617
 21
50.203325
  0
LINE
  8
型材断面
  6
CONTINUOUS
 10
161.742835
 20
40.203325
 11
161.742835
 21
50.203325
  0
LINE
  8
型材断面
  6
CONTINUOUS
 10
162.47617
 20
38.53666
 11
162.47617
 21
50.203325
  0
LINE
  8
型材断面
  6
CONTINUOUS
 10
163.459335
 20
38.706965
 11
163.459335
 21
50.203325
  0
LINE
  8
型材断面
  6
CONTINUOUS
 10
163.909335
 20
38.236965
 11
163.909335
 21
50.203325
  0
LINE
  8
型材断面
  6
DASHDOT
 10
-37.596497
 20
-79.253555
 11
-37.596497
 21
60.203325
  0
LINE
  8
型材断面
  6
CONTINUOUS
 10
-36.346497
 20
41.86999
 11
-38.846497
 21
41.86999
  0
LINE
  8
型材断面
  6
CONTINUOUS
 10
-36.346497
 20
58.53666
 11
-38.846497
 21
58.53666
  0
LINE
  8
型材断面
  6
CONTINUOUS
 10
-36.346497
 20
41.86999
 11
-36.346497
 21
58.53666
  0
LINE
  8
型材断面
  6
CONTINUOUS
 10
-37.346497
 20
41.86999
 11
-37.346497
 21
58.53666
  0
LINE
  8
型材断面
  6
CONTINUOUS
 10
-37.846497
 20
41.86999
 11
-37.846497
 21
58.53666
  0
LINE
  8
型材断面
  6
CONTINUOUS
 10
-38.846497
 20
41.86999
 11
-38.846497
 21
58.53666
  0
LINE
  8
型材断面
  6
CONTINUOUS
 10
5.736835
 20
-69.937453
 11
5.686835
 21
-69.937453
  0
LINE
  8
型材断面
  6
CONTINUOUS
 10
4.070168
 20
-69.437453
 11
4.070168
 21
-68.70412
  0
LINE
  8
型材断面
  6
CONTINUOUS
 62
    47
 10
5.469863
 20
-76.67062
 11
5.419863
 21
-76.67062
  0
LINE
  8
型材断面
  6
CONTINUOUS
 62
    47
 10
5.469863
 20
-76.67062
 11
5.469863
 21
-76.17062
  0
LINE
  8
型材断面
  6
CONTINUOUS
 10
4.119863
 20
-70.42062
 11
5.56653
 21
-70.42062
  0
LINE
  8
型材断面
  6
CONTINUOUS
 10
5.56653
 20
-70.87062
 11
5.56653
 21
-70.42062
  0
LINE
  8
型材断面
  6
CONTINUOUS
 62
    47
 10
6.299863
 20
-73.543312
 11
6.349863
 21
-73.543312
  0
LINE
  8
型材断面
  6
CONTINUOUS
 62
    47
 10
6.349863
 20
-73.543312
 11
6.349863
 21
-73.209977
  0
LINE
  8
型材断面
  6
CONTINUOUS
 62
    47
 10
6.349863
 20
-73.209977
 11
5.56653
 21
-73.109977
  0
LINE
  8
型材断面
  6
CONTINUOUS
 62
    47
 10
5.56653
 20
-72.703953
 11
5.56653
 21
-73.109977
  0
LINE
  8
型材断面
  6
CONTINUOUS
 62
    47
 10
6.03653
 20
-72.703953
 11
6.03653
 21
-70.87062
  0
LINE
  8
型材断面
  6
CONTINUOUS
 10
5.736835
 20
-69.937453
 11
5.736835
 21
-69.437453
  0
LINE
  8
型材断面
  6
CONTINUOUS
 10
4.119863
 20
-70.42062
 11
4.119863
 21
-69.937453
  0
LINE
  8
型材断面
  6
CONTINUOUS
 62
    47
 10
6.03653
 20
-76.17062
 11
6.03653
 21
-73.543312
  0
INSERT
  2
*GRP_0010
  8
型材断面
  6
DOT
 10
0.0
 20
0.0
  0
INSERT
  2
*GRP_0011
  8
型材断面
  6
DOT
 10
0.0
 20
0.0
  0
LINE
  8
型材断面
  6
CONTINUOUS
 10
6.03653
 20
-76.17062
 11
-37.596497
 21
-76.17062
  0
LINE
  8
型材断面
  6
CONTINUOUS
 10
5.469863
 20
-76.67062
 11
-37.596497
 21
-76.67062
  0
LINE
  8
型材断面
  6
CONTINUOUS
 10
6.349863
 20
-73.543312
 11
-37.596497
 21
-73.543312
  0
LINE
  8
型材断面
  6
CONTINUOUS
 10
6.349863
 20
-73.209977
 11
-37.596497
 21
-73.209977
  0
LINE
  8
型材断面
  6
CONTINUOUS
 10
5.56653
 20
-73.109977
 11
-37.596497
 21
-73.109977
  0
LINE
  8
型材断面
  6
CONTINUOUS
 10
6.03653
 20
-72.703953
 11
-37.596497
 21
-72.703953
  0
LINE
  8
型材断面
  6
CONTINUOUS
 10
5.736835
 20
-69.937453
 11
-37.596497
 21
-69.937453
  0
LINE
  8
型材断面
  6
CONTINUOUS
 10
4.070168
 20
-68.70412
 11
-37.596497
 21
-68.70412
  0
LINE
  8
型材断面
  6
CONTINUOUS
 10
5.736835
 20
-69.437453
 11
-37.596497
 21
-69.437453
  0
LINE
  8
型材断面
  6
CONTINUOUS
 10
5.56653
 20
-70.42062
 11
-37.596497
 21
-70.42062
  0
LINE
  8
型材断面
  6
CONTINUOUS
 10
6.03653
 20
-70.87062
 11
-37.596497
 21
-70.87062
  0
LINE
  8
型材断面
  6
CONTINUOUS
 10
4.070168
 20
40.203325
 11
4.070168
 21
60.203325
  0
LINE
  8
型材断面
  6
CONTINUOUS
 10
6.03653
 20
38.236962
 11
6.03653
 21
62.169687
  0
LINE
  8
型材断面
  6
CONTINUOUS
 10
6.349863
 20
37.92363
 11
6.349863
 21
62.48302
  0
LINE
  8
型材断面
  6
CONTINUOUS
 10
5.736835
 20
38.536658
 11
5.736835
 21
61.869993
  0
LINE
  8
型材断面
  6
CONTINUOUS
 10
3.236835
 20
41.036658
 11
6.349863
 21
37.92363
  0
LINE
  8
型材断面
  6
CONTINUOUS
 10
3.236835
 20
59.369993
 11
6.349863
 21
62.48302
  0
LINE
  8
型材断面
  6
CONTINUOUS
 10
3.236835
 20
50.619993
 11
4.070168
 21
50.619993
  0
LINE
  8
型材断面
  6
CONTINUOUS
 10
3.236835
 20
49.786658
 11
4.070168
 21
49.786658
  0
LINE
  8
型材断面
  6
CONTINUOUS
 10
3.236835
 20
41.036658
 11
3.236835
 21
49.786658
  0
LINE
  8
型材断面
  6
CONTINUOUS
 10
3.236835
 20
50.619993
 11
3.236835
 21
59.369993
  0
LINE
  8
型材断面
  6
DASHDOT
 10
172.29227
 20
40.203325
 11
4.070168
 21
40.203325
  0
LINE
  8
型材断面
  6
DASHDOT
 10
172.29227
 20
60.203325
 11
4.070168
 21
60.203325
  0
LINE
  8
型材断面
  6
DASHDOT
 10
4.070168
 20
-79.253555
 11
4.070168
 21
40.203325
  0
LINE
  8
型材断面
  6
CONTINUOUS
 10
-80.92983
 20
-69.937453
 11
-80.87983
 21
-69.937453
  0
LINE
  8
型材断面
  6
CONTINUOUS
 10
-79.263162
 20
-69.437453
 11
-79.263162
 21
-68.70412
  0
LINE
  8
型材断面
  6
CONTINUOUS
 62
    47
 10
-80.662857
 20
-76.67062
 11
-80.612857
 21
-76.67062
  0
LINE
  8
型材断面
  6
CONTINUOUS
 62
    47
 10
-80.662857
 20
-76.67062
 11
-80.662857
 21
-76.17062
  0
LINE
  8
型材断面
  6
CONTINUOUS
 10
-79.312857
 20
-70.42062
 11
-80.759525
 21
-70.42062
  0
LINE
  8
型材断面
  6
CONTINUOUS
 10
-80.759525
 20
-70.87062
 11
-80.759525
 21
-70.42062
  0
LINE
  8
型材断面
  6
CONTINUOUS
 62
    47
 10
-81.492857
 20
-73.543312
 11
-81.542857
 21
-73.543312
  0
LINE
  8
型材断面
  6
CONTINUOUS
 62
    47
 10
-81.542857
 20
-73.543312
 11
-81.542857
 21
-73.209977
  0
LINE
  8
型材断面
  6
CONTINUOUS
 62
    47
 10
-81.542857
 20
-73.209977
 11
-80.759525
 21
-73.109977
  0
LINE
  8
型材断面
  6
CONTINUOUS
 62
    47
 10
-80.759525
 20
-72.703953
 11
-80.759525
 21
-73.109977
  0
LINE
  8
型材断面
  6
CONTINUOUS
 62
    47
 10
-81.229525
 20
-72.703953
 11
-81.229525
 21
-70.87062
  0
LINE
  8
型材断面
  6
CONTINUOUS
 10
-80.92983
 20
-69.937453
 11
-80.92983
 21
-69.437453
  0
LINE
  8
型材断面
  6
CONTINUOUS
 10
-79.312857
 20
-70.42062
 11
-79.312857
 21
-69.937453
  0
LINE
  8
型材断面
  6
CONTINUOUS
 62
    47
 10
-81.229525
 20
-76.17062
 11
-81.229525
 21
-73.543312
  0
INSERT
  2
*GRP_0012
  8
型材断面
  6
DOT
 10
0.0
 20
0.0
  0
INSERT
  2
*GRP_0013
  8
型材断面
  6
DOT
 10
0.0
 20
0.0
  0
LINE
  8
型材断面
  6
CONTINUOUS
 10
-81.229525
 20
-76.17062
 11
-37.596497
 21
-76.17062
  0
LINE
  8
型材断面
  6
CONTINUOUS
 10
-80.662857
 20
-76.67062
 11
-37.596497
 21
-76.67062
  0
LINE
  8
型材断面
  6
CONTINUOUS
 10
-81.542857
 20
-73.543312
 11
-37.596497
 21
-73.543312
  0
LINE
  8
型材断面
  6
CONTINUOUS
 10
-81.542857
 20
-73.209977
 11
-37.596497
 21
-73.209977
  0
LINE
  8
型材断面
  6
CONTINUOUS
 10
-80.759525
 20
-73.109977
 11
-37.596497
 21
-73.109977
  0
LINE
  8
型材断面
  6
CONTINUOUS
 10
-81.229525
 20
-72.703953
 11
-37.596497
 21
-72.703953
  0
LINE
  8
型材断面
  6
CONTINUOUS
 10
-80.92983
 20
-69.937453
 11
-37.596497
 21
-69.937453
  0
LINE
  8
型材断面
  6
CONTINUOUS
 10
-79.263162
 20
-68.70412
 11
-37.596497
 21
-68.70412
  0
LINE
  8
型材断面
  6
CONTINUOUS
 10
-80.92983
 20
-69.437453
 11
-37.596497
 21
-69.437453
  0
LINE
  8
型材断面
  6
CONTINUOUS
 10
-80.759525
 20
-70.42062
 11
-37.596497
 21
-70.42062
  0
LINE
  8
型材断面
  6
CONTINUOUS
 10
-81.229525
 20
-70.87062
 11
-37.596497
 21
-70.87062
  0
LINE
  8
型材断面
  6
CONTINUOUS
 10
-79.263162
 20
40.203325
 11
-79.263162
 21
60.203325
  0
LINE
  8
型材断面
  6
CONTINUOUS
 10
-81.229525
 20
38.236962
 11
-81.229525
 21
62.169687
  0
LINE
  8
型材断面
  6
CONTINUOUS
 10
-81.542857
 20
37.92363
 11
-81.542857
 21
62.48302
  0
LINE
  8
型材断面
  6
CONTINUOUS
 10
-80.92983
 20
38.536658
 11
-80.92983
 21
61.869993
  0
LINE
  8
型材断面
  6
CONTINUOUS
 10
-78.42983
 20
59.369993
 11
-81.542857
 21
62.48302
  0
LINE
  8
型材断面
  6
CONTINUOUS
 10
-78.42983
 20
41.036658
 11
-81.542857
 21
37.92363
  0
LINE
  8
型材断面
  6
CONTINUOUS
 10
-78.42983
 20
49.786658
 11
-79.263162
 21
49.786658
  0
LINE
  8
型材断面
  6
CONTINUOUS
 10
-78.42983
 20
50.619993
 11
-79.263162
 21
50.619993
  0
LINE
  8
型材断面
  6
CONTINUOUS
 10
-78.42983
 20
41.036658
 11
-78.42983
 21
49.786658
  0
LINE
  8
型材断面
  6
CONTINUOUS
 10
-78.42983
 20
50.619993
 11
-78.42983
 21
59.369993
  0
LINE
  8
型材断面
  6
DASHDOT
 10
172.29227
 20
50.203325
 11
-79.263162
 21
50.203325
  0
LINE
  8
型材断面
  6
DASHDOT
 10
-79.263162
 20
-79.253555
 11
-79.263162
 21
40.203325
  0
LINE
  8
型材断面
  6
CONTINUOUS
 10
4.070168
 20
40.203325
 11
-79.263162
 21
40.203325
  0
LINE
  8
型材断面
  6
CONTINUOUS
 10
6.03653
 20
38.236962
 11
-81.229525
 21
38.236962
  0
LINE
  8
型材断面
  6
CONTINUOUS
 10
6.349863
 20
37.92363
 11
-81.542857
 21
37.92363
  0
LINE
  8
型材断面
  6
CONTINUOUS
 10
5.736835
 20
38.536658
 11
-80.92983
 21
38.536658
  0
LINE
  8
型材断面
  6
CONTINUOUS
 10
4.070168
 20
60.203325
 11
-79.263162
 21
60.203325
  0
LINE
  8
型材断面
  6
CONTINUOUS
 10
6.03653
 20
62.169687
 11
-81.229525
 21
62.169687
  0
LINE
  8
型材断面
  6
CONTINUOUS
 10
6.349863
 20
62.48302
 11
-81.542857
 21
62.48302
  0
LINE
  8
型材断面
  6
CONTINUOUS
 10
5.736835
 20
61.869993
 11
-80.92983
 21
61.869993
  0
POLYLINE
  8
型材断面
  6
CONTINUOUS
 66
     1
 70
     1
  0
VERTEX
  8
型材断面
 10
13.709952
 20
-91.899758
  0
VERTEX
  8
型材断面
 10
-34.968722
 20
-91.899758
  0
VERTEX
  8
型材断面
 10
-34.968722
 20
-108.244423
  0
VERTEX
  8
型材断面
 10
13.709952
 20
-108.244423
  0
SEQEND
  0
POLYLINE
  8
型材断面
  6
CONTINUOUS
 66
     1
 70
     1
  0
VERTEX
  8
型材断面
 10
-28.02675
 20
30.427403
  0
VERTEX
  8
型材断面
 10
-46.79868
 20
30.427403
  0
VERTEX
  8
型材断面
 10
-46.79868
 20
25.69056
  0
VERTEX
  8
型材断面
 10
-28.02675
 20
25.69056
  0
SEQEND
  0
POLYLINE
  8
型材断面
  6
CONTINUOUS
 66
     1
 70
     1
  0
VERTEX
  8
型材断面
 10
-28.02675
 20
69.979248
  0
VERTEX
  8
型材断面
 10
-46.79868
 20
69.979248
  0
VERTEX
  8
型材断面
 10
-46.79868
 20
74.71609
  0
VERTEX
  8
型材断面
 10
-28.02675
 20
74.71609
  0
SEQEND
  0
LINE
  8
型材断面
  6
CONTINUOUS
 10
-62.596495
 20
62.833455
 11
-64.092125
 21
65.423963
  0
LINE
  8
型材断面
  6
CONTINUOUS
 10
-62.596495
 20
62.833455
 11
-61.100865
 21
65.423963
  0
LINE
  8
型材断面
  6
CONTINUOUS
 10
-61.100865
 20
65.423963
 11
-64.092125
 21
65.423963
  0
LINE
  8
型材断面
  6
CONTINUOUS
 10
-120.11537
 20
98.180797
 11
-119.519315
 21
95.59029
  0
LINE
  8
型材断面
  6
CONTINUOUS
 10
-120.11537
 20
98.180797
 11
-120.711427
 21
95.59029
  0
LINE
  8
型材断面
  6
CONTINUOUS
 10
-120.711427
 20
95.59029
 11
-119.519315
 21
95.59029
  0
LINE
  8
型材断面
  6
CONTINUOUS
 10
-126.137958
 20
92.311398
 11
-79.89618
 21
92.311398
  0
LINE
  8
型材断面
  6
CONTINUOUS
 10
-120.11537
 20
104.710672
 11
-121.611
 21
102.120165
  0
LINE
  8
型材断面
  6
CONTINUOUS
 10
-120.11537
 20
104.710672
 11
-118.61974
 21
102.120165
  0
LINE
  8
型材断面
  6
CONTINUOUS
 10
-118.61974
 20
102.120165
 11
-121.611
 21
102.120165
  0
LINE
  8
型材断面
  6
CONTINUOUS
 10
-126.137958
 20
101.18157
 11
-79.89618
 21
101.18157
  0
LINE
  8
型材断面
  6
CONTINUOUS
 10
-126.137958
 20
86.523365
 11
-79.89618
 21
86.523365
  0
LINE
  8
型材断面
  6
CONTINUOUS
 10
-81.893293
 20
50.203325
 11
-84.4838
 21
51.698955
  0
LINE
  8
型材断面
  6
CONTINUOUS
 10
-81.893293
 20
50.203325
 11
-84.4838
 21
48.707695
  0
LINE
  8
型材断面
  6
CONTINUOUS
 10
-84.4838
 20
48.707695
 11
-84.4838
 21
51.698955
  0
LINE
  8
型材断面
  6
CONTINUOUS
 10
-62.596495
 20
37.573195
 11
-64.092125
 21
34.982688
  0
LINE
  8
型材断面
  6
CONTINUOUS
 10
-62.596495
 20
37.573195
 11
-61.100865
 21
34.982688
  0
LINE
  8
型材断面
  6
CONTINUOUS
 10
-61.100865
 20
34.982688
 11
-64.092125
 21
34.982688
  0
LINE
  8
型材断面
  6
CONTINUOUS
 10
-12.5965
 20
62.833455
 11
-11.10087
 21
65.423963
  0
LINE
  8
型材断面
  6
CONTINUOUS
 10
-12.5965
 20
62.833455
 11
-14.09213
 21
65.423963
  0
LINE
  8
型材断面
  6
CONTINUOUS
 10
-14.09213
 20
65.423963
 11
-11.10087
 21
65.423963
  0
LINE
  8
型材断面
  6
CONTINUOUS
 10
6.700297
 20
50.203325
 11
9.290805
 21
51.698955
  0
LINE
  8
型材断面
  6
CONTINUOUS
 10
6.700297
 20
50.203325
 11
9.290805
 21
48.707695
  0
LINE
  8
型材断面
  6
CONTINUOUS
 10
9.290805
 20
48.707695
 11
9.290805
 21
51.698955
  0
LINE
  8
型材断面
  6
CONTINUOUS
 10
-12.5965
 20
37.573195
 11
-11.10087
 21
34.982688
  0
LINE
  8
型材断面
  6
CONTINUOUS
 10
-12.5965
 20
37.573195
 11
-14.09213
 21
34.982688
  0
LINE
  8
型材断面
  6
CONTINUOUS
 10
-14.09213
 20
34.982688
 11
-11.10087
 21
34.982688
  0
LINE
  8
型材断面
  6
CONTINUOUS
 10
6.700297
 20
56.303325
 11
9.290805
 21
55.707267
  0
LINE
  8
型材断面
  6
CONTINUOUS
 10
6.700297
 20
56.303325
 11
9.290805
 21
56.899382
  0
LINE
  8
型材断面
  6
CONTINUOUS
 10
9.290805
 20
56.899382
 11
9.290805
 21
55.707267
  0
LINE
  8
型材断面
  6
CONTINUOUS
 10
6.700297
 20
44.103325
 11
9.290805
 21
44.699382
  0
LINE
  8
型材断面
  6
CONTINUOUS
 10
6.700297
 20
44.103325
 11
9.290805
 21
43.507267
  0
LINE
  8
型材断面
  6
CONTINUOUS
 10
9.290805
 20
43.507267
 11
9.290805
 21
44.699382
  0
LINE
  8
型材断面
  6
CONTINUOUS
 10
-81.893293
 20
56.303325
 11
-84.4838
 21
55.707267
  0
LINE
  8
型材断面
  6
CONTINUOUS
 10
-81.893293
 20
56.303325
 11
-84.4838
 21
56.899382
  0
LINE
  8
型材断面
  6
CONTINUOUS
 10
-84.4838
 20
56.899382
 11
-84.4838
 21
55.707267
  0
LINE
  8
型材断面
  6
CONTINUOUS
 10
-81.893293
 20
44.103325
 11
-84.4838
 21
44.699382
  0
LINE
  8
型材断面
  6
CONTINUOUS
 10
-81.893293
 20
44.103325
 11
-84.4838
 21
43.507267
  0
LINE
  8
型材断面
  6
CONTINUOUS
 10
-84.4838
 20
43.507267
 11
-84.4838
 21
44.699382
  0
LINE
  8
型材断面
  6
CONTINUOUS
 10
-126.137958
 20
80.735332
 11
-79.89618
 21
80.735332
  0
LINE
  8
型材断面
  6
CONTINUOUS
 10
-17.179832
 20
40.203325
 11
-17.179832
 21
41.036658
  0
LINE
  8
型材断面
  6
CONTINUOUS
 10
-16.346497
 20
40.203325
 11
-16.346497
 21
41.036658
  0
LINE
  8
型材断面
  6
CONTINUOUS
 10
-16.346497
 20
41.036658
 11
3.236835
 21
41.036658
  0
LINE
  8
型材断面
  6
CONTINUOUS
 10
-58.013163
 20
40.203325
 11
-58.013163
 21
41.036658
  0
LINE
  8
型材断面
  6
CONTINUOUS
 10
-58.846497
 20
40.203325
 11
-58.846497
 21
41.036658
  0
LINE
  8
型材断面
  6
CONTINUOUS
 10
-58.846497
 20
41.036658
 11
-78.42983
 21
41.036658
  0
LINE
  8
型材断面
  6
CONTINUOUS
 10
-17.179832
 20
41.036658
 11
-58.013163
 21
41.036658
  0
LINE
  8
型材断面
  6
CONTINUOUS
 10
-17.179832
 20
60.203325
 11
-17.179832
 21
59.369993
  0
LINE
  8
型材断面
  6
CONTINUOUS
 10
-16.346497
 20
60.203325
 11
-16.346497
 21
59.369993
  0
LINE
  8
型材断面
  6
CONTINUOUS
 10
-16.346497
 20
59.369993
 11
3.236835
 21
59.369993
  0
LINE
  8
型材断面
  6
CONTINUOUS
 10
-58.013163
 20
60.203325
 11
-58.013163
 21
59.369993
  0
LINE
  8
型材断面
  6
CONTINUOUS
 10
-58.846497
 20
60.203325
 11
-58.846497
 21
59.369993
  0
LINE
  8
型材断面
  6
CONTINUOUS
 10
-58.846497
 20
59.369993
 11
-78.42983
 21
59.369993
  0
LINE
  8
型材断面
  6
CONTINUOUS
 10
-17.179832
 20
59.369993
 11
-58.013163
 21
59.369993
  0
INSERT
  2
*GRP_0022
  8
型材断面
  6
DOT
 10
0.0
 20
0.0
  0
INSERT
  2
*GRP_0027
  8
型材断面
  6
CONTINUOUS
 10
0.0
 20
0.0
  0
INSERT
  2
*GRP_0028
  8
型材断面
  6
CONTINUOUS
 10
0.0
 20
0.0
  0
INSERT
  2
*GRP_0029
  8
型材断面
  6
CONTINUOUS
 10
0.0
 20
0.0
  0
INSERT
  2
*GRP_0030
  8
型材断面
  6
CONTINUOUS
 10
0.0
 20
0.0
  0
LINE
  8
型材断面
  6
CONTINUOUS
 10
128.696977
 20
-35.48352
 11
108.483338
 21
-35.48352
  0
POLYLINE
  8
ガラス
  6
CONTINUOUS
 66
     1
 70
     1
  0
VERTEX
  8
ガラス
 10
150.677112
 20
-55.151728
  0
VERTEX
  8
ガラス
 10
110.017113
 20
-55.151728
  0
VERTEX
  8
ガラス
 10
110.017113
 20
-74.48506
  0
VERTEX
  8
ガラス
 10
150.677112
 20
-74.48506
  0
SEQEND
  0
TEXT
  7
TextStyle03
  8
文字
  6
CONTINUOUS
 10
78.1
 20
125.25
  1
シリーズ：ＳＴＤＬ
 40
5.0
 72
     5
 11
128.1
 21
125.25
  0
TEXT
  7
TextStyle03
  8
文字
  6
CONTINUOUS
 10
78.1
 20
119.625
  1
　　　　　（上下可動）600×2500タイプ
 40
5.0
 72
     5
 11
181.5375
 21
119.625
  0
TEXT
  7
TextStyle03
  8
文字
  6
CONTINUOUS
 10
78.1
 20
114.0
  1
図面名　：外観姿図
 40
5.0
 72
     5
 11
128.1
 21
114.0
  0
TEXT
  7
TextStyle03
  8
文字
  6
CONTINUOUS
 10
78.1
 20
108.375
  1
　　　　　　
 40
5.0
 72
     5
 11
111.225
 21
108.375
  0
TEXT
  7
TextStyle03
  8
文字
  6
CONTINUOUS
 10
-30.65
 20
-97.625
  1
※トップライト枠高さ寸法
 40
3.0
 72
     5
 11
9.475
 21
-97.625
  0
TEXT
  7
TextStyle03
  8
文字
  6
CONTINUOUS
 10
-30.65
 20
-101.0
  1
　シングルガラス：214
 40
3.0
 72
     5
 11
4.6
 21
-101.0
  0
TEXT
  7
TextStyle03
  8
文字
  6
CONTINUOUS
 10
-30.65
 20
-104.375
  1
　ペアガラス：224
 40
3.0
 72
     5
 11
-2.15
 21
-104.375
  0
TEXT
  7
TextStyle03
  8
文字
  6
CONTINUOUS
 10
-45.8
 20
26.7
  1
可動装置側
 40
3.0
 72
     5
 11
-29.3
 21
26.7
  0
TEXT
  7
TextStyle03
  8
文字
  6
CONTINUOUS
 10
-45.8
 20
70.675
  1
可動装置側
 40
3.0
 72
     5
 11
-29.3
 21
70.675
  0
TEXT
  7
TextStyle03
  8
文字
  6
CONTINUOUS
 10
-117.3
 20
96.8
  1
はケーシング位置を示す
 40
3.0
 72
     5
 11
-80.55
 21
96.8
  0
TEXT
  7
TextStyle03
  8
文字
  6
CONTINUOUS
 10
-117.3
 20
93.425
  1
４ヶ所中1ヶ所に設定
 40
3.0
 72
     5
 11
-85.6125
 21
93.425
  0
TEXT
  7
TextStyle03
  8
文字
  6
CONTINUOUS
 10
-117.3
 20
102.325
  1
は排水穴位置を示す
 40
3.0
 72
     5
 11
-87.3
 21
102.325
  0
TEXT
  7
TextStyle03
  8
文字
  6
CONTINUOUS
 10
-100.25
 20
28.65
  1
アンカーピッチ
 40
3.0
 50
90.0
 72
     5
 11
-100.25
 21
51.9
  0
TEXT
  7
TextStyle03
  8
文字
  6
CONTINUOUS
 10
-72.6
 20
98.225
  1
アンカーピッチ
 40
3.0
 72
     5
 11
-49.35
 21
98.225
  0
TEXT
  7
TextStyle03
  8
文字
  6
CONTINUOUS
 10
-121.025
 20
87.45
  1
アンカー数量　１２ヶ所
 40
3.0
 72
     5
 11
-84.275
 21
87.45
  0
TEXT
  7
TextStyle03
  8
文字
  6
CONTINUOUS
 10
-126.025
 20
76.725
  1
※重量に依るのでご相談ください
 40
3.0
 72
     5
 11
-75.775
 21
76.725
  0
TEXT
  7
TextStyle03
  8
文字
  6
CONTINUOUS
 10
-126.025
 20
81.675
  1
アームユニット数　※２～４ヶ所
 40
3.0
 72
     5
 11
-75.775
 21
81.675
  0
TEXT
  7
TextStyle03
  8
文字
  6
CONTINUOUS
 10
110.025
 20
-34.0
  1
ガラス寸法
 40
3.0
 72
     5
 11
126.525
 21
-34.0
  0
TEXT
  7
TextStyle03
  8
文字
  6
CONTINUOUS
 10
137.975
 20
-72.825
  1
×２枚
 40
3.0
 72
     5
 11
147.725
 21
-72.825
  0
INSERT
  2
*DIM_0006
  8
寸法
  6
CONTINUOUS
 10
0.0
 20
0.0
  0
INSERT
  2
*DIM_0007
  8
寸法
  6
CONTINUOUS
 10
0.0
 20
0.0
  0
INSERT
  2
*DIM_0008
  8
寸法
  6
CONTINUOUS
 10
0.0
 20
0.0
  0
INSERT
  2
*DIM_0009
  8
寸法
  6
CONTINUOUS
 10
0.0
 20
0.0
  0
INSERT
  2
*DIM_0014
  8
寸法
  6
CONTINUOUS
 10
0.0
 20
0.0
  0
INSERT
  2
*DIM_0015
  8
寸法
  6
CONTINUOUS
 10
0.0
 20
0.0
  0
INSERT
  2
*DIM_0016
  8
寸法
  6
CONTINUOUS
 10
0.0
 20
0.0
  0
INSERT
  2
*DIM_0017
  8
寸法
  6
CONTINUOUS
 10
0.0
 20
0.0
  0
INSERT
  2
*DIM_0018
  8
寸法
  6
CONTINUOUS
 10
0.0
 20
0.0
  0
INSERT
  2
*DIM_0019
  8
寸法
  6
CONTINUOUS
 10
0.0
 20
0.0
  0
INSERT
  2
*DIM_0020
  8
寸法
  6
CONTINUOUS
 10
0.0
 20
0.0
  0
INSERT
  2
*DIM_0021
  8
寸法
  6
CONTINUOUS
 10
0.0
 20
0.0
  0
INSERT
  2
*DIM_0031
  8
寸法
  6
CONTINUOUS
 10
0.0
 20
0.0
  0
INSERT
  2
*DIM_0032
  8
寸法
  6
CONTINUOUS
 10
0.0
 20
0.0
  0
INSERT
  2
*DIM_0033
  8
寸法
  6
CONTINUOUS
 10
0.0
 20
0.0
  0
INSERT
  2
*DIM_0034
  8
寸法
  6
CONTINUOUS
 10
0.0
 20
0.0
  0
INSERT
  2
*DIM_0035
  8
寸法
  6
CONTINUOUS
 10
0.0
 20
0.0
  0
INSERT
  2
*DIM_0036
  8
寸法
  6
CONTINUOUS
 10
0.0
 20
0.0
  0
LINE
  8
曲げ物
  6
CONTINUOUS
 10
-14.447055
 20
52.128875
 11
-18.142367
 21
48.433562
  0
LINE
  8
曲げ物
  6
CONTINUOUS
 10
-15.150525
 20
50.592765
 11
-16.606255
 21
49.137035
  0
LINE
  8
曲げ物
  6
CONTINUOUS
 10
-15.983165
 20
51.425405
 11
-17.438895
 21
49.969675
  0
LINE
  8
曲げ物
  6
CONTINUOUS
 10
-56.538915
 20
52.128875
 11
-60.234227
 21
48.433562
  0
LINE
  8
曲げ物
  6
CONTINUOUS
 10
-57.242385
 20
50.592765
 11
-58.698115
 21
49.137035
  0
LINE
  8
曲げ物
  6
CONTINUOUS
 10
-58.075025
 20
51.425405
 11
-59.530755
 21
49.969675
  0
ENDSEC
  0
EOF
