  0
SECTION
  2
HEADER
  9
$EXTMIN
 10
-210.0
 20
-148.5
  9
$EXTMAX
 10
210.0
 20
148.5
  9
$PDMODE
 70
    32
  9
$PDSIZE
 40
1.5
  9
$LTSCALE
 40
10.0
  0
ENDSEC
  0
SECTION
  2
TABLES
  0
TABLE
  2
LTYPE
 70
    15
  0
LTYPE
  2
CONTINUOUS
 70
    64
  3
実線
 72
    65
 73
     0
 40
0.0
  0
LTYPE
  2
DASHED
 70
    64
  3
破線A
 72
    65
 73
     2
 40
0.6
 49
0.4
 49
-0.2
  0
LTYPE
  2
DASHEDX2
 70
    64
  3
破線B
 72
    65
 73
     2
 40
1.3
 49
0.9
 49
-0.4
  0
LTYPE
  2
DASHDOT
 70
    64
  3
１点鎖線A
 72
    65
 73
     4
 40
0.5375
 49
0.375
 49
-0.05
 49
0.0625
 49
-0.05
  0
LTYPE
  2
DASHDOTX2
 70
    64
  3
１点鎖線B
 72
    65
 73
     4
 40
1.075
 49
0.75
 49
-0.1
 49
0.125
 49
-0.1
  0
LTYPE
  2
DIVIDE2
 70
    64
  3
２点鎖線A
 72
    65
 73
     6
 40
0.5125
 49
0.3
 49
-0.0375
 49
0.05
 49
-0.0375
 49
0.05
 49
-0.0375
  0
LTYPE
  2
DIVIDE
 70
    64
  3
２点鎖線B
 72
    65
 73
     6
 40
1.05
 49
0.55
 49
-0.1
 49
0.1
 49
-0.1
 49
0.1
 49
-0.1
  0
LTYPE
  2
DOT
 70
    64
  3
点線A
 72
    65
 73
     2
 40
0.1125
 49
0.0625
 49
-0.05
  0
LTYPE
  2
DOTX2
 70
    64
  3
点線B
 72
    65
 73
     2
 40
0.275
 49
0.15
 49
-0.125
  0
LTYPE
  2
CONTINUOUS
 70
    64
  3
実線
 72
    65
 73
     0
 40
0.0
  0
LTYPE
  2
CONTINUOUS
 70
    64
  3
実線
 72
    65
 73
     0
 40
0.0
  0
LTYPE
  2
CONTINUOUS
 70
    64
  3
実線
 72
    65
 73
     0
 40
0.0
  0
LTYPE
  2
CONTINUOUS
 70
    64
  3
実線
 72
    65
 73
     0
 40
0.0
  0
LTYPE
  2
CONTINUOUS
 70
    64
  3
実線
 72
    65
 73
     0
 40
0.0
  0
LTYPE
  2
CONTINUOUS
 70
    64
  3
実線
 72
    65
 73
     0
 40
0.0
  0
ENDTAB
  0
TABLE
  2
LAYER
 70
    34
  0
LAYER
  2
通り芯
 70
     0
 62
    15
  6
CONTINUOUS
  0
LAYER
  2
補助線
 70
     0
 62
    16
  6
DOT
  0
LAYER
  2
躯体
 70
     0
 62
    31
  6
CONTINUOUS
  0
LAYER
  2
型材
 70
     0
 62
    32
  6
CONTINUOUS
  0
LAYER
  2
型材断面
 70
     0
 62
    47
  6
CONTINUOUS
  0
LAYER
  2
ガラス
 70
     0
 62
    48
  6
CONTINUOUS
  0
LAYER
  2
ゴム等
 70
     0
 62
    63
  6
CONTINUOUS
  0
LAYER
  2
ボルト／ビス
 70
     0
 62
    64
  6
CONTINUOUS
  0
LAYER
  2
文字
 70
     0
 62
    79
  6
CONTINUOUS
  0
LAYER
  2
寸法
 70
     0
 62
    80
  6
CONTINUOUS
  0
LAYER
  2
ﾊｯﾁﾝｸﾞ
 70
     0
 62
    95
  6
CONTINUOUS
  0
LAYER
  2
別途部材
 70
     0
 62
    96
  6
CONTINUOUS
  0
LAYER
  2
曲げ物
 70
     0
 62
   111
  6
CONTINUOUS
  0
LAYER
  2
鉄骨等
 70
     0
 62
   112
  6
CONTINUOUS
  0
LAYER
  2
St
 70
     0
 62
   127
  6
CONTINUOUS
  0
LAYER
  2
その他部品等
 70
     0
 62
   128
  6
CONTINUOUS
  0
LAYER
  2
ｶﾞｽｹｯﾄ
 70
     0
 62
   143
  6
CONTINUOUS
  0
LAYER
  2
ｽｹｯﾁ
 70
     0
 62
    14
  6
CONTINUOUS
  0
LAYER
  2
0
 70
     0
 62
    17
  6
CONTINUOUS
  0
LAYER
  2
1
 70
     0
 62
    30
  6
CONTINUOUS
  0
LAYER
  2
4
 70
     0
 62
    33
  6
CONTINUOUS
  0
LAYER
  2
ﾚｲﾔ3
 70
     0
 62
    46
  6
CONTINUOUS
  0
LAYER
  2
外形線
 70
     0
 62
    49
  6
CONTINUOUS
  0
LAYER
  2
部品
 70
     0
 62
    14
  6
CONTINUOUS
  0
LAYER
  2
サッシ芯
 70
     0
 62
    17
  6
DASHDOTX2
  0
LAYER
  2
寸法線
 70
     0
 62
    62
  6
CONTINUOUS
  0
LAYER
  2
姿図外形線
 70
     0
 62
    65
  6
CONTINUOUS
  0
LAYER
  2
姿補助線
 70
     0
 62
    30
  6
CONTINUOUS
  0
LAYER
  2
透視線
 70
     0
 62
    78
  6
DOT
  0
LAYER
  2
用紙
 70
     0
 62
    81
  6
CONTINUOUS
  0
LAYER
  2
実線図枠
 70
     0
 62
    94
  6
CONTINUOUS
  0
LAYER
  2
補助図枠
 70
     0
 62
    97
  6
CONTINUOUS
  0
LAYER
  2
建具記号
 70
     0
 62
   110
  6
CONTINUOUS
  0
LAYER
  2
補助文字
 70
     0
 62
   113
  6
CONTINUOUS
  0
ENDTAB
  0
TABLE
  2
STYLE
 70
    10
  0
STYLE
  2
STANDARD
 70
     0
 40
1.0
 41
1.0
 42
1.0
 50
0.0
 71
     0
  3
TXT
  4
BIGFONT
  0
STYLE
  2
TATE
 70
     4
 40
1.0
 41
1.0
 42
1.0
 50
0.0
 71
     0
  3
TXT
  4
BIGFONT
  0
STYLE
  2
TextStyle03
 70
     0
 40
1.0
 41
1.0
 42
1.0
 50
0.0
 71
     0
  3
MONOTXT
  4
BIGFONT
  0
STYLE
  2
TextStyle04
 70
     0
 40
1.0
 41
1.0
 42
1.0
 50
0.0
 71
     0
  3
MONOTXT
  4
BIGFONT
  0
STYLE
  2
TextStyle05
 70
     0
 40
1.0
 41
1.0
 42
1.0
 50
0.0
 71
     0
  3
MONOTXT
  4
BIGFONT
  0
STYLE
  2
TextStyle06
 70
     0
 40
1.0
 41
1.0
 42
1.0
 50
0.0
 71
     0
  3
MONOTXT
  4
BIGFONT
  0
STYLE
  2
TextStyle07
 70
     0
 40
1.0
 41
1.0
 42
1.0
 50
0.0
 71
     0
  3
MONOTXT
  4
BIGFONT
  0
STYLE
  2
TextStyle08
 70
     0
 40
1.0
 41
1.0
 42
1.0
 50
0.0
 71
     0
  3
MONOTXT
  4
BIGFONT
  0
STYLE
  2
TextStyle09
 70
     0
 40
1.0
 41
1.0
 42
1.0
 50
0.0
 71
     0
  3
MONOTXT
  4
BIGFONT
  0
STYLE
  2
TextStyle10
 70
     0
 40
1.0
 41
1.0
 42
1.0
 50
0.0
 71
     0
  3
MONOTXT
  4
BIGFONT
  0
ENDTAB
  0
ENDSEC
  0
SECTION
  2
BLOCKS
  0
BLOCK
  2
*GRP_0001
 70
    65
 10
0.0
 20
0.0
  0
LINE
  8
型材断面
  6
CONTINUOUS
 10
195.0
 20
133.5
 11
195.0
 21
-133.5
  0
LINE
  8
型材断面
  6
CONTINUOUS
 10
195.0
 20
-133.5
 11
-185.0
 21
-133.5
  0
LINE
  8
型材断面
  6
CONTINUOUS
 10
-185.0
 20
-133.5
 11
-185.0
 21
133.5
  0
LINE
  8
型材断面
  6
CONTINUOUS
 10
195.0
 20
133.5
 11
-185.0
 21
133.5
  0
LINE
  8
型材断面
  6
CONTINUOUS
 10
145.0
 20
-133.5
 11
145.0
 21
-118.5
  0
LINE
  8
型材断面
  6
CONTINUOUS
 10
195.0
 20
-118.5
 11
145.0
 21
-118.5
  0
ENDBLK
  0
BLOCK
  2
*GRP_0002
 70
    65
 10
0.0
 20
0.0
  0
INSERT
  2
M8横
  8
ゴム等
  6
CONTINUOUS
 10
163.336003
 20
61.029685
 50
270.0
 41
0.033333
 42
-0.033333
  0
LINE
  8
ボルト／ビス
  6
CONTINUOUS
 10
163.126005
 20
60.896352
 11
163.109338
 21
60.91302
  0
LINE
  8
ボルト／ビス
  6
CONTINUOUS
 10
163.109338
 20
61.146352
 11
163.126005
 21
61.16302
  0
LINE
  8
ボルト／ビス
  6
CONTINUOUS
 10
163.126005
 20
61.16302
 11
163.126005
 21
60.896352
  0
LINE
  8
ボルト／ビス
  6
CONTINUOUS
 10
163.109338
 20
61.146352
 11
163.109338
 21
60.91302
  0
LINE
  8
ボルト／ビス
  6
CONTINUOUS
 10
163.109338
 20
60.91302
 11
163.15267
 21
60.91302
  0
LINE
  8
ボルト／ビス
  6
CONTINUOUS
 10
163.126005
 20
60.896352
 11
163.15267
 21
60.896352
  0
LINE
  8
ボルト／ビス
  6
CONTINUOUS
 10
163.126005
 20
61.16302
 11
163.15267
 21
61.16302
  0
LINE
  8
ボルト／ビス
  6
CONTINUOUS
 10
163.109338
 20
61.146352
 11
163.15267
 21
61.146352
  0
LINE
  8
ボルト／ビス
  6
CONTINUOUS
 10
163.336003
 20
61.396352
 11
163.336003
 21
60.66302
  0
LINE
  8
ボルト／ビス
  6
CONTINUOUS
 10
163.376002
 20
60.61302
 11
163.459335
 21
60.61302
  0
LINE
  8
ボルト／ビス
  6
CONTINUOUS
 10
163.459335
 20
60.61302
 11
163.459335
 21
61.446352
  0
LINE
  8
ボルト／ビス
  6
CONTINUOUS
 10
163.459335
 20
61.446352
 11
163.376002
 21
61.446352
  0
LINE
  8
ボルト／ビス
  6
CONTINUOUS
 10
163.376002
 20
60.61302
 11
163.376002
 21
61.446352
  0
LINE
  8
ボルト／ビス
  6
CONTINUOUS
 10
163.336003
 20
61.396352
 11
163.376002
 21
61.396352
  0
LINE
  8
ボルト／ビス
  6
CONTINUOUS
 10
163.336003
 20
60.66302
 11
163.376002
 21
60.66302
  0
LINE
  8
ボルト／ビス
  6
CONTINUOUS
 10
163.386002
 20
61.029685
 11
163.336003
 21
61.029685
  0
ENDBLK
  0
BLOCK
  2
*GRP_0003
 70
    65
 10
0.0
 20
0.0
  0
LINE
  8
ボルト／ビス
  6
CONTINUOUS
 10
162.47617
 20
61.236355
 11
162.409503
 21
61.236355
  0
LINE
  8
ボルト／ビス
  6
CONTINUOUS
 10
162.409503
 20
61.236355
 11
162.409503
 21
60.50302
  0
LINE
  8
ボルト／ビス
  6
CONTINUOUS
 10
162.409503
 20
60.50302
 11
162.47617
 21
60.50302
  0
LINE
  8
ボルト／ビス
  6
CONTINUOUS
 10
162.47617
 20
61.236355
 11
162.47617
 21
60.50302
  0
LINE
  8
ボルト／ビス
  6
CONTINUOUS
 10
162.37617
 20
61.169687
 11
162.409503
 21
61.169687
  0
LINE
  8
ボルト／ビス
  6
CONTINUOUS
 10
162.37617
 20
61.169687
 11
162.37617
 21
60.569687
  0
LINE
  8
ボルト／ビス
  6
CONTINUOUS
 10
162.37617
 20
60.569687
 11
162.409503
 21
60.569687
  0
LINE
  8
ボルト／ビス
  6
CONTINUOUS
 62
    64
 10
162.17617
 20
61.030062
 11
162.187845
 21
61.062138
  0
ARC
  8
ボルト／ビス
  6
CONTINUOUS
 62
    64
 10
162.281149
 20
61.014031
 40
0.104978
 50
180.0
 51
207.278033
  0
ARC
  8
ボルト／ビス
  6
CONTINUOUS
 62
    64
 10
162.578573
 20
60.869693
 40
0.402402
 50
166.165015
 51
193.834998
  0
LINE
  8
ボルト／ビス
  6
CONTINUOUS
 62
    64
 10
162.17617
 20
60.709312
 11
162.187845
 21
60.677238
  0
ARC
  8
ボルト／ビス
  6
CONTINUOUS
 62
    64
 10
162.281149
 20
60.725355
 40
0.104978
 50
152.721967
 51
180.0
  0
LINE
  8
ボルト／ビス
  6
CONTINUOUS
 62
    64
 10
162.17617
 20
61.030062
 11
162.17617
 21
60.709312
  0
LINE
  8
ボルト／ビス
  6
CONTINUOUS
 62
    64
 10
162.187845
 20
60.677238
 11
162.309503
 21
60.677238
  0
LINE
  8
ボルト／ビス
  6
CONTINUOUS
 62
    64
 10
162.187845
 20
60.773462
 11
162.309503
 21
60.773462
  0
LINE
  8
ボルト／ビス
  6
CONTINUOUS
 62
    64
 10
162.187845
 20
61.062138
 11
162.309503
 21
61.062138
  0
LINE
  8
ボルト／ビス
  6
CONTINUOUS
 62
    64
 10
162.187845
 20
60.965913
 11
162.309503
 21
60.965913
  0
LINE
  8
ボルト／ビス
  6
CONTINUOUS
 10
162.309503
 20
61.062138
 11
162.309503
 21
60.677238
  0
LINE
  8
ボルト／ビス
  6
CONTINUOUS
 10
162.309503
 20
61.069687
 11
162.37617
 21
61.069687
  0
LINE
  8
ボルト／ビス
  6
CONTINUOUS
 10
162.309503
 20
61.069687
 11
162.309503
 21
60.669687
  0
LINE
  8
ボルト／ビス
  6
CONTINUOUS
 10
162.309503
 20
60.669687
 11
162.37617
 21
60.669687
  0
ENDBLK
  0
BLOCK
  2
*GRP_0004
 70
    65
 10
0.0
 20
0.0
  0
INSERT
  2
M8横
  8
ゴム等
  6
CONTINUOUS
 10
163.336003
 20
39.376965
 50
90.0
 41
0.033333
 42
0.033333
  0
LINE
  8
ボルト／ビス
  6
CONTINUOUS
 10
163.126005
 20
39.5103
 11
163.109338
 21
39.493633
  0
LINE
  8
ボルト／ビス
  6
CONTINUOUS
 10
163.109338
 20
39.2603
 11
163.126005
 21
39.243633
  0
LINE
  8
ボルト／ビス
  6
CONTINUOUS
 10
163.126005
 20
39.243633
 11
163.126005
 21
39.5103
  0
LINE
  8
ボルト／ビス
  6
CONTINUOUS
 10
163.109338
 20
39.2603
 11
163.109338
 21
39.493633
  0
LINE
  8
ボルト／ビス
  6
CONTINUOUS
 10
163.109338
 20
39.493633
 11
163.15267
 21
39.493633
  0
LINE
  8
ボルト／ビス
  6
CONTINUOUS
 10
163.126005
 20
39.5103
 11
163.15267
 21
39.5103
  0
LINE
  8
ボルト／ビス
  6
CONTINUOUS
 10
163.126005
 20
39.243633
 11
163.15267
 21
39.243633
  0
LINE
  8
ボルト／ビス
  6
CONTINUOUS
 10
163.109338
 20
39.2603
 11
163.15267
 21
39.2603
  0
LINE
  8
ボルト／ビス
  6
CONTINUOUS
 10
163.336003
 20
39.0103
 11
163.336003
 21
39.743633
  0
LINE
  8
ボルト／ビス
  6
CONTINUOUS
 10
163.376002
 20
39.793633
 11
163.459335
 21
39.793633
  0
LINE
  8
ボルト／ビス
  6
CONTINUOUS
 10
163.459335
 20
39.793633
 11
163.459335
 21
38.9603
  0
LINE
  8
ボルト／ビス
  6
CONTINUOUS
 10
163.459335
 20
38.9603
 11
163.376002
 21
38.9603
  0
LINE
  8
ボルト／ビス
  6
CONTINUOUS
 10
163.376002
 20
39.793633
 11
163.376002
 21
38.9603
  0
LINE
  8
ボルト／ビス
  6
CONTINUOUS
 10
163.336003
 20
39.0103
 11
163.376002
 21
39.0103
  0
LINE
  8
ボルト／ビス
  6
CONTINUOUS
 10
163.336003
 20
39.743633
 11
163.376002
 21
39.743633
  0
LINE
  8
ボルト／ビス
  6
CONTINUOUS
 10
163.386002
 20
39.376965
 11
163.336003
 21
39.376965
  0
ENDBLK
  0
BLOCK
  2
*GRP_0005
 70
    65
 10
0.0
 20
0.0
  0
LINE
  8
ボルト／ビス
  6
CONTINUOUS
 10
162.47617
 20
39.170298
 11
162.409503
 21
39.170298
  0
LINE
  8
ボルト／ビス
  6
CONTINUOUS
 10
162.409503
 20
39.170298
 11
162.409503
 21
39.90363
  0
LINE
  8
ボルト／ビス
  6
CONTINUOUS
 10
162.409503
 20
39.90363
 11
162.47617
 21
39.90363
  0
LINE
  8
ボルト／ビス
  6
CONTINUOUS
 10
162.47617
 20
39.170298
 11
162.47617
 21
39.90363
  0
LINE
  8
ボルト／ビス
  6
CONTINUOUS
 10
162.37617
 20
39.236965
 11
162.409503
 21
39.236965
  0
LINE
  8
ボルト／ビス
  6
CONTINUOUS
 10
162.37617
 20
39.236965
 11
162.37617
 21
39.836965
  0
LINE
  8
ボルト／ビス
  6
CONTINUOUS
 10
162.37617
 20
39.836965
 11
162.409503
 21
39.836965
  0
LINE
  8
ボルト／ビス
  6
CONTINUOUS
 62
    64
 10
162.17617
 20
39.37659
 11
162.187845
 21
39.344515
  0
ARC
  8
ボルト／ビス
  6
CONTINUOUS
 62
    64
 10
162.281149
 20
39.392632
 40
0.104978
 50
152.721967
 51
180.0
  0
ARC
  8
ボルト／ビス
  6
CONTINUOUS
 62
    64
 10
162.578573
 20
39.536969
 40
0.402402
 50
166.165002
 51
193.834985
  0
LINE
  8
ボルト／ビス
  6
CONTINUOUS
 62
    64
 10
162.17617
 20
39.69734
 11
162.187845
 21
39.729415
  0
ARC
  8
ボルト／ビス
  6
CONTINUOUS
 62
    64
 10
162.281149
 20
39.681307
 40
0.104978
 50
180.0
 51
207.278033
  0
LINE
  8
ボルト／ビス
  6
CONTINUOUS
 62
    64
 10
162.17617
 20
39.37659
 11
162.17617
 21
39.69734
  0
LINE
  8
ボルト／ビス
  6
CONTINUOUS
 62
    64
 10
162.187845
 20
39.729415
 11
162.309503
 21
39.729415
  0
LINE
  8
ボルト／ビス
  6
CONTINUOUS
 62
    64
 10
162.187845
 20
39.63319
 11
162.309503
 21
39.63319
  0
LINE
  8
ボルト／ビス
  6
CONTINUOUS
 62
    64
 10
162.187845
 20
39.344515
 11
162.309503
 21
39.344515
  0
LINE
  8
ボルト／ビス
  6
CONTINUOUS
 62
    64
 10
162.187845
 20
39.44074
 11
162.309503
 21
39.44074
  0
LINE
  8
ボルト／ビス
  6
CONTINUOUS
 10
162.309503
 20
39.344515
 11
162.309503
 21
39.729415
  0
LINE
  8
ボルト／ビス
  6
CONTINUOUS
 10
162.309503
 20
39.336965
 11
162.37617
 21
39.336965
  0
LINE
  8
ボルト／ビス
  6
CONTINUOUS
 10
162.309503
 20
39.336965
 11
162.309503
 21
39.736965
  0
LINE
  8
ボルト／ビス
  6
CONTINUOUS
 10
162.309503
 20
39.736965
 11
162.37617
 21
39.736965
  0
ENDBLK
  0
BLOCK
  2
*DIM_0006
 70
    65
 10
0.0
 20
0.0
  0
LINE
  8
寸法
  6
CONTINUOUS
 10
161.248695
 20
62.48302
 11
142.14273
 21
62.48302
  0
LINE
  8
寸法
  6
CONTINUOUS
 10
142.14273
 20
60.203325
 11
142.14273
 21
62.48302
  0
POINT
  8
寸法
 10
142.14273
 20
60.203325
 50
-90.0
  0
POINT
  8
寸法
 10
142.14273
 20
62.48302
 50
-90.0
  0
TEXT
  7
TextStyle03
  8
寸法
  6
CONTINUOUS
 10
141.775
 20
64.76875
  1
68.4
 40
3.0
 50
90.0
 72
     5
 11
141.775
 21
71.33125
  0
ENDBLK
  0
BLOCK
  2
*DIM_0007
 70
    65
 10
0.0
 20
0.0
  0
LINE
  8
寸法
  6
CONTINUOUS
 10
161.248695
 20
37.92363
 11
142.14273
 21
37.92363
  0
LINE
  8
寸法
  6
CONTINUOUS
 10
142.14273
 20
40.203325
 11
142.14273
 21
37.92363
  0
POINT
  8
寸法
 10
142.14273
 20
40.203325
 50
-90.0
  0
POINT
  8
寸法
 10
142.14273
 20
37.92363
 50
-90.0
  0
TEXT
  7
TextStyle03
  8
寸法
  6
CONTINUOUS
 10
141.775
 20
28.99375
  1
68.4
 40
3.0
 50
90.0
 72
     5
 11
141.775
 21
35.55625
  0
ENDBLK
  0
BLOCK
  2
*DIM_0008
 70
    65
 10
0.0
 20
0.0
  0
LINE
  8
寸法
  6
CONTINUOUS
 10
142.14273
 20
60.203325
 11
142.14273
 21
40.203325
  0
POINT
  8
寸法
 10
142.14273
 20
60.203325
 50
-90.0
  0
POINT
  8
寸法
 10
142.14273
 20
40.203325
 50
-90.0
  0
TEXT
  7
TextStyle03
  8
寸法
  6
CONTINUOUS
 10
141.775
 20
39.3
  1
呼称寸法　600
 40
3.0
 50
90.0
 72
     5
 11
141.775
 21
61.05
  0
ENDBLK
  0
BLOCK
  2
*DIM_0009
 70
    65
 10
0.0
 20
0.0
  0
LINE
  8
寸法
  6
CONTINUOUS
 10
169.209335
 20
33.236965
 11
169.209335
 21
25.327945
  0
LINE
  8
寸法
  6
CONTINUOUS
 10
161.742835
 20
35.203325
 11
161.742835
 21
25.327945
  0
LINE
  8
寸法
  6
CONTINUOUS
 10
169.209335
 20
25.327945
 11
161.742835
 21
25.327945
  0
POINT
  8
寸法
 10
169.209335
 20
25.327945
  0
POINT
  8
寸法
 10
161.742835
 20
25.327945
  0
TEXT
  7
TextStyle03
  8
寸法
  6
CONTINUOUS
 10
163.0375
 20
25.7
  1
224
 40
3.0
 72
     5
 11
167.9125
 21
25.7
  0
ENDBLK
  0
BLOCK
  2
*GRP_0010
 70
    65
 10
0.0
 20
0.0
  0
INSERT
  2
M8横
  8
ゴム等
  6
CONTINUOUS
 10
21.563192
 20
-70.297288
 50
180.0
 41
0.033333
 42
-0.033333
  0
LINE
  8
ボルト／ビス
  6
CONTINUOUS
 10
21.42986
 20
-70.087288
 11
21.446525
 21
-70.070622
  0
LINE
  8
ボルト／ビス
  6
CONTINUOUS
 10
21.67986
 20
-70.070622
 11
21.696525
 21
-70.087288
  0
LINE
  8
ボルト／ビス
  6
CONTINUOUS
 10
21.696525
 20
-70.087288
 11
21.42986
 21
-70.087288
  0
LINE
  8
ボルト／ビス
  6
CONTINUOUS
 10
21.67986
 20
-70.070622
 11
21.446525
 21
-70.070622
  0
LINE
  8
ボルト／ビス
  6
CONTINUOUS
 10
21.446525
 20
-70.070622
 11
21.446525
 21
-70.113952
  0
LINE
  8
ボルト／ビス
  6
CONTINUOUS
 10
21.42986
 20
-70.087288
 11
21.42986
 21
-70.113952
  0
LINE
  8
ボルト／ビス
  6
CONTINUOUS
 10
21.696525
 20
-70.087288
 11
21.696525
 21
-70.113952
  0
LINE
  8
ボルト／ビス
  6
CONTINUOUS
 10
21.67986
 20
-70.070622
 11
21.67986
 21
-70.113952
  0
LINE
  8
ボルト／ビス
  6
CONTINUOUS
 10
21.92986
 20
-70.297288
 11
21.196525
 21
-70.297288
  0
LINE
  8
ボルト／ビス
  6
CONTINUOUS
 10
21.146525
 20
-70.337288
 11
21.146525
 21
-70.42062
  0
LINE
  8
ボルト／ビス
  6
CONTINUOUS
 10
21.146525
 20
-70.42062
 11
21.97986
 21
-70.42062
  0
LINE
  8
ボルト／ビス
  6
CONTINUOUS
 10
21.97986
 20
-70.42062
 11
21.97986
 21
-70.337288
  0
LINE
  8
ボルト／ビス
  6
CONTINUOUS
 10
21.146525
 20
-70.337288
 11
21.97986
 21
-70.337288
  0
LINE
  8
ボルト／ビス
  6
CONTINUOUS
 10
21.92986
 20
-70.297288
 11
21.92986
 21
-70.337288
  0
LINE
  8
ボルト／ビス
  6
CONTINUOUS
 10
21.196525
 20
-70.297288
 11
21.196525
 21
-70.337288
  0
LINE
  8
ボルト／ビス
  6
CONTINUOUS
 10
21.563192
 20
-70.347288
 11
21.563192
 21
-70.297288
  0
ENDBLK
  0
BLOCK
  2
*GRP_0011
 70
    65
 10
0.0
 20
0.0
  0
LINE
  8
ボルト／ビス
  6
CONTINUOUS
 10
21.76986
 20
-69.437453
 11
21.76986
 21
-69.370788
  0
LINE
  8
ボルト／ビス
  6
CONTINUOUS
 10
21.76986
 20
-69.370788
 11
21.036528
 21
-69.370788
  0
LINE
  8
ボルト／ビス
  6
CONTINUOUS
 10
21.036528
 20
-69.370788
 11
21.036528
 21
-69.437453
  0
LINE
  8
ボルト／ビス
  6
CONTINUOUS
 10
21.76986
 20
-69.437453
 11
21.036528
 21
-69.437453
  0
LINE
  8
ボルト／ビス
  6
CONTINUOUS
 10
21.703195
 20
-69.337453
 11
21.703195
 21
-69.370788
  0
LINE
  8
ボルト／ビス
  6
CONTINUOUS
 10
21.703195
 20
-69.337453
 11
21.103195
 21
-69.337453
  0
LINE
  8
ボルト／ビス
  6
CONTINUOUS
 10
21.103195
 20
-69.337453
 11
21.103195
 21
-69.370788
  0
LINE
  8
ボルト／ビス
  6
CONTINUOUS
 62
    64
 10
21.56357
 20
-69.137453
 11
21.595645
 21
-69.149128
  0
ARC
  8
ボルト／ビス
  6
CONTINUOUS
 62
    64
 10
21.547531
 20
-69.242431
 40
0.104978
 50
90.0
 51
117.278033
  0
ARC
  8
ボルト／ビス
  6
CONTINUOUS
 62
    64
 10
21.403194
 20
-69.539855
 40
0.402402
 50
76.165015
 51
103.834998
  0
LINE
  8
ボルト／ビス
  6
CONTINUOUS
 62
    64
 10
21.24282
 20
-69.137453
 11
21.210745
 21
-69.149128
  0
ARC
  8
ボルト／ビス
  6
CONTINUOUS
 62
    64
 10
21.258856
 20
-69.242431
 40
0.104978
 50
62.721967
 51
90.0
  0
LINE
  8
ボルト／ビス
  6
CONTINUOUS
 62
    64
 10
21.56357
 20
-69.137453
 11
21.24282
 21
-69.137453
  0
LINE
  8
ボルト／ビス
  6
CONTINUOUS
 62
    64
 10
21.210745
 20
-69.149128
 11
21.210745
 21
-69.270788
  0
LINE
  8
ボルト／ビス
  6
CONTINUOUS
 62
    64
 10
21.30697
 20
-69.149128
 11
21.30697
 21
-69.270788
  0
LINE
  8
ボルト／ビス
  6
CONTINUOUS
 62
    64
 10
21.595645
 20
-69.149128
 11
21.595645
 21
-69.270788
  0
LINE
  8
ボルト／ビス
  6
CONTINUOUS
 62
    64
 10
21.49942
 20
-69.149128
 11
21.49942
 21
-69.270788
  0
LINE
  8
ボルト／ビス
  6
CONTINUOUS
 10
21.595645
 20
-69.270788
 11
21.210745
 21
-69.270788
  0
LINE
  8
ボルト／ビス
  6
CONTINUOUS
 10
21.603195
 20
-69.270788
 11
21.603195
 21
-69.337453
  0
LINE
  8
ボルト／ビス
  6
CONTINUOUS
 10
21.603195
 20
-69.270788
 11
21.203195
 21
-69.270788
  0
LINE
  8
ボルト／ビス
  6
CONTINUOUS
 10
21.203195
 20
-69.270788
 11
21.203195
 21
-69.337453
  0
ENDBLK
  0
BLOCK
  2
*DIM_0012
 70
    65
 10
0.0
 20
0.0
  0
LINE
  8
寸法
  6
CONTINUOUS
 10
25.736832
 20
-68.70412
 11
44.355305
 21
-68.70412
  0
LINE
  8
寸法
  6
CONTINUOUS
 10
27.703195
 20
-76.17062
 11
44.355305
 21
-76.17062
  0
LINE
  8
寸法
  6
CONTINUOUS
 10
44.355305
 20
-68.70412
 11
44.355305
 21
-76.17062
  0
POINT
  8
寸法
 10
44.355305
 20
-68.70412
  0
POINT
  8
寸法
 10
44.355305
 20
-76.17062
  0
TEXT
  7
TextStyle03
  8
寸法
  6
CONTINUOUS
 10
43.975
 20
-74.8875
  1
224
 40
3.0
 50
90.0
 72
     5
 11
43.975
 21
-70.0125
  0
ENDBLK
  0
BLOCK
  2
*GRP_0013
 70
    65
 10
0.0
 20
0.0
  0
INSERT
  2
M8横
  8
ゴム等
  6
CONTINUOUS
 10
-96.756188
 20
-70.297288
 41
0.033333
 42
0.033333
  0
LINE
  8
ボルト／ビス
  6
CONTINUOUS
 10
-96.622855
 20
-70.087288
 11
-96.63952
 21
-70.070622
  0
LINE
  8
ボルト／ビス
  6
CONTINUOUS
 10
-96.872855
 20
-70.070622
 11
-96.88952
 21
-70.087288
  0
LINE
  8
ボルト／ビス
  6
CONTINUOUS
 10
-96.88952
 20
-70.087288
 11
-96.622855
 21
-70.087288
  0
LINE
  8
ボルト／ビス
  6
CONTINUOUS
 10
-96.872855
 20
-70.070622
 11
-96.63952
 21
-70.070622
  0
LINE
  8
ボルト／ビス
  6
CONTINUOUS
 10
-96.63952
 20
-70.070622
 11
-96.63952
 21
-70.113952
  0
LINE
  8
ボルト／ビス
  6
CONTINUOUS
 10
-96.622855
 20
-70.087288
 11
-96.622855
 21
-70.113952
  0
LINE
  8
ボルト／ビス
  6
CONTINUOUS
 10
-96.88952
 20
-70.087288
 11
-96.88952
 21
-70.113952
  0
LINE
  8
ボルト／ビス
  6
CONTINUOUS
 10
-96.872855
 20
-70.070622
 11
-96.872855
 21
-70.113952
  0
LINE
  8
ボルト／ビス
  6
CONTINUOUS
 10
-97.122855
 20
-70.297288
 11
-96.38952
 21
-70.297288
  0
LINE
  8
ボルト／ビス
  6
CONTINUOUS
 10
-96.33952
 20
-70.337288
 11
-96.33952
 21
-70.42062
  0
LINE
  8
ボルト／ビス
  6
CONTINUOUS
 10
-96.33952
 20
-70.42062
 11
-97.172855
 21
-70.42062
  0
LINE
  8
ボルト／ビス
  6
CONTINUOUS
 10
-97.172855
 20
-70.42062
 11
-97.172855
 21
-70.337288
  0
LINE
  8
ボルト／ビス
  6
CONTINUOUS
 10
-96.33952
 20
-70.337288
 11
-97.172855
 21
-70.337288
  0
LINE
  8
ボルト／ビス
  6
CONTINUOUS
 10
-97.122855
 20
-70.297288
 11
-97.122855
 21
-70.337288
  0
LINE
  8
ボルト／ビス
  6
CONTINUOUS
 10
-96.38952
 20
-70.297288
 11
-96.38952
 21
-70.337288
  0
LINE
  8
ボルト／ビス
  6
CONTINUOUS
 10
-96.756188
 20
-70.347288
 11
-96.756188
 21
-70.297288
  0
ENDBLK
  0
BLOCK
  2
*GRP_0014
 70
    65
 10
0.0
 20
0.0
  0
LINE
  8
ボルト／ビス
  6
CONTINUOUS
 10
-96.962855
 20
-69.437453
 11
-96.962855
 21
-69.370788
  0
LINE
  8
ボルト／ビス
  6
CONTINUOUS
 10
-96.962855
 20
-69.370788
 11
-96.229522
 21
-69.370788
  0
LINE
  8
ボルト／ビス
  6
CONTINUOUS
 10
-96.229522
 20
-69.370788
 11
-96.229522
 21
-69.437453
  0
LINE
  8
ボルト／ビス
  6
CONTINUOUS
 10
-96.962855
 20
-69.437453
 11
-96.229522
 21
-69.437453
  0
LINE
  8
ボルト／ビス
  6
CONTINUOUS
 10
-96.89619
 20
-69.337453
 11
-96.89619
 21
-69.370788
  0
LINE
  8
ボルト／ビス
  6
CONTINUOUS
 10
-96.89619
 20
-69.337453
 11
-96.29619
 21
-69.337453
  0
LINE
  8
ボルト／ビス
  6
CONTINUOUS
 10
-96.29619
 20
-69.337453
 11
-96.29619
 21
-69.370788
  0
LINE
  8
ボルト／ビス
  6
CONTINUOUS
 62
    64
 10
-96.756565
 20
-69.137453
 11
-96.78864
 21
-69.149128
  0
ARC
  8
ボルト／ビス
  6
CONTINUOUS
 62
    64
 10
-96.740528
 20
-69.242431
 40
0.104978
 50
62.721967
 51
90.0
  0
ARC
  8
ボルト／ビス
  6
CONTINUOUS
 62
    64
 10
-96.59619
 20
-69.539855
 40
0.402402
 50
76.165002
 51
103.834985
  0
LINE
  8
ボルト／ビス
  6
CONTINUOUS
 62
    64
 10
-96.435815
 20
-69.137453
 11
-96.40374
 21
-69.149128
  0
ARC
  8
ボルト／ビス
  6
CONTINUOUS
 62
    64
 10
-96.451853
 20
-69.242431
 40
0.104978
 50
90.0
 51
117.278033
  0
LINE
  8
ボルト／ビス
  6
CONTINUOUS
 62
    64
 10
-96.756565
 20
-69.137453
 11
-96.435815
 21
-69.137453
  0
LINE
  8
ボルト／ビス
  6
CONTINUOUS
 62
    64
 10
-96.40374
 20
-69.149128
 11
-96.40374
 21
-69.270788
  0
LINE
  8
ボルト／ビス
  6
CONTINUOUS
 62
    64
 10
-96.499965
 20
-69.149128
 11
-96.499965
 21
-69.270788
  0
LINE
  8
ボルト／ビス
  6
CONTINUOUS
 62
    64
 10
-96.78864
 20
-69.149128
 11
-96.78864
 21
-69.270788
  0
LINE
  8
ボルト／ビス
  6
CONTINUOUS
 62
    64
 10
-96.692415
 20
-69.149128
 11
-96.692415
 21
-69.270788
  0
LINE
  8
ボルト／ビス
  6
CONTINUOUS
 10
-96.78864
 20
-69.270788
 11
-96.40374
 21
-69.270788
  0
LINE
  8
ボルト／ビス
  6
CONTINUOUS
 10
-96.79619
 20
-69.270788
 11
-96.79619
 21
-69.337453
  0
LINE
  8
ボルト／ビス
  6
CONTINUOUS
 10
-96.79619
 20
-69.270788
 11
-96.39619
 21
-69.270788
  0
LINE
  8
ボルト／ビス
  6
CONTINUOUS
 10
-96.39619
 20
-69.270788
 11
-96.39619
 21
-69.337453
  0
ENDBLK
  0
BLOCK
  2
*DIM_0015
 70
    65
 10
0.0
 20
0.0
  0
LINE
  8
寸法
  6
BYBLOCK
 62
     0
 10
-79.263165
 20
36.573195
 11
-79.263165
 21
31.431397
  0
LINE
  8
寸法
  6
BYBLOCK
 62
     0
 10
4.07017
 20
36.573195
 11
4.07017
 21
31.431397
  0
LINE
  8
寸法
  6
BYBLOCK
 62
     0
 10
-79.263165
 20
31.431397
 11
4.07017
 21
31.431397
  0
POINT
  8
寸法
 62
     0
 10
-79.263165
 20
31.431397
  0
POINT
  8
寸法
 62
     0
 10
4.07017
 20
31.431397
  0
TEXT
  7
TextStyle03
  8
寸法
  6
CONTINUOUS
 62
     0
 10
-40.88125
 20
31.775
  1
2500
 40
3.0
 72
     5
 11
-34.31875
 21
31.775
  0
ENDBLK
  0
BLOCK
  2
*DIM_0016
 70
    65
 10
0.0
 20
0.0
  0
LINE
  8
寸法
  6
BYBLOCK
 62
     0
 10
24.366963
 20
56.303325
 11
31.144255
 21
56.303325
  0
LINE
  8
寸法
  6
BYBLOCK
 62
     0
 10
31.144255
 20
60.203325
 11
31.144255
 21
56.303325
  0
POINT
  8
寸法
 62
     0
 10
31.144255
 20
60.203325
  0
POINT
  8
寸法
 62
     0
 10
31.144255
 20
56.303325
  0
TEXT
  7
TextStyle03
  8
寸法
  6
CONTINUOUS
 62
     0
 10
30.9
 20
60.8625
  1
117
 40
3.0
 50
90.0
 72
     5
 11
30.9
 21
65.7375
  0
ENDBLK
  0
BLOCK
  2
*DIM_0017
 70
    65
 10
0.0
 20
0.0
  0
LINE
  8
寸法
  6
BYBLOCK
 62
     0
 10
24.366963
 20
44.103325
 11
31.144255
 21
44.103325
  0
LINE
  8
寸法
  6
BYBLOCK
 62
     0
 10
31.144255
 20
40.203325
 11
31.144255
 21
44.103325
  0
POINT
  8
寸法
 62
     0
 10
31.144255
 20
40.203325
  0
POINT
  8
寸法
 62
     0
 10
31.144255
 20
44.103325
  0
TEXT
  7
TextStyle03
  8
寸法
  6
CONTINUOUS
 62
     0
 10
31.075
 20
34.3875
  1
117
 40
3.0
 50
90.0
 72
     5
 11
31.075
 21
39.2625
  0
ENDBLK
  0
BLOCK
  2
*DIM_0018
 70
    65
 10
0.0
 20
0.0
  0
LINE
  8
寸法
  6
BYBLOCK
 62
     0
 10
-98.929832
 20
56.869993
 11
-112.22267
 21
56.869993
  0
LINE
  8
寸法
  6
BYBLOCK
 62
     0
 10
-98.929832
 20
43.536658
 11
-112.22267
 21
43.536658
  0
LINE
  8
寸法
  6
BYBLOCK
 62
     0
 10
-112.22267
 20
56.869993
 11
-112.22267
 21
43.536658
  0
POINT
  8
寸法
 62
     0
 10
-112.22267
 20
56.869993
  0
POINT
  8
寸法
 62
     0
 10
-112.22267
 20
43.536658
  0
TEXT
  7
TextStyle03
  8
寸法
  6
CONTINUOUS
 62
     0
 10
-112.575
 20
47.7375
  1
400
 40
3.0
 50
90.0
 72
     5
 11
-112.575
 21
52.6125
  0
ENDBLK
  0
BLOCK
  2
*DIM_0019
 70
    65
 10
0.0
 20
0.0
  0
LINE
  8
寸法
  6
BYBLOCK
 62
     0
 10
-90.92983
 20
63.203325
 11
-90.92983
 21
92.311398
  0
LINE
  8
寸法
  6
BYBLOCK
 62
     0
 10
-64.263165
 20
63.203325
 11
-64.263165
 21
92.311398
  0
LINE
  8
寸法
  6
BYBLOCK
 62
     0
 10
-90.92983
 20
92.311398
 11
-64.263165
 21
92.311398
  0
POINT
  8
寸法
 62
     0
 10
-90.92983
 20
92.311398
  0
POINT
  8
寸法
 62
     0
 10
-64.263165
 20
92.311398
  0
TEXT
  7
TextStyle03
  8
寸法
  6
CONTINUOUS
 62
     0
 10
-80.0375
 20
92.675
  1
800
 40
3.0
 72
     5
 11
-75.1625
 21
92.675
  0
ENDBLK
  0
BLOCK
  2
*DIM_0020
 70
    65
 10
0.0
 20
0.0
  0
LINE
  8
寸法
  6
BYBLOCK
 62
     0
 10
-37.596497
 20
63.203325
 11
-37.596497
 21
92.311398
  0
LINE
  8
寸法
  6
BYBLOCK
 62
     0
 10
-64.263165
 20
92.311398
 11
-37.596497
 21
92.311398
  0
POINT
  8
寸法
 62
     0
 10
-37.596497
 20
92.311398
  0
TEXT
  7
TextStyle03
  8
寸法
  6
CONTINUOUS
 62
     0
 10
-53.3875
 20
92.675
  1
800
 40
3.0
 72
     5
 11
-48.5125
 21
92.675
  0
ENDBLK
  0
BLOCK
  2
*DIM_0021
 70
    65
 10
0.0
 20
0.0
  0
LINE
  8
寸法
  6
BYBLOCK
 62
     0
 10
-10.92983
 20
63.203325
 11
-10.92983
 21
92.311398
  0
LINE
  8
寸法
  6
BYBLOCK
 62
     0
 10
-37.596497
 20
92.311398
 11
-10.92983
 21
92.311398
  0
POINT
  8
寸法
 62
     0
 10
-10.92983
 20
92.311398
  0
TEXT
  7
TextStyle03
  8
寸法
  6
CONTINUOUS
 62
     0
 10
-26.7125
 20
92.675
  1
800
 40
3.0
 72
     5
 11
-21.8375
 21
92.675
  0
ENDBLK
  0
BLOCK
  2
*DIM_0022
 70
    65
 10
0.0
 20
0.0
  0
LINE
  8
寸法
  6
BYBLOCK
 62
     0
 10
15.736835
 20
63.203325
 11
15.736835
 21
92.311398
  0
LINE
  8
寸法
  6
BYBLOCK
 62
     0
 10
-10.92983
 20
92.311398
 11
15.736835
 21
92.311398
  0
POINT
  8
寸法
 62
     0
 10
15.736835
 20
92.311398
  0
TEXT
  7
TextStyle03
  8
寸法
  6
CONTINUOUS
 62
     0
 10
-0.0375
 20
92.675
  1
800
 40
3.0
 72
     5
 11
4.8375
 21
92.675
  0
ENDBLK
  0
BLOCK
  2
*GRP_0023
 70
    65
 10
0.0
 20
0.0
  0
LINE
  8
型材断面
  6
DOT
 10
22.4035
 20
-62.60412
 11
22.3535
 21
-62.60412
  0
LINE
  8
型材断面
  6
DOT
 10
20.736832
 20
-62.10412
 11
20.736832
 21
-61.370788
  0
LINE
  8
型材断面
  6
DOT
 10
20.786528
 20
-63.087288
 11
22.233195
 21
-63.087288
  0
LINE
  8
型材断面
  6
DOT
 10
22.233195
 20
-63.537288
 11
22.233195
 21
-63.087288
  0
LINE
  8
型材断面
  6
DOT
 62
    47
 10
22.966527
 20
-66.20998
 11
23.016527
 21
-66.20998
  0
LINE
  8
型材断面
  6
DOT
 62
    47
 10
23.016527
 20
-66.20998
 11
23.016527
 21
-65.876645
  0
LINE
  8
型材断面
  6
DOT
 62
    47
 10
23.016527
 20
-65.876645
 11
22.233195
 21
-65.776645
  0
LINE
  8
型材断面
  6
DOT
 62
    47
 10
22.233195
 20
-65.37062
 11
22.233195
 21
-65.776645
  0
LINE
  8
型材断面
  6
DOT
 62
    47
 10
22.703195
 20
-65.37062
 11
22.703195
 21
-63.537288
  0
LINE
  8
型材断面
  6
DOT
 10
22.4035
 20
-62.60412
 11
22.4035
 21
-62.10412
  0
LINE
  8
型材断面
  6
DOT
 10
20.786528
 20
-63.087288
 11
20.786528
 21
-62.60412
  0
INSERT
  2
*GRP_0024
  8
型材断面
  6
DOT
 10
0.0
 20
0.0
  0
INSERT
  2
*GRP_0025
  8
型材断面
  6
DOT
 10
0.0
 20
0.0
  0
LINE
  8
型材断面
  6
DOT
 10
23.016527
 20
-66.20998
 11
-37.596497
 21
-66.20998
  0
LINE
  8
型材断面
  6
DOT
 10
23.016527
 20
-65.876645
 11
-37.596497
 21
-65.876645
  0
LINE
  8
型材断面
  6
DOT
 10
22.233195
 20
-65.776645
 11
-37.596497
 21
-65.776645
  0
LINE
  8
型材断面
  6
DOT
 10
22.703195
 20
-65.37062
 11
-37.596497
 21
-65.37062
  0
LINE
  8
型材断面
  6
DOT
 10
22.4035
 20
-62.60412
 11
-37.596497
 21
-62.60412
  0
LINE
  8
型材断面
  6
DOT
 10
20.736832
 20
-61.370788
 11
-37.596497
 21
-61.370788
  0
LINE
  8
型材断面
  6
DOT
 10
22.4035
 20
-62.10412
 11
-37.596497
 21
-62.10412
  0
LINE
  8
型材断面
  6
DOT
 10
22.233195
 20
-63.087288
 11
-37.596497
 21
-63.087288
  0
LINE
  8
型材断面
  6
DOT
 10
22.703195
 20
-63.537288
 11
-37.596497
 21
-63.537288
  0
LINE
  8
型材断面
  6
DOT
 10
-97.596495
 20
-62.60412
 11
-97.546495
 21
-62.60412
  0
LINE
  8
型材断面
  6
DOT
 10
-95.929828
 20
-62.10412
 11
-95.929828
 21
-61.370788
  0
LINE
  8
型材断面
  6
DOT
 10
-95.979522
 20
-63.087288
 11
-97.42619
 21
-63.087288
  0
LINE
  8
型材断面
  6
DOT
 10
-97.42619
 20
-63.537288
 11
-97.42619
 21
-63.087288
  0
LINE
  8
型材断面
  6
DOT
 62
    47
 10
-98.159523
 20
-66.20998
 11
-98.209523
 21
-66.20998
  0
LINE
  8
型材断面
  6
DOT
 62
    47
 10
-98.209523
 20
-66.20998
 11
-98.209523
 21
-65.876645
  0
LINE
  8
型材断面
  6
DOT
 62
    47
 10
-98.209523
 20
-65.876645
 11
-97.42619
 21
-65.776645
  0
LINE
  8
型材断面
  6
DOT
 62
    47
 10
-97.42619
 20
-65.37062
 11
-97.42619
 21
-65.776645
  0
LINE
  8
型材断面
  6
DOT
 62
    47
 10
-97.89619
 20
-65.37062
 11
-97.89619
 21
-63.537288
  0
LINE
  8
型材断面
  6
DOT
 10
-97.596495
 20
-62.60412
 11
-97.596495
 21
-62.10412
  0
LINE
  8
型材断面
  6
DOT
 10
-95.979522
 20
-63.087288
 11
-95.979522
 21
-62.60412
  0
INSERT
  2
*GRP_0026
  8
型材断面
  6
DOT
 10
0.0
 20
0.0
  0
INSERT
  2
*GRP_0027
  8
型材断面
  6
DOT
 10
0.0
 20
0.0
  0
LINE
  8
型材断面
  6
DOT
 10
-98.209523
 20
-66.20998
 11
-37.596497
 21
-66.20998
  0
LINE
  8
型材断面
  6
DOT
 10
-98.209523
 20
-65.876645
 11
-37.596497
 21
-65.876645
  0
LINE
  8
型材断面
  6
DOT
 10
-97.42619
 20
-65.776645
 11
-37.596497
 21
-65.776645
  0
LINE
  8
型材断面
  6
DOT
 10
-97.89619
 20
-65.37062
 11
-37.596497
 21
-65.37062
  0
LINE
  8
型材断面
  6
DOT
 10
-97.596495
 20
-62.60412
 11
-37.596497
 21
-62.60412
  0
LINE
  8
型材断面
  6
DOT
 10
-95.929828
 20
-61.370788
 11
-37.596497
 21
-61.370788
  0
LINE
  8
型材断面
  6
DOT
 10
-97.596495
 20
-62.10412
 11
-37.596497
 21
-62.10412
  0
LINE
  8
型材断面
  6
DOT
 10
-97.42619
 20
-63.087288
 11
-37.596497
 21
-63.087288
  0
LINE
  8
型材断面
  6
DOT
 10
-97.89619
 20
-63.537288
 11
-37.596497
 21
-63.537288
  0
ENDBLK
  0
BLOCK
  2
*GRP_0024
 70
    65
 10
0.0
 20
0.0
  0
INSERT
  2
M8横
  8
ゴム等
  6
DOT
 10
21.563192
 20
-62.963955
 50
180.0
 41
0.033333
 42
-0.033333
  0
LINE
  8
ボルト／ビス
  6
DOT
 10
21.42986
 20
-62.753955
 11
21.446525
 21
-62.73729
  0
LINE
  8
ボルト／ビス
  6
DOT
 10
21.67986
 20
-62.73729
 11
21.696525
 21
-62.753955
  0
LINE
  8
ボルト／ビス
  6
DOT
 10
21.696525
 20
-62.753955
 11
21.42986
 21
-62.753955
  0
LINE
  8
ボルト／ビス
  6
DOT
 10
21.67986
 20
-62.73729
 11
21.446525
 21
-62.73729
  0
LINE
  8
ボルト／ビス
  6
DOT
 10
21.446525
 20
-62.73729
 11
21.446525
 21
-62.78062
  0
LINE
  8
ボルト／ビス
  6
DOT
 10
21.42986
 20
-62.753955
 11
21.42986
 21
-62.78062
  0
LINE
  8
ボルト／ビス
  6
DOT
 10
21.696525
 20
-62.753955
 11
21.696525
 21
-62.78062
  0
LINE
  8
ボルト／ビス
  6
DOT
 10
21.67986
 20
-62.73729
 11
21.67986
 21
-62.78062
  0
LINE
  8
ボルト／ビス
  6
DOT
 10
21.92986
 20
-62.963955
 11
21.196525
 21
-62.963955
  0
LINE
  8
ボルト／ビス
  6
DOT
 10
21.146525
 20
-63.003955
 11
21.146525
 21
-63.087288
  0
LINE
  8
ボルト／ビス
  6
DOT
 10
21.146525
 20
-63.087288
 11
21.97986
 21
-63.087288
  0
LINE
  8
ボルト／ビス
  6
DOT
 10
21.97986
 20
-63.087288
 11
21.97986
 21
-63.003955
  0
LINE
  8
ボルト／ビス
  6
DOT
 10
21.146525
 20
-63.003955
 11
21.97986
 21
-63.003955
  0
LINE
  8
ボルト／ビス
  6
DOT
 10
21.92986
 20
-62.963955
 11
21.92986
 21
-63.003955
  0
LINE
  8
ボルト／ビス
  6
DOT
 10
21.196525
 20
-62.963955
 11
21.196525
 21
-63.003955
  0
LINE
  8
ボルト／ビス
  6
DOT
 10
21.563192
 20
-63.013955
 11
21.563192
 21
-62.963955
  0
ENDBLK
  0
BLOCK
  2
*GRP_0025
 70
    65
 10
0.0
 20
0.0
  0
LINE
  8
ボルト／ビス
  6
DOT
 10
21.76986
 20
-62.10412
 11
21.76986
 21
-62.037455
  0
LINE
  8
ボルト／ビス
  6
DOT
 10
21.76986
 20
-62.037455
 11
21.036528
 21
-62.037455
  0
LINE
  8
ボルト／ビス
  6
DOT
 10
21.036528
 20
-62.037455
 11
21.036528
 21
-62.10412
  0
LINE
  8
ボルト／ビス
  6
DOT
 10
21.76986
 20
-62.10412
 11
21.036528
 21
-62.10412
  0
LINE
  8
ボルト／ビス
  6
DOT
 10
21.703195
 20
-62.00412
 11
21.703195
 21
-62.037455
  0
LINE
  8
ボルト／ビス
  6
DOT
 10
21.703195
 20
-62.00412
 11
21.103195
 21
-62.00412
  0
LINE
  8
ボルト／ビス
  6
DOT
 10
21.103195
 20
-62.00412
 11
21.103195
 21
-62.037455
  0
LINE
  8
ボルト／ビス
  6
DOT
 62
    64
 10
21.56357
 20
-61.80412
 11
21.595645
 21
-61.815795
  0
ARC
  8
ボルト／ビス
  6
DOT
 62
    64
 10
21.547531
 20
-61.909097
 40
0.104978
 50
90.0
 51
117.278033
  0
ARC
  8
ボルト／ビス
  6
DOT
 62
    64
 10
21.403194
 20
-62.20652
 40
0.402402
 50
76.165015
 51
103.834998
  0
LINE
  8
ボルト／ビス
  6
DOT
 62
    64
 10
21.24282
 20
-61.80412
 11
21.210745
 21
-61.815795
  0
ARC
  8
ボルト／ビス
  6
DOT
 62
    64
 10
21.258856
 20
-61.909097
 40
0.104978
 50
62.721967
 51
90.0
  0
LINE
  8
ボルト／ビス
  6
DOT
 62
    64
 10
21.56357
 20
-61.80412
 11
21.24282
 21
-61.80412
  0
LINE
  8
ボルト／ビス
  6
DOT
 62
    64
 10
21.210745
 20
-61.815795
 11
21.210745
 21
-61.937455
  0
LINE
  8
ボルト／ビス
  6
DOT
 62
    64
 10
21.30697
 20
-61.815795
 11
21.30697
 21
-61.937455
  0
LINE
  8
ボルト／ビス
  6
DOT
 62
    64
 10
21.595645
 20
-61.815795
 11
21.595645
 21
-61.937455
  0
LINE
  8
ボルト／ビス
  6
DOT
 62
    64
 10
21.49942
 20
-61.815795
 11
21.49942
 21
-61.937455
  0
LINE
  8
ボルト／ビス
  6
DOT
 10
21.595645
 20
-61.937455
 11
21.210745
 21
-61.937455
  0
LINE
  8
ボルト／ビス
  6
DOT
 10
21.603195
 20
-61.937455
 11
21.603195
 21
-62.00412
  0
LINE
  8
ボルト／ビス
  6
DOT
 10
21.603195
 20
-61.937455
 11
21.203195
 21
-61.937455
  0
LINE
  8
ボルト／ビス
  6
DOT
 10
21.203195
 20
-61.937455
 11
21.203195
 21
-62.00412
  0
ENDBLK
  0
BLOCK
  2
*GRP_0026
 70
    65
 10
0.0
 20
0.0
  0
INSERT
  2
M8横
  8
ゴム等
  6
DOT
 10
-96.756188
 20
-62.963955
 41
0.033333
 42
0.033333
  0
LINE
  8
ボルト／ビス
  6
DOT
 10
-96.622855
 20
-62.753955
 11
-96.63952
 21
-62.73729
  0
LINE
  8
ボルト／ビス
  6
DOT
 10
-96.872855
 20
-62.73729
 11
-96.88952
 21
-62.753955
  0
LINE
  8
ボルト／ビス
  6
DOT
 10
-96.88952
 20
-62.753955
 11
-96.622855
 21
-62.753955
  0
LINE
  8
ボルト／ビス
  6
DOT
 10
-96.872855
 20
-62.73729
 11
-96.63952
 21
-62.73729
  0
LINE
  8
ボルト／ビス
  6
DOT
 10
-96.63952
 20
-62.73729
 11
-96.63952
 21
-62.78062
  0
LINE
  8
ボルト／ビス
  6
DOT
 10
-96.622855
 20
-62.753955
 11
-96.622855
 21
-62.78062
  0
LINE
  8
ボルト／ビス
  6
DOT
 10
-96.88952
 20
-62.753955
 11
-96.88952
 21
-62.78062
  0
LINE
  8
ボルト／ビス
  6
DOT
 10
-96.872855
 20
-62.73729
 11
-96.872855
 21
-62.78062
  0
LINE
  8
ボルト／ビス
  6
DOT
 10
-97.122855
 20
-62.963955
 11
-96.38952
 21
-62.963955
  0
LINE
  8
ボルト／ビス
  6
DOT
 10
-96.33952
 20
-63.003955
 11
-96.33952
 21
-63.087288
  0
LINE
  8
ボルト／ビス
  6
DOT
 10
-96.33952
 20
-63.087288
 11
-97.172855
 21
-63.087288
  0
LINE
  8
ボルト／ビス
  6
DOT
 10
-97.172855
 20
-63.087288
 11
-97.172855
 21
-63.003955
  0
LINE
  8
ボルト／ビス
  6
DOT
 10
-96.33952
 20
-63.003955
 11
-97.172855
 21
-63.003955
  0
LINE
  8
ボルト／ビス
  6
DOT
 10
-97.122855
 20
-62.963955
 11
-97.122855
 21
-63.003955
  0
LINE
  8
ボルト／ビス
  6
DOT
 10
-96.38952
 20
-62.963955
 11
-96.38952
 21
-63.003955
  0
LINE
  8
ボルト／ビス
  6
DOT
 10
-96.756188
 20
-63.013955
 11
-96.756188
 21
-62.963955
  0
ENDBLK
  0
BLOCK
  2
*GRP_0027
 70
    65
 10
0.0
 20
0.0
  0
LINE
  8
ボルト／ビス
  6
DOT
 10
-96.962855
 20
-62.10412
 11
-96.962855
 21
-62.037455
  0
LINE
  8
ボルト／ビス
  6
DOT
 10
-96.962855
 20
-62.037455
 11
-96.229522
 21
-62.037455
  0
LINE
  8
ボルト／ビス
  6
DOT
 10
-96.229522
 20
-62.037455
 11
-96.229522
 21
-62.10412
  0
LINE
  8
ボルト／ビス
  6
DOT
 10
-96.962855
 20
-62.10412
 11
-96.229522
 21
-62.10412
  0
LINE
  8
ボルト／ビス
  6
DOT
 10
-96.89619
 20
-62.00412
 11
-96.89619
 21
-62.037455
  0
LINE
  8
ボルト／ビス
  6
DOT
 10
-96.89619
 20
-62.00412
 11
-96.29619
 21
-62.00412
  0
LINE
  8
ボルト／ビス
  6
DOT
 10
-96.29619
 20
-62.00412
 11
-96.29619
 21
-62.037455
  0
LINE
  8
ボルト／ビス
  6
DOT
 62
    64
 10
-96.756565
 20
-61.80412
 11
-96.78864
 21
-61.815795
  0
ARC
  8
ボルト／ビス
  6
DOT
 62
    64
 10
-96.740528
 20
-61.909097
 40
0.104978
 50
62.721967
 51
90.0
  0
ARC
  8
ボルト／ビス
  6
DOT
 62
    64
 10
-96.59619
 20
-62.20652
 40
0.402402
 50
76.165002
 51
103.834985
  0
LINE
  8
ボルト／ビス
  6
DOT
 62
    64
 10
-96.435815
 20
-61.80412
 11
-96.40374
 21
-61.815795
  0
ARC
  8
ボルト／ビス
  6
DOT
 62
    64
 10
-96.451853
 20
-61.909097
 40
0.104978
 50
90.0
 51
117.278033
  0
LINE
  8
ボルト／ビス
  6
DOT
 62
    64
 10
-96.756565
 20
-61.80412
 11
-96.435815
 21
-61.80412
  0
LINE
  8
ボルト／ビス
  6
DOT
 62
    64
 10
-96.40374
 20
-61.815795
 11
-96.40374
 21
-61.937455
  0
LINE
  8
ボルト／ビス
  6
DOT
 62
    64
 10
-96.499965
 20
-61.815795
 11
-96.499965
 21
-61.937455
  0
LINE
  8
ボルト／ビス
  6
DOT
 62
    64
 10
-96.78864
 20
-61.815795
 11
-96.78864
 21
-61.937455
  0
LINE
  8
ボルト／ビス
  6
DOT
 62
    64
 10
-96.692415
 20
-61.815795
 11
-96.692415
 21
-61.937455
  0
LINE
  8
ボルト／ビス
  6
DOT
 10
-96.78864
 20
-61.937455
 11
-96.40374
 21
-61.937455
  0
LINE
  8
ボルト／ビス
  6
DOT
 10
-96.79619
 20
-61.937455
 11
-96.79619
 21
-62.00412
  0
LINE
  8
ボルト／ビス
  6
DOT
 10
-96.79619
 20
-61.937455
 11
-96.39619
 21
-61.937455
  0
LINE
  8
ボルト／ビス
  6
DOT
 10
-96.39619
 20
-61.937455
 11
-96.39619
 21
-62.00412
  0
ENDBLK
  0
BLOCK
  2
*GRP_0028
 70
    65
 10
0.0
 20
0.0
  0
LINE
  8
補助線
  6
BYBLOCK
 62
    64
 10
-84.189012
 20
-74.31009
 11
-84.337938
 21
-74.384915
  0
LINE
  8
補助線
  6
BYBLOCK
 62
    64
 10
-84.300888
 20
-74.273038
 11
-84.226062
 21
-74.421965
  0
LINE
  8
補助線
  6
BYBLOCK
 62
    64
 10
-74.270532
 20
-69.326732
 11
-74.41946
 21
-69.401558
  0
LINE
  8
補助線
  6
BYBLOCK
 62
    64
 10
-74.38241
 20
-69.28968
 11
-74.307585
 21
-69.438608
  0
LINE
  8
補助線
  6
BYBLOCK
 62
    64
 10
-64.500983
 20
-64.4182
 11
-64.352055
 21
-64.343375
  0
LINE
  8
補助線
  6
BYBLOCK
 62
    64
 10
-64.463933
 20
-64.306322
 11
-64.389107
 21
-64.45525
  0
LINE
  8
型材断面
  6
CONTINUOUS
 10
-84.935452
 20
-73.752525
 11
-85.157755
 21
-74.423777
  0
LINE
  8
型材断面
  6
CONTINUOUS
 10
-85.157755
 20
-74.423777
 11
-84.858453
 21
-75.019482
  0
LINE
  8
型材断面
  6
CONTINUOUS
 10
-84.858453
 20
-75.019482
 11
-84.1872
 21
-75.241785
  0
LINE
  8
型材断面
  6
CONTINUOUS
 10
-64.502795
 20
-63.486507
 11
-63.83154
 21
-63.70881
  0
LINE
  8
型材断面
  6
CONTINUOUS
 10
-63.83154
 20
-63.70881
 11
-63.532237
 21
-64.304515
  0
LINE
  8
型材断面
  6
CONTINUOUS
 10
-63.532237
 20
-64.304515
 11
-63.754543
 21
-64.975767
  0
LINE
  8
型材断面
  6
CONTINUOUS
 10
-84.935452
 20
-73.752525
 11
-64.502795
 21
-63.486507
  0
LINE
  8
型材断面
  6
CONTINUOUS
 10
-84.1872
 20
-75.241785
 11
-63.754543
 21
-64.975767
  0
CIRCLE
  8
ボルト／ビス
  6
CONTINUOUS
 10
-84.263475
 20
-74.347502
 40
0.250185
  0
CIRCLE
  8
ボルト／ビス
  6
CONTINUOUS
 10
-84.263475
 20
-74.347502
 40
0.301025
  0
LINE
  8
ボルト／ビス
  6
CONTINUOUS
 62
    64
 10
-84.51324
 20
-74.333
 11
-84.375795
 21
-74.12395
  0
LINE
  8
ボルト／ビス
  6
CONTINUOUS
 62
    64
 10
-84.12603
 20
-74.138453
 11
-84.375795
 21
-74.12395
  0
LINE
  8
ボルト／ビス
  6
CONTINUOUS
 62
    64
 10
-84.40092
 20
-74.556552
 11
-84.151155
 21
-74.571055
  0
LINE
  8
ボルト／ビス
  6
CONTINUOUS
 62
    64
 10
-84.01371
 20
-74.362005
 11
-84.151155
 21
-74.571055
  0
LINE
  8
ボルト／ビス
  6
CONTINUOUS
 62
    64
 10
-84.51324
 20
-74.333
 11
-84.40092
 21
-74.556552
  0
LINE
  8
ボルト／ビス
  6
CONTINUOUS
 62
    64
 10
-84.12603
 20
-74.138453
 11
-84.01371
 21
-74.362005
  0
CIRCLE
  8
ボルト／ビス
  6
CONTINUOUS
 62
    64
 10
-84.263475
 20
-74.347502
 40
0.216668
  0
CIRCLE
  8
ボルト／ビス
  6
CONTINUOUS
 10
-74.344998
 20
-69.364145
 40
0.250185
  0
CIRCLE
  8
ボルト／ビス
  6
CONTINUOUS
 10
-74.344998
 20
-69.364145
 40
0.301025
  0
LINE
  8
ボルト／ビス
  6
CONTINUOUS
 62
    64
 10
-74.594762
 20
-69.34964
 11
-74.457318
 21
-69.14059
  0
LINE
  8
ボルト／ビス
  6
CONTINUOUS
 62
    64
 10
-74.207553
 20
-69.155092
 11
-74.457318
 21
-69.14059
  0
LINE
  8
ボルト／ビス
  6
CONTINUOUS
 62
    64
 10
-74.482442
 20
-69.573195
 11
-74.232675
 21
-69.5877
  0
LINE
  8
ボルト／ビス
  6
CONTINUOUS
 62
    64
 10
-74.095233
 20
-69.37865
 11
-74.232675
 21
-69.5877
  0
LINE
  8
ボルト／ビス
  6
CONTINUOUS
 62
    64
 10
-74.594762
 20
-69.34964
 11
-74.482442
 21
-69.573195
  0
LINE
  8
ボルト／ビス
  6
CONTINUOUS
 62
    64
 10
-74.207553
 20
-69.155092
 11
-74.095233
 21
-69.37865
  0
CIRCLE
  8
ボルト／ビス
  6
CONTINUOUS
 62
    64
 10
-74.344998
 20
-69.364145
 40
0.216668
  0
CIRCLE
  8
ボルト／ビス
  6
CONTINUOUS
 10
-64.42652
 20
-64.380788
 40
0.250185
  0
CIRCLE
  8
ボルト／ビス
  6
CONTINUOUS
 10
-64.42652
 20
-64.380788
 40
0.301025
  0
LINE
  8
ボルト／ビス
  6
CONTINUOUS
 62
    64
 10
-64.289075
 20
-64.171738
 11
-64.53884
 21
-64.157235
  0
LINE
  8
ボルト／ビス
  6
CONTINUOUS
 62
    64
 10
-64.676285
 20
-64.366285
 11
-64.53884
 21
-64.157235
  0
LINE
  8
ボルト／ビス
  6
CONTINUOUS
 62
    64
 10
-64.176755
 20
-64.395292
 11
-64.314197
 21
-64.60434
  0
LINE
  8
ボルト／ビス
  6
CONTINUOUS
 62
    64
 10
-64.563965
 20
-64.589837
 11
-64.314197
 21
-64.60434
  0
LINE
  8
ボルト／ビス
  6
CONTINUOUS
 62
    64
 10
-64.289075
 20
-64.171738
 11
-64.176755
 21
-64.395292
  0
LINE
  8
ボルト／ビス
  6
CONTINUOUS
 62
    64
 10
-64.676285
 20
-64.366285
 11
-64.563965
 21
-64.589837
  0
CIRCLE
  8
ボルト／ビス
  6
CONTINUOUS
 62
    64
 10
-64.42652
 20
-64.380788
 40
0.216668
  0
ENDBLK
  0
BLOCK
  2
*GRP_0029
 70
    65
 10
0.0
 20
0.0
  0
LINE
  8
補助線
  6
BYBLOCK
 62
    64
 10
-64.500983
 20
-74.31009
 11
-64.352057
 21
-74.384915
  0
LINE
  8
補助線
  6
BYBLOCK
 62
    64
 10
-64.389107
 20
-74.273038
 11
-64.463933
 21
-74.421965
  0
LINE
  8
補助線
  6
BYBLOCK
 62
    64
 10
-74.419463
 20
-69.326732
 11
-74.270535
 21
-69.401558
  0
LINE
  8
補助線
  6
BYBLOCK
 62
    64
 10
-74.307585
 20
-69.28968
 11
-74.38241
 21
-69.438608
  0
LINE
  8
補助線
  6
BYBLOCK
 62
    64
 10
-84.189012
 20
-64.4182
 11
-84.33794
 21
-64.343375
  0
LINE
  8
補助線
  6
BYBLOCK
 62
    64
 10
-84.226062
 20
-64.306322
 11
-84.300888
 21
-64.45525
  0
LINE
  8
型材断面
  6
CONTINUOUS
 10
-63.754543
 20
-73.752525
 11
-63.53224
 21
-74.423777
  0
LINE
  8
型材断面
  6
CONTINUOUS
 10
-63.53224
 20
-74.423777
 11
-63.831542
 21
-75.019482
  0
LINE
  8
型材断面
  6
CONTINUOUS
 10
-63.831542
 20
-75.019482
 11
-64.502795
 21
-75.241785
  0
LINE
  8
型材断面
  6
CONTINUOUS
 10
-84.1872
 20
-63.486507
 11
-84.858455
 21
-63.70881
  0
LINE
  8
型材断面
  6
CONTINUOUS
 10
-84.858455
 20
-63.70881
 11
-85.157758
 21
-64.304515
  0
LINE
  8
型材断面
  6
CONTINUOUS
 10
-85.157758
 20
-64.304515
 11
-84.935452
 21
-64.975767
  0
LINE
  8
型材断面
  6
CONTINUOUS
 10
-63.754543
 20
-73.752525
 11
-84.1872
 21
-63.486507
  0
LINE
  8
型材断面
  6
CONTINUOUS
 10
-64.502795
 20
-75.241785
 11
-84.935452
 21
-64.975767
  0
CIRCLE
  8
ボルト／ビス
  6
CONTINUOUS
 10
-64.42652
 20
-74.347502
 40
0.250185
  0
CIRCLE
  8
ボルト／ビス
  6
CONTINUOUS
 10
-64.42652
 20
-74.347502
 40
0.301025
  0
LINE
  8
ボルト／ビス
  6
CONTINUOUS
 62
    64
 10
-64.176755
 20
-74.333
 11
-64.3142
 21
-74.12395
  0
LINE
  8
ボルト／ビス
  6
CONTINUOUS
 62
    64
 10
-64.563965
 20
-74.138453
 11
-64.3142
 21
-74.12395
  0
LINE
  8
ボルト／ビス
  6
CONTINUOUS
 62
    64
 10
-64.289075
 20
-74.556552
 11
-64.53884
 21
-74.571055
  0
LINE
  8
ボルト／ビス
  6
CONTINUOUS
 62
    64
 10
-64.676285
 20
-74.362005
 11
-64.53884
 21
-74.571055
  0
LINE
  8
ボルト／ビス
  6
CONTINUOUS
 62
    64
 10
-64.176755
 20
-74.333
 11
-64.289075
 21
-74.556552
  0
LINE
  8
ボルト／ビス
  6
CONTINUOUS
 62
    64
 10
-64.563965
 20
-74.138453
 11
-64.676285
 21
-74.362005
  0
CIRCLE
  8
ボルト／ビス
  6
CONTINUOUS
 62
    64
 10
-64.42652
 20
-74.347502
 40
0.216668
  0
CIRCLE
  8
ボルト／ビス
  6
CONTINUOUS
 10
-74.344998
 20
-69.364145
 40
0.250185
  0
CIRCLE
  8
ボルト／ビス
  6
CONTINUOUS
 10
-74.344998
 20
-69.364145
 40
0.301025
  0
LINE
  8
ボルト／ビス
  6
CONTINUOUS
 62
    64
 10
-74.095233
 20
-69.34964
 11
-74.232678
 21
-69.14059
  0
LINE
  8
ボルト／ビス
  6
CONTINUOUS
 62
    64
 10
-74.482442
 20
-69.155092
 11
-74.232678
 21
-69.14059
  0
LINE
  8
ボルト／ビス
  6
CONTINUOUS
 62
    64
 10
-74.207553
 20
-69.573195
 11
-74.45732
 21
-69.5877
  0
LINE
  8
ボルト／ビス
  6
CONTINUOUS
 62
    64
 10
-74.594762
 20
-69.37865
 11
-74.45732
 21
-69.5877
  0
LINE
  8
ボルト／ビス
  6
CONTINUOUS
 62
    64
 10
-74.095233
 20
-69.34964
 11
-74.207553
 21
-69.573195
  0
LINE
  8
ボルト／ビス
  6
CONTINUOUS
 62
    64
 10
-74.482442
 20
-69.155092
 11
-74.594762
 21
-69.37865
  0
CIRCLE
  8
ボルト／ビス
  6
CONTINUOUS
 62
    64
 10
-74.344998
 20
-69.364145
 40
0.216668
  0
CIRCLE
  8
ボルト／ビス
  6
CONTINUOUS
 10
-84.263475
 20
-64.380788
 40
0.250185
  0
CIRCLE
  8
ボルト／ビス
  6
CONTINUOUS
 10
-84.263475
 20
-64.380788
 40
0.301025
  0
LINE
  8
ボルト／ビス
  6
CONTINUOUS
 62
    64
 10
-84.40092
 20
-64.171738
 11
-84.151155
 21
-64.157235
  0
LINE
  8
ボルト／ビス
  6
CONTINUOUS
 62
    64
 10
-84.01371
 20
-64.366285
 11
-84.151155
 21
-64.157235
  0
LINE
  8
ボルト／ビス
  6
CONTINUOUS
 62
    64
 10
-84.51324
 20
-64.395292
 11
-84.375798
 21
-64.60434
  0
LINE
  8
ボルト／ビス
  6
CONTINUOUS
 62
    64
 10
-84.12603
 20
-64.589837
 11
-84.375798
 21
-64.60434
  0
LINE
  8
ボルト／ビス
  6
CONTINUOUS
 62
    64
 10
-84.40092
 20
-64.171738
 11
-84.51324
 21
-64.395292
  0
LINE
  8
ボルト／ビス
  6
CONTINUOUS
 62
    64
 10
-84.01371
 20
-64.366285
 11
-84.12603
 21
-64.589837
  0
CIRCLE
  8
ボルト／ビス
  6
CONTINUOUS
 62
    64
 10
-84.263475
 20
-64.380788
 40
0.216668
  0
ENDBLK
  0
BLOCK
  2
*GRP_0030
 70
    65
 10
0.0
 20
0.0
  0
LINE
  8
補助線
  6
BYBLOCK
 62
    64
 10
8.995398
 20
-74.31009
 11
9.144323
 21
-74.384915
  0
LINE
  8
補助線
  6
BYBLOCK
 62
    64
 10
9.107272
 20
-74.273038
 11
9.032447
 21
-74.421965
  0
LINE
  8
補助線
  6
BYBLOCK
 62
    64
 10
-0.923082
 20
-69.326732
 11
-0.774155
 21
-69.401558
  0
LINE
  8
補助線
  6
BYBLOCK
 62
    64
 10
-0.811205
 20
-69.28968
 11
-0.88603
 21
-69.438608
  0
LINE
  8
補助線
  6
BYBLOCK
 62
    64
 10
-10.692633
 20
-64.4182
 11
-10.84156
 21
-64.343375
  0
LINE
  8
補助線
  6
BYBLOCK
 62
    64
 10
-10.729683
 20
-64.306322
 11
-10.804508
 21
-64.45525
  0
LINE
  8
型材断面
  6
CONTINUOUS
 10
9.741837
 20
-73.752525
 11
9.96414
 21
-74.423777
  0
LINE
  8
型材断面
  6
CONTINUOUS
 10
9.96414
 20
-74.423777
 11
9.664838
 21
-75.019482
  0
LINE
  8
型材断面
  6
CONTINUOUS
 10
9.664838
 20
-75.019482
 11
8.993585
 21
-75.241785
  0
LINE
  8
型材断面
  6
CONTINUOUS
 10
-10.69082
 20
-63.486507
 11
-11.362075
 21
-63.70881
  0
LINE
  8
型材断面
  6
CONTINUOUS
 10
-11.362075
 20
-63.70881
 11
-11.661377
 21
-64.304515
  0
LINE
  8
型材断面
  6
CONTINUOUS
 10
-11.661377
 20
-64.304515
 11
-11.439073
 21
-64.975767
  0
LINE
  8
型材断面
  6
CONTINUOUS
 10
9.741837
 20
-73.752525
 11
-10.69082
 21
-63.486507
  0
LINE
  8
型材断面
  6
CONTINUOUS
 10
8.993585
 20
-75.241785
 11
-11.439073
 21
-64.975767
  0
CIRCLE
  8
ボルト／ビス
  6
CONTINUOUS
 10
9.06986
 20
-74.347502
 40
0.250185
  0
CIRCLE
  8
ボルト／ビス
  6
CONTINUOUS
 10
9.06986
 20
-74.347502
 40
0.301025
  0
LINE
  8
ボルト／ビス
  6
CONTINUOUS
 62
    64
 10
9.319625
 20
-74.333
 11
9.18218
 21
-74.12395
  0
LINE
  8
ボルト／ビス
  6
CONTINUOUS
 62
    64
 10
8.932415
 20
-74.138453
 11
9.18218
 21
-74.12395
  0
LINE
  8
ボルト／ビス
  6
CONTINUOUS
 62
    64
 10
9.207305
 20
-74.556552
 11
8.95754
 21
-74.571055
  0
LINE
  8
ボルト／ビス
  6
CONTINUOUS
 62
    64
 10
8.820095
 20
-74.362005
 11
8.95754
 21
-74.571055
  0
LINE
  8
ボルト／ビス
  6
CONTINUOUS
 62
    64
 10
9.319625
 20
-74.333
 11
9.207305
 21
-74.556552
  0
LINE
  8
ボルト／ビス
  6
CONTINUOUS
 62
    64
 10
8.932415
 20
-74.138453
 11
8.820095
 21
-74.362005
  0
CIRCLE
  8
ボルト／ビス
  6
CONTINUOUS
 62
    64
 10
9.06986
 20
-74.347502
 40
0.216668
  0
CIRCLE
  8
ボルト／ビス
  6
CONTINUOUS
 10
-0.848618
 20
-69.364145
 40
0.250185
  0
CIRCLE
  8
ボルト／ビス
  6
CONTINUOUS
 10
-0.848618
 20
-69.364145
 40
0.301025
  0
LINE
  8
ボルト／ビス
  6
CONTINUOUS
 62
    64
 10
-0.598852
 20
-69.34964
 11
-0.736298
 21
-69.14059
  0
LINE
  8
ボルト／ビス
  6
CONTINUOUS
 62
    64
 10
-0.986063
 20
-69.155092
 11
-0.736298
 21
-69.14059
  0
LINE
  8
ボルト／ビス
  6
CONTINUOUS
 62
    64
 10
-0.711172
 20
-69.573195
 11
-0.96094
 21
-69.5877
  0
LINE
  8
ボルト／ビス
  6
CONTINUOUS
 62
    64
 10
-1.098383
 20
-69.37865
 11
-0.96094
 21
-69.5877
  0
LINE
  8
ボルト／ビス
  6
CONTINUOUS
 62
    64
 10
-0.598852
 20
-69.34964
 11
-0.711172
 21
-69.573195
  0
LINE
  8
ボルト／ビス
  6
CONTINUOUS
 62
    64
 10
-0.986063
 20
-69.155092
 11
-1.098383
 21
-69.37865
  0
CIRCLE
  8
ボルト／ビス
  6
CONTINUOUS
 62
    64
 10
-0.848618
 20
-69.364145
 40
0.216668
  0
CIRCLE
  8
ボルト／ビス
  6
CONTINUOUS
 10
-10.767095
 20
-64.380788
 40
0.250185
  0
CIRCLE
  8
ボルト／ビス
  6
CONTINUOUS
 10
-10.767095
 20
-64.380788
 40
0.301025
  0
LINE
  8
ボルト／ビス
  6
CONTINUOUS
 62
    64
 10
-10.90454
 20
-64.171738
 11
-10.654775
 21
-64.157235
  0
LINE
  8
ボルト／ビス
  6
CONTINUOUS
 62
    64
 10
-10.51733
 20
-64.366285
 11
-10.654775
 21
-64.157235
  0
LINE
  8
ボルト／ビス
  6
CONTINUOUS
 62
    64
 10
-11.01686
 20
-64.395292
 11
-10.879417
 21
-64.60434
  0
LINE
  8
ボルト／ビス
  6
CONTINUOUS
 62
    64
 10
-10.62965
 20
-64.589837
 11
-10.879417
 21
-64.60434
  0
LINE
  8
ボルト／ビス
  6
CONTINUOUS
 62
    64
 10
-10.90454
 20
-64.171738
 11
-11.01686
 21
-64.395292
  0
LINE
  8
ボルト／ビス
  6
CONTINUOUS
 62
    64
 10
-10.51733
 20
-64.366285
 11
-10.62965
 21
-64.589837
  0
CIRCLE
  8
ボルト／ビス
  6
CONTINUOUS
 62
    64
 10
-10.767095
 20
-64.380788
 40
0.216668
  0
ENDBLK
  0
BLOCK
  2
*GRP_0031
 70
    65
 10
0.0
 20
0.0
  0
LINE
  8
補助線
  6
BYBLOCK
 62
    64
 10
-10.692633
 20
-74.31009
 11
-10.841557
 21
-74.384915
  0
LINE
  8
補助線
  6
BYBLOCK
 62
    64
 10
-10.804508
 20
-74.273038
 11
-10.729683
 21
-74.421965
  0
LINE
  8
補助線
  6
BYBLOCK
 62
    64
 10
-0.774153
 20
-69.326732
 11
-0.92308
 21
-69.401558
  0
LINE
  8
補助線
  6
BYBLOCK
 62
    64
 10
-0.88603
 20
-69.28968
 11
-0.811205
 21
-69.438608
  0
LINE
  8
補助線
  6
BYBLOCK
 62
    64
 10
8.995398
 20
-64.4182
 11
9.144325
 21
-64.343375
  0
LINE
  8
補助線
  6
BYBLOCK
 62
    64
 10
9.032447
 20
-64.306322
 11
9.107272
 21
-64.45525
  0
LINE
  8
型材断面
  6
CONTINUOUS
 10
-11.439073
 20
-73.752525
 11
-11.661375
 21
-74.423777
  0
LINE
  8
型材断面
  6
CONTINUOUS
 10
-11.661375
 20
-74.423777
 11
-11.362072
 21
-75.019482
  0
LINE
  8
型材断面
  6
CONTINUOUS
 10
-11.362072
 20
-75.019482
 11
-10.69082
 21
-75.241785
  0
LINE
  8
型材断面
  6
CONTINUOUS
 10
8.993585
 20
-63.486507
 11
9.66484
 21
-63.70881
  0
LINE
  8
型材断面
  6
CONTINUOUS
 10
9.66484
 20
-63.70881
 11
9.964142
 21
-64.304515
  0
LINE
  8
型材断面
  6
CONTINUOUS
 10
9.964142
 20
-64.304515
 11
9.741837
 21
-64.975767
  0
LINE
  8
型材断面
  6
CONTINUOUS
 10
-11.439073
 20
-73.752525
 11
8.993585
 21
-63.486507
  0
LINE
  8
型材断面
  6
CONTINUOUS
 10
-10.69082
 20
-75.241785
 11
9.741837
 21
-64.975767
  0
CIRCLE
  8
ボルト／ビス
  6
CONTINUOUS
 10
-10.767095
 20
-74.347502
 40
0.250185
  0
CIRCLE
  8
ボルト／ビス
  6
CONTINUOUS
 10
-10.767095
 20
-74.347502
 40
0.301025
  0
LINE
  8
ボルト／ビス
  6
CONTINUOUS
 62
    64
 10
-11.01686
 20
-74.333
 11
-10.879415
 21
-74.12395
  0
LINE
  8
ボルト／ビス
  6
CONTINUOUS
 62
    64
 10
-10.62965
 20
-74.138453
 11
-10.879415
 21
-74.12395
  0
LINE
  8
ボルト／ビス
  6
CONTINUOUS
 62
    64
 10
-10.90454
 20
-74.556552
 11
-10.654775
 21
-74.571055
  0
LINE
  8
ボルト／ビス
  6
CONTINUOUS
 62
    64
 10
-10.51733
 20
-74.362005
 11
-10.654775
 21
-74.571055
  0
LINE
  8
ボルト／ビス
  6
CONTINUOUS
 62
    64
 10
-11.01686
 20
-74.333
 11
-10.90454
 21
-74.556552
  0
LINE
  8
ボルト／ビス
  6
CONTINUOUS
 62
    64
 10
-10.62965
 20
-74.138453
 11
-10.51733
 21
-74.362005
  0
CIRCLE
  8
ボルト／ビス
  6
CONTINUOUS
 62
    64
 10
-10.767095
 20
-74.347502
 40
0.216668
  0
CIRCLE
  8
ボルト／ビス
  6
CONTINUOUS
 10
-0.848618
 20
-69.364145
 40
0.250185
  0
CIRCLE
  8
ボルト／ビス
  6
CONTINUOUS
 10
-0.848618
 20
-69.364145
 40
0.301025
  0
LINE
  8
ボルト／ビス
  6
CONTINUOUS
 62
    64
 10
-1.098383
 20
-69.34964
 11
-0.960938
 21
-69.14059
  0
LINE
  8
ボルト／ビス
  6
CONTINUOUS
 62
    64
 10
-0.711172
 20
-69.155092
 11
-0.960938
 21
-69.14059
  0
LINE
  8
ボルト／ビス
  6
CONTINUOUS
 62
    64
 10
-0.986063
 20
-69.573195
 11
-0.736295
 21
-69.5877
  0
LINE
  8
ボルト／ビス
  6
CONTINUOUS
 62
    64
 10
-0.598852
 20
-69.37865
 11
-0.736295
 21
-69.5877
  0
LINE
  8
ボルト／ビス
  6
CONTINUOUS
 62
    64
 10
-1.098383
 20
-69.34964
 11
-0.986063
 21
-69.573195
  0
LINE
  8
ボルト／ビス
  6
CONTINUOUS
 62
    64
 10
-0.711172
 20
-69.155092
 11
-0.598852
 21
-69.37865
  0
CIRCLE
  8
ボルト／ビス
  6
CONTINUOUS
 62
    64
 10
-0.848618
 20
-69.364145
 40
0.216668
  0
CIRCLE
  8
ボルト／ビス
  6
CONTINUOUS
 10
9.06986
 20
-64.380788
 40
0.250185
  0
CIRCLE
  8
ボルト／ビス
  6
CONTINUOUS
 10
9.06986
 20
-64.380788
 40
0.301025
  0
LINE
  8
ボルト／ビス
  6
CONTINUOUS
 62
    64
 10
9.207305
 20
-64.171738
 11
8.95754
 21
-64.157235
  0
LINE
  8
ボルト／ビス
  6
CONTINUOUS
 62
    64
 10
8.820095
 20
-64.366285
 11
8.95754
 21
-64.157235
  0
LINE
  8
ボルト／ビス
  6
CONTINUOUS
 62
    64
 10
9.319625
 20
-64.395292
 11
9.182183
 21
-64.60434
  0
LINE
  8
ボルト／ビス
  6
CONTINUOUS
 62
    64
 10
8.932415
 20
-64.589837
 11
9.182183
 21
-64.60434
  0
LINE
  8
ボルト／ビス
  6
CONTINUOUS
 62
    64
 10
9.207305
 20
-64.171738
 11
9.319625
 21
-64.395292
  0
LINE
  8
ボルト／ビス
  6
CONTINUOUS
 62
    64
 10
8.820095
 20
-64.366285
 11
8.932415
 21
-64.589837
  0
CIRCLE
  8
ボルト／ビス
  6
CONTINUOUS
 62
    64
 10
9.06986
 20
-64.380788
 40
0.216668
  0
ENDBLK
  0
BLOCK
  2
*DIM_0032
 70
    65
 10
0.0
 20
0.0
  0
LINE
  8
寸法
  6
CONTINUOUS
 10
25.736832
 20
-68.70412
 11
44.355305
 21
-68.70412
  0
LINE
  8
寸法
  6
CONTINUOUS
 10
25.736832
 20
-61.370788
 11
44.355305
 21
-61.370788
  0
LINE
  8
寸法
  6
CONTINUOUS
 10
44.355305
 20
-68.70412
 11
44.355305
 21
-61.370788
  0
POINT
  8
寸法
 10
44.355305
 20
-68.70412
  0
POINT
  8
寸法
 10
44.355305
 20
-61.370788
  0
TEXT
  7
TextStyle03
  8
寸法
  6
CONTINUOUS
 10
47.35
 20
-74.14375
  1
上昇195以上
 40
3.0
 50
90.0
 72
     5
 11
47.35
 21
-55.95625
  0
ENDBLK
  0
BLOCK
  2
*DIM_0033
 70
    65
 10
0.0
 20
0.0
  0
LINE
  8
寸法
  6
CONTINUOUS
 10
115.36104
 20
-51.113483
 11
115.36104
 21
-43.084515
  0
LINE
  8
寸法
  6
CONTINUOUS
 10
153.13104
 20
-51.113483
 11
153.13104
 21
-43.084515
  0
LINE
  8
寸法
  6
CONTINUOUS
 10
115.36104
 20
-43.084515
 11
153.13104
 21
-43.084515
  0
POINT
  8
寸法
 10
115.36104
 20
-43.084515
  0
POINT
  8
寸法
 10
153.13104
 20
-43.084515
  0
TEXT
  7
TextStyle03
  8
寸法
  6
CONTINUOUS
 10
129.25625
 20
-42.725
  1
1133.1
 40
3.0
 72
     5
 11
139.19375
 21
-42.725
  0
ENDBLK
  0
BLOCK
  2
*DIM_0034
 70
    65
 10
0.0
 20
0.0
  0
LINE
  8
寸法
  6
CONTINUOUS
 10
158.13104
 20
-56.113483
 11
169.458665
 21
-56.113483
  0
LINE
  8
寸法
  6
CONTINUOUS
 10
158.13104
 20
-75.446815
 11
169.458665
 21
-75.446815
  0
LINE
  8
寸法
  6
CONTINUOUS
 10
169.458665
 20
-56.113483
 11
169.458665
 21
-75.446815
  0
POINT
  8
寸法
 10
169.458665
 20
-56.113483
  0
POINT
  8
寸法
 10
169.458665
 20
-75.446815
  0
TEXT
  7
TextStyle03
  8
寸法
  6
CONTINUOUS
 10
169.075
 20
-68.2375
  1
580
 40
3.0
 50
90.0
 72
     5
 11
169.075
 21
-63.3625
  0
ENDBLK
  0
BLOCK
  2
*DIM_0035
 70
    65
 10
0.0
 20
0.0
  0
LINE
  8
寸法
  6
CONTINUOUS
 10
23.016527
 20
-68.209977
 11
23.016527
 21
-32.437345
  0
LINE
  8
寸法
  6
CONTINUOUS
 10
20.736832
 20
-32.437345
 11
23.016527
 21
-32.437345
  0
POINT
  8
寸法
 10
20.736832
 20
-32.437345
  0
POINT
  8
寸法
 10
23.016527
 20
-32.437345
  0
TEXT
  7
TextStyle03
  8
寸法
  6
CONTINUOUS
 10
25.34375
 20
-32.075
  1
68.4
 40
3.0
 72
     5
 11
31.90625
 21
-32.075
  0
ENDBLK
  0
BLOCK
  2
*DIM_0036
 70
    65
 10
0.0
 20
0.0
  0
LINE
  8
寸法
  6
CONTINUOUS
 10
-98.209523
 20
-68.209977
 11
-98.209523
 21
-32.437345
  0
LINE
  8
寸法
  6
CONTINUOUS
 10
-95.929828
 20
-32.437345
 11
-98.209523
 21
-32.437345
  0
POINT
  8
寸法
 10
-95.929828
 20
-32.437345
  0
POINT
  8
寸法
 10
-98.209523
 20
-32.437345
  0
TEXT
  7
TextStyle03
  8
寸法
  6
CONTINUOUS
 10
-107.10625
 20
-32.075
  1
68.4
 40
3.0
 72
     5
 11
-100.54375
 21
-32.075
  0
ENDBLK
  0
BLOCK
  2
*DIM_0037
 70
    65
 10
0.0
 20
0.0
  0
LINE
  8
寸法
  6
CONTINUOUS
 10
20.736832
 20
-32.437345
 11
-95.929828
 21
-32.437345
  0
POINT
  8
寸法
 10
20.736832
 20
-32.437345
  0
POINT
  8
寸法
 10
-95.929828
 20
-32.437345
  0
TEXT
  7
TextStyle03
  8
寸法
  6
CONTINUOUS
 10
-49.31875
 20
-32.075
  1
呼称寸法　3500
 40
3.0
 72
     5
 11
-25.88125
 21
-32.075
  0
ENDBLK
  0
BLOCK
  2
M8横
 70
    64
 10
-88.370132
 20
140.837665
  0
LINE
  8
ボルト／ビス
 10
-95.870132
 20
140.837665
 11
-80.870132
 21
140.837665
  0
LINE
  8
ボルト／ビス
 10
-80.870132
 20
145.837665
 11
-81.370132
 21
146.337665
  0
POLYLINE
  8
ボルト／ビス
 66
     1
  0
VERTEX
  8
ボルト／ビス
 10
-84.120132
 20
146.337665
  0
VERTEX
  8
ボルト／ビス
 10
-84.620132
 20
145.837665
  0
VERTEX
  8
ボルト／ビス
 10
-85.120132
 20
146.337665
  0
SEQEND
  0
POLYLINE
  8
ボルト／ビス
 66
     1
  0
VERTEX
  8
ボルト／ビス
 10
-91.620132
 20
146.337665
  0
VERTEX
  8
ボルト／ビス
 10
-92.120132
 20
145.837665
  0
VERTEX
  8
ボルト／ビス
 10
-92.620132
 20
146.337665
  0
SEQEND
  0
LINE
  8
ボルト／ビス
 10
-95.370132
 20
146.337665
 11
-95.870132
 21
145.837665
  0
LINE
  8
ボルト／ビス
 10
-95.870132
 20
140.837665
 11
-95.870132
 21
145.837665
  0
LINE
  8
ボルト／ビス
 10
-80.870132
 20
140.837665
 11
-80.870132
 21
145.837665
  0
LINE
  8
ボルト／ビス
 10
-95.370132
 20
146.337665
 11
-81.370132
 21
146.337665
  0
LINE
  8
ボルト／ビス
 10
-84.620132
 20
140.837665
 11
-84.620132
 21
145.837665
  0
LINE
  8
ボルト／ビス
 10
-92.120132
 20
140.837665
 11
-92.120132
 21
145.837665
  0
ENDBLK
  0
ENDSEC
  0
SECTION
  2
ENTITIES
  0
POLYLINE
  8
通り芯
  6
CONTINUOUS
 66
     1
 70
     1
  0
VERTEX
  8
通り芯
 10
-210.0
 20
-148.5
  0
VERTEX
  8
通り芯
 10
210.0
 20
-148.5
  0
VERTEX
  8
通り芯
 10
210.0
 20
148.5
  0
VERTEX
  8
通り芯
 10
-210.0
 20
148.5
  0
SEQEND
  0
INSERT
  2
*GRP_0001
  8
型材断面
  6
CONTINUOUS
 10
0.0
 20
0.0
  0
LINE
  8
型材断面
  6
CONTINUOUS
 10
162.97617
 20
61.869993
 11
162.97617
 21
61.819993
  0
LINE
  8
型材断面
  6
CONTINUOUS
 10
162.47617
 20
60.203325
 11
161.742835
 21
60.203325
  0
LINE
  8
型材断面
  6
CONTINUOUS
 62
    47
 10
169.709335
 20
61.60302
 11
169.709335
 21
61.55302
  0
LINE
  8
型材断面
  6
CONTINUOUS
 62
    47
 10
169.709335
 20
61.60302
 11
169.209335
 21
61.60302
  0
LINE
  8
型材断面
  6
CONTINUOUS
 10
163.459335
 20
60.25302
 11
163.459335
 21
61.699688
  0
LINE
  8
型材断面
  6
CONTINUOUS
 10
163.909335
 20
61.699688
 11
163.459335
 21
61.699688
  0
LINE
  8
型材断面
  6
CONTINUOUS
 62
    47
 10
166.582028
 20
62.43302
 11
166.582028
 21
62.48302
  0
LINE
  8
型材断面
  6
CONTINUOUS
 62
    47
 10
166.582028
 20
62.48302
 11
166.248695
 21
62.48302
  0
LINE
  8
型材断面
  6
CONTINUOUS
 62
    47
 10
166.248695
 20
62.48302
 11
166.148695
 21
61.699688
  0
LINE
  8
型材断面
  6
CONTINUOUS
 62
    47
 10
165.74267
 20
61.699688
 11
166.148695
 21
61.699688
  0
LINE
  8
型材断面
  6
CONTINUOUS
 62
    47
 10
165.74267
 20
62.169687
 11
163.909335
 21
62.169687
  0
LINE
  8
型材断面
  6
CONTINUOUS
 10
162.97617
 20
61.869993
 11
162.47617
 21
61.869993
  0
LINE
  8
型材断面
  6
CONTINUOUS
 10
163.459335
 20
60.25302
 11
162.97617
 21
60.25302
  0
LINE
  8
型材断面
  6
CONTINUOUS
 62
    47
 10
169.209335
 20
62.169687
 11
166.582028
 21
62.169687
  0
INSERT
  2
*GRP_0002
  8
型材断面
  6
DOT
 10
0.0
 20
0.0
  0
INSERT
  2
*GRP_0003
  8
型材断面
  6
DOT
 10
0.0
 20
0.0
  0
LINE
  8
型材断面
  6
CONTINUOUS
 10
169.209335
 20
62.169687
 11
169.209335
 21
50.203325
  0
LINE
  8
型材断面
  6
CONTINUOUS
 10
169.709335
 20
61.60302
 11
169.709335
 21
50.203325
  0
LINE
  8
型材断面
  6
CONTINUOUS
 10
166.582028
 20
62.48302
 11
166.582028
 21
50.203325
  0
LINE
  8
型材断面
  6
CONTINUOUS
 10
166.248695
 20
62.48302
 11
166.248695
 21
50.203325
  0
LINE
  8
型材断面
  6
CONTINUOUS
 10
166.148695
 20
61.699688
 11
166.148695
 21
50.203325
  0
LINE
  8
型材断面
  6
CONTINUOUS
 10
165.74267
 20
62.169687
 11
165.74267
 21
50.203325
  0
LINE
  8
型材断面
  6
CONTINUOUS
 10
162.97617
 20
61.869993
 11
162.97617
 21
50.203325
  0
LINE
  8
型材断面
  6
CONTINUOUS
 10
161.742835
 20
60.203325
 11
161.742835
 21
50.203325
  0
LINE
  8
型材断面
  6
CONTINUOUS
 10
162.47617
 20
61.869993
 11
162.47617
 21
50.203325
  0
LINE
  8
型材断面
  6
CONTINUOUS
 10
163.459335
 20
61.699688
 11
163.459335
 21
50.203325
  0
LINE
  8
型材断面
  6
CONTINUOUS
 10
163.909335
 20
62.169687
 11
163.909335
 21
50.203325
  0
LINE
  8
型材断面
  6
CONTINUOUS
 10
162.97617
 20
38.53666
 11
162.97617
 21
38.58666
  0
LINE
  8
型材断面
  6
CONTINUOUS
 10
162.47617
 20
40.203325
 11
161.742835
 21
40.203325
  0
LINE
  8
型材断面
  6
CONTINUOUS
 62
    47
 10
169.709335
 20
38.80363
 11
169.709335
 21
38.85363
  0
LINE
  8
型材断面
  6
CONTINUOUS
 62
    47
 10
169.709335
 20
38.80363
 11
169.209335
 21
38.80363
  0
LINE
  8
型材断面
  6
CONTINUOUS
 10
163.459335
 20
40.15363
 11
163.459335
 21
38.706965
  0
LINE
  8
型材断面
  6
CONTINUOUS
 10
163.909335
 20
38.706965
 11
163.459335
 21
38.706965
  0
LINE
  8
型材断面
  6
CONTINUOUS
 62
    47
 10
166.582028
 20
37.97363
 11
166.582028
 21
37.92363
  0
LINE
  8
型材断面
  6
CONTINUOUS
 62
    47
 10
166.582028
 20
37.92363
 11
166.248695
 21
37.92363
  0
LINE
  8
型材断面
  6
CONTINUOUS
 62
    47
 10
166.248695
 20
37.92363
 11
166.148695
 21
38.706965
  0
LINE
  8
型材断面
  6
CONTINUOUS
 62
    47
 10
165.74267
 20
38.706965
 11
166.148695
 21
38.706965
  0
LINE
  8
型材断面
  6
CONTINUOUS
 62
    47
 10
165.74267
 20
38.236965
 11
163.909335
 21
38.236965
  0
LINE
  8
型材断面
  6
CONTINUOUS
 10
162.97617
 20
38.53666
 11
162.47617
 21
38.53666
  0
LINE
  8
型材断面
  6
CONTINUOUS
 10
163.459335
 20
40.15363
 11
162.97617
 21
40.15363
  0
LINE
  8
型材断面
  6
CONTINUOUS
 62
    47
 10
169.209335
 20
38.236965
 11
166.582028
 21
38.236965
  0
INSERT
  2
*GRP_0004
  8
型材断面
  6
DOT
 10
0.0
 20
0.0
  0
INSERT
  2
*GRP_0005
  8
型材断面
  6
DOT
 10
0.0
 20
0.0
  0
LINE
  8
型材断面
  6
CONTINUOUS
 10
169.209335
 20
38.236965
 11
169.209335
 21
50.203325
  0
LINE
  8
型材断面
  6
CONTINUOUS
 10
169.709335
 20
38.80363
 11
169.709335
 21
50.203325
  0
LINE
  8
型材断面
  6
CONTINUOUS
 10
166.582028
 20
37.92363
 11
166.582028
 21
50.203325
  0
LINE
  8
型材断面
  6
CONTINUOUS
 10
166.248695
 20
37.92363
 11
166.248695
 21
50.203325
  0
LINE
  8
型材断面
  6
CONTINUOUS
 10
166.148695
 20
38.706965
 11
166.148695
 21
50.203325
  0
LINE
  8
型材断面
  6
CONTINUOUS
 10
165.74267
 20
38.236965
 11
165.74267
 21
50.203325
  0
LINE
  8
型材断面
  6
CONTINUOUS
 10
162.97617
 20
38.53666
 11
162.97617
 21
50.203325
  0
LINE
  8
型材断面
  6
CONTINUOUS
 10
161.742835
 20
40.203325
 11
161.742835
 21
50.203325
  0
LINE
  8
型材断面
  6
CONTINUOUS
 10
162.47617
 20
38.53666
 11
162.47617
 21
50.203325
  0
LINE
  8
型材断面
  6
CONTINUOUS
 10
163.459335
 20
38.706965
 11
163.459335
 21
50.203325
  0
LINE
  8
型材断面
  6
CONTINUOUS
 10
163.909335
 20
38.236965
 11
163.909335
 21
50.203325
  0
LINE
  8
型材断面
  6
DASHDOT
 10
-37.596497
 20
-79.253555
 11
-37.596497
 21
60.203325
  0
LINE
  8
型材断面
  6
CONTINUOUS
 10
22.4035
 20
-69.937453
 11
22.3535
 21
-69.937453
  0
LINE
  8
型材断面
  6
CONTINUOUS
 10
20.736832
 20
-69.437453
 11
20.736832
 21
-68.70412
  0
LINE
  8
型材断面
  6
CONTINUOUS
 62
    47
 10
22.136528
 20
-76.67062
 11
22.086528
 21
-76.67062
  0
LINE
  8
型材断面
  6
CONTINUOUS
 62
    47
 10
22.136528
 20
-76.67062
 11
22.136528
 21
-76.17062
  0
LINE
  8
型材断面
  6
CONTINUOUS
 10
20.786528
 20
-70.42062
 11
22.233195
 21
-70.42062
  0
LINE
  8
型材断面
  6
CONTINUOUS
 10
22.233195
 20
-70.87062
 11
22.233195
 21
-70.42062
  0
LINE
  8
型材断面
  6
CONTINUOUS
 62
    47
 10
22.966527
 20
-73.543312
 11
23.016527
 21
-73.543312
  0
LINE
  8
型材断面
  6
CONTINUOUS
 62
    47
 10
23.016527
 20
-73.543312
 11
23.016527
 21
-73.209977
  0
LINE
  8
型材断面
  6
CONTINUOUS
 62
    47
 10
23.016527
 20
-73.209977
 11
22.233195
 21
-73.109977
  0
LINE
  8
型材断面
  6
CONTINUOUS
 62
    47
 10
22.233195
 20
-72.703953
 11
22.233195
 21
-73.109977
  0
LINE
  8
型材断面
  6
CONTINUOUS
 62
    47
 10
22.703195
 20
-72.703953
 11
22.703195
 21
-70.87062
  0
LINE
  8
型材断面
  6
CONTINUOUS
 10
22.4035
 20
-69.937453
 11
22.4035
 21
-69.437453
  0
LINE
  8
型材断面
  6
CONTINUOUS
 10
20.786528
 20
-70.42062
 11
20.786528
 21
-69.937453
  0
LINE
  8
型材断面
  6
CONTINUOUS
 62
    47
 10
22.703195
 20
-76.17062
 11
22.703195
 21
-73.543312
  0
INSERT
  2
*GRP_0010
  8
型材断面
  6
DOT
 10
0.0
 20
0.0
  0
INSERT
  2
*GRP_0011
  8
型材断面
  6
DOT
 10
0.0
 20
0.0
  0
LINE
  8
型材断面
  6
CONTINUOUS
 10
22.703195
 20
-76.17062
 11
-37.596497
 21
-76.17062
  0
LINE
  8
型材断面
  6
CONTINUOUS
 10
22.136528
 20
-76.67062
 11
-37.596497
 21
-76.67062
  0
LINE
  8
型材断面
  6
CONTINUOUS
 10
23.016527
 20
-73.543312
 11
-37.596497
 21
-73.543312
  0
LINE
  8
型材断面
  6
CONTINUOUS
 10
23.016527
 20
-73.209977
 11
-37.596497
 21
-73.209977
  0
LINE
  8
型材断面
  6
CONTINUOUS
 10
22.233195
 20
-73.109977
 11
-37.596497
 21
-73.109977
  0
LINE
  8
型材断面
  6
CONTINUOUS
 10
22.703195
 20
-72.703953
 11
-37.596497
 21
-72.703953
  0
LINE
  8
型材断面
  6
CONTINUOUS
 10
22.4035
 20
-69.937453
 11
-37.596497
 21
-69.937453
  0
LINE
  8
型材断面
  6
CONTINUOUS
 10
20.736832
 20
-68.70412
 11
-37.596497
 21
-68.70412
  0
LINE
  8
型材断面
  6
CONTINUOUS
 10
22.4035
 20
-69.437453
 11
-37.596497
 21
-69.437453
  0
LINE
  8
型材断面
  6
CONTINUOUS
 10
22.233195
 20
-70.42062
 11
-37.596497
 21
-70.42062
  0
LINE
  8
型材断面
  6
CONTINUOUS
 10
22.703195
 20
-70.87062
 11
-37.596497
 21
-70.87062
  0
LINE
  8
型材断面
  6
CONTINUOUS
 10
20.736832
 20
40.203325
 11
20.736832
 21
60.203325
  0
LINE
  8
型材断面
  6
CONTINUOUS
 10
22.703195
 20
38.236962
 11
22.703195
 21
62.169687
  0
LINE
  8
型材断面
  6
CONTINUOUS
 10
23.016527
 20
37.92363
 11
23.016527
 21
62.48302
  0
LINE
  8
型材断面
  6
CONTINUOUS
 10
22.4035
 20
38.536658
 11
22.4035
 21
61.869993
  0
LINE
  8
型材断面
  6
CONTINUOUS
 10
19.9035
 20
41.036658
 11
23.016527
 21
37.92363
  0
LINE
  8
型材断面
  6
CONTINUOUS
 10
19.9035
 20
59.369993
 11
23.016527
 21
62.48302
  0
LINE
  8
型材断面
  6
CONTINUOUS
 10
19.9035
 20
50.619993
 11
20.736832
 21
50.619993
  0
LINE
  8
型材断面
  6
CONTINUOUS
 10
19.9035
 20
49.786658
 11
20.736832
 21
49.786658
  0
LINE
  8
型材断面
  6
CONTINUOUS
 10
19.9035
 20
41.036658
 11
19.9035
 21
49.786658
  0
LINE
  8
型材断面
  6
CONTINUOUS
 10
19.9035
 20
50.619993
 11
19.9035
 21
59.369993
  0
LINE
  8
型材断面
  6
DASHDOT
 10
172.29227
 20
40.203325
 11
20.736832
 21
40.203325
  0
LINE
  8
型材断面
  6
DASHDOT
 10
172.29227
 20
60.203325
 11
20.736832
 21
60.203325
  0
LINE
  8
型材断面
  6
DASHDOT
 10
20.736832
 20
-79.253555
 11
20.736832
 21
40.203325
  0
LINE
  8
型材断面
  6
CONTINUOUS
 10
-97.596495
 20
-69.937453
 11
-97.546495
 21
-69.937453
  0
LINE
  8
型材断面
  6
CONTINUOUS
 10
-95.929828
 20
-69.437453
 11
-95.929828
 21
-68.70412
  0
LINE
  8
型材断面
  6
CONTINUOUS
 62
    47
 10
-97.329522
 20
-76.67062
 11
-97.279522
 21
-76.67062
  0
LINE
  8
型材断面
  6
CONTINUOUS
 62
    47
 10
-97.329522
 20
-76.67062
 11
-97.329522
 21
-76.17062
  0
LINE
  8
型材断面
  6
CONTINUOUS
 10
-95.979522
 20
-70.42062
 11
-97.42619
 21
-70.42062
  0
LINE
  8
型材断面
  6
CONTINUOUS
 10
-97.42619
 20
-70.87062
 11
-97.42619
 21
-70.42062
  0
LINE
  8
型材断面
  6
CONTINUOUS
 62
    47
 10
-98.159523
 20
-73.543312
 11
-98.209523
 21
-73.543312
  0
LINE
  8
型材断面
  6
CONTINUOUS
 62
    47
 10
-98.209523
 20
-73.543312
 11
-98.209523
 21
-73.209977
  0
LINE
  8
型材断面
  6
CONTINUOUS
 62
    47
 10
-98.209523
 20
-73.209977
 11
-97.42619
 21
-73.109977
  0
LINE
  8
型材断面
  6
CONTINUOUS
 62
    47
 10
-97.42619
 20
-72.703953
 11
-97.42619
 21
-73.109977
  0
LINE
  8
型材断面
  6
CONTINUOUS
 62
    47
 10
-97.89619
 20
-72.703953
 11
-97.89619
 21
-70.87062
  0
LINE
  8
型材断面
  6
CONTINUOUS
 10
-97.596495
 20
-69.937453
 11
-97.596495
 21
-69.437453
  0
LINE
  8
型材断面
  6
CONTINUOUS
 10
-95.979522
 20
-70.42062
 11
-95.979522
 21
-69.937453
  0
LINE
  8
型材断面
  6
CONTINUOUS
 62
    47
 10
-97.89619
 20
-76.17062
 11
-97.89619
 21
-73.543312
  0
INSERT
  2
*GRP_0013
  8
型材断面
  6
DOT
 10
0.0
 20
0.0
  0
INSERT
  2
*GRP_0014
  8
型材断面
  6
DOT
 10
0.0
 20
0.0
  0
LINE
  8
型材断面
  6
CONTINUOUS
 10
-97.89619
 20
-76.17062
 11
-37.596497
 21
-76.17062
  0
LINE
  8
型材断面
  6
CONTINUOUS
 10
-97.329522
 20
-76.67062
 11
-37.596497
 21
-76.67062
  0
LINE
  8
型材断面
  6
CONTINUOUS
 10
-98.209523
 20
-73.543312
 11
-37.596497
 21
-73.543312
  0
LINE
  8
型材断面
  6
CONTINUOUS
 10
-98.209523
 20
-73.209977
 11
-37.596497
 21
-73.209977
  0
LINE
  8
型材断面
  6
CONTINUOUS
 10
-97.42619
 20
-73.109977
 11
-37.596497
 21
-73.109977
  0
LINE
  8
型材断面
  6
CONTINUOUS
 10
-97.89619
 20
-72.703953
 11
-37.596497
 21
-72.703953
  0
LINE
  8
型材断面
  6
CONTINUOUS
 10
-97.596495
 20
-69.937453
 11
-37.596497
 21
-69.937453
  0
LINE
  8
型材断面
  6
CONTINUOUS
 10
-95.929828
 20
-68.70412
 11
-37.596497
 21
-68.70412
  0
LINE
  8
型材断面
  6
CONTINUOUS
 10
-97.596495
 20
-69.437453
 11
-37.596497
 21
-69.437453
  0
LINE
  8
型材断面
  6
CONTINUOUS
 10
-97.42619
 20
-70.42062
 11
-37.596497
 21
-70.42062
  0
LINE
  8
型材断面
  6
CONTINUOUS
 10
-97.89619
 20
-70.87062
 11
-37.596497
 21
-70.87062
  0
LINE
  8
型材断面
  6
CONTINUOUS
 10
-95.929828
 20
40.203325
 11
-95.929828
 21
60.203325
  0
LINE
  8
型材断面
  6
CONTINUOUS
 10
-97.89619
 20
38.236962
 11
-97.89619
 21
62.169687
  0
LINE
  8
型材断面
  6
CONTINUOUS
 10
-98.209523
 20
37.92363
 11
-98.209523
 21
62.48302
  0
LINE
  8
型材断面
  6
CONTINUOUS
 10
-97.596495
 20
38.536658
 11
-97.596495
 21
61.869993
  0
LINE
  8
型材断面
  6
CONTINUOUS
 10
-95.096495
 20
59.369993
 11
-98.209523
 21
62.48302
  0
LINE
  8
型材断面
  6
CONTINUOUS
 10
-95.096495
 20
41.036658
 11
-98.209523
 21
37.92363
  0
LINE
  8
型材断面
  6
CONTINUOUS
 10
-95.096495
 20
49.786658
 11
-95.929828
 21
49.786658
  0
LINE
  8
型材断面
  6
CONTINUOUS
 10
-95.096495
 20
50.619993
 11
-95.929828
 21
50.619993
  0
LINE
  8
型材断面
  6
CONTINUOUS
 10
-95.096495
 20
41.036658
 11
-95.096495
 21
49.786658
  0
LINE
  8
型材断面
  6
CONTINUOUS
 10
-95.096495
 20
50.619993
 11
-95.096495
 21
59.369993
  0
LINE
  8
型材断面
  6
DASHDOT
 10
172.29227
 20
50.203325
 11
-95.929828
 21
50.203325
  0
LINE
  8
型材断面
  6
DASHDOT
 10
-95.929828
 20
-79.253555
 11
-95.929828
 21
40.203325
  0
LINE
  8
型材断面
  6
CONTINUOUS
 10
20.736832
 20
40.203325
 11
-95.929828
 21
40.203325
  0
LINE
  8
型材断面
  6
CONTINUOUS
 10
22.703195
 20
38.236962
 11
-97.89619
 21
38.236962
  0
LINE
  8
型材断面
  6
CONTINUOUS
 10
23.016527
 20
37.92363
 11
-98.209523
 21
37.92363
  0
LINE
  8
型材断面
  6
CONTINUOUS
 10
22.4035
 20
38.536658
 11
-97.596495
 21
38.536658
  0
LINE
  8
型材断面
  6
CONTINUOUS
 10
20.736832
 20
60.203325
 11
-95.929828
 21
60.203325
  0
LINE
  8
型材断面
  6
CONTINUOUS
 10
22.703195
 20
62.169687
 11
-97.89619
 21
62.169687
  0
LINE
  8
型材断面
  6
CONTINUOUS
 10
23.016527
 20
62.48302
 11
-98.209523
 21
62.48302
  0
LINE
  8
型材断面
  6
CONTINUOUS
 10
22.4035
 20
61.869993
 11
-97.596495
 21
61.869993
  0
POLYLINE
  8
型材断面
  6
CONTINUOUS
 66
     1
 70
     1
  0
VERTEX
  8
型材断面
 10
37.744353
 20
-91.899758
  0
VERTEX
  8
型材断面
 10
-10.934322
 20
-91.899758
  0
VERTEX
  8
型材断面
 10
-10.934322
 20
-108.244423
  0
VERTEX
  8
型材断面
 10
37.744353
 20
-108.244423
  0
SEQEND
  0
POLYLINE
  8
型材断面
  6
CONTINUOUS
 66
     1
 70
     1
  0
VERTEX
  8
型材断面
 10
-28.237735
 20
30.427403
  0
VERTEX
  8
型材断面
 10
-47.009665
 20
30.427403
  0
VERTEX
  8
型材断面
 10
-47.009665
 20
25.69056
  0
VERTEX
  8
型材断面
 10
-28.237735
 20
25.69056
  0
SEQEND
  0
POLYLINE
  8
型材断面
  6
CONTINUOUS
 66
     1
 70
     1
  0
VERTEX
  8
型材断面
 10
-28.237735
 20
69.979248
  0
VERTEX
  8
型材断面
 10
-47.009665
 20
69.979248
  0
VERTEX
  8
型材断面
 10
-47.009665
 20
74.71609
  0
VERTEX
  8
型材断面
 10
-28.237735
 20
74.71609
  0
SEQEND
  0
LINE
  8
型材断面
  6
CONTINUOUS
 10
-79.263165
 20
62.833455
 11
-80.758795
 21
65.423963
  0
LINE
  8
型材断面
  6
CONTINUOUS
 10
-79.263165
 20
62.833455
 11
-77.767535
 21
65.423963
  0
LINE
  8
型材断面
  6
CONTINUOUS
 10
-77.767535
 20
65.423963
 11
-80.758795
 21
65.423963
  0
LINE
  8
型材断面
  6
CONTINUOUS
 10
-136.78204
 20
98.180797
 11
-136.185985
 21
95.59029
  0
LINE
  8
型材断面
  6
CONTINUOUS
 10
-136.78204
 20
98.180797
 11
-137.378097
 21
95.59029
  0
LINE
  8
型材断面
  6
CONTINUOUS
 10
-137.378097
 20
95.59029
 11
-136.185985
 21
95.59029
  0
LINE
  8
型材断面
  6
CONTINUOUS
 10
-142.804627
 20
92.311398
 11
-96.56285
 21
92.311398
  0
LINE
  8
型材断面
  6
CONTINUOUS
 10
-136.78204
 20
104.710672
 11
-138.27767
 21
102.120165
  0
LINE
  8
型材断面
  6
CONTINUOUS
 10
-136.78204
 20
104.710672
 11
-135.28641
 21
102.120165
  0
LINE
  8
型材断面
  6
CONTINUOUS
 10
-135.28641
 20
102.120165
 11
-138.27767
 21
102.120165
  0
LINE
  8
型材断面
  6
CONTINUOUS
 10
-142.804627
 20
101.18157
 11
-96.56285
 21
101.18157
  0
LINE
  8
型材断面
  6
CONTINUOUS
 10
-142.804627
 20
86.523365
 11
-96.56285
 21
86.523365
  0
LINE
  8
型材断面
  6
CONTINUOUS
 10
-98.559962
 20
50.203325
 11
-101.15047
 21
51.698955
  0
LINE
  8
型材断面
  6
CONTINUOUS
 10
-98.559962
 20
50.203325
 11
-101.15047
 21
48.707695
  0
LINE
  8
型材断面
  6
CONTINUOUS
 10
-101.15047
 20
48.707695
 11
-101.15047
 21
51.698955
  0
LINE
  8
型材断面
  6
CONTINUOUS
 10
-79.263165
 20
37.573195
 11
-80.758795
 21
34.982688
  0
LINE
  8
型材断面
  6
CONTINUOUS
 10
-79.263165
 20
37.573195
 11
-77.767535
 21
34.982688
  0
LINE
  8
型材断面
  6
CONTINUOUS
 10
-77.767535
 20
34.982688
 11
-80.758795
 21
34.982688
  0
LINE
  8
型材断面
  6
CONTINUOUS
 10
4.07017
 20
62.833455
 11
5.5658
 21
65.423963
  0
LINE
  8
型材断面
  6
CONTINUOUS
 10
4.07017
 20
62.833455
 11
2.57454
 21
65.423963
  0
LINE
  8
型材断面
  6
CONTINUOUS
 10
2.57454
 20
65.423963
 11
5.5658
 21
65.423963
  0
LINE
  8
型材断面
  6
CONTINUOUS
 10
23.366967
 20
50.203325
 11
25.957475
 21
51.698955
  0
LINE
  8
型材断面
  6
CONTINUOUS
 10
23.366967
 20
50.203325
 11
25.957475
 21
48.707695
  0
LINE
  8
型材断面
  6
CONTINUOUS
 10
25.957475
 20
48.707695
 11
25.957475
 21
51.698955
  0
LINE
  8
型材断面
  6
CONTINUOUS
 10
4.07017
 20
37.573195
 11
5.5658
 21
34.982688
  0
LINE
  8
型材断面
  6
CONTINUOUS
 10
4.07017
 20
37.573195
 11
2.57454
 21
34.982688
  0
LINE
  8
型材断面
  6
CONTINUOUS
 10
2.57454
 20
34.982688
 11
5.5658
 21
34.982688
  0
LINE
  8
型材断面
  6
CONTINUOUS
 10
23.366963
 20
56.303325
 11
25.95747
 21
55.707267
  0
LINE
  8
型材断面
  6
CONTINUOUS
 10
23.366963
 20
56.303325
 11
25.95747
 21
56.899382
  0
LINE
  8
型材断面
  6
CONTINUOUS
 10
25.95747
 20
56.899382
 11
25.95747
 21
55.707267
  0
LINE
  8
型材断面
  6
CONTINUOUS
 10
23.366963
 20
44.103325
 11
25.95747
 21
44.699382
  0
LINE
  8
型材断面
  6
CONTINUOUS
 10
23.366963
 20
44.103325
 11
25.95747
 21
43.507267
  0
LINE
  8
型材断面
  6
CONTINUOUS
 10
25.95747
 20
43.507267
 11
25.95747
 21
44.699382
  0
LINE
  8
型材断面
  6
CONTINUOUS
 10
-98.559958
 20
56.303325
 11
-101.150465
 21
55.707267
  0
LINE
  8
型材断面
  6
CONTINUOUS
 10
-98.559958
 20
56.303325
 11
-101.150465
 21
56.899382
  0
LINE
  8
型材断面
  6
CONTINUOUS
 10
-101.150465
 20
56.899382
 11
-101.150465
 21
55.707267
  0
LINE
  8
型材断面
  6
CONTINUOUS
 10
-98.559958
 20
44.103325
 11
-101.150465
 21
44.699382
  0
LINE
  8
型材断面
  6
CONTINUOUS
 10
-98.559958
 20
44.103325
 11
-101.150465
 21
43.507267
  0
LINE
  8
型材断面
  6
CONTINUOUS
 10
-101.150465
 20
43.507267
 11
-101.150465
 21
44.699382
  0
LINE
  8
型材断面
  6
CONTINUOUS
 10
-142.804627
 20
80.735332
 11
-96.56285
 21
80.735332
  0
LINE
  8
型材断面
  6
DASHDOT
 10
-57.1565
 20
40.203325
 11
-57.1565
 21
60.203325
  0
LINE
  8
型材断面
  6
DASHDOT
 10
-18.036495
 20
40.203325
 11
-18.036495
 21
60.203325
  0
LINE
  8
型材断面
  6
CONTINUOUS
 10
-55.9065
 20
41.86999
 11
-58.4065
 21
41.86999
  0
LINE
  8
型材断面
  6
CONTINUOUS
 10
-55.9065
 20
58.53666
 11
-58.4065
 21
58.53666
  0
LINE
  8
型材断面
  6
CONTINUOUS
 10
-55.9065
 20
41.86999
 11
-55.9065
 21
58.53666
  0
LINE
  8
型材断面
  6
CONTINUOUS
 10
-56.9065
 20
41.86999
 11
-56.9065
 21
58.53666
  0
LINE
  8
型材断面
  6
CONTINUOUS
 10
-57.4065
 20
41.86999
 11
-57.4065
 21
58.53666
  0
LINE
  8
型材断面
  6
CONTINUOUS
 10
-58.4065
 20
41.86999
 11
-58.4065
 21
58.53666
  0
LINE
  8
型材断面
  6
CONTINUOUS
 10
-19.286495
 20
41.86999
 11
-16.786495
 21
41.86999
  0
LINE
  8
型材断面
  6
CONTINUOUS
 10
-19.286495
 20
58.53666
 11
-16.786495
 21
58.53666
  0
LINE
  8
型材断面
  6
CONTINUOUS
 10
-19.286495
 20
41.86999
 11
-19.286495
 21
58.53666
  0
LINE
  8
型材断面
  6
CONTINUOUS
 10
-18.286495
 20
41.86999
 11
-18.286495
 21
58.53666
  0
LINE
  8
型材断面
  6
CONTINUOUS
 10
-17.786495
 20
41.86999
 11
-17.786495
 21
58.53666
  0
LINE
  8
型材断面
  6
CONTINUOUS
 10
-16.786495
 20
41.86999
 11
-16.786495
 21
58.53666
  0
LINE
  8
型材断面
  6
CONTINUOUS
 10
-95.096495
 20
41.036658
 11
-76.95983
 21
41.036658
  0
LINE
  8
型材断面
  6
CONTINUOUS
 10
-76.126495
 20
41.036658
 11
-76.126495
 21
40.203325
  0
LINE
  8
型材断面
  6
CONTINUOUS
 10
-76.95983
 20
41.036658
 11
-76.95983
 21
40.203325
  0
LINE
  8
型材断面
  6
CONTINUOUS
 10
-37.17983
 20
41.036658
 11
-37.17983
 21
40.203325
  0
LINE
  8
型材断面
  6
CONTINUOUS
 10
-38.013165
 20
41.036658
 11
-38.013165
 21
40.203325
  0
LINE
  8
型材断面
  6
CONTINUOUS
 10
-76.126495
 20
41.036658
 11
-38.013165
 21
41.036658
  0
LINE
  8
型材断面
  6
CONTINUOUS
 10
19.9035
 20
41.036658
 11
1.766835
 21
41.036658
  0
LINE
  8
型材断面
  6
CONTINUOUS
 10
0.9335
 20
41.036658
 11
0.9335
 21
40.203325
  0
LINE
  8
型材断面
  6
CONTINUOUS
 10
1.766835
 20
41.036658
 11
1.766835
 21
40.203325
  0
LINE
  8
型材断面
  6
CONTINUOUS
 10
-37.17983
 20
41.036658
 11
0.9335
 21
41.036658
  0
LINE
  8
型材断面
  6
CONTINUOUS
 10
-95.096495
 20
59.369993
 11
-76.95983
 21
59.369993
  0
LINE
  8
型材断面
  6
CONTINUOUS
 10
-76.126495
 20
59.369993
 11
-76.126495
 21
60.203325
  0
LINE
  8
型材断面
  6
CONTINUOUS
 10
-76.95983
 20
59.369993
 11
-76.95983
 21
60.203325
  0
LINE
  8
型材断面
  6
CONTINUOUS
 10
-37.17983
 20
59.369993
 11
-37.17983
 21
60.203325
  0
LINE
  8
型材断面
  6
CONTINUOUS
 10
-38.013165
 20
59.369993
 11
-38.013165
 21
60.203325
  0
LINE
  8
型材断面
  6
CONTINUOUS
 10
-76.126495
 20
59.369993
 11
-38.013165
 21
59.369993
  0
LINE
  8
型材断面
  6
CONTINUOUS
 10
19.9035
 20
59.369993
 11
1.766835
 21
59.369993
  0
LINE
  8
型材断面
  6
CONTINUOUS
 10
0.9335
 20
59.369993
 11
0.9335
 21
60.203325
  0
LINE
  8
型材断面
  6
CONTINUOUS
 10
1.766835
 20
59.369993
 11
1.766835
 21
60.203325
  0
LINE
  8
型材断面
  6
CONTINUOUS
 10
-37.17983
 20
59.369993
 11
0.9335
 21
59.369993
  0
INSERT
  2
*GRP_0023
  8
型材断面
  6
DOT
 10
0.0
 20
0.0
  0
INSERT
  2
*GRP_0028
  8
型材断面
  6
CONTINUOUS
 10
0.0
 20
0.0
  0
INSERT
  2
*GRP_0029
  8
型材断面
  6
CONTINUOUS
 10
0.0
 20
0.0
  0
INSERT
  2
*GRP_0030
  8
型材断面
  6
CONTINUOUS
 10
0.0
 20
0.0
  0
INSERT
  2
*GRP_0031
  8
型材断面
  6
CONTINUOUS
 10
0.0
 20
0.0
  0
LINE
  8
型材断面
  6
CONTINUOUS
 10
132.689597
 20
-35.898172
 11
114.73513
 21
-35.898172
  0
POLYLINE
  8
ガラス
  6
CONTINUOUS
 66
     1
 70
     1
  0
VERTEX
  8
ガラス
 10
153.13104
 20
-56.113483
  0
VERTEX
  8
ガラス
 10
115.36104
 20
-56.113483
  0
VERTEX
  8
ガラス
 10
115.36104
 20
-75.446815
  0
VERTEX
  8
ガラス
 10
153.13104
 20
-75.446815
  0
SEQEND
  0
TEXT
  7
TextStyle03
  8
文字
  6
CONTINUOUS
 10
78.1
 20
125.25
  1
シリーズ：ＳＴＤＬ
 40
5.0
 72
     5
 11
128.1
 21
125.25
  0
TEXT
  7
TextStyle03
  8
文字
  6
CONTINUOUS
 10
78.1
 20
119.625
  1
　　　　　（上下可動）600×3500タイプ
 40
5.0
 72
     5
 11
181.5375
 21
119.625
  0
TEXT
  7
TextStyle03
  8
文字
  6
CONTINUOUS
 10
78.1
 20
114.0
  1
図面名　：外観姿図
 40
5.0
 72
     5
 11
128.1
 21
114.0
  0
TEXT
  7
TextStyle03
  8
文字
  6
CONTINUOUS
 10
78.1
 20
108.375
  1
　　　　　　
 40
5.0
 72
     5
 11
111.225
 21
108.375
  0
TEXT
  7
TextStyle03
  8
文字
  6
CONTINUOUS
 10
-6.625
 20
-97.625
  1
※トップライト枠高さ寸法
 40
3.0
 72
     5
 11
33.5
 21
-97.625
  0
TEXT
  7
TextStyle03
  8
文字
  6
CONTINUOUS
 10
-6.625
 20
-101.0
  1
　シングルガラス：214
 40
3.0
 72
     5
 11
28.625
 21
-101.0
  0
TEXT
  7
TextStyle03
  8
文字
  6
CONTINUOUS
 10
-6.625
 20
-104.375
  1
　ペアガラス：224
 40
3.0
 72
     5
 11
21.875
 21
-104.375
  0
TEXT
  7
TextStyle03
  8
文字
  6
CONTINUOUS
 10
-46.0
 20
26.7
  1
可動装置側
 40
3.0
 72
     5
 11
-29.5
 21
26.7
  0
TEXT
  7
TextStyle03
  8
文字
  6
CONTINUOUS
 10
-46.0
 20
70.675
  1
可動装置側
 40
3.0
 72
     5
 11
-29.5
 21
70.675
  0
TEXT
  7
TextStyle03
  8
文字
  6
CONTINUOUS
 10
-133.975
 20
96.8
  1
はケーシング位置を示す
 40
3.0
 72
     5
 11
-97.225
 21
96.8
  0
TEXT
  7
TextStyle03
  8
文字
  6
CONTINUOUS
 10
-133.975
 20
93.425
  1
４ヶ所中1ヶ所に設定
 40
3.0
 72
     5
 11
-102.2875
 21
93.425
  0
TEXT
  7
TextStyle03
  8
文字
  6
CONTINUOUS
 10
-133.975
 20
102.325
  1
は排水穴位置を示す
 40
3.0
 72
     5
 11
-103.975
 21
102.325
  0
TEXT
  7
TextStyle03
  8
文字
  6
CONTINUOUS
 10
-116.925
 20
28.65
  1
アンカーピッチ
 40
3.0
 50
90.0
 72
     5
 11
-116.925
 21
51.9
  0
TEXT
  7
TextStyle03
  8
文字
  6
CONTINUOUS
 10
-84.775
 20
97.15
  1
アンカーピッチ
 40
3.0
 72
     5
 11
-61.525
 21
97.15
  0
TEXT
  7
TextStyle03
  8
文字
  6
CONTINUOUS
 10
-137.7
 20
87.45
  1
アンカー数量　１４ヶ所
 40
3.0
 72
     5
 11
-100.95
 21
87.45
  0
TEXT
  7
TextStyle03
  8
文字
  6
CONTINUOUS
 10
-137.775
 20
81.675
  1
アームユニット数　４ヶ所
 40
3.0
 72
     5
 11
-97.65
 21
81.675
  0
TEXT
  7
TextStyle03
  8
文字
  6
CONTINUOUS
 10
115.75
 20
-34.85
  1
ガラス寸法
 40
3.0
 72
     5
 11
132.25
 21
-34.85
  0
TEXT
  7
TextStyle03
  8
文字
  6
CONTINUOUS
 10
140.075
 20
-73.325
  1
×３枚
 40
3.0
 72
     5
 11
149.825
 21
-73.325
  0
INSERT
  2
*DIM_0006
  8
寸法
  6
CONTINUOUS
 10
0.0
 20
0.0
  0
INSERT
  2
*DIM_0007
  8
寸法
  6
CONTINUOUS
 10
0.0
 20
0.0
  0
INSERT
  2
*DIM_0008
  8
寸法
  6
CONTINUOUS
 10
0.0
 20
0.0
  0
INSERT
  2
*DIM_0009
  8
寸法
  6
CONTINUOUS
 10
0.0
 20
0.0
  0
INSERT
  2
*DIM_0012
  8
寸法
  6
CONTINUOUS
 10
0.0
 20
0.0
  0
INSERT
  2
*DIM_0015
  8
寸法
  6
CONTINUOUS
 10
0.0
 20
0.0
  0
INSERT
  2
*DIM_0016
  8
寸法
  6
CONTINUOUS
 10
0.0
 20
0.0
  0
INSERT
  2
*DIM_0017
  8
寸法
  6
CONTINUOUS
 10
0.0
 20
0.0
  0
INSERT
  2
*DIM_0018
  8
寸法
  6
CONTINUOUS
 10
0.0
 20
0.0
  0
INSERT
  2
*DIM_0019
  8
寸法
  6
CONTINUOUS
 10
0.0
 20
0.0
  0
INSERT
  2
*DIM_0020
  8
寸法
  6
CONTINUOUS
 10
0.0
 20
0.0
  0
INSERT
  2
*DIM_0021
  8
寸法
  6
CONTINUOUS
 10
0.0
 20
0.0
  0
INSERT
  2
*DIM_0022
  8
寸法
  6
CONTINUOUS
 10
0.0
 20
0.0
  0
INSERT
  2
*DIM_0032
  8
寸法
  6
CONTINUOUS
 10
0.0
 20
0.0
  0
INSERT
  2
*DIM_0033
  8
寸法
  6
CONTINUOUS
 10
0.0
 20
0.0
  0
INSERT
  2
*DIM_0034
  8
寸法
  6
CONTINUOUS
 10
0.0
 20
0.0
  0
INSERT
  2
*DIM_0035
  8
寸法
  6
CONTINUOUS
 10
0.0
 20
0.0
  0
INSERT
  2
*DIM_0036
  8
寸法
  6
CONTINUOUS
 10
0.0
 20
0.0
  0
INSERT
  2
*DIM_0037
  8
寸法
  6
CONTINUOUS
 10
0.0
 20
0.0
  0
LINE
  8
曲げ物
  6
CONTINUOUS
 10
3.456595
 20
52.128875
 11
-0.238717
 21
48.433562
  0
LINE
  8
曲げ物
  6
CONTINUOUS
 10
2.753125
 20
50.592765
 11
1.297395
 21
49.137035
  0
LINE
  8
曲げ物
  6
CONTINUOUS
 10
1.920485
 20
51.425405
 11
0.464755
 21
49.969675
  0
LINE
  8
曲げ物
  6
CONTINUOUS
 10
-35.701967
 20
52.128875
 11
-39.39728
 21
48.433562
  0
LINE
  8
曲げ物
  6
CONTINUOUS
 10
-36.405437
 20
50.592765
 11
-37.861168
 21
49.137035
  0
LINE
  8
曲げ物
  6
CONTINUOUS
 10
-37.238077
 20
51.425405
 11
-38.693808
 21
49.969675
  0
LINE
  8
曲げ物
  6
CONTINUOUS
 10
-75.040995
 20
52.128875
 11
-78.736308
 21
48.433562
  0
LINE
  8
曲げ物
  6
CONTINUOUS
 10
-75.744465
 20
50.592765
 11
-77.200195
 21
49.137035
  0
LINE
  8
曲げ物
  6
CONTINUOUS
 10
-76.577105
 20
51.425405
 11
-78.032835
 21
49.969675
  0
ENDSEC
  0
EOF
