  0
SECTION
  2
HEADER
  9
$EXTMIN
 10
-210.0
 20
-148.5
  9
$EXTMAX
 10
210.0
 20
148.5
  9
$PDMODE
 70
    32
  9
$PDSIZE
 40
1.5
  9
$LTSCALE
 40
10.0
  0
ENDSEC
  0
SECTION
  2
TABLES
  0
TABLE
  2
LTYPE
 70
    15
  0
LTYPE
  2
CONTINUOUS
 70
    64
  3
実線
 72
    65
 73
     0
 40
0.0
  0
LTYPE
  2
DASHED
 70
    64
  3
破線A
 72
    65
 73
     2
 40
0.6
 49
0.4
 49
-0.2
  0
LTYPE
  2
DASHEDX2
 70
    64
  3
破線B
 72
    65
 73
     2
 40
1.3
 49
0.9
 49
-0.4
  0
LTYPE
  2
DASHDOT
 70
    64
  3
１点鎖線A
 72
    65
 73
     4
 40
0.5375
 49
0.375
 49
-0.05
 49
0.0625
 49
-0.05
  0
LTYPE
  2
DASHDOTX2
 70
    64
  3
１点鎖線B
 72
    65
 73
     4
 40
1.075
 49
0.75
 49
-0.1
 49
0.125
 49
-0.1
  0
LTYPE
  2
DIVIDE2
 70
    64
  3
２点鎖線A
 72
    65
 73
     6
 40
0.5125
 49
0.3
 49
-0.0375
 49
0.05
 49
-0.0375
 49
0.05
 49
-0.0375
  0
LTYPE
  2
DIVIDE
 70
    64
  3
２点鎖線B
 72
    65
 73
     6
 40
1.05
 49
0.55
 49
-0.1
 49
0.1
 49
-0.1
 49
0.1
 49
-0.1
  0
LTYPE
  2
DOT
 70
    64
  3
点線A
 72
    65
 73
     2
 40
0.1125
 49
0.0625
 49
-0.05
  0
LTYPE
  2
DOTX2
 70
    64
  3
点線B
 72
    65
 73
     2
 40
0.275
 49
0.15
 49
-0.125
  0
LTYPE
  2
CONTINUOUS
 70
    64
  3
実線
 72
    65
 73
     0
 40
0.0
  0
LTYPE
  2
CONTINUOUS
 70
    64
  3
実線
 72
    65
 73
     0
 40
0.0
  0
LTYPE
  2
CONTINUOUS
 70
    64
  3
実線
 72
    65
 73
     0
 40
0.0
  0
LTYPE
  2
CONTINUOUS
 70
    64
  3
実線
 72
    65
 73
     0
 40
0.0
  0
LTYPE
  2
CONTINUOUS
 70
    64
  3
実線
 72
    65
 73
     0
 40
0.0
  0
LTYPE
  2
CONTINUOUS
 70
    64
  3
実線
 72
    65
 73
     0
 40
0.0
  0
ENDTAB
  0
TABLE
  2
LAYER
 70
    34
  0
LAYER
  2
通り芯
 70
     0
 62
    15
  6
CONTINUOUS
  0
LAYER
  2
補助線
 70
     0
 62
    16
  6
DOT
  0
LAYER
  2
躯体
 70
     0
 62
    31
  6
CONTINUOUS
  0
LAYER
  2
型材
 70
     0
 62
    32
  6
CONTINUOUS
  0
LAYER
  2
型材断面
 70
     0
 62
    47
  6
CONTINUOUS
  0
LAYER
  2
ガラス
 70
     0
 62
    48
  6
CONTINUOUS
  0
LAYER
  2
ゴム等
 70
     0
 62
    63
  6
CONTINUOUS
  0
LAYER
  2
ボルト／ビス
 70
     0
 62
    64
  6
CONTINUOUS
  0
LAYER
  2
文字
 70
     0
 62
    79
  6
CONTINUOUS
  0
LAYER
  2
寸法
 70
     0
 62
    80
  6
CONTINUOUS
  0
LAYER
  2
ﾊｯﾁﾝｸﾞ
 70
     0
 62
    95
  6
CONTINUOUS
  0
LAYER
  2
別途部材
 70
     0
 62
    96
  6
CONTINUOUS
  0
LAYER
  2
曲げ物
 70
     0
 62
   111
  6
CONTINUOUS
  0
LAYER
  2
鉄骨等
 70
     0
 62
   112
  6
CONTINUOUS
  0
LAYER
  2
St
 70
     0
 62
   127
  6
CONTINUOUS
  0
LAYER
  2
その他部品等
 70
     0
 62
   128
  6
CONTINUOUS
  0
LAYER
  2
ｶﾞｽｹｯﾄ
 70
     0
 62
   143
  6
CONTINUOUS
  0
LAYER
  2
ｽｹｯﾁ
 70
     0
 62
    14
  6
CONTINUOUS
  0
LAYER
  2
0
 70
     0
 62
    17
  6
CONTINUOUS
  0
LAYER
  2
1
 70
     0
 62
    30
  6
CONTINUOUS
  0
LAYER
  2
4
 70
     0
 62
    33
  6
CONTINUOUS
  0
LAYER
  2
ﾚｲﾔ3
 70
     0
 62
    46
  6
CONTINUOUS
  0
LAYER
  2
外形線
 70
     0
 62
    49
  6
CONTINUOUS
  0
LAYER
  2
部品
 70
     0
 62
    14
  6
CONTINUOUS
  0
LAYER
  2
サッシ芯
 70
     0
 62
    17
  6
DASHDOTX2
  0
LAYER
  2
寸法線
 70
     0
 62
    62
  6
CONTINUOUS
  0
LAYER
  2
姿図外形線
 70
     0
 62
    65
  6
CONTINUOUS
  0
LAYER
  2
姿補助線
 70
     0
 62
    30
  6
CONTINUOUS
  0
LAYER
  2
透視線
 70
     0
 62
    78
  6
DOT
  0
LAYER
  2
用紙
 70
     0
 62
    81
  6
CONTINUOUS
  0
LAYER
  2
実線図枠
 70
     0
 62
    94
  6
CONTINUOUS
  0
LAYER
  2
補助図枠
 70
     0
 62
    97
  6
CONTINUOUS
  0
LAYER
  2
建具記号
 70
     0
 62
   110
  6
CONTINUOUS
  0
LAYER
  2
補助文字
 70
     0
 62
   113
  6
CONTINUOUS
  0
ENDTAB
  0
TABLE
  2
STYLE
 70
    10
  0
STYLE
  2
STANDARD
 70
     0
 40
1.0
 41
1.0
 42
1.0
 50
0.0
 71
     0
  3
TXT
  4
BIGFONT
  0
STYLE
  2
TATE
 70
     4
 40
1.0
 41
1.0
 42
1.0
 50
0.0
 71
     0
  3
TXT
  4
BIGFONT
  0
STYLE
  2
TextStyle03
 70
     0
 40
1.0
 41
1.0
 42
1.0
 50
0.0
 71
     0
  3
MONOTXT
  4
BIGFONT
  0
STYLE
  2
TextStyle04
 70
     0
 40
1.0
 41
1.0
 42
1.0
 50
0.0
 71
     0
  3
MONOTXT
  4
BIGFONT
  0
STYLE
  2
TextStyle05
 70
     0
 40
1.0
 41
1.0
 42
1.0
 50
0.0
 71
     0
  3
MONOTXT
  4
BIGFONT
  0
STYLE
  2
TextStyle06
 70
     0
 40
1.0
 41
1.0
 42
1.0
 50
0.0
 71
     0
  3
MONOTXT
  4
BIGFONT
  0
STYLE
  2
TextStyle07
 70
     0
 40
1.0
 41
1.0
 42
1.0
 50
0.0
 71
     0
  3
MONOTXT
  4
BIGFONT
  0
STYLE
  2
TextStyle08
 70
     0
 40
1.0
 41
1.0
 42
1.0
 50
0.0
 71
     0
  3
MONOTXT
  4
BIGFONT
  0
STYLE
  2
TextStyle09
 70
     0
 40
1.0
 41
1.0
 42
1.0
 50
0.0
 71
     0
  3
MONOTXT
  4
BIGFONT
  0
STYLE
  2
TextStyle10
 70
     0
 40
1.0
 41
1.0
 42
1.0
 50
0.0
 71
     0
  3
MONOTXT
  4
BIGFONT
  0
ENDTAB
  0
ENDSEC
  0
SECTION
  2
BLOCKS
  0
BLOCK
  2
*GRP_0001
 70
    65
 10
0.0
 20
0.0
  0
LINE
  8
型材断面
  6
CONTINUOUS
 10
195.0
 20
133.5
 11
195.0
 21
-133.5
  0
LINE
  8
型材断面
  6
CONTINUOUS
 10
195.0
 20
-133.5
 11
-185.0
 21
-133.5
  0
LINE
  8
型材断面
  6
CONTINUOUS
 10
-185.0
 20
-133.5
 11
-185.0
 21
133.5
  0
LINE
  8
型材断面
  6
CONTINUOUS
 10
195.0
 20
133.5
 11
-185.0
 21
133.5
  0
LINE
  8
型材断面
  6
CONTINUOUS
 10
145.0
 20
-133.5
 11
145.0
 21
-118.5
  0
LINE
  8
型材断面
  6
CONTINUOUS
 10
195.0
 20
-118.5
 11
145.0
 21
-118.5
  0
ENDBLK
  0
BLOCK
  2
*GRP_0002
 70
    65
 10
0.0
 20
0.0
  0
INSERT
  2
M8横
  8
ゴム等
  6
CONTINUOUS
 10
163.336003
 20
61.029685
 50
270.0
 41
0.033333
 42
-0.033333
  0
LINE
  8
ボルト／ビス
  6
CONTINUOUS
 10
163.126005
 20
60.896352
 11
163.109338
 21
60.91302
  0
LINE
  8
ボルト／ビス
  6
CONTINUOUS
 10
163.109338
 20
61.146352
 11
163.126005
 21
61.16302
  0
LINE
  8
ボルト／ビス
  6
CONTINUOUS
 10
163.126005
 20
61.16302
 11
163.126005
 21
60.896352
  0
LINE
  8
ボルト／ビス
  6
CONTINUOUS
 10
163.109338
 20
61.146352
 11
163.109338
 21
60.91302
  0
LINE
  8
ボルト／ビス
  6
CONTINUOUS
 10
163.109338
 20
60.91302
 11
163.15267
 21
60.91302
  0
LINE
  8
ボルト／ビス
  6
CONTINUOUS
 10
163.126005
 20
60.896352
 11
163.15267
 21
60.896352
  0
LINE
  8
ボルト／ビス
  6
CONTINUOUS
 10
163.126005
 20
61.16302
 11
163.15267
 21
61.16302
  0
LINE
  8
ボルト／ビス
  6
CONTINUOUS
 10
163.109338
 20
61.146352
 11
163.15267
 21
61.146352
  0
LINE
  8
ボルト／ビス
  6
CONTINUOUS
 10
163.336003
 20
61.396352
 11
163.336003
 21
60.66302
  0
LINE
  8
ボルト／ビス
  6
CONTINUOUS
 10
163.376002
 20
60.61302
 11
163.459335
 21
60.61302
  0
LINE
  8
ボルト／ビス
  6
CONTINUOUS
 10
163.459335
 20
60.61302
 11
163.459335
 21
61.446352
  0
LINE
  8
ボルト／ビス
  6
CONTINUOUS
 10
163.459335
 20
61.446352
 11
163.376002
 21
61.446352
  0
LINE
  8
ボルト／ビス
  6
CONTINUOUS
 10
163.376002
 20
60.61302
 11
163.376002
 21
61.446352
  0
LINE
  8
ボルト／ビス
  6
CONTINUOUS
 10
163.336003
 20
61.396352
 11
163.376002
 21
61.396352
  0
LINE
  8
ボルト／ビス
  6
CONTINUOUS
 10
163.336003
 20
60.66302
 11
163.376002
 21
60.66302
  0
LINE
  8
ボルト／ビス
  6
CONTINUOUS
 10
163.386002
 20
61.029685
 11
163.336003
 21
61.029685
  0
ENDBLK
  0
BLOCK
  2
*GRP_0003
 70
    65
 10
0.0
 20
0.0
  0
LINE
  8
ボルト／ビス
  6
CONTINUOUS
 10
162.47617
 20
61.236355
 11
162.409503
 21
61.236355
  0
LINE
  8
ボルト／ビス
  6
CONTINUOUS
 10
162.409503
 20
61.236355
 11
162.409503
 21
60.50302
  0
LINE
  8
ボルト／ビス
  6
CONTINUOUS
 10
162.409503
 20
60.50302
 11
162.47617
 21
60.50302
  0
LINE
  8
ボルト／ビス
  6
CONTINUOUS
 10
162.47617
 20
61.236355
 11
162.47617
 21
60.50302
  0
LINE
  8
ボルト／ビス
  6
CONTINUOUS
 10
162.37617
 20
61.169687
 11
162.409503
 21
61.169687
  0
LINE
  8
ボルト／ビス
  6
CONTINUOUS
 10
162.37617
 20
61.169687
 11
162.37617
 21
60.569687
  0
LINE
  8
ボルト／ビス
  6
CONTINUOUS
 10
162.37617
 20
60.569687
 11
162.409503
 21
60.569687
  0
LINE
  8
ボルト／ビス
  6
CONTINUOUS
 62
    64
 10
162.17617
 20
61.030062
 11
162.187845
 21
61.062138
  0
ARC
  8
ボルト／ビス
  6
CONTINUOUS
 62
    64
 10
162.281149
 20
61.014031
 40
0.104978
 50
180.0
 51
207.278033
  0
ARC
  8
ボルト／ビス
  6
CONTINUOUS
 62
    64
 10
162.578573
 20
60.869693
 40
0.402402
 50
166.165015
 51
193.834998
  0
LINE
  8
ボルト／ビス
  6
CONTINUOUS
 62
    64
 10
162.17617
 20
60.709312
 11
162.187845
 21
60.677238
  0
ARC
  8
ボルト／ビス
  6
CONTINUOUS
 62
    64
 10
162.281149
 20
60.725355
 40
0.104978
 50
152.721967
 51
180.0
  0
LINE
  8
ボルト／ビス
  6
CONTINUOUS
 62
    64
 10
162.17617
 20
61.030062
 11
162.17617
 21
60.709312
  0
LINE
  8
ボルト／ビス
  6
CONTINUOUS
 62
    64
 10
162.187845
 20
60.677238
 11
162.309503
 21
60.677238
  0
LINE
  8
ボルト／ビス
  6
CONTINUOUS
 62
    64
 10
162.187845
 20
60.773462
 11
162.309503
 21
60.773462
  0
LINE
  8
ボルト／ビス
  6
CONTINUOUS
 62
    64
 10
162.187845
 20
61.062138
 11
162.309503
 21
61.062138
  0
LINE
  8
ボルト／ビス
  6
CONTINUOUS
 62
    64
 10
162.187845
 20
60.965913
 11
162.309503
 21
60.965913
  0
LINE
  8
ボルト／ビス
  6
CONTINUOUS
 10
162.309503
 20
61.062138
 11
162.309503
 21
60.677238
  0
LINE
  8
ボルト／ビス
  6
CONTINUOUS
 10
162.309503
 20
61.069687
 11
162.37617
 21
61.069687
  0
LINE
  8
ボルト／ビス
  6
CONTINUOUS
 10
162.309503
 20
61.069687
 11
162.309503
 21
60.669687
  0
LINE
  8
ボルト／ビス
  6
CONTINUOUS
 10
162.309503
 20
60.669687
 11
162.37617
 21
60.669687
  0
ENDBLK
  0
BLOCK
  2
*GRP_0004
 70
    65
 10
0.0
 20
0.0
  0
INSERT
  2
M8横
  8
ゴム等
  6
CONTINUOUS
 10
163.336003
 20
39.376965
 50
90.0
 41
0.033333
 42
0.033333
  0
LINE
  8
ボルト／ビス
  6
CONTINUOUS
 10
163.126005
 20
39.5103
 11
163.109338
 21
39.493633
  0
LINE
  8
ボルト／ビス
  6
CONTINUOUS
 10
163.109338
 20
39.2603
 11
163.126005
 21
39.243633
  0
LINE
  8
ボルト／ビス
  6
CONTINUOUS
 10
163.126005
 20
39.243633
 11
163.126005
 21
39.5103
  0
LINE
  8
ボルト／ビス
  6
CONTINUOUS
 10
163.109338
 20
39.2603
 11
163.109338
 21
39.493633
  0
LINE
  8
ボルト／ビス
  6
CONTINUOUS
 10
163.109338
 20
39.493633
 11
163.15267
 21
39.493633
  0
LINE
  8
ボルト／ビス
  6
CONTINUOUS
 10
163.126005
 20
39.5103
 11
163.15267
 21
39.5103
  0
LINE
  8
ボルト／ビス
  6
CONTINUOUS
 10
163.126005
 20
39.243633
 11
163.15267
 21
39.243633
  0
LINE
  8
ボルト／ビス
  6
CONTINUOUS
 10
163.109338
 20
39.2603
 11
163.15267
 21
39.2603
  0
LINE
  8
ボルト／ビス
  6
CONTINUOUS
 10
163.336003
 20
39.0103
 11
163.336003
 21
39.743633
  0
LINE
  8
ボルト／ビス
  6
CONTINUOUS
 10
163.376002
 20
39.793633
 11
163.459335
 21
39.793633
  0
LINE
  8
ボルト／ビス
  6
CONTINUOUS
 10
163.459335
 20
39.793633
 11
163.459335
 21
38.9603
  0
LINE
  8
ボルト／ビス
  6
CONTINUOUS
 10
163.459335
 20
38.9603
 11
163.376002
 21
38.9603
  0
LINE
  8
ボルト／ビス
  6
CONTINUOUS
 10
163.376002
 20
39.793633
 11
163.376002
 21
38.9603
  0
LINE
  8
ボルト／ビス
  6
CONTINUOUS
 10
163.336003
 20
39.0103
 11
163.376002
 21
39.0103
  0
LINE
  8
ボルト／ビス
  6
CONTINUOUS
 10
163.336003
 20
39.743633
 11
163.376002
 21
39.743633
  0
LINE
  8
ボルト／ビス
  6
CONTINUOUS
 10
163.386002
 20
39.376965
 11
163.336003
 21
39.376965
  0
ENDBLK
  0
BLOCK
  2
*GRP_0005
 70
    65
 10
0.0
 20
0.0
  0
LINE
  8
ボルト／ビス
  6
CONTINUOUS
 10
162.47617
 20
39.170298
 11
162.409503
 21
39.170298
  0
LINE
  8
ボルト／ビス
  6
CONTINUOUS
 10
162.409503
 20
39.170298
 11
162.409503
 21
39.90363
  0
LINE
  8
ボルト／ビス
  6
CONTINUOUS
 10
162.409503
 20
39.90363
 11
162.47617
 21
39.90363
  0
LINE
  8
ボルト／ビス
  6
CONTINUOUS
 10
162.47617
 20
39.170298
 11
162.47617
 21
39.90363
  0
LINE
  8
ボルト／ビス
  6
CONTINUOUS
 10
162.37617
 20
39.236965
 11
162.409503
 21
39.236965
  0
LINE
  8
ボルト／ビス
  6
CONTINUOUS
 10
162.37617
 20
39.236965
 11
162.37617
 21
39.836965
  0
LINE
  8
ボルト／ビス
  6
CONTINUOUS
 10
162.37617
 20
39.836965
 11
162.409503
 21
39.836965
  0
LINE
  8
ボルト／ビス
  6
CONTINUOUS
 62
    64
 10
162.17617
 20
39.37659
 11
162.187845
 21
39.344515
  0
ARC
  8
ボルト／ビス
  6
CONTINUOUS
 62
    64
 10
162.281149
 20
39.392632
 40
0.104978
 50
152.721967
 51
180.0
  0
ARC
  8
ボルト／ビス
  6
CONTINUOUS
 62
    64
 10
162.578573
 20
39.536969
 40
0.402402
 50
166.165002
 51
193.834985
  0
LINE
  8
ボルト／ビス
  6
CONTINUOUS
 62
    64
 10
162.17617
 20
39.69734
 11
162.187845
 21
39.729415
  0
ARC
  8
ボルト／ビス
  6
CONTINUOUS
 62
    64
 10
162.281149
 20
39.681307
 40
0.104978
 50
180.0
 51
207.278033
  0
LINE
  8
ボルト／ビス
  6
CONTINUOUS
 62
    64
 10
162.17617
 20
39.37659
 11
162.17617
 21
39.69734
  0
LINE
  8
ボルト／ビス
  6
CONTINUOUS
 62
    64
 10
162.187845
 20
39.729415
 11
162.309503
 21
39.729415
  0
LINE
  8
ボルト／ビス
  6
CONTINUOUS
 62
    64
 10
162.187845
 20
39.63319
 11
162.309503
 21
39.63319
  0
LINE
  8
ボルト／ビス
  6
CONTINUOUS
 62
    64
 10
162.187845
 20
39.344515
 11
162.309503
 21
39.344515
  0
LINE
  8
ボルト／ビス
  6
CONTINUOUS
 62
    64
 10
162.187845
 20
39.44074
 11
162.309503
 21
39.44074
  0
LINE
  8
ボルト／ビス
  6
CONTINUOUS
 10
162.309503
 20
39.344515
 11
162.309503
 21
39.729415
  0
LINE
  8
ボルト／ビス
  6
CONTINUOUS
 10
162.309503
 20
39.336965
 11
162.37617
 21
39.336965
  0
LINE
  8
ボルト／ビス
  6
CONTINUOUS
 10
162.309503
 20
39.336965
 11
162.309503
 21
39.736965
  0
LINE
  8
ボルト／ビス
  6
CONTINUOUS
 10
162.309503
 20
39.736965
 11
162.37617
 21
39.736965
  0
ENDBLK
  0
BLOCK
  2
*DIM_0006
 70
    65
 10
0.0
 20
0.0
  0
LINE
  8
寸法
  6
CONTINUOUS
 10
161.248695
 20
62.48302
 11
142.14273
 21
62.48302
  0
LINE
  8
寸法
  6
CONTINUOUS
 10
142.14273
 20
60.203325
 11
142.14273
 21
62.48302
  0
POINT
  8
寸法
 10
142.14273
 20
60.203325
 50
-90.0
  0
POINT
  8
寸法
 10
142.14273
 20
62.48302
 50
-90.0
  0
TEXT
  7
TextStyle03
  8
寸法
  6
CONTINUOUS
 10
141.775
 20
64.76875
  1
68.4
 40
3.0
 50
90.0
 72
     5
 11
141.775
 21
71.33125
  0
ENDBLK
  0
BLOCK
  2
*DIM_0007
 70
    65
 10
0.0
 20
0.0
  0
LINE
  8
寸法
  6
CONTINUOUS
 10
161.248695
 20
37.92363
 11
142.14273
 21
37.92363
  0
LINE
  8
寸法
  6
CONTINUOUS
 10
142.14273
 20
40.203325
 11
142.14273
 21
37.92363
  0
POINT
  8
寸法
 10
142.14273
 20
40.203325
 50
-90.0
  0
POINT
  8
寸法
 10
142.14273
 20
37.92363
 50
-90.0
  0
TEXT
  7
TextStyle03
  8
寸法
  6
CONTINUOUS
 10
141.775
 20
28.99375
  1
68.4
 40
3.0
 50
90.0
 72
     5
 11
141.775
 21
35.55625
  0
ENDBLK
  0
BLOCK
  2
*DIM_0008
 70
    65
 10
0.0
 20
0.0
  0
LINE
  8
寸法
  6
CONTINUOUS
 10
142.14273
 20
60.203325
 11
142.14273
 21
40.203325
  0
POINT
  8
寸法
 10
142.14273
 20
60.203325
 50
-90.0
  0
POINT
  8
寸法
 10
142.14273
 20
40.203325
 50
-90.0
  0
TEXT
  7
TextStyle03
  8
寸法
  6
CONTINUOUS
 10
141.775
 20
39.3
  1
呼称寸法　600
 40
3.0
 50
90.0
 72
     5
 11
141.775
 21
61.05
  0
ENDBLK
  0
BLOCK
  2
*DIM_0009
 70
    65
 10
0.0
 20
0.0
  0
LINE
  8
寸法
  6
CONTINUOUS
 10
169.209335
 20
33.236965
 11
169.209335
 21
25.327945
  0
LINE
  8
寸法
  6
CONTINUOUS
 10
161.742835
 20
35.203325
 11
161.742835
 21
25.327945
  0
LINE
  8
寸法
  6
CONTINUOUS
 10
169.209335
 20
25.327945
 11
161.742835
 21
25.327945
  0
POINT
  8
寸法
 10
169.209335
 20
25.327945
  0
POINT
  8
寸法
 10
161.742835
 20
25.327945
  0
TEXT
  7
TextStyle03
  8
寸法
  6
CONTINUOUS
 10
163.0375
 20
25.7
  1
224
 40
3.0
 72
     5
 11
167.9125
 21
25.7
  0
ENDBLK
  0
BLOCK
  2
*GRP_0010
 70
    65
 10
0.0
 20
0.0
  0
INSERT
  2
M8横
  8
ゴム等
  6
CONTINUOUS
 10
46.56319
 20
-70.297288
 50
180.0
 41
0.033333
 42
-0.033333
  0
LINE
  8
ボルト／ビス
  6
CONTINUOUS
 10
46.429858
 20
-70.087288
 11
46.446522
 21
-70.070622
  0
LINE
  8
ボルト／ビス
  6
CONTINUOUS
 10
46.679858
 20
-70.070622
 11
46.696522
 21
-70.087288
  0
LINE
  8
ボルト／ビス
  6
CONTINUOUS
 10
46.696522
 20
-70.087288
 11
46.429858
 21
-70.087288
  0
LINE
  8
ボルト／ビス
  6
CONTINUOUS
 10
46.679858
 20
-70.070622
 11
46.446522
 21
-70.070622
  0
LINE
  8
ボルト／ビス
  6
CONTINUOUS
 10
46.446522
 20
-70.070622
 11
46.446522
 21
-70.113952
  0
LINE
  8
ボルト／ビス
  6
CONTINUOUS
 10
46.429858
 20
-70.087288
 11
46.429858
 21
-70.113952
  0
LINE
  8
ボルト／ビス
  6
CONTINUOUS
 10
46.696522
 20
-70.087288
 11
46.696522
 21
-70.113952
  0
LINE
  8
ボルト／ビス
  6
CONTINUOUS
 10
46.679858
 20
-70.070622
 11
46.679858
 21
-70.113952
  0
LINE
  8
ボルト／ビス
  6
CONTINUOUS
 10
46.929858
 20
-70.297288
 11
46.196522
 21
-70.297288
  0
LINE
  8
ボルト／ビス
  6
CONTINUOUS
 10
46.146522
 20
-70.337288
 11
46.146522
 21
-70.42062
  0
LINE
  8
ボルト／ビス
  6
CONTINUOUS
 10
46.146522
 20
-70.42062
 11
46.979858
 21
-70.42062
  0
LINE
  8
ボルト／ビス
  6
CONTINUOUS
 10
46.979858
 20
-70.42062
 11
46.979858
 21
-70.337288
  0
LINE
  8
ボルト／ビス
  6
CONTINUOUS
 10
46.146522
 20
-70.337288
 11
46.979858
 21
-70.337288
  0
LINE
  8
ボルト／ビス
  6
CONTINUOUS
 10
46.929858
 20
-70.297288
 11
46.929858
 21
-70.337288
  0
LINE
  8
ボルト／ビス
  6
CONTINUOUS
 10
46.196522
 20
-70.297288
 11
46.196522
 21
-70.337288
  0
LINE
  8
ボルト／ビス
  6
CONTINUOUS
 10
46.56319
 20
-70.347288
 11
46.56319
 21
-70.297288
  0
ENDBLK
  0
BLOCK
  2
*GRP_0011
 70
    65
 10
0.0
 20
0.0
  0
LINE
  8
ボルト／ビス
  6
CONTINUOUS
 10
46.769858
 20
-69.437453
 11
46.769858
 21
-69.370788
  0
LINE
  8
ボルト／ビス
  6
CONTINUOUS
 10
46.769858
 20
-69.370788
 11
46.036525
 21
-69.370788
  0
LINE
  8
ボルト／ビス
  6
CONTINUOUS
 10
46.036525
 20
-69.370788
 11
46.036525
 21
-69.437453
  0
LINE
  8
ボルト／ビス
  6
CONTINUOUS
 10
46.769858
 20
-69.437453
 11
46.036525
 21
-69.437453
  0
LINE
  8
ボルト／ビス
  6
CONTINUOUS
 10
46.703192
 20
-69.337453
 11
46.703192
 21
-69.370788
  0
LINE
  8
ボルト／ビス
  6
CONTINUOUS
 10
46.703192
 20
-69.337453
 11
46.103192
 21
-69.337453
  0
LINE
  8
ボルト／ビス
  6
CONTINUOUS
 10
46.103192
 20
-69.337453
 11
46.103192
 21
-69.370788
  0
LINE
  8
ボルト／ビス
  6
CONTINUOUS
 62
    64
 10
46.563567
 20
-69.137453
 11
46.595643
 21
-69.149128
  0
ARC
  8
ボルト／ビス
  6
CONTINUOUS
 62
    64
 10
46.547529
 20
-69.242431
 40
0.104978
 50
90.0
 51
117.278033
  0
ARC
  8
ボルト／ビス
  6
CONTINUOUS
 62
    64
 10
46.403191
 20
-69.539855
 40
0.402402
 50
76.165015
 51
103.834998
  0
LINE
  8
ボルト／ビス
  6
CONTINUOUS
 62
    64
 10
46.242817
 20
-69.137453
 11
46.210743
 21
-69.149128
  0
ARC
  8
ボルト／ビス
  6
CONTINUOUS
 62
    64
 10
46.258853
 20
-69.242431
 40
0.104978
 50
62.721967
 51
90.0
  0
LINE
  8
ボルト／ビス
  6
CONTINUOUS
 62
    64
 10
46.563567
 20
-69.137453
 11
46.242817
 21
-69.137453
  0
LINE
  8
ボルト／ビス
  6
CONTINUOUS
 62
    64
 10
46.210743
 20
-69.149128
 11
46.210743
 21
-69.270788
  0
LINE
  8
ボルト／ビス
  6
CONTINUOUS
 62
    64
 10
46.306968
 20
-69.149128
 11
46.306968
 21
-69.270788
  0
LINE
  8
ボルト／ビス
  6
CONTINUOUS
 62
    64
 10
46.595643
 20
-69.149128
 11
46.595643
 21
-69.270788
  0
LINE
  8
ボルト／ビス
  6
CONTINUOUS
 62
    64
 10
46.499417
 20
-69.149128
 11
46.499417
 21
-69.270788
  0
LINE
  8
ボルト／ビス
  6
CONTINUOUS
 10
46.595643
 20
-69.270788
 11
46.210743
 21
-69.270788
  0
LINE
  8
ボルト／ビス
  6
CONTINUOUS
 10
46.603192
 20
-69.270788
 11
46.603192
 21
-69.337453
  0
LINE
  8
ボルト／ビス
  6
CONTINUOUS
 10
46.603192
 20
-69.270788
 11
46.203192
 21
-69.270788
  0
LINE
  8
ボルト／ビス
  6
CONTINUOUS
 10
46.203192
 20
-69.270788
 11
46.203192
 21
-69.337453
  0
ENDBLK
  0
BLOCK
  2
*DIM_0012
 70
    65
 10
0.0
 20
0.0
  0
LINE
  8
寸法
  6
CONTINUOUS
 10
50.73683
 20
-68.70412
 11
69.355302
 21
-68.70412
  0
LINE
  8
寸法
  6
CONTINUOUS
 10
52.703192
 20
-76.17062
 11
69.355302
 21
-76.17062
  0
LINE
  8
寸法
  6
CONTINUOUS
 10
69.355302
 20
-68.70412
 11
69.355302
 21
-76.17062
  0
POINT
  8
寸法
 10
69.355302
 20
-68.70412
  0
POINT
  8
寸法
 10
69.355302
 20
-76.17062
  0
TEXT
  7
TextStyle03
  8
寸法
  6
CONTINUOUS
 10
68.975
 20
-74.8875
  1
224
 40
3.0
 50
90.0
 72
     5
 11
68.975
 21
-70.0125
  0
ENDBLK
  0
BLOCK
  2
*GRP_0013
 70
    65
 10
0.0
 20
0.0
  0
INSERT
  2
M8横
  8
ゴム等
  6
CONTINUOUS
 10
-121.756185
 20
-70.297288
 41
0.033333
 42
0.033333
  0
LINE
  8
ボルト／ビス
  6
CONTINUOUS
 10
-121.622853
 20
-70.087288
 11
-121.639517
 21
-70.070622
  0
LINE
  8
ボルト／ビス
  6
CONTINUOUS
 10
-121.872853
 20
-70.070622
 11
-121.889517
 21
-70.087288
  0
LINE
  8
ボルト／ビス
  6
CONTINUOUS
 10
-121.889517
 20
-70.087288
 11
-121.622853
 21
-70.087288
  0
LINE
  8
ボルト／ビス
  6
CONTINUOUS
 10
-121.872853
 20
-70.070622
 11
-121.639517
 21
-70.070622
  0
LINE
  8
ボルト／ビス
  6
CONTINUOUS
 10
-121.639517
 20
-70.070622
 11
-121.639517
 21
-70.113952
  0
LINE
  8
ボルト／ビス
  6
CONTINUOUS
 10
-121.622853
 20
-70.087288
 11
-121.622853
 21
-70.113952
  0
LINE
  8
ボルト／ビス
  6
CONTINUOUS
 10
-121.889517
 20
-70.087288
 11
-121.889517
 21
-70.113952
  0
LINE
  8
ボルト／ビス
  6
CONTINUOUS
 10
-121.872853
 20
-70.070622
 11
-121.872853
 21
-70.113952
  0
LINE
  8
ボルト／ビス
  6
CONTINUOUS
 10
-122.122853
 20
-70.297288
 11
-121.389517
 21
-70.297288
  0
LINE
  8
ボルト／ビス
  6
CONTINUOUS
 10
-121.339517
 20
-70.337288
 11
-121.339517
 21
-70.42062
  0
LINE
  8
ボルト／ビス
  6
CONTINUOUS
 10
-121.339517
 20
-70.42062
 11
-122.172853
 21
-70.42062
  0
LINE
  8
ボルト／ビス
  6
CONTINUOUS
 10
-122.172853
 20
-70.42062
 11
-122.172853
 21
-70.337288
  0
LINE
  8
ボルト／ビス
  6
CONTINUOUS
 10
-121.339517
 20
-70.337288
 11
-122.172853
 21
-70.337288
  0
LINE
  8
ボルト／ビス
  6
CONTINUOUS
 10
-122.122853
 20
-70.297288
 11
-122.122853
 21
-70.337288
  0
LINE
  8
ボルト／ビス
  6
CONTINUOUS
 10
-121.389517
 20
-70.297288
 11
-121.389517
 21
-70.337288
  0
LINE
  8
ボルト／ビス
  6
CONTINUOUS
 10
-121.756185
 20
-70.347288
 11
-121.756185
 21
-70.297288
  0
ENDBLK
  0
BLOCK
  2
*GRP_0014
 70
    65
 10
0.0
 20
0.0
  0
LINE
  8
ボルト／ビス
  6
CONTINUOUS
 10
-121.962853
 20
-69.437453
 11
-121.962853
 21
-69.370788
  0
LINE
  8
ボルト／ビス
  6
CONTINUOUS
 10
-121.962853
 20
-69.370788
 11
-121.22952
 21
-69.370788
  0
LINE
  8
ボルト／ビス
  6
CONTINUOUS
 10
-121.22952
 20
-69.370788
 11
-121.22952
 21
-69.437453
  0
LINE
  8
ボルト／ビス
  6
CONTINUOUS
 10
-121.962853
 20
-69.437453
 11
-121.22952
 21
-69.437453
  0
LINE
  8
ボルト／ビス
  6
CONTINUOUS
 10
-121.896188
 20
-69.337453
 11
-121.896188
 21
-69.370788
  0
LINE
  8
ボルト／ビス
  6
CONTINUOUS
 10
-121.896188
 20
-69.337453
 11
-121.296188
 21
-69.337453
  0
LINE
  8
ボルト／ビス
  6
CONTINUOUS
 10
-121.296188
 20
-69.337453
 11
-121.296188
 21
-69.370788
  0
LINE
  8
ボルト／ビス
  6
CONTINUOUS
 62
    64
 10
-121.756563
 20
-69.137453
 11
-121.788638
 21
-69.149128
  0
ARC
  8
ボルト／ビス
  6
CONTINUOUS
 62
    64
 10
-121.740525
 20
-69.242431
 40
0.104978
 50
62.721967
 51
90.0
  0
ARC
  8
ボルト／ビス
  6
CONTINUOUS
 62
    64
 10
-121.596188
 20
-69.539855
 40
0.402402
 50
76.165002
 51
103.834985
  0
LINE
  8
ボルト／ビス
  6
CONTINUOUS
 62
    64
 10
-121.435812
 20
-69.137453
 11
-121.403737
 21
-69.149128
  0
ARC
  8
ボルト／ビス
  6
CONTINUOUS
 62
    64
 10
-121.45185
 20
-69.242431
 40
0.104978
 50
90.0
 51
117.278033
  0
LINE
  8
ボルト／ビス
  6
CONTINUOUS
 62
    64
 10
-121.756563
 20
-69.137453
 11
-121.435812
 21
-69.137453
  0
LINE
  8
ボルト／ビス
  6
CONTINUOUS
 62
    64
 10
-121.403737
 20
-69.149128
 11
-121.403737
 21
-69.270788
  0
LINE
  8
ボルト／ビス
  6
CONTINUOUS
 62
    64
 10
-121.499963
 20
-69.149128
 11
-121.499963
 21
-69.270788
  0
LINE
  8
ボルト／ビス
  6
CONTINUOUS
 62
    64
 10
-121.788638
 20
-69.149128
 11
-121.788638
 21
-69.270788
  0
LINE
  8
ボルト／ビス
  6
CONTINUOUS
 62
    64
 10
-121.692412
 20
-69.149128
 11
-121.692412
 21
-69.270788
  0
LINE
  8
ボルト／ビス
  6
CONTINUOUS
 10
-121.788638
 20
-69.270788
 11
-121.403737
 21
-69.270788
  0
LINE
  8
ボルト／ビス
  6
CONTINUOUS
 10
-121.796188
 20
-69.270788
 11
-121.796188
 21
-69.337453
  0
LINE
  8
ボルト／ビス
  6
CONTINUOUS
 10
-121.796188
 20
-69.270788
 11
-121.396188
 21
-69.270788
  0
LINE
  8
ボルト／ビス
  6
CONTINUOUS
 10
-121.396188
 20
-69.270788
 11
-121.396188
 21
-69.337453
  0
ENDBLK
  0
BLOCK
  2
*DIM_0015
 70
    65
 10
0.0
 20
0.0
  0
LINE
  8
寸法
  6
BYBLOCK
 62
     0
 10
-104.263165
 20
36.573195
 11
-104.263165
 21
31.43074
  0
LINE
  8
寸法
  6
BYBLOCK
 62
     0
 10
-37.596497
 20
36.573198
 11
-37.596497
 21
31.43074
  0
LINE
  8
寸法
  6
BYBLOCK
 62
     0
 10
-104.263165
 20
31.43074
 11
-37.596497
 21
31.43074
  0
POINT
  8
寸法
 62
     0
 10
-104.263165
 20
31.43074
  0
POINT
  8
寸法
 62
     0
 10
-37.596497
 20
31.43074
  0
TEXT
  7
TextStyle03
  8
寸法
  6
CONTINUOUS
 62
     0
 10
-74.20625
 20
31.775
  1
2000
 40
3.0
 72
     5
 11
-67.64375
 21
31.775
  0
ENDBLK
  0
BLOCK
  2
*DIM_0016
 70
    65
 10
0.0
 20
0.0
  0
LINE
  8
寸法
  6
BYBLOCK
 62
     0
 10
29.07017
 20
36.573195
 11
29.07017
 21
31.43074
  0
LINE
  8
寸法
  6
BYBLOCK
 62
     0
 10
-37.596497
 20
31.43074
 11
29.07017
 21
31.43074
  0
POINT
  8
寸法
 62
     0
 10
29.07017
 20
31.43074
  0
TEXT
  7
TextStyle03
  8
寸法
  6
CONTINUOUS
 62
     0
 10
-7.55625
 20
31.775
  1
2000
 40
3.0
 72
     5
 11
-0.99375
 21
31.775
  0
ENDBLK
  0
BLOCK
  2
*DIM_0017
 70
    65
 10
0.0
 20
0.0
  0
LINE
  8
寸法
  6
BYBLOCK
 62
     0
 10
49.366963
 20
56.303325
 11
56.144255
 21
56.303325
  0
LINE
  8
寸法
  6
BYBLOCK
 62
     0
 10
56.144255
 20
60.203325
 11
56.144255
 21
56.303325
  0
POINT
  8
寸法
 62
     0
 10
56.144255
 20
60.203325
  0
POINT
  8
寸法
 62
     0
 10
56.144255
 20
56.303325
  0
TEXT
  7
TextStyle03
  8
寸法
  6
CONTINUOUS
 62
     0
 10
55.9
 20
60.8625
  1
117
 40
3.0
 50
90.0
 72
     5
 11
55.9
 21
65.7375
  0
ENDBLK
  0
BLOCK
  2
*DIM_0018
 70
    65
 10
0.0
 20
0.0
  0
LINE
  8
寸法
  6
BYBLOCK
 62
     0
 10
49.366963
 20
44.103325
 11
56.144255
 21
44.103325
  0
LINE
  8
寸法
  6
BYBLOCK
 62
     0
 10
56.144255
 20
40.203325
 11
56.144255
 21
44.103325
  0
POINT
  8
寸法
 62
     0
 10
56.144255
 20
40.203325
  0
POINT
  8
寸法
 62
     0
 10
56.144255
 20
44.103325
  0
TEXT
  7
TextStyle03
  8
寸法
  6
CONTINUOUS
 62
     0
 10
56.075
 20
34.3875
  1
117
 40
3.0
 50
90.0
 72
     5
 11
56.075
 21
39.2625
  0
ENDBLK
  0
BLOCK
  2
*DIM_0019
 70
    65
 10
0.0
 20
0.0
  0
LINE
  8
寸法
  6
BYBLOCK
 62
     0
 10
-123.929832
 20
56.869993
 11
-137.22267
 21
56.869993
  0
LINE
  8
寸法
  6
BYBLOCK
 62
     0
 10
-123.929832
 20
43.536658
 11
-137.22267
 21
43.536658
  0
LINE
  8
寸法
  6
BYBLOCK
 62
     0
 10
-137.22267
 20
56.869993
 11
-137.22267
 21
43.536658
  0
POINT
  8
寸法
 62
     0
 10
-137.22267
 20
56.869993
  0
POINT
  8
寸法
 62
     0
 10
-137.22267
 20
43.536658
  0
TEXT
  7
TextStyle03
  8
寸法
  6
CONTINUOUS
 62
     0
 10
-137.525
 20
47.7375
  1
400
 40
3.0
 50
90.0
 72
     5
 11
-137.525
 21
52.6125
  0
ENDBLK
  0
BLOCK
  2
*DIM_0020
 70
    65
 10
0.0
 20
0.0
  0
LINE
  8
寸法
  6
BYBLOCK
 62
     0
 10
-112.596497
 20
63.203325
 11
-112.596497
 21
92.311398
  0
LINE
  8
寸法
  6
BYBLOCK
 62
     0
 10
-87.596497
 20
63.203325
 11
-87.596497
 21
92.311398
  0
LINE
  8
寸法
  6
BYBLOCK
 62
     0
 10
-112.596497
 20
92.311398
 11
-87.596497
 21
92.311398
  0
POINT
  8
寸法
 62
     0
 10
-112.596497
 20
92.311398
  0
POINT
  8
寸法
 62
     0
 10
-87.596497
 20
92.311398
  0
TEXT
  7
TextStyle03
  8
寸法
  6
CONTINUOUS
 62
     0
 10
-102.5375
 20
92.675
  1
750
 40
3.0
 72
     5
 11
-97.6625
 21
92.675
  0
ENDBLK
  0
BLOCK
  2
*DIM_0021
 70
    65
 10
0.0
 20
0.0
  0
LINE
  8
寸法
  6
BYBLOCK
 62
     0
 10
-62.596497
 20
63.203325
 11
-62.596497
 21
92.311398
  0
LINE
  8
寸法
  6
BYBLOCK
 62
     0
 10
-87.596497
 20
92.311398
 11
-62.596497
 21
92.311398
  0
POINT
  8
寸法
 62
     0
 10
-62.596497
 20
92.311398
  0
TEXT
  7
TextStyle03
  8
寸法
  6
CONTINUOUS
 62
     0
 10
-77.5375
 20
92.675
  1
750
 40
3.0
 72
     5
 11
-72.6625
 21
92.675
  0
ENDBLK
  0
BLOCK
  2
*DIM_0022
 70
    65
 10
0.0
 20
0.0
  0
LINE
  8
寸法
  6
BYBLOCK
 62
     0
 10
-37.596497
 20
63.203325
 11
-37.596497
 21
92.311398
  0
LINE
  8
寸法
  6
BYBLOCK
 62
     0
 10
-62.596497
 20
92.311398
 11
-37.596497
 21
92.311398
  0
POINT
  8
寸法
 62
     0
 10
-37.596497
 20
92.311398
  0
TEXT
  7
TextStyle03
  8
寸法
  6
CONTINUOUS
 62
     0
 10
-52.5375
 20
92.675
  1
750
 40
3.0
 72
     5
 11
-47.6625
 21
92.675
  0
ENDBLK
  0
BLOCK
  2
*DIM_0023
 70
    65
 10
0.0
 20
0.0
  0
LINE
  8
寸法
  6
BYBLOCK
 62
     0
 10
-12.596497
 20
63.203325
 11
-12.596497
 21
92.311398
  0
LINE
  8
寸法
  6
BYBLOCK
 62
     0
 10
-37.596497
 20
92.311398
 11
-12.596497
 21
92.311398
  0
POINT
  8
寸法
 62
     0
 10
-12.596497
 20
92.311398
  0
TEXT
  7
TextStyle03
  8
寸法
  6
CONTINUOUS
 62
     0
 10
-27.5375
 20
92.675
  1
750
 40
3.0
 72
     5
 11
-22.6625
 21
92.675
  0
ENDBLK
  0
BLOCK
  2
*DIM_0024
 70
    65
 10
0.0
 20
0.0
  0
LINE
  8
寸法
  6
BYBLOCK
 62
     0
 10
12.403502
 20
63.203325
 11
12.403502
 21
92.311398
  0
LINE
  8
寸法
  6
BYBLOCK
 62
     0
 10
-12.596497
 20
92.311398
 11
12.403502
 21
92.311398
  0
POINT
  8
寸法
 62
     0
 10
12.403502
 20
92.311398
  0
TEXT
  7
TextStyle03
  8
寸法
  6
CONTINUOUS
 62
     0
 10
-2.5375
 20
92.675
  1
750
 40
3.0
 72
     5
 11
2.3375
 21
92.675
  0
ENDBLK
  0
BLOCK
  2
*DIM_0025
 70
    65
 10
0.0
 20
0.0
  0
LINE
  8
寸法
  6
BYBLOCK
 62
     0
 10
37.403502
 20
63.203325
 11
37.403502
 21
92.311398
  0
LINE
  8
寸法
  6
BYBLOCK
 62
     0
 10
12.403502
 20
92.311398
 11
37.403502
 21
92.311398
  0
POINT
  8
寸法
 62
     0
 10
37.403502
 20
92.311398
  0
TEXT
  7
TextStyle03
  8
寸法
  6
CONTINUOUS
 62
     0
 10
22.4625
 20
92.675
  1
750
 40
3.0
 72
     5
 11
27.3375
 21
92.675
  0
ENDBLK
  0
BLOCK
  2
*GRP_0026
 70
    65
 10
0.0
 20
0.0
  0
LINE
  8
型材断面
  6
DOT
 10
47.403498
 20
-62.60412
 11
47.353498
 21
-62.60412
  0
LINE
  8
型材断面
  6
DOT
 10
45.73683
 20
-62.10412
 11
45.73683
 21
-61.370788
  0
LINE
  8
型材断面
  6
DOT
 10
45.786525
 20
-63.087288
 11
47.233193
 21
-63.087288
  0
LINE
  8
型材断面
  6
DOT
 10
47.233193
 20
-63.537288
 11
47.233193
 21
-63.087288
  0
LINE
  8
型材断面
  6
DOT
 62
    47
 10
47.966525
 20
-66.20998
 11
48.016525
 21
-66.20998
  0
LINE
  8
型材断面
  6
DOT
 62
    47
 10
48.016525
 20
-66.20998
 11
48.016525
 21
-65.876645
  0
LINE
  8
型材断面
  6
DOT
 62
    47
 10
48.016525
 20
-65.876645
 11
47.233193
 21
-65.776645
  0
LINE
  8
型材断面
  6
DOT
 62
    47
 10
47.233193
 20
-65.37062
 11
47.233193
 21
-65.776645
  0
LINE
  8
型材断面
  6
DOT
 62
    47
 10
47.703192
 20
-65.37062
 11
47.703192
 21
-63.537288
  0
LINE
  8
型材断面
  6
DOT
 10
47.403498
 20
-62.60412
 11
47.403498
 21
-62.10412
  0
LINE
  8
型材断面
  6
DOT
 10
45.786525
 20
-63.087288
 11
45.786525
 21
-62.60412
  0
INSERT
  2
*GRP_0027
  8
型材断面
  6
DOT
 10
0.0
 20
0.0
  0
INSERT
  2
*GRP_0028
  8
型材断面
  6
DOT
 10
0.0
 20
0.0
  0
LINE
  8
型材断面
  6
DOT
 10
48.016525
 20
-66.20998
 11
-37.596497
 21
-66.20998
  0
LINE
  8
型材断面
  6
DOT
 10
48.016525
 20
-65.876645
 11
-37.596497
 21
-65.876645
  0
LINE
  8
型材断面
  6
DOT
 10
47.233193
 20
-65.776645
 11
-37.596497
 21
-65.776645
  0
LINE
  8
型材断面
  6
DOT
 10
47.703192
 20
-65.37062
 11
-37.596497
 21
-65.37062
  0
LINE
  8
型材断面
  6
DOT
 10
47.403498
 20
-62.60412
 11
-37.596497
 21
-62.60412
  0
LINE
  8
型材断面
  6
DOT
 10
45.73683
 20
-61.370788
 11
-37.596497
 21
-61.370788
  0
LINE
  8
型材断面
  6
DOT
 10
47.403498
 20
-62.10412
 11
-37.596497
 21
-62.10412
  0
LINE
  8
型材断面
  6
DOT
 10
47.233193
 20
-63.087288
 11
-37.596497
 21
-63.087288
  0
LINE
  8
型材断面
  6
DOT
 10
47.703192
 20
-63.537288
 11
-37.596497
 21
-63.537288
  0
LINE
  8
型材断面
  6
DOT
 10
-122.596493
 20
-62.60412
 11
-122.546493
 21
-62.60412
  0
LINE
  8
型材断面
  6
DOT
 10
-120.929825
 20
-62.10412
 11
-120.929825
 21
-61.370788
  0
LINE
  8
型材断面
  6
DOT
 10
-120.97952
 20
-63.087288
 11
-122.426188
 21
-63.087288
  0
LINE
  8
型材断面
  6
DOT
 10
-122.426188
 20
-63.537288
 11
-122.426188
 21
-63.087288
  0
LINE
  8
型材断面
  6
DOT
 62
    47
 10
-123.15952
 20
-66.20998
 11
-123.20952
 21
-66.20998
  0
LINE
  8
型材断面
  6
DOT
 62
    47
 10
-123.20952
 20
-66.20998
 11
-123.20952
 21
-65.876645
  0
LINE
  8
型材断面
  6
DOT
 62
    47
 10
-123.20952
 20
-65.876645
 11
-122.426188
 21
-65.776645
  0
LINE
  8
型材断面
  6
DOT
 62
    47
 10
-122.426188
 20
-65.37062
 11
-122.426188
 21
-65.776645
  0
LINE
  8
型材断面
  6
DOT
 62
    47
 10
-122.896188
 20
-65.37062
 11
-122.896188
 21
-63.537288
  0
LINE
  8
型材断面
  6
DOT
 10
-122.596493
 20
-62.60412
 11
-122.596493
 21
-62.10412
  0
LINE
  8
型材断面
  6
DOT
 10
-120.97952
 20
-63.087288
 11
-120.97952
 21
-62.60412
  0
INSERT
  2
*GRP_0029
  8
型材断面
  6
DOT
 10
0.0
 20
0.0
  0
INSERT
  2
*GRP_0030
  8
型材断面
  6
DOT
 10
0.0
 20
0.0
  0
LINE
  8
型材断面
  6
DOT
 10
-123.20952
 20
-66.20998
 11
-37.596497
 21
-66.20998
  0
LINE
  8
型材断面
  6
DOT
 10
-123.20952
 20
-65.876645
 11
-37.596497
 21
-65.876645
  0
LINE
  8
型材断面
  6
DOT
 10
-122.426188
 20
-65.776645
 11
-37.596497
 21
-65.776645
  0
LINE
  8
型材断面
  6
DOT
 10
-122.896188
 20
-65.37062
 11
-37.596497
 21
-65.37062
  0
LINE
  8
型材断面
  6
DOT
 10
-122.596493
 20
-62.60412
 11
-37.596497
 21
-62.60412
  0
LINE
  8
型材断面
  6
DOT
 10
-120.929825
 20
-61.370788
 11
-37.596497
 21
-61.370788
  0
LINE
  8
型材断面
  6
DOT
 10
-122.596493
 20
-62.10412
 11
-37.596497
 21
-62.10412
  0
LINE
  8
型材断面
  6
DOT
 10
-122.426188
 20
-63.087288
 11
-37.596497
 21
-63.087288
  0
LINE
  8
型材断面
  6
DOT
 10
-122.896188
 20
-63.537288
 11
-37.596497
 21
-63.537288
  0
ENDBLK
  0
BLOCK
  2
*GRP_0027
 70
    65
 10
0.0
 20
0.0
  0
INSERT
  2
M8横
  8
ゴム等
  6
DOT
 10
46.56319
 20
-62.963955
 50
180.0
 41
0.033333
 42
-0.033333
  0
LINE
  8
ボルト／ビス
  6
DOT
 10
46.429858
 20
-62.753955
 11
46.446522
 21
-62.73729
  0
LINE
  8
ボルト／ビス
  6
DOT
 10
46.679858
 20
-62.73729
 11
46.696522
 21
-62.753955
  0
LINE
  8
ボルト／ビス
  6
DOT
 10
46.696522
 20
-62.753955
 11
46.429858
 21
-62.753955
  0
LINE
  8
ボルト／ビス
  6
DOT
 10
46.679858
 20
-62.73729
 11
46.446522
 21
-62.73729
  0
LINE
  8
ボルト／ビス
  6
DOT
 10
46.446522
 20
-62.73729
 11
46.446522
 21
-62.78062
  0
LINE
  8
ボルト／ビス
  6
DOT
 10
46.429858
 20
-62.753955
 11
46.429858
 21
-62.78062
  0
LINE
  8
ボルト／ビス
  6
DOT
 10
46.696522
 20
-62.753955
 11
46.696522
 21
-62.78062
  0
LINE
  8
ボルト／ビス
  6
DOT
 10
46.679858
 20
-62.73729
 11
46.679858
 21
-62.78062
  0
LINE
  8
ボルト／ビス
  6
DOT
 10
46.929858
 20
-62.963955
 11
46.196522
 21
-62.963955
  0
LINE
  8
ボルト／ビス
  6
DOT
 10
46.146522
 20
-63.003955
 11
46.146522
 21
-63.087288
  0
LINE
  8
ボルト／ビス
  6
DOT
 10
46.146522
 20
-63.087288
 11
46.979858
 21
-63.087288
  0
LINE
  8
ボルト／ビス
  6
DOT
 10
46.979858
 20
-63.087288
 11
46.979858
 21
-63.003955
  0
LINE
  8
ボルト／ビス
  6
DOT
 10
46.146522
 20
-63.003955
 11
46.979858
 21
-63.003955
  0
LINE
  8
ボルト／ビス
  6
DOT
 10
46.929858
 20
-62.963955
 11
46.929858
 21
-63.003955
  0
LINE
  8
ボルト／ビス
  6
DOT
 10
46.196522
 20
-62.963955
 11
46.196522
 21
-63.003955
  0
LINE
  8
ボルト／ビス
  6
DOT
 10
46.56319
 20
-63.013955
 11
46.56319
 21
-62.963955
  0
ENDBLK
  0
BLOCK
  2
*GRP_0028
 70
    65
 10
0.0
 20
0.0
  0
LINE
  8
ボルト／ビス
  6
DOT
 10
46.769858
 20
-62.10412
 11
46.769858
 21
-62.037455
  0
LINE
  8
ボルト／ビス
  6
DOT
 10
46.769858
 20
-62.037455
 11
46.036525
 21
-62.037455
  0
LINE
  8
ボルト／ビス
  6
DOT
 10
46.036525
 20
-62.037455
 11
46.036525
 21
-62.10412
  0
LINE
  8
ボルト／ビス
  6
DOT
 10
46.769858
 20
-62.10412
 11
46.036525
 21
-62.10412
  0
LINE
  8
ボルト／ビス
  6
DOT
 10
46.703192
 20
-62.00412
 11
46.703192
 21
-62.037455
  0
LINE
  8
ボルト／ビス
  6
DOT
 10
46.703192
 20
-62.00412
 11
46.103192
 21
-62.00412
  0
LINE
  8
ボルト／ビス
  6
DOT
 10
46.103192
 20
-62.00412
 11
46.103192
 21
-62.037455
  0
LINE
  8
ボルト／ビス
  6
DOT
 62
    64
 10
46.563567
 20
-61.80412
 11
46.595643
 21
-61.815795
  0
ARC
  8
ボルト／ビス
  6
DOT
 62
    64
 10
46.547529
 20
-61.909098
 40
0.104978
 50
90.0
 51
117.278033
  0
ARC
  8
ボルト／ビス
  6
DOT
 62
    64
 10
46.403191
 20
-62.206522
 40
0.402402
 50
76.165015
 51
103.834998
  0
LINE
  8
ボルト／ビス
  6
DOT
 62
    64
 10
46.242817
 20
-61.80412
 11
46.210743
 21
-61.815795
  0
ARC
  8
ボルト／ビス
  6
DOT
 62
    64
 10
46.258853
 20
-61.909098
 40
0.104978
 50
62.721967
 51
90.0
  0
LINE
  8
ボルト／ビス
  6
DOT
 62
    64
 10
46.563567
 20
-61.80412
 11
46.242817
 21
-61.80412
  0
LINE
  8
ボルト／ビス
  6
DOT
 62
    64
 10
46.210743
 20
-61.815795
 11
46.210743
 21
-61.937455
  0
LINE
  8
ボルト／ビス
  6
DOT
 62
    64
 10
46.306968
 20
-61.815795
 11
46.306968
 21
-61.937455
  0
LINE
  8
ボルト／ビス
  6
DOT
 62
    64
 10
46.595643
 20
-61.815795
 11
46.595643
 21
-61.937455
  0
LINE
  8
ボルト／ビス
  6
DOT
 62
    64
 10
46.499417
 20
-61.815795
 11
46.499417
 21
-61.937455
  0
LINE
  8
ボルト／ビス
  6
DOT
 10
46.595643
 20
-61.937455
 11
46.210743
 21
-61.937455
  0
LINE
  8
ボルト／ビス
  6
DOT
 10
46.603192
 20
-61.937455
 11
46.603192
 21
-62.00412
  0
LINE
  8
ボルト／ビス
  6
DOT
 10
46.603192
 20
-61.937455
 11
46.203192
 21
-61.937455
  0
LINE
  8
ボルト／ビス
  6
DOT
 10
46.203192
 20
-61.937455
 11
46.203192
 21
-62.00412
  0
ENDBLK
  0
BLOCK
  2
*GRP_0029
 70
    65
 10
0.0
 20
0.0
  0
INSERT
  2
M8横
  8
ゴム等
  6
DOT
 10
-121.756185
 20
-62.963955
 41
0.033333
 42
0.033333
  0
LINE
  8
ボルト／ビス
  6
DOT
 10
-121.622853
 20
-62.753955
 11
-121.639517
 21
-62.73729
  0
LINE
  8
ボルト／ビス
  6
DOT
 10
-121.872853
 20
-62.73729
 11
-121.889517
 21
-62.753955
  0
LINE
  8
ボルト／ビス
  6
DOT
 10
-121.889517
 20
-62.753955
 11
-121.622853
 21
-62.753955
  0
LINE
  8
ボルト／ビス
  6
DOT
 10
-121.872853
 20
-62.73729
 11
-121.639517
 21
-62.73729
  0
LINE
  8
ボルト／ビス
  6
DOT
 10
-121.639517
 20
-62.73729
 11
-121.639517
 21
-62.78062
  0
LINE
  8
ボルト／ビス
  6
DOT
 10
-121.622853
 20
-62.753955
 11
-121.622853
 21
-62.78062
  0
LINE
  8
ボルト／ビス
  6
DOT
 10
-121.889517
 20
-62.753955
 11
-121.889517
 21
-62.78062
  0
LINE
  8
ボルト／ビス
  6
DOT
 10
-121.872853
 20
-62.73729
 11
-121.872853
 21
-62.78062
  0
LINE
  8
ボルト／ビス
  6
DOT
 10
-122.122853
 20
-62.963955
 11
-121.389517
 21
-62.963955
  0
LINE
  8
ボルト／ビス
  6
DOT
 10
-121.339517
 20
-63.003955
 11
-121.339517
 21
-63.087288
  0
LINE
  8
ボルト／ビス
  6
DOT
 10
-121.339517
 20
-63.087288
 11
-122.172853
 21
-63.087288
  0
LINE
  8
ボルト／ビス
  6
DOT
 10
-122.172853
 20
-63.087288
 11
-122.172853
 21
-63.003955
  0
LINE
  8
ボルト／ビス
  6
DOT
 10
-121.339517
 20
-63.003955
 11
-122.172853
 21
-63.003955
  0
LINE
  8
ボルト／ビス
  6
DOT
 10
-122.122853
 20
-62.963955
 11
-122.122853
 21
-63.003955
  0
LINE
  8
ボルト／ビス
  6
DOT
 10
-121.389517
 20
-62.963955
 11
-121.389517
 21
-63.003955
  0
LINE
  8
ボルト／ビス
  6
DOT
 10
-121.756185
 20
-63.013955
 11
-121.756185
 21
-62.963955
  0
ENDBLK
  0
BLOCK
  2
*GRP_0030
 70
    65
 10
0.0
 20
0.0
  0
LINE
  8
ボルト／ビス
  6
DOT
 10
-121.962853
 20
-62.10412
 11
-121.962853
 21
-62.037455
  0
LINE
  8
ボルト／ビス
  6
DOT
 10
-121.962853
 20
-62.037455
 11
-121.22952
 21
-62.037455
  0
LINE
  8
ボルト／ビス
  6
DOT
 10
-121.22952
 20
-62.037455
 11
-121.22952
 21
-62.10412
  0
LINE
  8
ボルト／ビス
  6
DOT
 10
-121.962853
 20
-62.10412
 11
-121.22952
 21
-62.10412
  0
LINE
  8
ボルト／ビス
  6
DOT
 10
-121.896188
 20
-62.00412
 11
-121.896188
 21
-62.037455
  0
LINE
  8
ボルト／ビス
  6
DOT
 10
-121.896188
 20
-62.00412
 11
-121.296188
 21
-62.00412
  0
LINE
  8
ボルト／ビス
  6
DOT
 10
-121.296188
 20
-62.00412
 11
-121.296188
 21
-62.037455
  0
LINE
  8
ボルト／ビス
  6
DOT
 62
    64
 10
-121.756563
 20
-61.80412
 11
-121.788638
 21
-61.815795
  0
ARC
  8
ボルト／ビス
  6
DOT
 62
    64
 10
-121.740525
 20
-61.909098
 40
0.104978
 50
62.721967
 51
90.0
  0
ARC
  8
ボルト／ビス
  6
DOT
 62
    64
 10
-121.596188
 20
-62.206522
 40
0.402402
 50
76.165002
 51
103.834985
  0
LINE
  8
ボルト／ビス
  6
DOT
 62
    64
 10
-121.435812
 20
-61.80412
 11
-121.403737
 21
-61.815795
  0
ARC
  8
ボルト／ビス
  6
DOT
 62
    64
 10
-121.45185
 20
-61.909098
 40
0.104978
 50
90.0
 51
117.278033
  0
LINE
  8
ボルト／ビス
  6
DOT
 62
    64
 10
-121.756563
 20
-61.80412
 11
-121.435812
 21
-61.80412
  0
LINE
  8
ボルト／ビス
  6
DOT
 62
    64
 10
-121.403737
 20
-61.815795
 11
-121.403737
 21
-61.937455
  0
LINE
  8
ボルト／ビス
  6
DOT
 62
    64
 10
-121.499963
 20
-61.815795
 11
-121.499963
 21
-61.937455
  0
LINE
  8
ボルト／ビス
  6
DOT
 62
    64
 10
-121.788638
 20
-61.815795
 11
-121.788638
 21
-61.937455
  0
LINE
  8
ボルト／ビス
  6
DOT
 62
    64
 10
-121.692412
 20
-61.815795
 11
-121.692412
 21
-61.937455
  0
LINE
  8
ボルト／ビス
  6
DOT
 10
-121.788638
 20
-61.937455
 11
-121.403737
 21
-61.937455
  0
LINE
  8
ボルト／ビス
  6
DOT
 10
-121.796188
 20
-61.937455
 11
-121.796188
 21
-62.00412
  0
LINE
  8
ボルト／ビス
  6
DOT
 10
-121.796188
 20
-61.937455
 11
-121.396188
 21
-61.937455
  0
LINE
  8
ボルト／ビス
  6
DOT
 10
-121.396188
 20
-61.937455
 11
-121.396188
 21
-62.00412
  0
ENDBLK
  0
BLOCK
  2
*GRP_0031
 70
    65
 10
0.0
 20
0.0
  0
LINE
  8
補助線
  6
BYBLOCK
 62
    64
 10
-117.522347
 20
-74.31009
 11
-117.671273
 21
-74.384915
  0
LINE
  8
補助線
  6
BYBLOCK
 62
    64
 10
-117.634223
 20
-74.273038
 11
-117.559397
 21
-74.421965
  0
LINE
  8
補助線
  6
BYBLOCK
 62
    64
 10
-107.603867
 20
-69.326732
 11
-107.752795
 21
-69.401558
  0
LINE
  8
補助線
  6
BYBLOCK
 62
    64
 10
-107.715745
 20
-69.28968
 11
-107.64092
 21
-69.438608
  0
LINE
  8
補助線
  6
BYBLOCK
 62
    64
 10
-97.834317
 20
-64.4182
 11
-97.68539
 21
-64.343375
  0
LINE
  8
補助線
  6
BYBLOCK
 62
    64
 10
-97.797268
 20
-64.306322
 11
-97.722443
 21
-64.45525
  0
LINE
  8
型材断面
  6
CONTINUOUS
 10
-118.268787
 20
-73.752525
 11
-118.49109
 21
-74.423777
  0
LINE
  8
型材断面
  6
CONTINUOUS
 10
-118.49109
 20
-74.423777
 11
-118.191788
 21
-75.019482
  0
LINE
  8
型材断面
  6
CONTINUOUS
 10
-118.191788
 20
-75.019482
 11
-117.520535
 21
-75.241785
  0
LINE
  8
型材断面
  6
CONTINUOUS
 10
-97.83613
 20
-63.486507
 11
-97.164875
 21
-63.70881
  0
LINE
  8
型材断面
  6
CONTINUOUS
 10
-97.164875
 20
-63.70881
 11
-96.865572
 21
-64.304515
  0
LINE
  8
型材断面
  6
CONTINUOUS
 10
-96.865572
 20
-64.304515
 11
-97.087878
 21
-64.975767
  0
LINE
  8
型材断面
  6
CONTINUOUS
 10
-118.268787
 20
-73.752525
 11
-97.83613
 21
-63.486507
  0
LINE
  8
型材断面
  6
CONTINUOUS
 10
-117.520535
 20
-75.241785
 11
-97.087878
 21
-64.975767
  0
CIRCLE
  8
ボルト／ビス
  6
CONTINUOUS
 10
-117.59681
 20
-74.347502
 40
0.250185
  0
CIRCLE
  8
ボルト／ビス
  6
CONTINUOUS
 10
-117.59681
 20
-74.347502
 40
0.301025
  0
LINE
  8
ボルト／ビス
  6
CONTINUOUS
 62
    64
 10
-117.846575
 20
-74.333
 11
-117.70913
 21
-74.12395
  0
LINE
  8
ボルト／ビス
  6
CONTINUOUS
 62
    64
 10
-117.459365
 20
-74.138453
 11
-117.70913
 21
-74.12395
  0
LINE
  8
ボルト／ビス
  6
CONTINUOUS
 62
    64
 10
-117.734255
 20
-74.556552
 11
-117.48449
 21
-74.571055
  0
LINE
  8
ボルト／ビス
  6
CONTINUOUS
 62
    64
 10
-117.347045
 20
-74.362005
 11
-117.48449
 21
-74.571055
  0
LINE
  8
ボルト／ビス
  6
CONTINUOUS
 62
    64
 10
-117.846575
 20
-74.333
 11
-117.734255
 21
-74.556552
  0
LINE
  8
ボルト／ビス
  6
CONTINUOUS
 62
    64
 10
-117.459365
 20
-74.138453
 11
-117.347045
 21
-74.362005
  0
CIRCLE
  8
ボルト／ビス
  6
CONTINUOUS
 62
    64
 10
-117.59681
 20
-74.347502
 40
0.216668
  0
CIRCLE
  8
ボルト／ビス
  6
CONTINUOUS
 10
-107.678333
 20
-69.364145
 40
0.250185
  0
CIRCLE
  8
ボルト／ビス
  6
CONTINUOUS
 10
-107.678333
 20
-69.364145
 40
0.301025
  0
LINE
  8
ボルト／ビス
  6
CONTINUOUS
 62
    64
 10
-107.928097
 20
-69.34964
 11
-107.790653
 21
-69.14059
  0
LINE
  8
ボルト／ビス
  6
CONTINUOUS
 62
    64
 10
-107.540888
 20
-69.155092
 11
-107.790653
 21
-69.14059
  0
LINE
  8
ボルト／ビス
  6
CONTINUOUS
 62
    64
 10
-107.815777
 20
-69.573195
 11
-107.56601
 21
-69.5877
  0
LINE
  8
ボルト／ビス
  6
CONTINUOUS
 62
    64
 10
-107.428568
 20
-69.37865
 11
-107.56601
 21
-69.5877
  0
LINE
  8
ボルト／ビス
  6
CONTINUOUS
 62
    64
 10
-107.928097
 20
-69.34964
 11
-107.815777
 21
-69.573195
  0
LINE
  8
ボルト／ビス
  6
CONTINUOUS
 62
    64
 10
-107.540888
 20
-69.155092
 11
-107.428568
 21
-69.37865
  0
CIRCLE
  8
ボルト／ビス
  6
CONTINUOUS
 62
    64
 10
-107.678333
 20
-69.364145
 40
0.216668
  0
CIRCLE
  8
ボルト／ビス
  6
CONTINUOUS
 10
-97.759855
 20
-64.380788
 40
0.250185
  0
CIRCLE
  8
ボルト／ビス
  6
CONTINUOUS
 10
-97.759855
 20
-64.380788
 40
0.301025
  0
LINE
  8
ボルト／ビス
  6
CONTINUOUS
 62
    64
 10
-97.62241
 20
-64.171738
 11
-97.872175
 21
-64.157235
  0
LINE
  8
ボルト／ビス
  6
CONTINUOUS
 62
    64
 10
-98.00962
 20
-64.366285
 11
-97.872175
 21
-64.157235
  0
LINE
  8
ボルト／ビス
  6
CONTINUOUS
 62
    64
 10
-97.51009
 20
-64.395292
 11
-97.647533
 21
-64.60434
  0
LINE
  8
ボルト／ビス
  6
CONTINUOUS
 62
    64
 10
-97.8973
 20
-64.589837
 11
-97.647533
 21
-64.60434
  0
LINE
  8
ボルト／ビス
  6
CONTINUOUS
 62
    64
 10
-97.62241
 20
-64.171738
 11
-97.51009
 21
-64.395292
  0
LINE
  8
ボルト／ビス
  6
CONTINUOUS
 62
    64
 10
-98.00962
 20
-64.366285
 11
-97.8973
 21
-64.589837
  0
CIRCLE
  8
ボルト／ビス
  6
CONTINUOUS
 62
    64
 10
-97.759855
 20
-64.380788
 40
0.216668
  0
ENDBLK
  0
BLOCK
  2
*GRP_0032
 70
    65
 10
0.0
 20
0.0
  0
LINE
  8
補助線
  6
BYBLOCK
 62
    64
 10
-97.834317
 20
-74.31009
 11
-97.685393
 21
-74.384915
  0
LINE
  8
補助線
  6
BYBLOCK
 62
    64
 10
-97.722443
 20
-74.273038
 11
-97.797268
 21
-74.421965
  0
LINE
  8
補助線
  6
BYBLOCK
 62
    64
 10
-107.752798
 20
-69.326732
 11
-107.60387
 21
-69.401558
  0
LINE
  8
補助線
  6
BYBLOCK
 62
    64
 10
-107.64092
 20
-69.28968
 11
-107.715745
 21
-69.438608
  0
LINE
  8
補助線
  6
BYBLOCK
 62
    64
 10
-117.522347
 20
-64.4182
 11
-117.671275
 21
-64.343375
  0
LINE
  8
補助線
  6
BYBLOCK
 62
    64
 10
-117.559397
 20
-64.306322
 11
-117.634223
 21
-64.45525
  0
LINE
  8
型材断面
  6
CONTINUOUS
 10
-97.087878
 20
-73.752525
 11
-96.865575
 21
-74.423777
  0
LINE
  8
型材断面
  6
CONTINUOUS
 10
-96.865575
 20
-74.423777
 11
-97.164877
 21
-75.019482
  0
LINE
  8
型材断面
  6
CONTINUOUS
 10
-97.164877
 20
-75.019482
 11
-97.83613
 21
-75.241785
  0
LINE
  8
型材断面
  6
CONTINUOUS
 10
-117.520535
 20
-63.486507
 11
-118.19179
 21
-63.70881
  0
LINE
  8
型材断面
  6
CONTINUOUS
 10
-118.19179
 20
-63.70881
 11
-118.491093
 21
-64.304515
  0
LINE
  8
型材断面
  6
CONTINUOUS
 10
-118.491093
 20
-64.304515
 11
-118.268787
 21
-64.975767
  0
LINE
  8
型材断面
  6
CONTINUOUS
 10
-97.087878
 20
-73.752525
 11
-117.520535
 21
-63.486507
  0
LINE
  8
型材断面
  6
CONTINUOUS
 10
-97.83613
 20
-75.241785
 11
-118.268787
 21
-64.975767
  0
CIRCLE
  8
ボルト／ビス
  6
CONTINUOUS
 10
-97.759855
 20
-74.347502
 40
0.250185
  0
CIRCLE
  8
ボルト／ビス
  6
CONTINUOUS
 10
-97.759855
 20
-74.347502
 40
0.301025
  0
LINE
  8
ボルト／ビス
  6
CONTINUOUS
 62
    64
 10
-97.51009
 20
-74.333
 11
-97.647535
 21
-74.12395
  0
LINE
  8
ボルト／ビス
  6
CONTINUOUS
 62
    64
 10
-97.8973
 20
-74.138453
 11
-97.647535
 21
-74.12395
  0
LINE
  8
ボルト／ビス
  6
CONTINUOUS
 62
    64
 10
-97.62241
 20
-74.556552
 11
-97.872175
 21
-74.571055
  0
LINE
  8
ボルト／ビス
  6
CONTINUOUS
 62
    64
 10
-98.00962
 20
-74.362005
 11
-97.872175
 21
-74.571055
  0
LINE
  8
ボルト／ビス
  6
CONTINUOUS
 62
    64
 10
-97.51009
 20
-74.333
 11
-97.62241
 21
-74.556552
  0
LINE
  8
ボルト／ビス
  6
CONTINUOUS
 62
    64
 10
-97.8973
 20
-74.138453
 11
-98.00962
 21
-74.362005
  0
CIRCLE
  8
ボルト／ビス
  6
CONTINUOUS
 62
    64
 10
-97.759855
 20
-74.347502
 40
0.216668
  0
CIRCLE
  8
ボルト／ビス
  6
CONTINUOUS
 10
-107.678333
 20
-69.364145
 40
0.250185
  0
CIRCLE
  8
ボルト／ビス
  6
CONTINUOUS
 10
-107.678333
 20
-69.364145
 40
0.301025
  0
LINE
  8
ボルト／ビス
  6
CONTINUOUS
 62
    64
 10
-107.428568
 20
-69.34964
 11
-107.566013
 21
-69.14059
  0
LINE
  8
ボルト／ビス
  6
CONTINUOUS
 62
    64
 10
-107.815777
 20
-69.155092
 11
-107.566013
 21
-69.14059
  0
LINE
  8
ボルト／ビス
  6
CONTINUOUS
 62
    64
 10
-107.540888
 20
-69.573195
 11
-107.790655
 21
-69.5877
  0
LINE
  8
ボルト／ビス
  6
CONTINUOUS
 62
    64
 10
-107.928097
 20
-69.37865
 11
-107.790655
 21
-69.5877
  0
LINE
  8
ボルト／ビス
  6
CONTINUOUS
 62
    64
 10
-107.428568
 20
-69.34964
 11
-107.540888
 21
-69.573195
  0
LINE
  8
ボルト／ビス
  6
CONTINUOUS
 62
    64
 10
-107.815777
 20
-69.155092
 11
-107.928097
 21
-69.37865
  0
CIRCLE
  8
ボルト／ビス
  6
CONTINUOUS
 62
    64
 10
-107.678333
 20
-69.364145
 40
0.216668
  0
CIRCLE
  8
ボルト／ビス
  6
CONTINUOUS
 10
-117.59681
 20
-64.380788
 40
0.250185
  0
CIRCLE
  8
ボルト／ビス
  6
CONTINUOUS
 10
-117.59681
 20
-64.380788
 40
0.301025
  0
LINE
  8
ボルト／ビス
  6
CONTINUOUS
 62
    64
 10
-117.734255
 20
-64.171738
 11
-117.48449
 21
-64.157235
  0
LINE
  8
ボルト／ビス
  6
CONTINUOUS
 62
    64
 10
-117.347045
 20
-64.366285
 11
-117.48449
 21
-64.157235
  0
LINE
  8
ボルト／ビス
  6
CONTINUOUS
 62
    64
 10
-117.846575
 20
-64.395292
 11
-117.709133
 21
-64.60434
  0
LINE
  8
ボルト／ビス
  6
CONTINUOUS
 62
    64
 10
-117.459365
 20
-64.589837
 11
-117.709133
 21
-64.60434
  0
LINE
  8
ボルト／ビス
  6
CONTINUOUS
 62
    64
 10
-117.734255
 20
-64.171738
 11
-117.846575
 21
-64.395292
  0
LINE
  8
ボルト／ビス
  6
CONTINUOUS
 62
    64
 10
-117.347045
 20
-64.366285
 11
-117.459365
 21
-64.589837
  0
CIRCLE
  8
ボルト／ビス
  6
CONTINUOUS
 62
    64
 10
-117.59681
 20
-64.380788
 40
0.216668
  0
ENDBLK
  0
BLOCK
  2
*GRP_0033
 70
    65
 10
0.0
 20
0.0
  0
LINE
  8
補助線
  6
BYBLOCK
 62
    64
 10
42.328728
 20
-74.31009
 11
42.477652
 21
-74.384915
  0
LINE
  8
補助線
  6
BYBLOCK
 62
    64
 10
42.440603
 20
-74.273038
 11
42.365777
 21
-74.421965
  0
LINE
  8
補助線
  6
BYBLOCK
 62
    64
 10
32.410247
 20
-69.326732
 11
32.559175
 21
-69.401558
  0
LINE
  8
補助線
  6
BYBLOCK
 62
    64
 10
32.522125
 20
-69.28968
 11
32.4473
 21
-69.438608
  0
LINE
  8
補助線
  6
BYBLOCK
 62
    64
 10
22.640697
 20
-64.4182
 11
22.49177
 21
-64.343375
  0
LINE
  8
補助線
  6
BYBLOCK
 62
    64
 10
22.603648
 20
-64.306322
 11
22.528823
 21
-64.45525
  0
LINE
  8
型材断面
  6
CONTINUOUS
 10
43.075167
 20
-73.752525
 11
43.29747
 21
-74.423777
  0
LINE
  8
型材断面
  6
CONTINUOUS
 10
43.29747
 20
-74.423777
 11
42.998168
 21
-75.019482
  0
LINE
  8
型材断面
  6
CONTINUOUS
 10
42.998168
 20
-75.019482
 11
42.326915
 21
-75.241785
  0
LINE
  8
型材断面
  6
CONTINUOUS
 10
22.64251
 20
-63.486507
 11
21.971255
 21
-63.70881
  0
LINE
  8
型材断面
  6
CONTINUOUS
 10
21.971255
 20
-63.70881
 11
21.671953
 21
-64.304515
  0
LINE
  8
型材断面
  6
CONTINUOUS
 10
21.671953
 20
-64.304515
 11
21.894257
 21
-64.975767
  0
LINE
  8
型材断面
  6
CONTINUOUS
 10
43.075167
 20
-73.752525
 11
22.64251
 21
-63.486507
  0
LINE
  8
型材断面
  6
CONTINUOUS
 10
42.326915
 20
-75.241785
 11
21.894257
 21
-64.975767
  0
CIRCLE
  8
ボルト／ビス
  6
CONTINUOUS
 10
42.40319
 20
-74.347502
 40
0.250185
  0
CIRCLE
  8
ボルト／ビス
  6
CONTINUOUS
 10
42.40319
 20
-74.347502
 40
0.301025
  0
LINE
  8
ボルト／ビス
  6
CONTINUOUS
 62
    64
 10
42.652955
 20
-74.333
 11
42.51551
 21
-74.12395
  0
LINE
  8
ボルト／ビス
  6
CONTINUOUS
 62
    64
 10
42.265745
 20
-74.138453
 11
42.51551
 21
-74.12395
  0
LINE
  8
ボルト／ビス
  6
CONTINUOUS
 62
    64
 10
42.540635
 20
-74.556552
 11
42.29087
 21
-74.571055
  0
LINE
  8
ボルト／ビス
  6
CONTINUOUS
 62
    64
 10
42.153425
 20
-74.362005
 11
42.29087
 21
-74.571055
  0
LINE
  8
ボルト／ビス
  6
CONTINUOUS
 62
    64
 10
42.652955
 20
-74.333
 11
42.540635
 21
-74.556552
  0
LINE
  8
ボルト／ビス
  6
CONTINUOUS
 62
    64
 10
42.265745
 20
-74.138453
 11
42.153425
 21
-74.362005
  0
CIRCLE
  8
ボルト／ビス
  6
CONTINUOUS
 62
    64
 10
42.40319
 20
-74.347502
 40
0.216668
  0
CIRCLE
  8
ボルト／ビス
  6
CONTINUOUS
 10
32.484713
 20
-69.364145
 40
0.250185
  0
CIRCLE
  8
ボルト／ビス
  6
CONTINUOUS
 10
32.484713
 20
-69.364145
 40
0.301025
  0
LINE
  8
ボルト／ビス
  6
CONTINUOUS
 62
    64
 10
32.734477
 20
-69.34964
 11
32.597033
 21
-69.14059
  0
LINE
  8
ボルト／ビス
  6
CONTINUOUS
 62
    64
 10
32.347268
 20
-69.155092
 11
32.597033
 21
-69.14059
  0
LINE
  8
ボルト／ビス
  6
CONTINUOUS
 62
    64
 10
32.622157
 20
-69.573195
 11
32.37239
 21
-69.5877
  0
LINE
  8
ボルト／ビス
  6
CONTINUOUS
 62
    64
 10
32.234948
 20
-69.37865
 11
32.37239
 21
-69.5877
  0
LINE
  8
ボルト／ビス
  6
CONTINUOUS
 62
    64
 10
32.734477
 20
-69.34964
 11
32.622157
 21
-69.573195
  0
LINE
  8
ボルト／ビス
  6
CONTINUOUS
 62
    64
 10
32.347268
 20
-69.155092
 11
32.234948
 21
-69.37865
  0
CIRCLE
  8
ボルト／ビス
  6
CONTINUOUS
 62
    64
 10
32.484713
 20
-69.364145
 40
0.216668
  0
CIRCLE
  8
ボルト／ビス
  6
CONTINUOUS
 10
22.566235
 20
-64.380788
 40
0.250185
  0
CIRCLE
  8
ボルト／ビス
  6
CONTINUOUS
 10
22.566235
 20
-64.380788
 40
0.301025
  0
LINE
  8
ボルト／ビス
  6
CONTINUOUS
 62
    64
 10
22.42879
 20
-64.171738
 11
22.678555
 21
-64.157235
  0
LINE
  8
ボルト／ビス
  6
CONTINUOUS
 62
    64
 10
22.816
 20
-64.366285
 11
22.678555
 21
-64.157235
  0
LINE
  8
ボルト／ビス
  6
CONTINUOUS
 62
    64
 10
22.31647
 20
-64.395292
 11
22.453912
 21
-64.60434
  0
LINE
  8
ボルト／ビス
  6
CONTINUOUS
 62
    64
 10
22.70368
 20
-64.589837
 11
22.453912
 21
-64.60434
  0
LINE
  8
ボルト／ビス
  6
CONTINUOUS
 62
    64
 10
22.42879
 20
-64.171738
 11
22.31647
 21
-64.395292
  0
LINE
  8
ボルト／ビス
  6
CONTINUOUS
 62
    64
 10
22.816
 20
-64.366285
 11
22.70368
 21
-64.589837
  0
CIRCLE
  8
ボルト／ビス
  6
CONTINUOUS
 62
    64
 10
22.566235
 20
-64.380788
 40
0.216668
  0
ENDBLK
  0
BLOCK
  2
*GRP_0034
 70
    65
 10
0.0
 20
0.0
  0
LINE
  8
補助線
  6
BYBLOCK
 62
    64
 10
22.640697
 20
-74.31009
 11
22.491772
 21
-74.384915
  0
LINE
  8
補助線
  6
BYBLOCK
 62
    64
 10
22.528823
 20
-74.273038
 11
22.603648
 21
-74.421965
  0
LINE
  8
補助線
  6
BYBLOCK
 62
    64
 10
32.559178
 20
-69.326732
 11
32.41025
 21
-69.401558
  0
LINE
  8
補助線
  6
BYBLOCK
 62
    64
 10
32.4473
 20
-69.28968
 11
32.522125
 21
-69.438608
  0
LINE
  8
補助線
  6
BYBLOCK
 62
    64
 10
42.328728
 20
-64.4182
 11
42.477655
 21
-64.343375
  0
LINE
  8
補助線
  6
BYBLOCK
 62
    64
 10
42.365777
 20
-64.306322
 11
42.440603
 21
-64.45525
  0
LINE
  8
型材断面
  6
CONTINUOUS
 10
21.894257
 20
-73.752525
 11
21.671955
 21
-74.423777
  0
LINE
  8
型材断面
  6
CONTINUOUS
 10
21.671955
 20
-74.423777
 11
21.971257
 21
-75.019482
  0
LINE
  8
型材断面
  6
CONTINUOUS
 10
21.971257
 20
-75.019482
 11
22.64251
 21
-75.241785
  0
LINE
  8
型材断面
  6
CONTINUOUS
 10
42.326915
 20
-63.486507
 11
42.99817
 21
-63.70881
  0
LINE
  8
型材断面
  6
CONTINUOUS
 10
42.99817
 20
-63.70881
 11
43.297473
 21
-64.304515
  0
LINE
  8
型材断面
  6
CONTINUOUS
 10
43.297473
 20
-64.304515
 11
43.075167
 21
-64.975767
  0
LINE
  8
型材断面
  6
CONTINUOUS
 10
21.894257
 20
-73.752525
 11
42.326915
 21
-63.486507
  0
LINE
  8
型材断面
  6
CONTINUOUS
 10
22.64251
 20
-75.241785
 11
43.075167
 21
-64.975767
  0
CIRCLE
  8
ボルト／ビス
  6
CONTINUOUS
 10
22.566235
 20
-74.347502
 40
0.250185
  0
CIRCLE
  8
ボルト／ビス
  6
CONTINUOUS
 10
22.566235
 20
-74.347502
 40
0.301025
  0
LINE
  8
ボルト／ビス
  6
CONTINUOUS
 62
    64
 10
22.31647
 20
-74.333
 11
22.453915
 21
-74.12395
  0
LINE
  8
ボルト／ビス
  6
CONTINUOUS
 62
    64
 10
22.70368
 20
-74.138453
 11
22.453915
 21
-74.12395
  0
LINE
  8
ボルト／ビス
  6
CONTINUOUS
 62
    64
 10
22.42879
 20
-74.556552
 11
22.678555
 21
-74.571055
  0
LINE
  8
ボルト／ビス
  6
CONTINUOUS
 62
    64
 10
22.816
 20
-74.362005
 11
22.678555
 21
-74.571055
  0
LINE
  8
ボルト／ビス
  6
CONTINUOUS
 62
    64
 10
22.31647
 20
-74.333
 11
22.42879
 21
-74.556552
  0
LINE
  8
ボルト／ビス
  6
CONTINUOUS
 62
    64
 10
22.70368
 20
-74.138453
 11
22.816
 21
-74.362005
  0
CIRCLE
  8
ボルト／ビス
  6
CONTINUOUS
 62
    64
 10
22.566235
 20
-74.347502
 40
0.216668
  0
CIRCLE
  8
ボルト／ビス
  6
CONTINUOUS
 10
32.484713
 20
-69.364145
 40
0.250185
  0
CIRCLE
  8
ボルト／ビス
  6
CONTINUOUS
 10
32.484713
 20
-69.364145
 40
0.301025
  0
LINE
  8
ボルト／ビス
  6
CONTINUOUS
 62
    64
 10
32.234948
 20
-69.34964
 11
32.372393
 21
-69.14059
  0
LINE
  8
ボルト／ビス
  6
CONTINUOUS
 62
    64
 10
32.622157
 20
-69.155092
 11
32.372393
 21
-69.14059
  0
LINE
  8
ボルト／ビス
  6
CONTINUOUS
 62
    64
 10
32.347268
 20
-69.573195
 11
32.597035
 21
-69.5877
  0
LINE
  8
ボルト／ビス
  6
CONTINUOUS
 62
    64
 10
32.734477
 20
-69.37865
 11
32.597035
 21
-69.5877
  0
LINE
  8
ボルト／ビス
  6
CONTINUOUS
 62
    64
 10
32.234948
 20
-69.34964
 11
32.347268
 21
-69.573195
  0
LINE
  8
ボルト／ビス
  6
CONTINUOUS
 62
    64
 10
32.622157
 20
-69.155092
 11
32.734477
 21
-69.37865
  0
CIRCLE
  8
ボルト／ビス
  6
CONTINUOUS
 62
    64
 10
32.484713
 20
-69.364145
 40
0.216668
  0
CIRCLE
  8
ボルト／ビス
  6
CONTINUOUS
 10
42.40319
 20
-64.380788
 40
0.250185
  0
CIRCLE
  8
ボルト／ビス
  6
CONTINUOUS
 10
42.40319
 20
-64.380788
 40
0.301025
  0
LINE
  8
ボルト／ビス
  6
CONTINUOUS
 62
    64
 10
42.540635
 20
-64.171738
 11
42.29087
 21
-64.157235
  0
LINE
  8
ボルト／ビス
  6
CONTINUOUS
 62
    64
 10
42.153425
 20
-64.366285
 11
42.29087
 21
-64.157235
  0
LINE
  8
ボルト／ビス
  6
CONTINUOUS
 62
    64
 10
42.652955
 20
-64.395292
 11
42.515512
 21
-64.60434
  0
LINE
  8
ボルト／ビス
  6
CONTINUOUS
 62
    64
 10
42.265745
 20
-64.589837
 11
42.515512
 21
-64.60434
  0
LINE
  8
ボルト／ビス
  6
CONTINUOUS
 62
    64
 10
42.540635
 20
-64.171738
 11
42.652955
 21
-64.395292
  0
LINE
  8
ボルト／ビス
  6
CONTINUOUS
 62
    64
 10
42.153425
 20
-64.366285
 11
42.265745
 21
-64.589837
  0
CIRCLE
  8
ボルト／ビス
  6
CONTINUOUS
 62
    64
 10
42.40319
 20
-64.380788
 40
0.216668
  0
ENDBLK
  0
BLOCK
  2
*DIM_0035
 70
    65
 10
0.0
 20
0.0
  0
LINE
  8
寸法
  6
CONTINUOUS
 10
50.73683
 20
-68.70412
 11
69.355302
 21
-68.70412
  0
LINE
  8
寸法
  6
CONTINUOUS
 10
50.73683
 20
-61.370788
 11
69.355302
 21
-61.370788
  0
LINE
  8
寸法
  6
CONTINUOUS
 10
69.355302
 20
-68.70412
 11
69.355302
 21
-61.370788
  0
POINT
  8
寸法
 10
69.355302
 20
-68.70412
  0
POINT
  8
寸法
 10
69.355302
 20
-61.370788
  0
TEXT
  7
TextStyle03
  8
寸法
  6
CONTINUOUS
 10
72.35
 20
-74.14375
  1
上昇207以上
 40
3.0
 50
90.0
 72
     5
 11
72.35
 21
-55.95625
  0
ENDBLK
  0
BLOCK
  2
*DIM_0036
 70
    65
 10
0.0
 20
0.0
  0
LINE
  8
寸法
  6
CONTINUOUS
 10
125.852362
 20
-47.25215
 11
125.852362
 21
-40.874737
  0
LINE
  8
寸法
  6
CONTINUOUS
 10
157.975698
 20
-47.25215
 11
157.975698
 21
-40.874737
  0
LINE
  8
寸法
  6
CONTINUOUS
 10
125.852362
 20
-40.874737
 11
157.975698
 21
-40.874737
  0
POINT
  8
寸法
 10
125.852362
 20
-40.874737
  0
POINT
  8
寸法
 10
157.975698
 20
-40.874737
  0
TEXT
  7
TextStyle03
  8
寸法
  6
CONTINUOUS
 10
137.775
 20
-40.5
  1
963.7
 40
3.0
 72
     5
 11
146.025
 21
-40.5
  0
ENDBLK
  0
BLOCK
  2
*DIM_0037
 70
    65
 10
0.0
 20
0.0
  0
LINE
  8
寸法
  6
CONTINUOUS
 10
162.975698
 20
-52.25215
 11
172.950347
 21
-52.25215
  0
LINE
  8
寸法
  6
CONTINUOUS
 10
162.975698
 20
-71.585483
 11
172.950347
 21
-71.585483
  0
LINE
  8
寸法
  6
CONTINUOUS
 10
172.950347
 20
-52.25215
 11
172.950347
 21
-71.585483
  0
POINT
  8
寸法
 10
172.950347
 20
-52.25215
  0
POINT
  8
寸法
 10
172.950347
 20
-71.585483
  0
TEXT
  7
TextStyle03
  8
寸法
  6
CONTINUOUS
 10
172.575
 20
-64.3625
  1
580
 40
3.0
 50
90.0
 72
     5
 11
172.575
 21
-59.4875
  0
ENDBLK
  0
BLOCK
  2
*DIM_0038
 70
    65
 10
0.0
 20
0.0
  0
LINE
  8
寸法
  6
CONTINUOUS
 10
48.016525
 20
-68.209977
 11
48.016525
 21
-32.437345
  0
LINE
  8
寸法
  6
CONTINUOUS
 10
45.73683
 20
-32.437345
 11
48.016525
 21
-32.437345
  0
POINT
  8
寸法
 10
45.73683
 20
-32.437345
  0
POINT
  8
寸法
 10
48.016525
 20
-32.437345
  0
TEXT
  7
TextStyle03
  8
寸法
  6
CONTINUOUS
 10
50.34375
 20
-32.075
  1
68.4
 40
3.0
 72
     5
 11
56.90625
 21
-32.075
  0
ENDBLK
  0
BLOCK
  2
*DIM_0039
 70
    65
 10
0.0
 20
0.0
  0
LINE
  8
寸法
  6
CONTINUOUS
 10
-123.20952
 20
-68.209977
 11
-123.20952
 21
-32.437345
  0
LINE
  8
寸法
  6
CONTINUOUS
 10
-120.929825
 20
-32.437345
 11
-123.20952
 21
-32.437345
  0
POINT
  8
寸法
 10
-120.929825
 20
-32.437345
  0
POINT
  8
寸法
 10
-123.20952
 20
-32.437345
  0
TEXT
  7
TextStyle03
  8
寸法
  6
CONTINUOUS
 10
-132.10625
 20
-32.075
  1
68.4
 40
3.0
 72
     5
 11
-125.54375
 21
-32.075
  0
ENDBLK
  0
BLOCK
  2
*DIM_0040
 70
    65
 10
0.0
 20
0.0
  0
LINE
  8
寸法
  6
CONTINUOUS
 10
45.73683
 20
-32.437345
 11
-120.929825
 21
-32.437345
  0
POINT
  8
寸法
 10
45.73683
 20
-32.437345
  0
POINT
  8
寸法
 10
-120.929825
 20
-32.437345
  0
TEXT
  7
TextStyle03
  8
寸法
  6
CONTINUOUS
 10
-49.31875
 20
-32.075
  1
呼称寸法　5000
 40
3.0
 72
     5
 11
-25.88125
 21
-32.075
  0
ENDBLK
  0
BLOCK
  2
M8横
 70
    64
 10
-88.370132
 20
140.837665
  0
LINE
  8
ボルト／ビス
 10
-95.870132
 20
140.837665
 11
-80.870132
 21
140.837665
  0
LINE
  8
ボルト／ビス
 10
-80.870132
 20
145.837665
 11
-81.370132
 21
146.337665
  0
POLYLINE
  8
ボルト／ビス
 66
     1
  0
VERTEX
  8
ボルト／ビス
 10
-84.120132
 20
146.337665
  0
VERTEX
  8
ボルト／ビス
 10
-84.620132
 20
145.837665
  0
VERTEX
  8
ボルト／ビス
 10
-85.120132
 20
146.337665
  0
SEQEND
  0
POLYLINE
  8
ボルト／ビス
 66
     1
  0
VERTEX
  8
ボルト／ビス
 10
-91.620132
 20
146.337665
  0
VERTEX
  8
ボルト／ビス
 10
-92.120132
 20
145.837665
  0
VERTEX
  8
ボルト／ビス
 10
-92.620132
 20
146.337665
  0
SEQEND
  0
LINE
  8
ボルト／ビス
 10
-95.370132
 20
146.337665
 11
-95.870132
 21
145.837665
  0
LINE
  8
ボルト／ビス
 10
-95.870132
 20
140.837665
 11
-95.870132
 21
145.837665
  0
LINE
  8
ボルト／ビス
 10
-80.870132
 20
140.837665
 11
-80.870132
 21
145.837665
  0
LINE
  8
ボルト／ビス
 10
-95.370132
 20
146.337665
 11
-81.370132
 21
146.337665
  0
LINE
  8
ボルト／ビス
 10
-84.620132
 20
140.837665
 11
-84.620132
 21
145.837665
  0
LINE
  8
ボルト／ビス
 10
-92.120132
 20
140.837665
 11
-92.120132
 21
145.837665
  0
ENDBLK
  0
ENDSEC
  0
SECTION
  2
ENTITIES
  0
POLYLINE
  8
通り芯
  6
CONTINUOUS
 66
     1
 70
     1
  0
VERTEX
  8
通り芯
 10
-210.0
 20
-148.5
  0
VERTEX
  8
通り芯
 10
210.0
 20
-148.5
  0
VERTEX
  8
通り芯
 10
210.0
 20
148.5
  0
VERTEX
  8
通り芯
 10
-210.0
 20
148.5
  0
SEQEND
  0
INSERT
  2
*GRP_0001
  8
型材断面
  6
CONTINUOUS
 10
0.0
 20
0.0
  0
LINE
  8
型材断面
  6
CONTINUOUS
 10
162.97617
 20
61.869993
 11
162.97617
 21
61.819993
  0
LINE
  8
型材断面
  6
CONTINUOUS
 10
162.47617
 20
60.203325
 11
161.742835
 21
60.203325
  0
LINE
  8
型材断面
  6
CONTINUOUS
 62
    47
 10
169.709335
 20
61.60302
 11
169.709335
 21
61.55302
  0
LINE
  8
型材断面
  6
CONTINUOUS
 62
    47
 10
169.709335
 20
61.60302
 11
169.209335
 21
61.60302
  0
LINE
  8
型材断面
  6
CONTINUOUS
 10
163.459335
 20
60.25302
 11
163.459335
 21
61.699688
  0
LINE
  8
型材断面
  6
CONTINUOUS
 10
163.909335
 20
61.699688
 11
163.459335
 21
61.699688
  0
LINE
  8
型材断面
  6
CONTINUOUS
 62
    47
 10
166.582028
 20
62.43302
 11
166.582028
 21
62.48302
  0
LINE
  8
型材断面
  6
CONTINUOUS
 62
    47
 10
166.582028
 20
62.48302
 11
166.248695
 21
62.48302
  0
LINE
  8
型材断面
  6
CONTINUOUS
 62
    47
 10
166.248695
 20
62.48302
 11
166.148695
 21
61.699688
  0
LINE
  8
型材断面
  6
CONTINUOUS
 62
    47
 10
165.74267
 20
61.699688
 11
166.148695
 21
61.699688
  0
LINE
  8
型材断面
  6
CONTINUOUS
 62
    47
 10
165.74267
 20
62.169687
 11
163.909335
 21
62.169687
  0
LINE
  8
型材断面
  6
CONTINUOUS
 10
162.97617
 20
61.869993
 11
162.47617
 21
61.869993
  0
LINE
  8
型材断面
  6
CONTINUOUS
 10
163.459335
 20
60.25302
 11
162.97617
 21
60.25302
  0
LINE
  8
型材断面
  6
CONTINUOUS
 62
    47
 10
169.209335
 20
62.169687
 11
166.582028
 21
62.169687
  0
INSERT
  2
*GRP_0002
  8
型材断面
  6
DOT
 10
0.0
 20
0.0
  0
INSERT
  2
*GRP_0003
  8
型材断面
  6
DOT
 10
0.0
 20
0.0
  0
LINE
  8
型材断面
  6
CONTINUOUS
 10
169.209335
 20
62.169687
 11
169.209335
 21
50.203325
  0
LINE
  8
型材断面
  6
CONTINUOUS
 10
169.709335
 20
61.60302
 11
169.709335
 21
50.203325
  0
LINE
  8
型材断面
  6
CONTINUOUS
 10
166.582028
 20
62.48302
 11
166.582028
 21
50.203325
  0
LINE
  8
型材断面
  6
CONTINUOUS
 10
166.248695
 20
62.48302
 11
166.248695
 21
50.203325
  0
LINE
  8
型材断面
  6
CONTINUOUS
 10
166.148695
 20
61.699688
 11
166.148695
 21
50.203325
  0
LINE
  8
型材断面
  6
CONTINUOUS
 10
165.74267
 20
62.169687
 11
165.74267
 21
50.203325
  0
LINE
  8
型材断面
  6
CONTINUOUS
 10
162.97617
 20
61.869993
 11
162.97617
 21
50.203325
  0
LINE
  8
型材断面
  6
CONTINUOUS
 10
161.742835
 20
60.203325
 11
161.742835
 21
50.203325
  0
LINE
  8
型材断面
  6
CONTINUOUS
 10
162.47617
 20
61.869993
 11
162.47617
 21
50.203325
  0
LINE
  8
型材断面
  6
CONTINUOUS
 10
163.459335
 20
61.699688
 11
163.459335
 21
50.203325
  0
LINE
  8
型材断面
  6
CONTINUOUS
 10
163.909335
 20
62.169687
 11
163.909335
 21
50.203325
  0
LINE
  8
型材断面
  6
CONTINUOUS
 10
162.97617
 20
38.53666
 11
162.97617
 21
38.58666
  0
LINE
  8
型材断面
  6
CONTINUOUS
 10
162.47617
 20
40.203325
 11
161.742835
 21
40.203325
  0
LINE
  8
型材断面
  6
CONTINUOUS
 62
    47
 10
169.709335
 20
38.80363
 11
169.709335
 21
38.85363
  0
LINE
  8
型材断面
  6
CONTINUOUS
 62
    47
 10
169.709335
 20
38.80363
 11
169.209335
 21
38.80363
  0
LINE
  8
型材断面
  6
CONTINUOUS
 10
163.459335
 20
40.15363
 11
163.459335
 21
38.706965
  0
LINE
  8
型材断面
  6
CONTINUOUS
 10
163.909335
 20
38.706965
 11
163.459335
 21
38.706965
  0
LINE
  8
型材断面
  6
CONTINUOUS
 62
    47
 10
166.582028
 20
37.97363
 11
166.582028
 21
37.92363
  0
LINE
  8
型材断面
  6
CONTINUOUS
 62
    47
 10
166.582028
 20
37.92363
 11
166.248695
 21
37.92363
  0
LINE
  8
型材断面
  6
CONTINUOUS
 62
    47
 10
166.248695
 20
37.92363
 11
166.148695
 21
38.706965
  0
LINE
  8
型材断面
  6
CONTINUOUS
 62
    47
 10
165.74267
 20
38.706965
 11
166.148695
 21
38.706965
  0
LINE
  8
型材断面
  6
CONTINUOUS
 62
    47
 10
165.74267
 20
38.236965
 11
163.909335
 21
38.236965
  0
LINE
  8
型材断面
  6
CONTINUOUS
 10
162.97617
 20
38.53666
 11
162.47617
 21
38.53666
  0
LINE
  8
型材断面
  6
CONTINUOUS
 10
163.459335
 20
40.15363
 11
162.97617
 21
40.15363
  0
LINE
  8
型材断面
  6
CONTINUOUS
 62
    47
 10
169.209335
 20
38.236965
 11
166.582028
 21
38.236965
  0
INSERT
  2
*GRP_0004
  8
型材断面
  6
DOT
 10
0.0
 20
0.0
  0
INSERT
  2
*GRP_0005
  8
型材断面
  6
DOT
 10
0.0
 20
0.0
  0
LINE
  8
型材断面
  6
CONTINUOUS
 10
169.209335
 20
38.236965
 11
169.209335
 21
50.203325
  0
LINE
  8
型材断面
  6
CONTINUOUS
 10
169.709335
 20
38.80363
 11
169.709335
 21
50.203325
  0
LINE
  8
型材断面
  6
CONTINUOUS
 10
166.582028
 20
37.92363
 11
166.582028
 21
50.203325
  0
LINE
  8
型材断面
  6
CONTINUOUS
 10
166.248695
 20
37.92363
 11
166.248695
 21
50.203325
  0
LINE
  8
型材断面
  6
CONTINUOUS
 10
166.148695
 20
38.706965
 11
166.148695
 21
50.203325
  0
LINE
  8
型材断面
  6
CONTINUOUS
 10
165.74267
 20
38.236965
 11
165.74267
 21
50.203325
  0
LINE
  8
型材断面
  6
CONTINUOUS
 10
162.97617
 20
38.53666
 11
162.97617
 21
50.203325
  0
LINE
  8
型材断面
  6
CONTINUOUS
 10
161.742835
 20
40.203325
 11
161.742835
 21
50.203325
  0
LINE
  8
型材断面
  6
CONTINUOUS
 10
162.47617
 20
38.53666
 11
162.47617
 21
50.203325
  0
LINE
  8
型材断面
  6
CONTINUOUS
 10
163.459335
 20
38.706965
 11
163.459335
 21
50.203325
  0
LINE
  8
型材断面
  6
CONTINUOUS
 10
163.909335
 20
38.236965
 11
163.909335
 21
50.203325
  0
LINE
  8
型材断面
  6
DASHDOT
 10
-37.596497
 20
-79.253555
 11
-37.596497
 21
60.203325
  0
LINE
  8
型材断面
  6
CONTINUOUS
 10
47.403498
 20
-69.937453
 11
47.353498
 21
-69.937453
  0
LINE
  8
型材断面
  6
CONTINUOUS
 10
45.73683
 20
-69.437453
 11
45.73683
 21
-68.70412
  0
LINE
  8
型材断面
  6
CONTINUOUS
 62
    47
 10
47.136525
 20
-76.67062
 11
47.086525
 21
-76.67062
  0
LINE
  8
型材断面
  6
CONTINUOUS
 62
    47
 10
47.136525
 20
-76.67062
 11
47.136525
 21
-76.17062
  0
LINE
  8
型材断面
  6
CONTINUOUS
 10
45.786525
 20
-70.42062
 11
47.233193
 21
-70.42062
  0
LINE
  8
型材断面
  6
CONTINUOUS
 10
47.233193
 20
-70.87062
 11
47.233193
 21
-70.42062
  0
LINE
  8
型材断面
  6
CONTINUOUS
 62
    47
 10
47.966525
 20
-73.543312
 11
48.016525
 21
-73.543312
  0
LINE
  8
型材断面
  6
CONTINUOUS
 62
    47
 10
48.016525
 20
-73.543312
 11
48.016525
 21
-73.209977
  0
LINE
  8
型材断面
  6
CONTINUOUS
 62
    47
 10
48.016525
 20
-73.209977
 11
47.233193
 21
-73.109977
  0
LINE
  8
型材断面
  6
CONTINUOUS
 62
    47
 10
47.233193
 20
-72.703953
 11
47.233193
 21
-73.109977
  0
LINE
  8
型材断面
  6
CONTINUOUS
 62
    47
 10
47.703192
 20
-72.703953
 11
47.703192
 21
-70.87062
  0
LINE
  8
型材断面
  6
CONTINUOUS
 10
47.403498
 20
-69.937453
 11
47.403498
 21
-69.437453
  0
LINE
  8
型材断面
  6
CONTINUOUS
 10
45.786525
 20
-70.42062
 11
45.786525
 21
-69.937453
  0
LINE
  8
型材断面
  6
CONTINUOUS
 62
    47
 10
47.703192
 20
-76.17062
 11
47.703192
 21
-73.543312
  0
INSERT
  2
*GRP_0010
  8
型材断面
  6
DOT
 10
0.0
 20
0.0
  0
INSERT
  2
*GRP_0011
  8
型材断面
  6
DOT
 10
0.0
 20
0.0
  0
LINE
  8
型材断面
  6
CONTINUOUS
 10
47.703192
 20
-76.17062
 11
-37.596497
 21
-76.17062
  0
LINE
  8
型材断面
  6
CONTINUOUS
 10
47.136525
 20
-76.67062
 11
-37.596497
 21
-76.67062
  0
LINE
  8
型材断面
  6
CONTINUOUS
 10
48.016525
 20
-73.543312
 11
-37.596497
 21
-73.543312
  0
LINE
  8
型材断面
  6
CONTINUOUS
 10
48.016525
 20
-73.209977
 11
-37.596497
 21
-73.209977
  0
LINE
  8
型材断面
  6
CONTINUOUS
 10
47.233193
 20
-73.109977
 11
-37.596497
 21
-73.109977
  0
LINE
  8
型材断面
  6
CONTINUOUS
 10
47.703192
 20
-72.703953
 11
-37.596497
 21
-72.703953
  0
LINE
  8
型材断面
  6
CONTINUOUS
 10
47.403498
 20
-69.937453
 11
-37.596497
 21
-69.937453
  0
LINE
  8
型材断面
  6
CONTINUOUS
 10
45.73683
 20
-68.70412
 11
-37.596497
 21
-68.70412
  0
LINE
  8
型材断面
  6
CONTINUOUS
 10
47.403498
 20
-69.437453
 11
-37.596497
 21
-69.437453
  0
LINE
  8
型材断面
  6
CONTINUOUS
 10
47.233193
 20
-70.42062
 11
-37.596497
 21
-70.42062
  0
LINE
  8
型材断面
  6
CONTINUOUS
 10
47.703192
 20
-70.87062
 11
-37.596497
 21
-70.87062
  0
LINE
  8
型材断面
  6
CONTINUOUS
 10
45.73683
 20
40.203325
 11
45.73683
 21
60.203325
  0
LINE
  8
型材断面
  6
CONTINUOUS
 10
47.703192
 20
38.236962
 11
47.703192
 21
62.169687
  0
LINE
  8
型材断面
  6
CONTINUOUS
 10
48.016525
 20
37.92363
 11
48.016525
 21
62.48302
  0
LINE
  8
型材断面
  6
CONTINUOUS
 10
47.403498
 20
38.536658
 11
47.403498
 21
61.869993
  0
LINE
  8
型材断面
  6
CONTINUOUS
 10
44.903498
 20
41.036658
 11
48.016525
 21
37.92363
  0
LINE
  8
型材断面
  6
CONTINUOUS
 10
44.903498
 20
59.369993
 11
48.016525
 21
62.48302
  0
LINE
  8
型材断面
  6
CONTINUOUS
 10
44.903498
 20
50.619993
 11
45.73683
 21
50.619993
  0
LINE
  8
型材断面
  6
CONTINUOUS
 10
44.903498
 20
49.786658
 11
45.73683
 21
49.786658
  0
LINE
  8
型材断面
  6
CONTINUOUS
 10
44.903498
 20
41.036658
 11
44.903498
 21
49.786658
  0
LINE
  8
型材断面
  6
CONTINUOUS
 10
44.903498
 20
50.619993
 11
44.903498
 21
59.369993
  0
LINE
  8
型材断面
  6
DASHDOT
 10
172.29227
 20
40.203325
 11
45.73683
 21
40.203325
  0
LINE
  8
型材断面
  6
DASHDOT
 10
172.29227
 20
60.203325
 11
45.73683
 21
60.203325
  0
LINE
  8
型材断面
  6
DASHDOT
 10
45.73683
 20
-79.253555
 11
45.73683
 21
40.203325
  0
LINE
  8
型材断面
  6
CONTINUOUS
 10
-122.596493
 20
-69.937453
 11
-122.546493
 21
-69.937453
  0
LINE
  8
型材断面
  6
CONTINUOUS
 10
-120.929825
 20
-69.437453
 11
-120.929825
 21
-68.70412
  0
LINE
  8
型材断面
  6
CONTINUOUS
 62
    47
 10
-122.32952
 20
-76.67062
 11
-122.27952
 21
-76.67062
  0
LINE
  8
型材断面
  6
CONTINUOUS
 62
    47
 10
-122.32952
 20
-76.67062
 11
-122.32952
 21
-76.17062
  0
LINE
  8
型材断面
  6
CONTINUOUS
 10
-120.97952
 20
-70.42062
 11
-122.426188
 21
-70.42062
  0
LINE
  8
型材断面
  6
CONTINUOUS
 10
-122.426188
 20
-70.87062
 11
-122.426188
 21
-70.42062
  0
LINE
  8
型材断面
  6
CONTINUOUS
 62
    47
 10
-123.15952
 20
-73.543312
 11
-123.20952
 21
-73.543312
  0
LINE
  8
型材断面
  6
CONTINUOUS
 62
    47
 10
-123.20952
 20
-73.543312
 11
-123.20952
 21
-73.209977
  0
LINE
  8
型材断面
  6
CONTINUOUS
 62
    47
 10
-123.20952
 20
-73.209977
 11
-122.426188
 21
-73.109977
  0
LINE
  8
型材断面
  6
CONTINUOUS
 62
    47
 10
-122.426188
 20
-72.703953
 11
-122.426188
 21
-73.109977
  0
LINE
  8
型材断面
  6
CONTINUOUS
 62
    47
 10
-122.896188
 20
-72.703953
 11
-122.896188
 21
-70.87062
  0
LINE
  8
型材断面
  6
CONTINUOUS
 10
-122.596493
 20
-69.937453
 11
-122.596493
 21
-69.437453
  0
LINE
  8
型材断面
  6
CONTINUOUS
 10
-120.97952
 20
-70.42062
 11
-120.97952
 21
-69.937453
  0
LINE
  8
型材断面
  6
CONTINUOUS
 62
    47
 10
-122.896188
 20
-76.17062
 11
-122.896188
 21
-73.543312
  0
INSERT
  2
*GRP_0013
  8
型材断面
  6
DOT
 10
0.0
 20
0.0
  0
INSERT
  2
*GRP_0014
  8
型材断面
  6
DOT
 10
0.0
 20
0.0
  0
LINE
  8
型材断面
  6
CONTINUOUS
 10
-122.896188
 20
-76.17062
 11
-37.596497
 21
-76.17062
  0
LINE
  8
型材断面
  6
CONTINUOUS
 10
-122.32952
 20
-76.67062
 11
-37.596497
 21
-76.67062
  0
LINE
  8
型材断面
  6
CONTINUOUS
 10
-123.20952
 20
-73.543312
 11
-37.596497
 21
-73.543312
  0
LINE
  8
型材断面
  6
CONTINUOUS
 10
-123.20952
 20
-73.209977
 11
-37.596497
 21
-73.209977
  0
LINE
  8
型材断面
  6
CONTINUOUS
 10
-122.426188
 20
-73.109977
 11
-37.596497
 21
-73.109977
  0
LINE
  8
型材断面
  6
CONTINUOUS
 10
-122.896188
 20
-72.703953
 11
-37.596497
 21
-72.703953
  0
LINE
  8
型材断面
  6
CONTINUOUS
 10
-122.596493
 20
-69.937453
 11
-37.596497
 21
-69.937453
  0
LINE
  8
型材断面
  6
CONTINUOUS
 10
-120.929825
 20
-68.70412
 11
-37.596497
 21
-68.70412
  0
LINE
  8
型材断面
  6
CONTINUOUS
 10
-122.596493
 20
-69.437453
 11
-37.596497
 21
-69.437453
  0
LINE
  8
型材断面
  6
CONTINUOUS
 10
-122.426188
 20
-70.42062
 11
-37.596497
 21
-70.42062
  0
LINE
  8
型材断面
  6
CONTINUOUS
 10
-122.896188
 20
-70.87062
 11
-37.596497
 21
-70.87062
  0
LINE
  8
型材断面
  6
CONTINUOUS
 10
-120.929825
 20
40.203325
 11
-120.929825
 21
60.203325
  0
LINE
  8
型材断面
  6
CONTINUOUS
 10
-122.896188
 20
38.236962
 11
-122.896188
 21
62.169687
  0
LINE
  8
型材断面
  6
CONTINUOUS
 10
-123.20952
 20
37.92363
 11
-123.20952
 21
62.48302
  0
LINE
  8
型材断面
  6
CONTINUOUS
 10
-122.596493
 20
38.536658
 11
-122.596493
 21
61.869993
  0
LINE
  8
型材断面
  6
CONTINUOUS
 10
-120.096493
 20
59.369993
 11
-123.20952
 21
62.48302
  0
LINE
  8
型材断面
  6
CONTINUOUS
 10
-120.096493
 20
41.036658
 11
-123.20952
 21
37.92363
  0
LINE
  8
型材断面
  6
CONTINUOUS
 10
-120.096493
 20
49.786658
 11
-120.929825
 21
49.786658
  0
LINE
  8
型材断面
  6
CONTINUOUS
 10
-120.096493
 20
50.619993
 11
-120.929825
 21
50.619993
  0
LINE
  8
型材断面
  6
CONTINUOUS
 10
-120.096493
 20
41.036658
 11
-120.096493
 21
49.786658
  0
LINE
  8
型材断面
  6
CONTINUOUS
 10
-120.096493
 20
50.619993
 11
-120.096493
 21
59.369993
  0
LINE
  8
型材断面
  6
DASHDOT
 10
172.29227
 20
50.203325
 11
-120.929825
 21
50.203325
  0
LINE
  8
型材断面
  6
DASHDOT
 10
-120.929825
 20
-79.253555
 11
-120.929825
 21
40.203325
  0
LINE
  8
型材断面
  6
CONTINUOUS
 10
45.73683
 20
40.203325
 11
-120.929825
 21
40.203325
  0
LINE
  8
型材断面
  6
CONTINUOUS
 10
47.703192
 20
38.236962
 11
-122.896188
 21
38.236962
  0
LINE
  8
型材断面
  6
CONTINUOUS
 10
48.016525
 20
37.92363
 11
-123.20952
 21
37.92363
  0
LINE
  8
型材断面
  6
CONTINUOUS
 10
47.403498
 20
38.536658
 11
-122.596493
 21
38.536658
  0
LINE
  8
型材断面
  6
CONTINUOUS
 10
45.73683
 20
60.203325
 11
-120.929825
 21
60.203325
  0
LINE
  8
型材断面
  6
CONTINUOUS
 10
47.703192
 20
62.169687
 11
-122.896188
 21
62.169687
  0
LINE
  8
型材断面
  6
CONTINUOUS
 10
48.016525
 20
62.48302
 11
-123.20952
 21
62.48302
  0
LINE
  8
型材断面
  6
CONTINUOUS
 10
47.403498
 20
61.869993
 11
-122.596493
 21
61.869993
  0
POLYLINE
  8
型材断面
  6
CONTINUOUS
 66
     1
 70
     1
  0
VERTEX
  8
型材断面
 10
59.902778
 20
-91.899758
  0
VERTEX
  8
型材断面
 10
11.224102
 20
-91.899758
  0
VERTEX
  8
型材断面
 10
11.224102
 20
-108.244423
  0
VERTEX
  8
型材断面
 10
59.902778
 20
-108.244423
  0
SEQEND
  0
POLYLINE
  8
型材断面
  6
CONTINUOUS
 66
     1
 70
     1
  0
VERTEX
  8
型材断面
 10
-27.797535
 20
30.427403
  0
VERTEX
  8
型材断面
 10
-46.569465
 20
30.427403
  0
VERTEX
  8
型材断面
 10
-46.569465
 20
25.69056
  0
VERTEX
  8
型材断面
 10
-27.797535
 20
25.69056
  0
SEQEND
  0
POLYLINE
  8
型材断面
  6
CONTINUOUS
 66
     1
 70
     1
  0
VERTEX
  8
型材断面
 10
-27.797535
 20
69.979248
  0
VERTEX
  8
型材断面
 10
-46.569465
 20
69.979248
  0
VERTEX
  8
型材断面
 10
-46.569465
 20
74.71609
  0
VERTEX
  8
型材断面
 10
-27.797535
 20
74.71609
  0
SEQEND
  0
LINE
  8
型材断面
  6
CONTINUOUS
 10
-104.263165
 20
62.833455
 11
-105.758795
 21
65.423963
  0
LINE
  8
型材断面
  6
CONTINUOUS
 10
-104.263165
 20
62.833455
 11
-102.767535
 21
65.423963
  0
LINE
  8
型材断面
  6
CONTINUOUS
 10
-102.767535
 20
65.423963
 11
-105.758795
 21
65.423963
  0
LINE
  8
型材断面
  6
CONTINUOUS
 10
-123.559962
 20
50.203325
 11
-126.15047
 21
51.698955
  0
LINE
  8
型材断面
  6
CONTINUOUS
 10
-123.559962
 20
50.203325
 11
-126.15047
 21
48.707695
  0
LINE
  8
型材断面
  6
CONTINUOUS
 10
-126.15047
 20
48.707695
 11
-126.15047
 21
51.698955
  0
LINE
  8
型材断面
  6
CONTINUOUS
 10
-104.263165
 20
37.573195
 11
-105.758795
 21
34.982688
  0
LINE
  8
型材断面
  6
CONTINUOUS
 10
-104.263165
 20
37.573195
 11
-102.767535
 21
34.982688
  0
LINE
  8
型材断面
  6
CONTINUOUS
 10
-102.767535
 20
34.982688
 11
-105.758795
 21
34.982688
  0
LINE
  8
型材断面
  6
CONTINUOUS
 10
29.07017
 20
62.833455
 11
30.5658
 21
65.423963
  0
LINE
  8
型材断面
  6
CONTINUOUS
 10
29.07017
 20
62.833455
 11
27.57454
 21
65.423963
  0
LINE
  8
型材断面
  6
CONTINUOUS
 10
27.57454
 20
65.423963
 11
30.5658
 21
65.423963
  0
LINE
  8
型材断面
  6
CONTINUOUS
 10
48.366967
 20
50.203325
 11
50.957475
 21
51.698955
  0
LINE
  8
型材断面
  6
CONTINUOUS
 10
48.366967
 20
50.203325
 11
50.957475
 21
48.707695
  0
LINE
  8
型材断面
  6
CONTINUOUS
 10
50.957475
 20
48.707695
 11
50.957475
 21
51.698955
  0
LINE
  8
型材断面
  6
CONTINUOUS
 10
29.07017
 20
37.573195
 11
30.5658
 21
34.982688
  0
LINE
  8
型材断面
  6
CONTINUOUS
 10
29.07017
 20
37.573195
 11
27.57454
 21
34.982688
  0
LINE
  8
型材断面
  6
CONTINUOUS
 10
27.57454
 20
34.982688
 11
30.5658
 21
34.982688
  0
LINE
  8
型材断面
  6
CONTINUOUS
 10
-37.596497
 20
62.833453
 11
-36.100868
 21
65.42396
  0
LINE
  8
型材断面
  6
CONTINUOUS
 10
-37.596497
 20
62.833453
 11
-39.092127
 21
65.42396
  0
LINE
  8
型材断面
  6
CONTINUOUS
 10
-39.092127
 20
65.42396
 11
-36.100868
 21
65.42396
  0
LINE
  8
型材断面
  6
CONTINUOUS
 10
-37.596497
 20
37.573193
 11
-36.100868
 21
34.982685
  0
LINE
  8
型材断面
  6
CONTINUOUS
 10
-37.596497
 20
37.573193
 11
-39.092127
 21
34.982685
  0
LINE
  8
型材断面
  6
CONTINUOUS
 10
-39.092127
 20
34.982685
 11
-36.100868
 21
34.982685
  0
LINE
  8
型材断面
  6
CONTINUOUS
 10
48.366963
 20
56.303325
 11
50.95747
 21
55.707267
  0
LINE
  8
型材断面
  6
CONTINUOUS
 10
48.366963
 20
56.303325
 11
50.95747
 21
56.899382
  0
LINE
  8
型材断面
  6
CONTINUOUS
 10
50.95747
 20
56.899382
 11
50.95747
 21
55.707267
  0
LINE
  8
型材断面
  6
CONTINUOUS
 10
48.366963
 20
44.103325
 11
50.95747
 21
44.699382
  0
LINE
  8
型材断面
  6
CONTINUOUS
 10
48.366963
 20
44.103325
 11
50.95747
 21
43.507267
  0
LINE
  8
型材断面
  6
CONTINUOUS
 10
50.95747
 20
43.507267
 11
50.95747
 21
44.699382
  0
LINE
  8
型材断面
  6
CONTINUOUS
 10
-123.559958
 20
56.303325
 11
-126.150465
 21
55.707267
  0
LINE
  8
型材断面
  6
CONTINUOUS
 10
-123.559958
 20
56.303325
 11
-126.150465
 21
56.899382
  0
LINE
  8
型材断面
  6
CONTINUOUS
 10
-126.150465
 20
56.899382
 11
-126.150465
 21
55.707267
  0
LINE
  8
型材断面
  6
CONTINUOUS
 10
-123.559958
 20
44.103325
 11
-126.150465
 21
44.699382
  0
LINE
  8
型材断面
  6
CONTINUOUS
 10
-123.559958
 20
44.103325
 11
-126.150465
 21
43.507267
  0
LINE
  8
型材断面
  6
CONTINUOUS
 10
-126.150465
 20
43.507267
 11
-126.150465
 21
44.699382
  0
LINE
  8
型材断面
  6
DASHDOT
 10
-87.8005
 20
40.203325
 11
-87.8005
 21
60.203325
  0
LINE
  8
型材断面
  6
DASHDOT
 10
-54.331167
 20
40.203325
 11
-54.331167
 21
60.203325
  0
LINE
  8
型材断面
  6
CONTINUOUS
 10
-86.5505
 20
41.86999
 11
-89.0505
 21
41.86999
  0
LINE
  8
型材断面
  6
CONTINUOUS
 10
-86.5505
 20
58.53666
 11
-89.0505
 21
58.53666
  0
LINE
  8
型材断面
  6
CONTINUOUS
 10
-86.5505
 20
41.86999
 11
-86.5505
 21
58.53666
  0
LINE
  8
型材断面
  6
CONTINUOUS
 10
-87.5505
 20
41.86999
 11
-87.5505
 21
58.53666
  0
LINE
  8
型材断面
  6
CONTINUOUS
 10
-88.0505
 20
41.86999
 11
-88.0505
 21
58.53666
  0
LINE
  8
型材断面
  6
CONTINUOUS
 10
-89.0505
 20
41.86999
 11
-89.0505
 21
58.53666
  0
LINE
  8
型材断面
  6
CONTINUOUS
 10
-53.081167
 20
41.86999
 11
-55.581167
 21
41.86999
  0
LINE
  8
型材断面
  6
CONTINUOUS
 10
-53.081167
 20
58.53666
 11
-55.581167
 21
58.53666
  0
LINE
  8
型材断面
  6
CONTINUOUS
 10
-53.081167
 20
41.86999
 11
-53.081167
 21
58.53666
  0
LINE
  8
型材断面
  6
CONTINUOUS
 10
-54.081167
 20
41.86999
 11
-54.081167
 21
58.53666
  0
LINE
  8
型材断面
  6
CONTINUOUS
 10
-54.581167
 20
41.86999
 11
-54.581167
 21
58.53666
  0
LINE
  8
型材断面
  6
CONTINUOUS
 10
-55.581167
 20
41.86999
 11
-55.581167
 21
58.53666
  0
LINE
  8
型材断面
  6
DASHDOT
 10
12.607505
 20
40.203325
 11
12.607505
 21
60.203325
  0
LINE
  8
型材断面
  6
DASHDOT
 10
-20.861827
 20
40.203325
 11
-20.861827
 21
60.203325
  0
LINE
  8
型材断面
  6
CONTINUOUS
 10
11.357505
 20
41.86999
 11
13.857505
 21
41.86999
  0
LINE
  8
型材断面
  6
CONTINUOUS
 10
11.357505
 20
58.53666
 11
13.857505
 21
58.53666
  0
LINE
  8
型材断面
  6
CONTINUOUS
 10
11.357505
 20
41.86999
 11
11.357505
 21
58.53666
  0
LINE
  8
型材断面
  6
CONTINUOUS
 10
12.357505
 20
41.86999
 11
12.357505
 21
58.53666
  0
LINE
  8
型材断面
  6
CONTINUOUS
 10
12.857505
 20
41.86999
 11
12.857505
 21
58.53666
  0
LINE
  8
型材断面
  6
CONTINUOUS
 10
13.857505
 20
41.86999
 11
13.857505
 21
58.53666
  0
LINE
  8
型材断面
  6
CONTINUOUS
 10
-22.111827
 20
41.86999
 11
-19.611827
 21
41.86999
  0
LINE
  8
型材断面
  6
CONTINUOUS
 10
-22.111827
 20
58.53666
 11
-19.611827
 21
58.53666
  0
LINE
  8
型材断面
  6
CONTINUOUS
 10
-22.111827
 20
41.86999
 11
-22.111827
 21
58.53666
  0
LINE
  8
型材断面
  6
CONTINUOUS
 10
-21.111827
 20
41.86999
 11
-21.111827
 21
58.53666
  0
LINE
  8
型材断面
  6
CONTINUOUS
 10
-20.611827
 20
41.86999
 11
-20.611827
 21
58.53666
  0
LINE
  8
型材断面
  6
CONTINUOUS
 10
-19.611827
 20
41.86999
 11
-19.611827
 21
58.53666
  0
LINE
  8
型材断面
  6
CONTINUOUS
 10
-103.948495
 20
40.203325
 11
-103.948495
 21
41.036658
  0
LINE
  8
型材断面
  6
CONTINUOUS
 10
-104.78183
 20
40.203325
 11
-104.78183
 21
41.036658
  0
LINE
  8
型材断面
  6
CONTINUOUS
 10
-120.096493
 20
41.036658
 11
-104.78183
 21
41.036658
  0
LINE
  8
型材断面
  6
CONTINUOUS
 10
-70.649165
 20
40.203325
 11
-70.649165
 21
41.036658
  0
LINE
  8
型材断面
  6
CONTINUOUS
 10
-71.4825
 20
40.203325
 11
-71.4825
 21
41.036658
  0
LINE
  8
型材断面
  6
CONTINUOUS
 10
-103.948495
 20
41.036658
 11
-71.4825
 21
41.036658
  0
LINE
  8
型材断面
  6
CONTINUOUS
 10
-37.17983
 20
40.203325
 11
-37.17983
 21
41.036658
  0
LINE
  8
型材断面
  6
CONTINUOUS
 10
-38.013165
 20
40.203325
 11
-38.013165
 21
41.036658
  0
LINE
  8
型材断面
  6
CONTINUOUS
 10
-70.649165
 20
41.036658
 11
-38.013165
 21
41.036658
  0
LINE
  8
型材断面
  6
CONTINUOUS
 10
28.7555
 20
40.203325
 11
28.7555
 21
41.036658
  0
LINE
  8
型材断面
  6
CONTINUOUS
 10
29.588835
 20
40.203325
 11
29.588835
 21
41.036658
  0
LINE
  8
型材断面
  6
CONTINUOUS
 10
44.903498
 20
41.036658
 11
29.588835
 21
41.036658
  0
LINE
  8
型材断面
  6
CONTINUOUS
 10
-4.54383
 20
40.203325
 11
-4.54383
 21
41.036658
  0
LINE
  8
型材断面
  6
CONTINUOUS
 10
-3.710495
 20
40.203325
 11
-3.710495
 21
41.036658
  0
LINE
  8
型材断面
  6
CONTINUOUS
 10
28.7555
 20
41.036658
 11
-3.710495
 21
41.036658
  0
LINE
  8
型材断面
  6
CONTINUOUS
 10
-37.17983
 20
41.036658
 11
-4.54383
 21
41.036658
  0
LINE
  8
型材断面
  6
CONTINUOUS
 10
-37.17983
 20
60.203325
 11
-37.17983
 21
59.369993
  0
LINE
  8
型材断面
  6
CONTINUOUS
 10
28.7555
 20
60.203325
 11
28.7555
 21
59.369993
  0
LINE
  8
型材断面
  6
CONTINUOUS
 10
29.588835
 20
60.203325
 11
29.588835
 21
59.369993
  0
LINE
  8
型材断面
  6
CONTINUOUS
 10
44.903498
 20
59.369993
 11
29.588835
 21
59.369993
  0
LINE
  8
型材断面
  6
CONTINUOUS
 10
-4.54383
 20
60.203325
 11
-4.54383
 21
59.369993
  0
LINE
  8
型材断面
  6
CONTINUOUS
 10
-3.710495
 20
60.203325
 11
-3.710495
 21
59.369993
  0
LINE
  8
型材断面
  6
CONTINUOUS
 10
28.7555
 20
59.369993
 11
-3.710495
 21
59.369993
  0
LINE
  8
型材断面
  6
CONTINUOUS
 10
-37.17983
 20
59.369993
 11
-4.54383
 21
59.369993
  0
LINE
  8
型材断面
  6
CONTINUOUS
 10
-38.013165
 20
60.203325
 11
-38.013165
 21
59.369993
  0
LINE
  8
型材断面
  6
CONTINUOUS
 10
-103.948495
 20
60.203325
 11
-103.948495
 21
59.369993
  0
LINE
  8
型材断面
  6
CONTINUOUS
 10
-104.78183
 20
60.203325
 11
-104.78183
 21
59.369993
  0
LINE
  8
型材断面
  6
CONTINUOUS
 10
-120.096493
 20
59.369993
 11
-104.78183
 21
59.369993
  0
LINE
  8
型材断面
  6
CONTINUOUS
 10
-70.649165
 20
60.203325
 11
-70.649165
 21
59.369993
  0
LINE
  8
型材断面
  6
CONTINUOUS
 10
-71.4825
 20
60.203325
 11
-71.4825
 21
59.369993
  0
LINE
  8
型材断面
  6
CONTINUOUS
 10
-103.948495
 20
59.369993
 11
-71.4825
 21
59.369993
  0
LINE
  8
型材断面
  6
CONTINUOUS
 10
-38.013165
 20
59.369993
 11
-70.649165
 21
59.369993
  0
LINE
  8
型材断面
  6
CONTINUOUS
 10
-161.78204
 20
98.180797
 11
-161.185985
 21
95.59029
  0
LINE
  8
型材断面
  6
CONTINUOUS
 10
-161.78204
 20
98.180797
 11
-162.378097
 21
95.59029
  0
LINE
  8
型材断面
  6
CONTINUOUS
 10
-162.378097
 20
95.59029
 11
-161.185985
 21
95.59029
  0
LINE
  8
型材断面
  6
CONTINUOUS
 10
-167.804627
 20
92.311398
 11
-121.56285
 21
92.311398
  0
LINE
  8
型材断面
  6
CONTINUOUS
 10
-161.78204
 20
104.710672
 11
-163.27767
 21
102.120165
  0
LINE
  8
型材断面
  6
CONTINUOUS
 10
-161.78204
 20
104.710672
 11
-160.28641
 21
102.120165
  0
LINE
  8
型材断面
  6
CONTINUOUS
 10
-160.28641
 20
102.120165
 11
-163.27767
 21
102.120165
  0
LINE
  8
型材断面
  6
CONTINUOUS
 10
-167.804627
 20
101.18157
 11
-121.56285
 21
101.18157
  0
LINE
  8
型材断面
  6
CONTINUOUS
 10
-167.804627
 20
86.523365
 11
-121.56285
 21
86.523365
  0
LINE
  8
型材断面
  6
CONTINUOUS
 10
-167.804627
 20
80.735332
 11
-121.56285
 21
80.735332
  0
INSERT
  2
*GRP_0026
  8
型材断面
  6
DOT
 10
0.0
 20
0.0
  0
INSERT
  2
*GRP_0031
  8
型材断面
  6
CONTINUOUS
 10
0.0
 20
0.0
  0
INSERT
  2
*GRP_0032
  8
型材断面
  6
CONTINUOUS
 10
0.0
 20
0.0
  0
INSERT
  2
*GRP_0033
  8
型材断面
  6
CONTINUOUS
 10
0.0
 20
0.0
  0
INSERT
  2
*GRP_0034
  8
型材断面
  6
CONTINUOUS
 10
0.0
 20
0.0
  0
LINE
  8
型材断面
  6
CONTINUOUS
 10
144.04695
 20
-34.50061
 11
124.32744
 21
-34.50061
  0
POLYLINE
  8
ガラス
  6
CONTINUOUS
 66
     1
 70
     1
  0
VERTEX
  8
ガラス
 10
157.975698
 20
-52.25215
  0
VERTEX
  8
ガラス
 10
125.852362
 20
-52.25215
  0
VERTEX
  8
ガラス
 10
125.852362
 20
-71.585483
  0
VERTEX
  8
ガラス
 10
157.975698
 20
-71.585483
  0
SEQEND
  0
TEXT
  7
TextStyle03
  8
文字
  6
CONTINUOUS
 10
78.1
 20
125.25
  1
シリーズ：ＳＴＤＬ
 40
5.0
 72
     5
 11
128.1
 21
125.25
  0
TEXT
  7
TextStyle03
  8
文字
  6
CONTINUOUS
 10
78.1
 20
119.625
  1
　　　　　（上下可動）600×5000タイプ
 40
5.0
 72
     5
 11
181.5375
 21
119.625
  0
TEXT
  7
TextStyle03
  8
文字
  6
CONTINUOUS
 10
78.1
 20
114.0
  1
図面名　：外観姿図
 40
5.0
 72
     5
 11
128.1
 21
114.0
  0
TEXT
  7
TextStyle03
  8
文字
  6
CONTINUOUS
 10
78.1
 20
108.375
  1
　　　　　　
 40
5.0
 72
     5
 11
111.225
 21
108.375
  0
TEXT
  7
TextStyle03
  8
文字
  6
CONTINUOUS
 10
15.5
 20
-97.625
  1
※トップライト枠高さ寸法
 40
3.0
 72
     5
 11
55.625
 21
-97.625
  0
TEXT
  7
TextStyle03
  8
文字
  6
CONTINUOUS
 10
15.5
 20
-101.0
  1
　シングルガラス：214
 40
3.0
 72
     5
 11
50.75
 21
-101.0
  0
TEXT
  7
TextStyle03
  8
文字
  6
CONTINUOUS
 10
15.5
 20
-104.375
  1
　ペアガラス：224
 40
3.0
 72
     5
 11
44.0
 21
-104.375
  0
TEXT
  7
TextStyle03
  8
文字
  6
CONTINUOUS
 10
-45.5
 20
26.7
  1
可動装置側
 40
3.0
 72
     5
 11
-29.0
 21
26.7
  0
TEXT
  7
TextStyle03
  8
文字
  6
CONTINUOUS
 10
-45.5
 20
70.675
  1
可動装置側
 40
3.0
 72
     5
 11
-29.0
 21
70.675
  0
TEXT
  7
TextStyle03
  8
文字
  6
CONTINUOUS
 10
-141.875
 20
28.65
  1
アンカーピッチ
 40
3.0
 50
90.0
 72
     5
 11
-141.875
 21
51.9
  0
TEXT
  7
TextStyle03
  8
文字
  6
CONTINUOUS
 10
-158.925
 20
96.8
  1
はケーシング位置を示す
 40
3.0
 72
     5
 11
-122.175
 21
96.8
  0
TEXT
  7
TextStyle03
  8
文字
  6
CONTINUOUS
 10
-158.925
 20
93.425
  1
４ヶ所中1ヶ所に設定
 40
3.0
 72
     5
 11
-127.2375
 21
93.425
  0
TEXT
  7
TextStyle03
  8
文字
  6
CONTINUOUS
 10
-158.925
 20
102.325
  1
は排水穴位置を示す
 40
3.0
 72
     5
 11
-128.925
 21
102.325
  0
TEXT
  7
TextStyle03
  8
文字
  6
CONTINUOUS
 10
-110.175
 20
97.65
  1
アンカーピッチ
 40
3.0
 72
     5
 11
-86.925
 21
97.65
  0
TEXT
  7
TextStyle03
  8
文字
  6
CONTINUOUS
 10
-162.65
 20
87.45
  1
アンカー数量　１８ヶ所
 40
3.0
 72
     5
 11
-125.9
 21
87.45
  0
TEXT
  7
TextStyle03
  8
文字
  6
CONTINUOUS
 10
-162.725
 20
81.675
  1
アームユニット数　４ヶ所
 40
3.0
 72
     5
 11
-122.6
 21
81.675
  0
TEXT
  7
TextStyle03
  8
文字
  6
CONTINUOUS
 10
125.825
 20
-33.475
  1
ガラス寸法
 40
3.0
 72
     5
 11
142.325
 21
-33.475
  0
TEXT
  7
TextStyle03
  8
文字
  6
CONTINUOUS
 10
145.675
 20
-69.6
  1
×５枚
 40
3.0
 72
     5
 11
155.425
 21
-69.6
  0
INSERT
  2
*DIM_0006
  8
寸法
  6
CONTINUOUS
 10
0.0
 20
0.0
  0
INSERT
  2
*DIM_0007
  8
寸法
  6
CONTINUOUS
 10
0.0
 20
0.0
  0
INSERT
  2
*DIM_0008
  8
寸法
  6
CONTINUOUS
 10
0.0
 20
0.0
  0
INSERT
  2
*DIM_0009
  8
寸法
  6
CONTINUOUS
 10
0.0
 20
0.0
  0
INSERT
  2
*DIM_0012
  8
寸法
  6
CONTINUOUS
 10
0.0
 20
0.0
  0
INSERT
  2
*DIM_0015
  8
寸法
  6
CONTINUOUS
 10
0.0
 20
0.0
  0
INSERT
  2
*DIM_0016
  8
寸法
  6
CONTINUOUS
 10
0.0
 20
0.0
  0
INSERT
  2
*DIM_0017
  8
寸法
  6
CONTINUOUS
 10
0.0
 20
0.0
  0
INSERT
  2
*DIM_0018
  8
寸法
  6
CONTINUOUS
 10
0.0
 20
0.0
  0
INSERT
  2
*DIM_0019
  8
寸法
  6
CONTINUOUS
 10
0.0
 20
0.0
  0
INSERT
  2
*DIM_0020
  8
寸法
  6
CONTINUOUS
 10
0.0
 20
0.0
  0
INSERT
  2
*DIM_0021
  8
寸法
  6
CONTINUOUS
 10
0.0
 20
0.0
  0
INSERT
  2
*DIM_0022
  8
寸法
  6
CONTINUOUS
 10
0.0
 20
0.0
  0
INSERT
  2
*DIM_0023
  8
寸法
  6
CONTINUOUS
 10
0.0
 20
0.0
  0
INSERT
  2
*DIM_0024
  8
寸法
  6
CONTINUOUS
 10
0.0
 20
0.0
  0
INSERT
  2
*DIM_0025
  8
寸法
  6
CONTINUOUS
 10
0.0
 20
0.0
  0
INSERT
  2
*DIM_0035
  8
寸法
  6
CONTINUOUS
 10
0.0
 20
0.0
  0
INSERT
  2
*DIM_0036
  8
寸法
  6
CONTINUOUS
 10
0.0
 20
0.0
  0
INSERT
  2
*DIM_0037
  8
寸法
  6
CONTINUOUS
 10
0.0
 20
0.0
  0
INSERT
  2
*DIM_0038
  8
寸法
  6
CONTINUOUS
 10
0.0
 20
0.0
  0
INSERT
  2
*DIM_0039
  8
寸法
  6
CONTINUOUS
 10
0.0
 20
0.0
  0
INSERT
  2
*DIM_0040
  8
寸法
  6
CONTINUOUS
 10
0.0
 20
0.0
  0
LINE
  8
曲げ物
  6
CONTINUOUS
 10
30.462565
 20
52.128875
 11
26.767252
 21
48.433562
  0
LINE
  8
曲げ物
  6
CONTINUOUS
 10
29.759095
 20
50.592765
 11
28.303365
 21
49.137035
  0
LINE
  8
曲げ物
  6
CONTINUOUS
 10
28.926455
 20
51.425405
 11
27.470725
 21
49.969675
  0
LINE
  8
曲げ物
  6
CONTINUOUS
 10
-1.942175
 20
52.128875
 11
-5.637488
 21
48.433562
  0
LINE
  8
曲げ物
  6
CONTINUOUS
 10
-2.645645
 20
50.592765
 11
-4.101375
 21
49.137035
  0
LINE
  8
曲げ物
  6
CONTINUOUS
 10
-3.478285
 20
51.425405
 11
-4.934015
 21
49.969675
  0
LINE
  8
曲げ物
  6
CONTINUOUS
 10
-35.609598
 20
52.128875
 11
-39.30491
 21
48.433562
  0
LINE
  8
曲げ物
  6
CONTINUOUS
 10
-36.313068
 20
50.592765
 11
-37.768797
 21
49.137035
  0
LINE
  8
曲げ物
  6
CONTINUOUS
 10
-37.145708
 20
51.425405
 11
-38.601437
 21
49.969675
  0
LINE
  8
曲げ物
  6
CONTINUOUS
 10
-67.947477
 20
52.128875
 11
-71.64279
 21
48.433562
  0
LINE
  8
曲げ物
  6
CONTINUOUS
 10
-68.650947
 20
50.592765
 11
-70.106678
 21
49.137035
  0
LINE
  8
曲げ物
  6
CONTINUOUS
 10
-69.483587
 20
51.425405
 11
-70.939318
 21
49.969675
  0
LINE
  8
曲げ物
  6
CONTINUOUS
 10
-103.10581
 20
52.128875
 11
-106.801123
 21
48.433562
  0
LINE
  8
曲げ物
  6
CONTINUOUS
 10
-103.80928
 20
50.592765
 11
-105.26501
 21
49.137035
  0
LINE
  8
曲げ物
  6
CONTINUOUS
 10
-104.64192
 20
51.425405
 11
-106.09765
 21
49.969675
  0
ENDSEC
  0
EOF
