  0
SECTION
  2
HEADER
  9
$EXTMIN
 10
-210.0
 20
-148.5
  9
$EXTMAX
 10
210.0
 20
148.5
  9
$PDMODE
 70
    32
  9
$PDSIZE
 40
1.5
  9
$LTSCALE
 40
10.0
  0
ENDSEC
  0
SECTION
  2
TABLES
  0
TABLE
  2
LTYPE
 70
    15
  0
LTYPE
  2
CONTINUOUS
 70
    64
  3
実線
 72
    65
 73
     0
 40
0.0
  0
LTYPE
  2
DASHED
 70
    64
  3
破線A
 72
    65
 73
     2
 40
0.6
 49
0.4
 49
-0.2
  0
LTYPE
  2
DASHEDX2
 70
    64
  3
破線B
 72
    65
 73
     2
 40
1.3
 49
0.9
 49
-0.4
  0
LTYPE
  2
DASHDOT
 70
    64
  3
１点鎖線A
 72
    65
 73
     4
 40
0.5375
 49
0.375
 49
-0.05
 49
0.0625
 49
-0.05
  0
LTYPE
  2
DASHDOTX2
 70
    64
  3
１点鎖線B
 72
    65
 73
     4
 40
1.075
 49
0.75
 49
-0.1
 49
0.125
 49
-0.1
  0
LTYPE
  2
DIVIDE2
 70
    64
  3
２点鎖線A
 72
    65
 73
     6
 40
0.5125
 49
0.3
 49
-0.0375
 49
0.05
 49
-0.0375
 49
0.05
 49
-0.0375
  0
LTYPE
  2
DIVIDE
 70
    64
  3
２点鎖線B
 72
    65
 73
     6
 40
1.05
 49
0.55
 49
-0.1
 49
0.1
 49
-0.1
 49
0.1
 49
-0.1
  0
LTYPE
  2
DOT
 70
    64
  3
点線A
 72
    65
 73
     2
 40
0.1125
 49
0.0625
 49
-0.05
  0
LTYPE
  2
DOTX2
 70
    64
  3
点線B
 72
    65
 73
     2
 40
0.275
 49
0.15
 49
-0.125
  0
LTYPE
  2
CONTINUOUS
 70
    64
  3
実線
 72
    65
 73
     0
 40
0.0
  0
LTYPE
  2
CONTINUOUS
 70
    64
  3
実線
 72
    65
 73
     0
 40
0.0
  0
LTYPE
  2
CONTINUOUS
 70
    64
  3
実線
 72
    65
 73
     0
 40
0.0
  0
LTYPE
  2
CONTINUOUS
 70
    64
  3
実線
 72
    65
 73
     0
 40
0.0
  0
LTYPE
  2
CONTINUOUS
 70
    64
  3
実線
 72
    65
 73
     0
 40
0.0
  0
LTYPE
  2
CONTINUOUS
 70
    64
  3
実線
 72
    65
 73
     0
 40
0.0
  0
ENDTAB
  0
TABLE
  2
LAYER
 70
    34
  0
LAYER
  2
通り芯
 70
     0
 62
    15
  6
CONTINUOUS
  0
LAYER
  2
補助線
 70
     0
 62
    16
  6
DOT
  0
LAYER
  2
躯体
 70
     0
 62
    31
  6
CONTINUOUS
  0
LAYER
  2
型材
 70
     0
 62
    32
  6
CONTINUOUS
  0
LAYER
  2
型材断面
 70
     0
 62
    47
  6
CONTINUOUS
  0
LAYER
  2
ガラス
 70
     0
 62
    48
  6
CONTINUOUS
  0
LAYER
  2
ゴム等
 70
     0
 62
    63
  6
CONTINUOUS
  0
LAYER
  2
ボルト／ビス
 70
     0
 62
    64
  6
CONTINUOUS
  0
LAYER
  2
文字
 70
     0
 62
    79
  6
CONTINUOUS
  0
LAYER
  2
寸法
 70
     0
 62
    80
  6
CONTINUOUS
  0
LAYER
  2
ﾊｯﾁﾝｸﾞ
 70
     0
 62
    95
  6
CONTINUOUS
  0
LAYER
  2
別途部材
 70
     0
 62
    96
  6
CONTINUOUS
  0
LAYER
  2
曲げ物
 70
     0
 62
   111
  6
CONTINUOUS
  0
LAYER
  2
鉄骨等
 70
     0
 62
   112
  6
CONTINUOUS
  0
LAYER
  2
St
 70
     0
 62
   127
  6
CONTINUOUS
  0
LAYER
  2
その他部品等
 70
     0
 62
   128
  6
CONTINUOUS
  0
LAYER
  2
ｶﾞｽｹｯﾄ
 70
     0
 62
   143
  6
CONTINUOUS
  0
LAYER
  2
ｽｹｯﾁ
 70
     0
 62
    14
  6
CONTINUOUS
  0
LAYER
  2
0
 70
     0
 62
    17
  6
CONTINUOUS
  0
LAYER
  2
1
 70
     0
 62
    30
  6
CONTINUOUS
  0
LAYER
  2
4
 70
     0
 62
    33
  6
CONTINUOUS
  0
LAYER
  2
ﾚｲﾔ3
 70
     0
 62
    46
  6
CONTINUOUS
  0
LAYER
  2
外形線
 70
     0
 62
    49
  6
CONTINUOUS
  0
LAYER
  2
部品
 70
     0
 62
    14
  6
CONTINUOUS
  0
LAYER
  2
サッシ芯
 70
     0
 62
    17
  6
DASHDOTX2
  0
LAYER
  2
寸法線
 70
     0
 62
    62
  6
CONTINUOUS
  0
LAYER
  2
姿図外形線
 70
     0
 62
    65
  6
CONTINUOUS
  0
LAYER
  2
姿補助線
 70
     0
 62
    30
  6
CONTINUOUS
  0
LAYER
  2
透視線
 70
     0
 62
    78
  6
DOT
  0
LAYER
  2
用紙
 70
     0
 62
    81
  6
CONTINUOUS
  0
LAYER
  2
実線図枠
 70
     0
 62
    94
  6
CONTINUOUS
  0
LAYER
  2
補助図枠
 70
     0
 62
    97
  6
CONTINUOUS
  0
LAYER
  2
建具記号
 70
     0
 62
   110
  6
CONTINUOUS
  0
LAYER
  2
補助文字
 70
     0
 62
   113
  6
CONTINUOUS
  0
ENDTAB
  0
TABLE
  2
STYLE
 70
    10
  0
STYLE
  2
STANDARD
 70
     0
 40
1.0
 41
1.0
 42
1.0
 50
0.0
 71
     0
  3
TXT
  4
BIGFONT
  0
STYLE
  2
TATE
 70
     4
 40
1.0
 41
1.0
 42
1.0
 50
0.0
 71
     0
  3
TXT
  4
BIGFONT
  0
STYLE
  2
TextStyle03
 70
     0
 40
1.0
 41
1.0
 42
1.0
 50
0.0
 71
     0
  3
MONOTXT
  4
BIGFONT
  0
STYLE
  2
TextStyle04
 70
     0
 40
1.0
 41
1.0
 42
1.0
 50
0.0
 71
     0
  3
MONOTXT
  4
BIGFONT
  0
STYLE
  2
TextStyle05
 70
     0
 40
1.0
 41
1.0
 42
1.0
 50
0.0
 71
     0
  3
MONOTXT
  4
BIGFONT
  0
STYLE
  2
TextStyle06
 70
     0
 40
1.0
 41
1.0
 42
1.0
 50
0.0
 71
     0
  3
MONOTXT
  4
BIGFONT
  0
STYLE
  2
TextStyle07
 70
     0
 40
1.0
 41
1.0
 42
1.0
 50
0.0
 71
     0
  3
MONOTXT
  4
BIGFONT
  0
STYLE
  2
TextStyle08
 70
     0
 40
1.0
 41
1.0
 42
1.0
 50
0.0
 71
     0
  3
MONOTXT
  4
BIGFONT
  0
STYLE
  2
TextStyle09
 70
     0
 40
1.0
 41
1.0
 42
1.0
 50
0.0
 71
     0
  3
MONOTXT
  4
BIGFONT
  0
STYLE
  2
TextStyle10
 70
     0
 40
1.0
 41
1.0
 42
1.0
 50
0.0
 71
     0
  3
MONOTXT
  4
BIGFONT
  0
ENDTAB
  0
ENDSEC
  0
SECTION
  2
BLOCKS
  0
BLOCK
  2
*GRP_0001
 70
    65
 10
0.0
 20
0.0
  0
LINE
  8
型材断面
  6
CONTINUOUS
 10
195.0
 20
133.5
 11
195.0
 21
-133.5
  0
LINE
  8
型材断面
  6
CONTINUOUS
 10
195.0
 20
-133.5
 11
-185.0
 21
-133.5
  0
LINE
  8
型材断面
  6
CONTINUOUS
 10
-185.0
 20
-133.5
 11
-185.0
 21
133.5
  0
LINE
  8
型材断面
  6
CONTINUOUS
 10
195.0
 20
133.5
 11
-185.0
 21
133.5
  0
LINE
  8
型材断面
  6
CONTINUOUS
 10
145.0
 20
-133.5
 11
145.0
 21
-118.5
  0
LINE
  8
型材断面
  6
CONTINUOUS
 10
195.0
 20
-118.5
 11
145.0
 21
-118.5
  0
ENDBLK
  0
BLOCK
  2
*GRP_0002
 70
    65
 10
0.0
 20
0.0
  0
INSERT
  2
M8横
  8
ゴム等
  6
CONTINUOUS
 10
163.336003
 20
61.029685
 50
270.0
 41
0.033333
 42
-0.033333
  0
LINE
  8
ボルト／ビス
  6
CONTINUOUS
 10
163.126005
 20
60.896352
 11
163.109338
 21
60.91302
  0
LINE
  8
ボルト／ビス
  6
CONTINUOUS
 10
163.109338
 20
61.146352
 11
163.126005
 21
61.16302
  0
LINE
  8
ボルト／ビス
  6
CONTINUOUS
 10
163.126005
 20
61.16302
 11
163.126005
 21
60.896352
  0
LINE
  8
ボルト／ビス
  6
CONTINUOUS
 10
163.109338
 20
61.146352
 11
163.109338
 21
60.91302
  0
LINE
  8
ボルト／ビス
  6
CONTINUOUS
 10
163.109338
 20
60.91302
 11
163.15267
 21
60.91302
  0
LINE
  8
ボルト／ビス
  6
CONTINUOUS
 10
163.126005
 20
60.896352
 11
163.15267
 21
60.896352
  0
LINE
  8
ボルト／ビス
  6
CONTINUOUS
 10
163.126005
 20
61.16302
 11
163.15267
 21
61.16302
  0
LINE
  8
ボルト／ビス
  6
CONTINUOUS
 10
163.109338
 20
61.146352
 11
163.15267
 21
61.146352
  0
LINE
  8
ボルト／ビス
  6
CONTINUOUS
 10
163.336003
 20
61.396352
 11
163.336003
 21
60.66302
  0
LINE
  8
ボルト／ビス
  6
CONTINUOUS
 10
163.376002
 20
60.61302
 11
163.459335
 21
60.61302
  0
LINE
  8
ボルト／ビス
  6
CONTINUOUS
 10
163.459335
 20
60.61302
 11
163.459335
 21
61.446352
  0
LINE
  8
ボルト／ビス
  6
CONTINUOUS
 10
163.459335
 20
61.446352
 11
163.376002
 21
61.446352
  0
LINE
  8
ボルト／ビス
  6
CONTINUOUS
 10
163.376002
 20
60.61302
 11
163.376002
 21
61.446352
  0
LINE
  8
ボルト／ビス
  6
CONTINUOUS
 10
163.336003
 20
61.396352
 11
163.376002
 21
61.396352
  0
LINE
  8
ボルト／ビス
  6
CONTINUOUS
 10
163.336003
 20
60.66302
 11
163.376002
 21
60.66302
  0
LINE
  8
ボルト／ビス
  6
CONTINUOUS
 10
163.386002
 20
61.029685
 11
163.336003
 21
61.029685
  0
ENDBLK
  0
BLOCK
  2
*GRP_0003
 70
    65
 10
0.0
 20
0.0
  0
LINE
  8
ボルト／ビス
  6
CONTINUOUS
 10
162.47617
 20
61.236355
 11
162.409503
 21
61.236355
  0
LINE
  8
ボルト／ビス
  6
CONTINUOUS
 10
162.409503
 20
61.236355
 11
162.409503
 21
60.50302
  0
LINE
  8
ボルト／ビス
  6
CONTINUOUS
 10
162.409503
 20
60.50302
 11
162.47617
 21
60.50302
  0
LINE
  8
ボルト／ビス
  6
CONTINUOUS
 10
162.47617
 20
61.236355
 11
162.47617
 21
60.50302
  0
LINE
  8
ボルト／ビス
  6
CONTINUOUS
 10
162.37617
 20
61.169687
 11
162.409503
 21
61.169687
  0
LINE
  8
ボルト／ビス
  6
CONTINUOUS
 10
162.37617
 20
61.169687
 11
162.37617
 21
60.569687
  0
LINE
  8
ボルト／ビス
  6
CONTINUOUS
 10
162.37617
 20
60.569687
 11
162.409503
 21
60.569687
  0
LINE
  8
ボルト／ビス
  6
CONTINUOUS
 62
    64
 10
162.17617
 20
61.030062
 11
162.187845
 21
61.062138
  0
ARC
  8
ボルト／ビス
  6
CONTINUOUS
 62
    64
 10
162.281149
 20
61.014031
 40
0.104978
 50
180.0
 51
207.278033
  0
ARC
  8
ボルト／ビス
  6
CONTINUOUS
 62
    64
 10
162.578573
 20
60.869693
 40
0.402402
 50
166.165015
 51
193.834998
  0
LINE
  8
ボルト／ビス
  6
CONTINUOUS
 62
    64
 10
162.17617
 20
60.709312
 11
162.187845
 21
60.677238
  0
ARC
  8
ボルト／ビス
  6
CONTINUOUS
 62
    64
 10
162.281149
 20
60.725355
 40
0.104978
 50
152.721967
 51
180.0
  0
LINE
  8
ボルト／ビス
  6
CONTINUOUS
 62
    64
 10
162.17617
 20
61.030062
 11
162.17617
 21
60.709312
  0
LINE
  8
ボルト／ビス
  6
CONTINUOUS
 62
    64
 10
162.187845
 20
60.677238
 11
162.309503
 21
60.677238
  0
LINE
  8
ボルト／ビス
  6
CONTINUOUS
 62
    64
 10
162.187845
 20
60.773462
 11
162.309503
 21
60.773462
  0
LINE
  8
ボルト／ビス
  6
CONTINUOUS
 62
    64
 10
162.187845
 20
61.062138
 11
162.309503
 21
61.062138
  0
LINE
  8
ボルト／ビス
  6
CONTINUOUS
 62
    64
 10
162.187845
 20
60.965913
 11
162.309503
 21
60.965913
  0
LINE
  8
ボルト／ビス
  6
CONTINUOUS
 10
162.309503
 20
61.062138
 11
162.309503
 21
60.677238
  0
LINE
  8
ボルト／ビス
  6
CONTINUOUS
 10
162.309503
 20
61.069687
 11
162.37617
 21
61.069687
  0
LINE
  8
ボルト／ビス
  6
CONTINUOUS
 10
162.309503
 20
61.069687
 11
162.309503
 21
60.669687
  0
LINE
  8
ボルト／ビス
  6
CONTINUOUS
 10
162.309503
 20
60.669687
 11
162.37617
 21
60.669687
  0
ENDBLK
  0
BLOCK
  2
*GRP_0004
 70
    65
 10
0.0
 20
0.0
  0
INSERT
  2
M8横
  8
ゴム等
  6
CONTINUOUS
 10
163.336003
 20
39.376965
 50
90.0
 41
0.033333
 42
0.033333
  0
LINE
  8
ボルト／ビス
  6
CONTINUOUS
 10
163.126005
 20
39.5103
 11
163.109338
 21
39.493633
  0
LINE
  8
ボルト／ビス
  6
CONTINUOUS
 10
163.109338
 20
39.2603
 11
163.126005
 21
39.243633
  0
LINE
  8
ボルト／ビス
  6
CONTINUOUS
 10
163.126005
 20
39.243633
 11
163.126005
 21
39.5103
  0
LINE
  8
ボルト／ビス
  6
CONTINUOUS
 10
163.109338
 20
39.2603
 11
163.109338
 21
39.493633
  0
LINE
  8
ボルト／ビス
  6
CONTINUOUS
 10
163.109338
 20
39.493633
 11
163.15267
 21
39.493633
  0
LINE
  8
ボルト／ビス
  6
CONTINUOUS
 10
163.126005
 20
39.5103
 11
163.15267
 21
39.5103
  0
LINE
  8
ボルト／ビス
  6
CONTINUOUS
 10
163.126005
 20
39.243633
 11
163.15267
 21
39.243633
  0
LINE
  8
ボルト／ビス
  6
CONTINUOUS
 10
163.109338
 20
39.2603
 11
163.15267
 21
39.2603
  0
LINE
  8
ボルト／ビス
  6
CONTINUOUS
 10
163.336003
 20
39.0103
 11
163.336003
 21
39.743633
  0
LINE
  8
ボルト／ビス
  6
CONTINUOUS
 10
163.376002
 20
39.793633
 11
163.459335
 21
39.793633
  0
LINE
  8
ボルト／ビス
  6
CONTINUOUS
 10
163.459335
 20
39.793633
 11
163.459335
 21
38.9603
  0
LINE
  8
ボルト／ビス
  6
CONTINUOUS
 10
163.459335
 20
38.9603
 11
163.376002
 21
38.9603
  0
LINE
  8
ボルト／ビス
  6
CONTINUOUS
 10
163.376002
 20
39.793633
 11
163.376002
 21
38.9603
  0
LINE
  8
ボルト／ビス
  6
CONTINUOUS
 10
163.336003
 20
39.0103
 11
163.376002
 21
39.0103
  0
LINE
  8
ボルト／ビス
  6
CONTINUOUS
 10
163.336003
 20
39.743633
 11
163.376002
 21
39.743633
  0
LINE
  8
ボルト／ビス
  6
CONTINUOUS
 10
163.386002
 20
39.376965
 11
163.336003
 21
39.376965
  0
ENDBLK
  0
BLOCK
  2
*GRP_0005
 70
    65
 10
0.0
 20
0.0
  0
LINE
  8
ボルト／ビス
  6
CONTINUOUS
 10
162.47617
 20
39.170298
 11
162.409503
 21
39.170298
  0
LINE
  8
ボルト／ビス
  6
CONTINUOUS
 10
162.409503
 20
39.170298
 11
162.409503
 21
39.90363
  0
LINE
  8
ボルト／ビス
  6
CONTINUOUS
 10
162.409503
 20
39.90363
 11
162.47617
 21
39.90363
  0
LINE
  8
ボルト／ビス
  6
CONTINUOUS
 10
162.47617
 20
39.170298
 11
162.47617
 21
39.90363
  0
LINE
  8
ボルト／ビス
  6
CONTINUOUS
 10
162.37617
 20
39.236965
 11
162.409503
 21
39.236965
  0
LINE
  8
ボルト／ビス
  6
CONTINUOUS
 10
162.37617
 20
39.236965
 11
162.37617
 21
39.836965
  0
LINE
  8
ボルト／ビス
  6
CONTINUOUS
 10
162.37617
 20
39.836965
 11
162.409503
 21
39.836965
  0
LINE
  8
ボルト／ビス
  6
CONTINUOUS
 62
    64
 10
162.17617
 20
39.37659
 11
162.187845
 21
39.344515
  0
ARC
  8
ボルト／ビス
  6
CONTINUOUS
 62
    64
 10
162.281149
 20
39.392632
 40
0.104978
 50
152.721967
 51
180.0
  0
ARC
  8
ボルト／ビス
  6
CONTINUOUS
 62
    64
 10
162.578573
 20
39.536969
 40
0.402402
 50
166.165002
 51
193.834985
  0
LINE
  8
ボルト／ビス
  6
CONTINUOUS
 62
    64
 10
162.17617
 20
39.69734
 11
162.187845
 21
39.729415
  0
ARC
  8
ボルト／ビス
  6
CONTINUOUS
 62
    64
 10
162.281149
 20
39.681307
 40
0.104978
 50
180.0
 51
207.278033
  0
LINE
  8
ボルト／ビス
  6
CONTINUOUS
 62
    64
 10
162.17617
 20
39.37659
 11
162.17617
 21
39.69734
  0
LINE
  8
ボルト／ビス
  6
CONTINUOUS
 62
    64
 10
162.187845
 20
39.729415
 11
162.309503
 21
39.729415
  0
LINE
  8
ボルト／ビス
  6
CONTINUOUS
 62
    64
 10
162.187845
 20
39.63319
 11
162.309503
 21
39.63319
  0
LINE
  8
ボルト／ビス
  6
CONTINUOUS
 62
    64
 10
162.187845
 20
39.344515
 11
162.309503
 21
39.344515
  0
LINE
  8
ボルト／ビス
  6
CONTINUOUS
 62
    64
 10
162.187845
 20
39.44074
 11
162.309503
 21
39.44074
  0
LINE
  8
ボルト／ビス
  6
CONTINUOUS
 10
162.309503
 20
39.344515
 11
162.309503
 21
39.729415
  0
LINE
  8
ボルト／ビス
  6
CONTINUOUS
 10
162.309503
 20
39.336965
 11
162.37617
 21
39.336965
  0
LINE
  8
ボルト／ビス
  6
CONTINUOUS
 10
162.309503
 20
39.336965
 11
162.309503
 21
39.736965
  0
LINE
  8
ボルト／ビス
  6
CONTINUOUS
 10
162.309503
 20
39.736965
 11
162.37617
 21
39.736965
  0
ENDBLK
  0
BLOCK
  2
*DIM_0006
 70
    65
 10
0.0
 20
0.0
  0
LINE
  8
寸法
  6
CONTINUOUS
 10
161.248695
 20
62.48302
 11
142.14273
 21
62.48302
  0
LINE
  8
寸法
  6
CONTINUOUS
 10
142.14273
 20
60.203325
 11
142.14273
 21
62.48302
  0
POINT
  8
寸法
 10
142.14273
 20
60.203325
 50
-90.0
  0
POINT
  8
寸法
 10
142.14273
 20
62.48302
 50
-90.0
  0
TEXT
  7
TextStyle03
  8
寸法
  6
CONTINUOUS
 10
141.775
 20
64.76875
  1
68.4
 40
3.0
 50
90.0
 72
     5
 11
141.775
 21
71.33125
  0
ENDBLK
  0
BLOCK
  2
*DIM_0007
 70
    65
 10
0.0
 20
0.0
  0
LINE
  8
寸法
  6
CONTINUOUS
 10
161.248695
 20
37.92363
 11
142.14273
 21
37.92363
  0
LINE
  8
寸法
  6
CONTINUOUS
 10
142.14273
 20
40.203325
 11
142.14273
 21
37.92363
  0
POINT
  8
寸法
 10
142.14273
 20
40.203325
 50
-90.0
  0
POINT
  8
寸法
 10
142.14273
 20
37.92363
 50
-90.0
  0
TEXT
  7
TextStyle03
  8
寸法
  6
CONTINUOUS
 10
141.775
 20
28.99375
  1
68.4
 40
3.0
 50
90.0
 72
     5
 11
141.775
 21
35.55625
  0
ENDBLK
  0
BLOCK
  2
*DIM_0008
 70
    65
 10
0.0
 20
0.0
  0
LINE
  8
寸法
  6
CONTINUOUS
 10
142.14273
 20
60.203325
 11
142.14273
 21
40.203325
  0
POINT
  8
寸法
 10
142.14273
 20
60.203325
 50
-90.0
  0
POINT
  8
寸法
 10
142.14273
 20
40.203325
 50
-90.0
  0
TEXT
  7
TextStyle03
  8
寸法
  6
CONTINUOUS
 10
141.775
 20
39.3
  1
呼称寸法　600
 40
3.0
 50
90.0
 72
     5
 11
141.775
 21
61.05
  0
ENDBLK
  0
BLOCK
  2
*DIM_0009
 70
    65
 10
0.0
 20
0.0
  0
LINE
  8
寸法
  6
CONTINUOUS
 10
169.209335
 20
33.236965
 11
169.209335
 21
25.327945
  0
LINE
  8
寸法
  6
CONTINUOUS
 10
161.742835
 20
35.203325
 11
161.742835
 21
25.327945
  0
LINE
  8
寸法
  6
CONTINUOUS
 10
169.209335
 20
25.327945
 11
161.742835
 21
25.327945
  0
POINT
  8
寸法
 10
169.209335
 20
25.327945
  0
POINT
  8
寸法
 10
161.742835
 20
25.327945
  0
TEXT
  7
TextStyle03
  8
寸法
  6
CONTINUOUS
 10
163.0375
 20
25.7
  1
224
 40
3.0
 72
     5
 11
167.9125
 21
25.7
  0
ENDBLK
  0
BLOCK
  2
*DIM_0010
 70
    65
 10
0.0
 20
0.0
  0
LINE
  8
寸法
  6
CONTINUOUS
 10
168.18014
 20
-51.036005
 11
177.475347
 21
-51.036005
  0
LINE
  8
寸法
  6
CONTINUOUS
 10
168.18014
 20
-70.369337
 11
177.475347
 21
-70.369337
  0
LINE
  8
寸法
  6
CONTINUOUS
 10
177.475347
 20
-51.036005
 11
177.475347
 21
-70.369337
  0
POINT
  8
寸法
 10
177.475347
 20
-51.036005
  0
POINT
  8
寸法
 10
177.475347
 20
-70.369337
  0
TEXT
  7
TextStyle03
  8
寸法
  6
CONTINUOUS
 10
177.1
 20
-63.1625
  1
580
 40
3.0
 50
90.0
 72
     5
 11
177.1
 21
-58.2875
  0
ENDBLK
  0
BLOCK
  2
*DIM_0011
 70
    65
 10
0.0
 20
0.0
  0
LINE
  8
寸法
  6
CONTINUOUS
 10
163.18014
 20
-46.036005
 11
163.18014
 21
-39.43048
  0
LINE
  8
寸法
  6
CONTINUOUS
 10
131.08014
 20
-46.036005
 11
131.08014
 21
-39.43048
  0
LINE
  8
寸法
  6
CONTINUOUS
 10
163.18014
 20
-39.43048
 11
131.08014
 21
-39.43048
  0
POINT
  8
寸法
 10
163.18014
 20
-39.43048
  0
POINT
  8
寸法
 10
131.08014
 20
-39.43048
  0
TEXT
  7
TextStyle03
  8
寸法
  6
CONTINUOUS
 10
144.6875
 20
-39.075
  1
963
 40
3.0
 72
     5
 11
149.5625
 21
-39.075
  0
ENDBLK
  0
BLOCK
  2
*GRP_0012
 70
    65
 10
0.0
 20
0.0
  0
INSERT
  2
M8横
  8
ゴム等
  6
CONTINUOUS
 10
79.896522
 20
-70.297288
 50
180.0
 41
0.033333
 42
-0.033333
  0
LINE
  8
ボルト／ビス
  6
CONTINUOUS
 10
79.76319
 20
-70.087288
 11
79.779855
 21
-70.070622
  0
LINE
  8
ボルト／ビス
  6
CONTINUOUS
 10
80.01319
 20
-70.070622
 11
80.029855
 21
-70.087288
  0
LINE
  8
ボルト／ビス
  6
CONTINUOUS
 10
80.029855
 20
-70.087288
 11
79.76319
 21
-70.087288
  0
LINE
  8
ボルト／ビス
  6
CONTINUOUS
 10
80.01319
 20
-70.070622
 11
79.779855
 21
-70.070622
  0
LINE
  8
ボルト／ビス
  6
CONTINUOUS
 10
79.779855
 20
-70.070622
 11
79.779855
 21
-70.113952
  0
LINE
  8
ボルト／ビス
  6
CONTINUOUS
 10
79.76319
 20
-70.087288
 11
79.76319
 21
-70.113952
  0
LINE
  8
ボルト／ビス
  6
CONTINUOUS
 10
80.029855
 20
-70.087288
 11
80.029855
 21
-70.113952
  0
LINE
  8
ボルト／ビス
  6
CONTINUOUS
 10
80.01319
 20
-70.070622
 11
80.01319
 21
-70.113952
  0
LINE
  8
ボルト／ビス
  6
CONTINUOUS
 10
80.26319
 20
-70.297288
 11
79.529855
 21
-70.297288
  0
LINE
  8
ボルト／ビス
  6
CONTINUOUS
 10
79.479855
 20
-70.337288
 11
79.479855
 21
-70.42062
  0
LINE
  8
ボルト／ビス
  6
CONTINUOUS
 10
79.479855
 20
-70.42062
 11
80.31319
 21
-70.42062
  0
LINE
  8
ボルト／ビス
  6
CONTINUOUS
 10
80.31319
 20
-70.42062
 11
80.31319
 21
-70.337288
  0
LINE
  8
ボルト／ビス
  6
CONTINUOUS
 10
79.479855
 20
-70.337288
 11
80.31319
 21
-70.337288
  0
LINE
  8
ボルト／ビス
  6
CONTINUOUS
 10
80.26319
 20
-70.297288
 11
80.26319
 21
-70.337288
  0
LINE
  8
ボルト／ビス
  6
CONTINUOUS
 10
79.529855
 20
-70.297288
 11
79.529855
 21
-70.337288
  0
LINE
  8
ボルト／ビス
  6
CONTINUOUS
 10
79.896522
 20
-70.347288
 11
79.896522
 21
-70.297288
  0
ENDBLK
  0
BLOCK
  2
*GRP_0013
 70
    65
 10
0.0
 20
0.0
  0
LINE
  8
ボルト／ビス
  6
CONTINUOUS
 10
80.10319
 20
-69.437453
 11
80.10319
 21
-69.370788
  0
LINE
  8
ボルト／ビス
  6
CONTINUOUS
 10
80.10319
 20
-69.370788
 11
79.369858
 21
-69.370788
  0
LINE
  8
ボルト／ビス
  6
CONTINUOUS
 10
79.369858
 20
-69.370788
 11
79.369858
 21
-69.437453
  0
LINE
  8
ボルト／ビス
  6
CONTINUOUS
 10
80.10319
 20
-69.437453
 11
79.369858
 21
-69.437453
  0
LINE
  8
ボルト／ビス
  6
CONTINUOUS
 10
80.036525
 20
-69.337453
 11
80.036525
 21
-69.370788
  0
LINE
  8
ボルト／ビス
  6
CONTINUOUS
 10
80.036525
 20
-69.337453
 11
79.436525
 21
-69.337453
  0
LINE
  8
ボルト／ビス
  6
CONTINUOUS
 10
79.436525
 20
-69.337453
 11
79.436525
 21
-69.370788
  0
LINE
  8
ボルト／ビス
  6
CONTINUOUS
 62
    64
 10
79.8969
 20
-69.137453
 11
79.928975
 21
-69.149128
  0
ARC
  8
ボルト／ビス
  6
CONTINUOUS
 62
    64
 10
79.88086
 20
-69.242431
 40
0.104978
 50
90.0
 51
117.278033
  0
ARC
  8
ボルト／ビス
  6
CONTINUOUS
 62
    64
 10
79.736523
 20
-69.539855
 40
0.402402
 50
76.165015
 51
103.834998
  0
LINE
  8
ボルト／ビス
  6
CONTINUOUS
 62
    64
 10
79.57615
 20
-69.137453
 11
79.544075
 21
-69.149128
  0
ARC
  8
ボルト／ビス
  6
CONTINUOUS
 62
    64
 10
79.592185
 20
-69.242431
 40
0.104978
 50
62.721967
 51
90.0
  0
LINE
  8
ボルト／ビス
  6
CONTINUOUS
 62
    64
 10
79.8969
 20
-69.137453
 11
79.57615
 21
-69.137453
  0
LINE
  8
ボルト／ビス
  6
CONTINUOUS
 62
    64
 10
79.544075
 20
-69.149128
 11
79.544075
 21
-69.270788
  0
LINE
  8
ボルト／ビス
  6
CONTINUOUS
 62
    64
 10
79.6403
 20
-69.149128
 11
79.6403
 21
-69.270788
  0
LINE
  8
ボルト／ビス
  6
CONTINUOUS
 62
    64
 10
79.928975
 20
-69.149128
 11
79.928975
 21
-69.270788
  0
LINE
  8
ボルト／ビス
  6
CONTINUOUS
 62
    64
 10
79.83275
 20
-69.149128
 11
79.83275
 21
-69.270788
  0
LINE
  8
ボルト／ビス
  6
CONTINUOUS
 10
79.928975
 20
-69.270788
 11
79.544075
 21
-69.270788
  0
LINE
  8
ボルト／ビス
  6
CONTINUOUS
 10
79.936525
 20
-69.270788
 11
79.936525
 21
-69.337453
  0
LINE
  8
ボルト／ビス
  6
CONTINUOUS
 10
79.936525
 20
-69.270788
 11
79.536525
 21
-69.270788
  0
LINE
  8
ボルト／ビス
  6
CONTINUOUS
 10
79.536525
 20
-69.270788
 11
79.536525
 21
-69.337453
  0
ENDBLK
  0
BLOCK
  2
*GRP_0014
 70
    65
 10
0.0
 20
0.0
  0
INSERT
  2
M8横
  8
ゴム等
  6
CONTINUOUS
 10
-121.756182
 20
-70.297288
 41
0.033333
 42
0.033333
  0
LINE
  8
ボルト／ビス
  6
CONTINUOUS
 10
-121.62285
 20
-70.087288
 11
-121.639515
 21
-70.070622
  0
LINE
  8
ボルト／ビス
  6
CONTINUOUS
 10
-121.87285
 20
-70.070622
 11
-121.889515
 21
-70.087288
  0
LINE
  8
ボルト／ビス
  6
CONTINUOUS
 10
-121.889515
 20
-70.087288
 11
-121.62285
 21
-70.087288
  0
LINE
  8
ボルト／ビス
  6
CONTINUOUS
 10
-121.87285
 20
-70.070622
 11
-121.639515
 21
-70.070622
  0
LINE
  8
ボルト／ビス
  6
CONTINUOUS
 10
-121.639515
 20
-70.070622
 11
-121.639515
 21
-70.113952
  0
LINE
  8
ボルト／ビス
  6
CONTINUOUS
 10
-121.62285
 20
-70.087288
 11
-121.62285
 21
-70.113952
  0
LINE
  8
ボルト／ビス
  6
CONTINUOUS
 10
-121.889515
 20
-70.087288
 11
-121.889515
 21
-70.113952
  0
LINE
  8
ボルト／ビス
  6
CONTINUOUS
 10
-121.87285
 20
-70.070622
 11
-121.87285
 21
-70.113952
  0
LINE
  8
ボルト／ビス
  6
CONTINUOUS
 10
-122.12285
 20
-70.297288
 11
-121.389515
 21
-70.297288
  0
LINE
  8
ボルト／ビス
  6
CONTINUOUS
 10
-121.339515
 20
-70.337288
 11
-121.339515
 21
-70.42062
  0
LINE
  8
ボルト／ビス
  6
CONTINUOUS
 10
-121.339515
 20
-70.42062
 11
-122.17285
 21
-70.42062
  0
LINE
  8
ボルト／ビス
  6
CONTINUOUS
 10
-122.17285
 20
-70.42062
 11
-122.17285
 21
-70.337288
  0
LINE
  8
ボルト／ビス
  6
CONTINUOUS
 10
-121.339515
 20
-70.337288
 11
-122.17285
 21
-70.337288
  0
LINE
  8
ボルト／ビス
  6
CONTINUOUS
 10
-122.12285
 20
-70.297288
 11
-122.12285
 21
-70.337288
  0
LINE
  8
ボルト／ビス
  6
CONTINUOUS
 10
-121.389515
 20
-70.297288
 11
-121.389515
 21
-70.337288
  0
LINE
  8
ボルト／ビス
  6
CONTINUOUS
 10
-121.756182
 20
-70.347288
 11
-121.756182
 21
-70.297288
  0
ENDBLK
  0
BLOCK
  2
*GRP_0015
 70
    65
 10
0.0
 20
0.0
  0
LINE
  8
ボルト／ビス
  6
CONTINUOUS
 10
-121.96285
 20
-69.437453
 11
-121.96285
 21
-69.370788
  0
LINE
  8
ボルト／ビス
  6
CONTINUOUS
 10
-121.96285
 20
-69.370788
 11
-121.229518
 21
-69.370788
  0
LINE
  8
ボルト／ビス
  6
CONTINUOUS
 10
-121.229518
 20
-69.370788
 11
-121.229518
 21
-69.437453
  0
LINE
  8
ボルト／ビス
  6
CONTINUOUS
 10
-121.96285
 20
-69.437453
 11
-121.229518
 21
-69.437453
  0
LINE
  8
ボルト／ビス
  6
CONTINUOUS
 10
-121.896185
 20
-69.337453
 11
-121.896185
 21
-69.370788
  0
LINE
  8
ボルト／ビス
  6
CONTINUOUS
 10
-121.896185
 20
-69.337453
 11
-121.296185
 21
-69.337453
  0
LINE
  8
ボルト／ビス
  6
CONTINUOUS
 10
-121.296185
 20
-69.337453
 11
-121.296185
 21
-69.370788
  0
LINE
  8
ボルト／ビス
  6
CONTINUOUS
 62
    64
 10
-121.75656
 20
-69.137453
 11
-121.788635
 21
-69.149128
  0
ARC
  8
ボルト／ビス
  6
CONTINUOUS
 62
    64
 10
-121.740524
 20
-69.242431
 40
0.104978
 50
62.721967
 51
90.0
  0
ARC
  8
ボルト／ビス
  6
CONTINUOUS
 62
    64
 10
-121.596186
 20
-69.539855
 40
0.402402
 50
76.165002
 51
103.834985
  0
LINE
  8
ボルト／ビス
  6
CONTINUOUS
 62
    64
 10
-121.43581
 20
-69.137453
 11
-121.403735
 21
-69.149128
  0
ARC
  8
ボルト／ビス
  6
CONTINUOUS
 62
    64
 10
-121.451849
 20
-69.242431
 40
0.104978
 50
90.0
 51
117.278033
  0
LINE
  8
ボルト／ビス
  6
CONTINUOUS
 62
    64
 10
-121.75656
 20
-69.137453
 11
-121.43581
 21
-69.137453
  0
LINE
  8
ボルト／ビス
  6
CONTINUOUS
 62
    64
 10
-121.403735
 20
-69.149128
 11
-121.403735
 21
-69.270788
  0
LINE
  8
ボルト／ビス
  6
CONTINUOUS
 62
    64
 10
-121.49996
 20
-69.149128
 11
-121.49996
 21
-69.270788
  0
LINE
  8
ボルト／ビス
  6
CONTINUOUS
 62
    64
 10
-121.788635
 20
-69.149128
 11
-121.788635
 21
-69.270788
  0
LINE
  8
ボルト／ビス
  6
CONTINUOUS
 62
    64
 10
-121.69241
 20
-69.149128
 11
-121.69241
 21
-69.270788
  0
LINE
  8
ボルト／ビス
  6
CONTINUOUS
 10
-121.788635
 20
-69.270788
 11
-121.403735
 21
-69.270788
  0
LINE
  8
ボルト／ビス
  6
CONTINUOUS
 10
-121.796185
 20
-69.270788
 11
-121.796185
 21
-69.337453
  0
LINE
  8
ボルト／ビス
  6
CONTINUOUS
 10
-121.796185
 20
-69.270788
 11
-121.396185
 21
-69.270788
  0
LINE
  8
ボルト／ビス
  6
CONTINUOUS
 10
-121.396185
 20
-69.270788
 11
-121.396185
 21
-69.337453
  0
ENDBLK
  0
BLOCK
  2
*GRP_0016
 70
    65
 10
0.0
 20
0.0
  0
LINE
  8
型材断面
  6
DOT
 10
80.73683
 20
-62.60412
 11
80.68683
 21
-62.60412
  0
LINE
  8
型材断面
  6
DOT
 10
79.070162
 20
-62.10412
 11
79.070162
 21
-61.370788
  0
LINE
  8
型材断面
  6
DOT
 10
79.119858
 20
-63.087288
 11
80.566525
 21
-63.087288
  0
LINE
  8
型材断面
  6
DOT
 10
80.566525
 20
-63.537288
 11
80.566525
 21
-63.087288
  0
LINE
  8
型材断面
  6
DOT
 62
    47
 10
81.299857
 20
-66.20998
 11
81.349857
 21
-66.20998
  0
LINE
  8
型材断面
  6
DOT
 62
    47
 10
81.349857
 20
-66.20998
 11
81.349857
 21
-65.876645
  0
LINE
  8
型材断面
  6
DOT
 62
    47
 10
81.349857
 20
-65.876645
 11
80.566525
 21
-65.776645
  0
LINE
  8
型材断面
  6
DOT
 62
    47
 10
80.566525
 20
-65.37062
 11
80.566525
 21
-65.776645
  0
LINE
  8
型材断面
  6
DOT
 62
    47
 10
81.036525
 20
-65.37062
 11
81.036525
 21
-63.537288
  0
LINE
  8
型材断面
  6
DOT
 10
80.73683
 20
-62.60412
 11
80.73683
 21
-62.10412
  0
LINE
  8
型材断面
  6
DOT
 10
79.119858
 20
-63.087288
 11
79.119858
 21
-62.60412
  0
INSERT
  2
*GRP_0038
  8
型材断面
  6
DOT
 10
0.0
 20
0.0
  0
INSERT
  2
*GRP_0039
  8
型材断面
  6
DOT
 10
0.0
 20
0.0
  0
LINE
  8
型材断面
  6
DOT
 10
81.349857
 20
-66.20998
 11
-20.92983
 21
-66.20998
  0
LINE
  8
型材断面
  6
DOT
 10
81.349857
 20
-65.876645
 11
-20.92983
 21
-65.876645
  0
LINE
  8
型材断面
  6
DOT
 10
80.566525
 20
-65.776645
 11
-20.92983
 21
-65.776645
  0
LINE
  8
型材断面
  6
DOT
 10
81.036525
 20
-65.37062
 11
-20.92983
 21
-65.37062
  0
LINE
  8
型材断面
  6
DOT
 10
80.73683
 20
-62.60412
 11
-20.92983
 21
-62.60412
  0
LINE
  8
型材断面
  6
DOT
 10
79.070162
 20
-61.370788
 11
-20.92983
 21
-61.370788
  0
LINE
  8
型材断面
  6
DOT
 10
80.73683
 20
-62.10412
 11
-20.92983
 21
-62.10412
  0
LINE
  8
型材断面
  6
DOT
 10
80.566525
 20
-63.087288
 11
-20.92983
 21
-63.087288
  0
LINE
  8
型材断面
  6
DOT
 10
81.036525
 20
-63.537288
 11
-20.92983
 21
-63.537288
  0
LINE
  8
型材断面
  6
DOT
 10
-122.59649
 20
-62.60412
 11
-122.54649
 21
-62.60412
  0
LINE
  8
型材断面
  6
DOT
 10
-120.929822
 20
-62.10412
 11
-120.929822
 21
-61.370788
  0
LINE
  8
型材断面
  6
DOT
 10
-120.979518
 20
-63.087288
 11
-122.426185
 21
-63.087288
  0
LINE
  8
型材断面
  6
DOT
 10
-122.426185
 20
-63.537288
 11
-122.426185
 21
-63.087288
  0
LINE
  8
型材断面
  6
DOT
 62
    47
 10
-123.159518
 20
-66.20998
 11
-123.209518
 21
-66.20998
  0
LINE
  8
型材断面
  6
DOT
 62
    47
 10
-123.209518
 20
-66.20998
 11
-123.209518
 21
-65.876645
  0
LINE
  8
型材断面
  6
DOT
 62
    47
 10
-123.209518
 20
-65.876645
 11
-122.426185
 21
-65.776645
  0
LINE
  8
型材断面
  6
DOT
 62
    47
 10
-122.426185
 20
-65.37062
 11
-122.426185
 21
-65.776645
  0
LINE
  8
型材断面
  6
DOT
 62
    47
 10
-122.896185
 20
-65.37062
 11
-122.896185
 21
-63.537288
  0
LINE
  8
型材断面
  6
DOT
 10
-122.59649
 20
-62.60412
 11
-122.59649
 21
-62.10412
  0
LINE
  8
型材断面
  6
DOT
 10
-120.979518
 20
-63.087288
 11
-120.979518
 21
-62.60412
  0
INSERT
  2
*GRP_0040
  8
型材断面
  6
DOT
 10
0.0
 20
0.0
  0
INSERT
  2
*GRP_0041
  8
型材断面
  6
DOT
 10
0.0
 20
0.0
  0
LINE
  8
型材断面
  6
DOT
 10
-123.209518
 20
-66.20998
 11
-20.92983
 21
-66.20998
  0
LINE
  8
型材断面
  6
DOT
 10
-123.209518
 20
-65.876645
 11
-20.92983
 21
-65.876645
  0
LINE
  8
型材断面
  6
DOT
 10
-122.426185
 20
-65.776645
 11
-20.92983
 21
-65.776645
  0
LINE
  8
型材断面
  6
DOT
 10
-122.896185
 20
-65.37062
 11
-20.92983
 21
-65.37062
  0
LINE
  8
型材断面
  6
DOT
 10
-122.59649
 20
-62.60412
 11
-20.92983
 21
-62.60412
  0
LINE
  8
型材断面
  6
DOT
 10
-120.929822
 20
-61.370788
 11
-20.92983
 21
-61.370788
  0
LINE
  8
型材断面
  6
DOT
 10
-122.59649
 20
-62.10412
 11
-20.92983
 21
-62.10412
  0
LINE
  8
型材断面
  6
DOT
 10
-122.426185
 20
-63.087288
 11
-20.92983
 21
-63.087288
  0
LINE
  8
型材断面
  6
DOT
 10
-122.896185
 20
-63.537288
 11
-20.92983
 21
-63.537288
  0
ENDBLK
  0
BLOCK
  2
*GRP_0017
 70
    65
 10
0.0
 20
0.0
  0
LINE
  8
補助線
  6
BYBLOCK
 62
    64
 10
-117.57235
 20
-74.31009
 11
-117.721275
 21
-74.384915
  0
LINE
  8
補助線
  6
BYBLOCK
 62
    64
 10
-117.684225
 20
-74.273038
 11
-117.6094
 21
-74.421965
  0
LINE
  8
補助線
  6
BYBLOCK
 62
    64
 10
-107.65387
 20
-69.326732
 11
-107.802798
 21
-69.401558
  0
LINE
  8
補助線
  6
BYBLOCK
 62
    64
 10
-107.765748
 20
-69.28968
 11
-107.690923
 21
-69.438608
  0
LINE
  8
補助線
  6
BYBLOCK
 62
    64
 10
-97.88432
 20
-64.4182
 11
-97.735393
 21
-64.343375
  0
LINE
  8
補助線
  6
BYBLOCK
 62
    64
 10
-97.84727
 20
-64.306322
 11
-97.772445
 21
-64.45525
  0
LINE
  8
型材断面
  6
CONTINUOUS
 10
-118.31879
 20
-73.752525
 11
-118.541093
 21
-74.423777
  0
LINE
  8
型材断面
  6
CONTINUOUS
 10
-118.541093
 20
-74.423777
 11
-118.24179
 21
-75.019482
  0
LINE
  8
型材断面
  6
CONTINUOUS
 10
-118.24179
 20
-75.019482
 11
-117.570537
 21
-75.241785
  0
LINE
  8
型材断面
  6
CONTINUOUS
 10
-97.886132
 20
-63.486507
 11
-97.214877
 21
-63.70881
  0
LINE
  8
型材断面
  6
CONTINUOUS
 10
-97.214877
 20
-63.70881
 11
-96.915575
 21
-64.304515
  0
LINE
  8
型材断面
  6
CONTINUOUS
 10
-96.915575
 20
-64.304515
 11
-97.13788
 21
-64.975767
  0
LINE
  8
型材断面
  6
CONTINUOUS
 10
-118.31879
 20
-73.752525
 11
-97.886132
 21
-63.486507
  0
LINE
  8
型材断面
  6
CONTINUOUS
 10
-117.570537
 20
-75.241785
 11
-97.13788
 21
-64.975767
  0
CIRCLE
  8
ボルト／ビス
  6
CONTINUOUS
 10
-117.646813
 20
-74.347502
 40
0.250185
  0
CIRCLE
  8
ボルト／ビス
  6
CONTINUOUS
 10
-117.646813
 20
-74.347502
 40
0.301025
  0
LINE
  8
ボルト／ビス
  6
CONTINUOUS
 62
    64
 10
-117.896577
 20
-74.333
 11
-117.759133
 21
-74.12395
  0
LINE
  8
ボルト／ビス
  6
CONTINUOUS
 62
    64
 10
-117.509368
 20
-74.138453
 11
-117.759133
 21
-74.12395
  0
LINE
  8
ボルト／ビス
  6
CONTINUOUS
 62
    64
 10
-117.784257
 20
-74.556552
 11
-117.534493
 21
-74.571055
  0
LINE
  8
ボルト／ビス
  6
CONTINUOUS
 62
    64
 10
-117.397048
 20
-74.362005
 11
-117.534493
 21
-74.571055
  0
LINE
  8
ボルト／ビス
  6
CONTINUOUS
 62
    64
 10
-117.896577
 20
-74.333
 11
-117.784257
 21
-74.556552
  0
LINE
  8
ボルト／ビス
  6
CONTINUOUS
 62
    64
 10
-117.509368
 20
-74.138453
 11
-117.397048
 21
-74.362005
  0
CIRCLE
  8
ボルト／ビス
  6
CONTINUOUS
 62
    64
 10
-117.646813
 20
-74.347502
 40
0.216668
  0
CIRCLE
  8
ボルト／ビス
  6
CONTINUOUS
 10
-107.728335
 20
-69.364145
 40
0.250185
  0
CIRCLE
  8
ボルト／ビス
  6
CONTINUOUS
 10
-107.728335
 20
-69.364145
 40
0.301025
  0
LINE
  8
ボルト／ビス
  6
CONTINUOUS
 62
    64
 10
-107.9781
 20
-69.34964
 11
-107.840655
 21
-69.14059
  0
LINE
  8
ボルト／ビス
  6
CONTINUOUS
 62
    64
 10
-107.59089
 20
-69.155092
 11
-107.840655
 21
-69.14059
  0
LINE
  8
ボルト／ビス
  6
CONTINUOUS
 62
    64
 10
-107.86578
 20
-69.573195
 11
-107.616013
 21
-69.5877
  0
LINE
  8
ボルト／ビス
  6
CONTINUOUS
 62
    64
 10
-107.47857
 20
-69.37865
 11
-107.616013
 21
-69.5877
  0
LINE
  8
ボルト／ビス
  6
CONTINUOUS
 62
    64
 10
-107.9781
 20
-69.34964
 11
-107.86578
 21
-69.573195
  0
LINE
  8
ボルト／ビス
  6
CONTINUOUS
 62
    64
 10
-107.59089
 20
-69.155092
 11
-107.47857
 21
-69.37865
  0
CIRCLE
  8
ボルト／ビス
  6
CONTINUOUS
 62
    64
 10
-107.728335
 20
-69.364145
 40
0.216668
  0
CIRCLE
  8
ボルト／ビス
  6
CONTINUOUS
 10
-97.809857
 20
-64.380788
 40
0.250185
  0
CIRCLE
  8
ボルト／ビス
  6
CONTINUOUS
 10
-97.809857
 20
-64.380788
 40
0.301025
  0
LINE
  8
ボルト／ビス
  6
CONTINUOUS
 62
    64
 10
-97.672412
 20
-64.171738
 11
-97.922178
 21
-64.157235
  0
LINE
  8
ボルト／ビス
  6
CONTINUOUS
 62
    64
 10
-98.059623
 20
-64.366285
 11
-97.922178
 21
-64.157235
  0
LINE
  8
ボルト／ビス
  6
CONTINUOUS
 62
    64
 10
-97.560092
 20
-64.395292
 11
-97.697535
 21
-64.60434
  0
LINE
  8
ボルト／ビス
  6
CONTINUOUS
 62
    64
 10
-97.947303
 20
-64.589837
 11
-97.697535
 21
-64.60434
  0
LINE
  8
ボルト／ビス
  6
CONTINUOUS
 62
    64
 10
-97.672412
 20
-64.171738
 11
-97.560092
 21
-64.395292
  0
LINE
  8
ボルト／ビス
  6
CONTINUOUS
 62
    64
 10
-98.059623
 20
-64.366285
 11
-97.947303
 21
-64.589837
  0
CIRCLE
  8
ボルト／ビス
  6
CONTINUOUS
 62
    64
 10
-97.809857
 20
-64.380788
 40
0.216668
  0
ENDBLK
  0
BLOCK
  2
*GRP_0018
 70
    65
 10
0.0
 20
0.0
  0
LINE
  8
補助線
  6
BYBLOCK
 62
    64
 10
-97.88432
 20
-74.31009
 11
-97.735395
 21
-74.384915
  0
LINE
  8
補助線
  6
BYBLOCK
 62
    64
 10
-97.772445
 20
-74.273038
 11
-97.84727
 21
-74.421965
  0
LINE
  8
補助線
  6
BYBLOCK
 62
    64
 10
-107.8028
 20
-69.326732
 11
-107.653873
 21
-69.401558
  0
LINE
  8
補助線
  6
BYBLOCK
 62
    64
 10
-107.690923
 20
-69.28968
 11
-107.765748
 21
-69.438608
  0
LINE
  8
補助線
  6
BYBLOCK
 62
    64
 10
-117.57235
 20
-64.4182
 11
-117.721278
 21
-64.343375
  0
LINE
  8
補助線
  6
BYBLOCK
 62
    64
 10
-117.6094
 20
-64.306322
 11
-117.684225
 21
-64.45525
  0
LINE
  8
型材断面
  6
CONTINUOUS
 10
-97.13788
 20
-73.752525
 11
-96.915578
 21
-74.423777
  0
LINE
  8
型材断面
  6
CONTINUOUS
 10
-96.915578
 20
-74.423777
 11
-97.21488
 21
-75.019482
  0
LINE
  8
型材断面
  6
CONTINUOUS
 10
-97.21488
 20
-75.019482
 11
-97.886132
 21
-75.241785
  0
LINE
  8
型材断面
  6
CONTINUOUS
 10
-117.570537
 20
-63.486507
 11
-118.241792
 21
-63.70881
  0
LINE
  8
型材断面
  6
CONTINUOUS
 10
-118.241792
 20
-63.70881
 11
-118.541095
 21
-64.304515
  0
LINE
  8
型材断面
  6
CONTINUOUS
 10
-118.541095
 20
-64.304515
 11
-118.31879
 21
-64.975767
  0
LINE
  8
型材断面
  6
CONTINUOUS
 10
-97.13788
 20
-73.752525
 11
-117.570537
 21
-63.486507
  0
LINE
  8
型材断面
  6
CONTINUOUS
 10
-97.886132
 20
-75.241785
 11
-118.31879
 21
-64.975767
  0
CIRCLE
  8
ボルト／ビス
  6
CONTINUOUS
 10
-97.809857
 20
-74.347502
 40
0.250185
  0
CIRCLE
  8
ボルト／ビス
  6
CONTINUOUS
 10
-97.809857
 20
-74.347502
 40
0.301025
  0
LINE
  8
ボルト／ビス
  6
CONTINUOUS
 62
    64
 10
-97.560092
 20
-74.333
 11
-97.697537
 21
-74.12395
  0
LINE
  8
ボルト／ビス
  6
CONTINUOUS
 62
    64
 10
-97.947303
 20
-74.138453
 11
-97.697537
 21
-74.12395
  0
LINE
  8
ボルト／ビス
  6
CONTINUOUS
 62
    64
 10
-97.672412
 20
-74.556552
 11
-97.922178
 21
-74.571055
  0
LINE
  8
ボルト／ビス
  6
CONTINUOUS
 62
    64
 10
-98.059623
 20
-74.362005
 11
-97.922178
 21
-74.571055
  0
LINE
  8
ボルト／ビス
  6
CONTINUOUS
 62
    64
 10
-97.560092
 20
-74.333
 11
-97.672412
 21
-74.556552
  0
LINE
  8
ボルト／ビス
  6
CONTINUOUS
 62
    64
 10
-97.947303
 20
-74.138453
 11
-98.059623
 21
-74.362005
  0
CIRCLE
  8
ボルト／ビス
  6
CONTINUOUS
 62
    64
 10
-97.809857
 20
-74.347502
 40
0.216668
  0
CIRCLE
  8
ボルト／ビス
  6
CONTINUOUS
 10
-107.728335
 20
-69.364145
 40
0.250185
  0
CIRCLE
  8
ボルト／ビス
  6
CONTINUOUS
 10
-107.728335
 20
-69.364145
 40
0.301025
  0
LINE
  8
ボルト／ビス
  6
CONTINUOUS
 62
    64
 10
-107.47857
 20
-69.34964
 11
-107.616015
 21
-69.14059
  0
LINE
  8
ボルト／ビス
  6
CONTINUOUS
 62
    64
 10
-107.86578
 20
-69.155092
 11
-107.616015
 21
-69.14059
  0
LINE
  8
ボルト／ビス
  6
CONTINUOUS
 62
    64
 10
-107.59089
 20
-69.573195
 11
-107.840657
 21
-69.5877
  0
LINE
  8
ボルト／ビス
  6
CONTINUOUS
 62
    64
 10
-107.9781
 20
-69.37865
 11
-107.840657
 21
-69.5877
  0
LINE
  8
ボルト／ビス
  6
CONTINUOUS
 62
    64
 10
-107.47857
 20
-69.34964
 11
-107.59089
 21
-69.573195
  0
LINE
  8
ボルト／ビス
  6
CONTINUOUS
 62
    64
 10
-107.86578
 20
-69.155092
 11
-107.9781
 21
-69.37865
  0
CIRCLE
  8
ボルト／ビス
  6
CONTINUOUS
 62
    64
 10
-107.728335
 20
-69.364145
 40
0.216668
  0
CIRCLE
  8
ボルト／ビス
  6
CONTINUOUS
 10
-117.646813
 20
-64.380788
 40
0.250185
  0
CIRCLE
  8
ボルト／ビス
  6
CONTINUOUS
 10
-117.646813
 20
-64.380788
 40
0.301025
  0
LINE
  8
ボルト／ビス
  6
CONTINUOUS
 62
    64
 10
-117.784257
 20
-64.171738
 11
-117.534493
 21
-64.157235
  0
LINE
  8
ボルト／ビス
  6
CONTINUOUS
 62
    64
 10
-117.397048
 20
-64.366285
 11
-117.534493
 21
-64.157235
  0
LINE
  8
ボルト／ビス
  6
CONTINUOUS
 62
    64
 10
-117.896577
 20
-64.395292
 11
-117.759135
 21
-64.60434
  0
LINE
  8
ボルト／ビス
  6
CONTINUOUS
 62
    64
 10
-117.509368
 20
-64.589837
 11
-117.759135
 21
-64.60434
  0
LINE
  8
ボルト／ビス
  6
CONTINUOUS
 62
    64
 10
-117.784257
 20
-64.171738
 11
-117.896577
 21
-64.395292
  0
LINE
  8
ボルト／ビス
  6
CONTINUOUS
 62
    64
 10
-117.397048
 20
-64.366285
 11
-117.509368
 21
-64.589837
  0
CIRCLE
  8
ボルト／ビス
  6
CONTINUOUS
 62
    64
 10
-117.646813
 20
-64.380788
 40
0.216668
  0
ENDBLK
  0
BLOCK
  2
*GRP_0019
 70
    65
 10
0.0
 20
0.0
  0
LINE
  8
補助線
  6
BYBLOCK
 62
    64
 10
75.61206
 20
-74.31009
 11
75.760985
 21
-74.384915
  0
LINE
  8
補助線
  6
BYBLOCK
 62
    64
 10
75.723935
 20
-74.273038
 11
75.64911
 21
-74.421965
  0
LINE
  8
補助線
  6
BYBLOCK
 62
    64
 10
65.69358
 20
-69.326732
 11
65.842507
 21
-69.401558
  0
LINE
  8
補助線
  6
BYBLOCK
 62
    64
 10
65.805458
 20
-69.28968
 11
65.730632
 21
-69.438608
  0
LINE
  8
補助線
  6
BYBLOCK
 62
    64
 10
55.92403
 20
-64.4182
 11
55.775102
 21
-64.343375
  0
LINE
  8
補助線
  6
BYBLOCK
 62
    64
 10
55.88698
 20
-64.306322
 11
55.812155
 21
-64.45525
  0
LINE
  8
型材断面
  6
CONTINUOUS
 10
76.3585
 20
-73.752525
 11
76.580803
 21
-74.423777
  0
LINE
  8
型材断面
  6
CONTINUOUS
 10
76.580803
 20
-74.423777
 11
76.2815
 21
-75.019482
  0
LINE
  8
型材断面
  6
CONTINUOUS
 10
76.2815
 20
-75.019482
 11
75.610247
 21
-75.241785
  0
LINE
  8
型材断面
  6
CONTINUOUS
 10
55.925843
 20
-63.486507
 11
55.254587
 21
-63.70881
  0
LINE
  8
型材断面
  6
CONTINUOUS
 10
55.254587
 20
-63.70881
 11
54.955285
 21
-64.304515
  0
LINE
  8
型材断面
  6
CONTINUOUS
 10
54.955285
 20
-64.304515
 11
55.17759
 21
-64.975767
  0
LINE
  8
型材断面
  6
CONTINUOUS
 10
76.3585
 20
-73.752525
 11
55.925843
 21
-63.486507
  0
LINE
  8
型材断面
  6
CONTINUOUS
 10
75.610247
 20
-75.241785
 11
55.17759
 21
-64.975767
  0
CIRCLE
  8
ボルト／ビス
  6
CONTINUOUS
 10
75.686522
 20
-74.347502
 40
0.250185
  0
CIRCLE
  8
ボルト／ビス
  6
CONTINUOUS
 10
75.686522
 20
-74.347502
 40
0.301025
  0
LINE
  8
ボルト／ビス
  6
CONTINUOUS
 62
    64
 10
75.936288
 20
-74.333
 11
75.798842
 21
-74.12395
  0
LINE
  8
ボルト／ビス
  6
CONTINUOUS
 62
    64
 10
75.549078
 20
-74.138453
 11
75.798842
 21
-74.12395
  0
LINE
  8
ボルト／ビス
  6
CONTINUOUS
 62
    64
 10
75.823968
 20
-74.556552
 11
75.574202
 21
-74.571055
  0
LINE
  8
ボルト／ビス
  6
CONTINUOUS
 62
    64
 10
75.436758
 20
-74.362005
 11
75.574202
 21
-74.571055
  0
LINE
  8
ボルト／ビス
  6
CONTINUOUS
 62
    64
 10
75.936288
 20
-74.333
 11
75.823968
 21
-74.556552
  0
LINE
  8
ボルト／ビス
  6
CONTINUOUS
 62
    64
 10
75.549078
 20
-74.138453
 11
75.436758
 21
-74.362005
  0
CIRCLE
  8
ボルト／ビス
  6
CONTINUOUS
 62
    64
 10
75.686522
 20
-74.347502
 40
0.216668
  0
CIRCLE
  8
ボルト／ビス
  6
CONTINUOUS
 10
65.768045
 20
-69.364145
 40
0.250185
  0
CIRCLE
  8
ボルト／ビス
  6
CONTINUOUS
 10
65.768045
 20
-69.364145
 40
0.301025
  0
LINE
  8
ボルト／ビス
  6
CONTINUOUS
 62
    64
 10
66.01781
 20
-69.34964
 11
65.880365
 21
-69.14059
  0
LINE
  8
ボルト／ビス
  6
CONTINUOUS
 62
    64
 10
65.6306
 20
-69.155092
 11
65.880365
 21
-69.14059
  0
LINE
  8
ボルト／ビス
  6
CONTINUOUS
 62
    64
 10
65.90549
 20
-69.573195
 11
65.655723
 21
-69.5877
  0
LINE
  8
ボルト／ビス
  6
CONTINUOUS
 62
    64
 10
65.51828
 20
-69.37865
 11
65.655723
 21
-69.5877
  0
LINE
  8
ボルト／ビス
  6
CONTINUOUS
 62
    64
 10
66.01781
 20
-69.34964
 11
65.90549
 21
-69.573195
  0
LINE
  8
ボルト／ビス
  6
CONTINUOUS
 62
    64
 10
65.6306
 20
-69.155092
 11
65.51828
 21
-69.37865
  0
CIRCLE
  8
ボルト／ビス
  6
CONTINUOUS
 62
    64
 10
65.768045
 20
-69.364145
 40
0.216668
  0
CIRCLE
  8
ボルト／ビス
  6
CONTINUOUS
 10
55.849568
 20
-64.380788
 40
0.250185
  0
CIRCLE
  8
ボルト／ビス
  6
CONTINUOUS
 10
55.849568
 20
-64.380788
 40
0.301025
  0
LINE
  8
ボルト／ビス
  6
CONTINUOUS
 62
    64
 10
55.712123
 20
-64.171738
 11
55.961888
 21
-64.157235
  0
LINE
  8
ボルト／ビス
  6
CONTINUOUS
 62
    64
 10
56.099332
 20
-64.366285
 11
55.961888
 21
-64.157235
  0
LINE
  8
ボルト／ビス
  6
CONTINUOUS
 62
    64
 10
55.599803
 20
-64.395292
 11
55.737245
 21
-64.60434
  0
LINE
  8
ボルト／ビス
  6
CONTINUOUS
 62
    64
 10
55.987012
 20
-64.589837
 11
55.737245
 21
-64.60434
  0
LINE
  8
ボルト／ビス
  6
CONTINUOUS
 62
    64
 10
55.712123
 20
-64.171738
 11
55.599803
 21
-64.395292
  0
LINE
  8
ボルト／ビス
  6
CONTINUOUS
 62
    64
 10
56.099332
 20
-64.366285
 11
55.987012
 21
-64.589837
  0
CIRCLE
  8
ボルト／ビス
  6
CONTINUOUS
 62
    64
 10
55.849568
 20
-64.380788
 40
0.216668
  0
ENDBLK
  0
BLOCK
  2
*GRP_0020
 70
    65
 10
0.0
 20
0.0
  0
LINE
  8
補助線
  6
BYBLOCK
 62
    64
 10
55.92403
 20
-74.31009
 11
55.775105
 21
-74.384915
  0
LINE
  8
補助線
  6
BYBLOCK
 62
    64
 10
55.812155
 20
-74.273038
 11
55.88698
 21
-74.421965
  0
LINE
  8
補助線
  6
BYBLOCK
 62
    64
 10
65.84251
 20
-69.326732
 11
65.693583
 21
-69.401558
  0
LINE
  8
補助線
  6
BYBLOCK
 62
    64
 10
65.730632
 20
-69.28968
 11
65.805458
 21
-69.438608
  0
LINE
  8
補助線
  6
BYBLOCK
 62
    64
 10
75.61206
 20
-64.4182
 11
75.760988
 21
-64.343375
  0
LINE
  8
補助線
  6
BYBLOCK
 62
    64
 10
75.64911
 20
-64.306322
 11
75.723935
 21
-64.45525
  0
LINE
  8
型材断面
  6
CONTINUOUS
 10
55.17759
 20
-73.752525
 11
54.955287
 21
-74.423777
  0
LINE
  8
型材断面
  6
CONTINUOUS
 10
54.955287
 20
-74.423777
 11
55.25459
 21
-75.019482
  0
LINE
  8
型材断面
  6
CONTINUOUS
 10
55.25459
 20
-75.019482
 11
55.925843
 21
-75.241785
  0
LINE
  8
型材断面
  6
CONTINUOUS
 10
75.610247
 20
-63.486507
 11
76.281502
 21
-63.70881
  0
LINE
  8
型材断面
  6
CONTINUOUS
 10
76.281502
 20
-63.70881
 11
76.580805
 21
-64.304515
  0
LINE
  8
型材断面
  6
CONTINUOUS
 10
76.580805
 20
-64.304515
 11
76.3585
 21
-64.975767
  0
LINE
  8
型材断面
  6
CONTINUOUS
 10
55.17759
 20
-73.752525
 11
75.610247
 21
-63.486507
  0
LINE
  8
型材断面
  6
CONTINUOUS
 10
55.925843
 20
-75.241785
 11
76.3585
 21
-64.975767
  0
CIRCLE
  8
ボルト／ビス
  6
CONTINUOUS
 10
55.849568
 20
-74.347502
 40
0.250185
  0
CIRCLE
  8
ボルト／ビス
  6
CONTINUOUS
 10
55.849568
 20
-74.347502
 40
0.301025
  0
LINE
  8
ボルト／ビス
  6
CONTINUOUS
 62
    64
 10
55.599803
 20
-74.333
 11
55.737248
 21
-74.12395
  0
LINE
  8
ボルト／ビス
  6
CONTINUOUS
 62
    64
 10
55.987012
 20
-74.138453
 11
55.737248
 21
-74.12395
  0
LINE
  8
ボルト／ビス
  6
CONTINUOUS
 62
    64
 10
55.712123
 20
-74.556552
 11
55.961888
 21
-74.571055
  0
LINE
  8
ボルト／ビス
  6
CONTINUOUS
 62
    64
 10
56.099332
 20
-74.362005
 11
55.961888
 21
-74.571055
  0
LINE
  8
ボルト／ビス
  6
CONTINUOUS
 62
    64
 10
55.599803
 20
-74.333
 11
55.712123
 21
-74.556552
  0
LINE
  8
ボルト／ビス
  6
CONTINUOUS
 62
    64
 10
55.987012
 20
-74.138453
 11
56.099332
 21
-74.362005
  0
CIRCLE
  8
ボルト／ビス
  6
CONTINUOUS
 62
    64
 10
55.849568
 20
-74.347502
 40
0.216668
  0
CIRCLE
  8
ボルト／ビス
  6
CONTINUOUS
 10
65.768045
 20
-69.364145
 40
0.250185
  0
CIRCLE
  8
ボルト／ビス
  6
CONTINUOUS
 10
65.768045
 20
-69.364145
 40
0.301025
  0
LINE
  8
ボルト／ビス
  6
CONTINUOUS
 62
    64
 10
65.51828
 20
-69.34964
 11
65.655725
 21
-69.14059
  0
LINE
  8
ボルト／ビス
  6
CONTINUOUS
 62
    64
 10
65.90549
 20
-69.155092
 11
65.655725
 21
-69.14059
  0
LINE
  8
ボルト／ビス
  6
CONTINUOUS
 62
    64
 10
65.6306
 20
-69.573195
 11
65.880367
 21
-69.5877
  0
LINE
  8
ボルト／ビス
  6
CONTINUOUS
 62
    64
 10
66.01781
 20
-69.37865
 11
65.880367
 21
-69.5877
  0
LINE
  8
ボルト／ビス
  6
CONTINUOUS
 62
    64
 10
65.51828
 20
-69.34964
 11
65.6306
 21
-69.573195
  0
LINE
  8
ボルト／ビス
  6
CONTINUOUS
 62
    64
 10
65.90549
 20
-69.155092
 11
66.01781
 21
-69.37865
  0
CIRCLE
  8
ボルト／ビス
  6
CONTINUOUS
 62
    64
 10
65.768045
 20
-69.364145
 40
0.216668
  0
CIRCLE
  8
ボルト／ビス
  6
CONTINUOUS
 10
75.686522
 20
-64.380788
 40
0.250185
  0
CIRCLE
  8
ボルト／ビス
  6
CONTINUOUS
 10
75.686522
 20
-64.380788
 40
0.301025
  0
LINE
  8
ボルト／ビス
  6
CONTINUOUS
 62
    64
 10
75.823968
 20
-64.171738
 11
75.574202
 21
-64.157235
  0
LINE
  8
ボルト／ビス
  6
CONTINUOUS
 62
    64
 10
75.436758
 20
-64.366285
 11
75.574202
 21
-64.157235
  0
LINE
  8
ボルト／ビス
  6
CONTINUOUS
 62
    64
 10
75.936288
 20
-64.395292
 11
75.798845
 21
-64.60434
  0
LINE
  8
ボルト／ビス
  6
CONTINUOUS
 62
    64
 10
75.549078
 20
-64.589837
 11
75.798845
 21
-64.60434
  0
LINE
  8
ボルト／ビス
  6
CONTINUOUS
 62
    64
 10
75.823968
 20
-64.171738
 11
75.936288
 21
-64.395292
  0
LINE
  8
ボルト／ビス
  6
CONTINUOUS
 62
    64
 10
75.436758
 20
-64.366285
 11
75.549078
 21
-64.589837
  0
CIRCLE
  8
ボルト／ビス
  6
CONTINUOUS
 62
    64
 10
75.686522
 20
-64.380788
 40
0.216668
  0
ENDBLK
  0
BLOCK
  2
*GRP_0021
 70
    65
 10
0.0
 20
0.0
  0
LINE
  8
補助線
  6
BYBLOCK
 62
    64
 10
-11.13613
 20
-74.31009
 11
-10.987205
 21
-74.384915
  0
LINE
  8
補助線
  6
BYBLOCK
 62
    64
 10
-11.024255
 20
-74.273038
 11
-11.09908
 21
-74.421965
  0
LINE
  8
補助線
  6
BYBLOCK
 62
    64
 10
-21.05461
 20
-69.326732
 11
-20.905682
 21
-69.401558
  0
LINE
  8
補助線
  6
BYBLOCK
 62
    64
 10
-20.942732
 20
-69.28968
 11
-21.017558
 21
-69.438608
  0
LINE
  8
補助線
  6
BYBLOCK
 62
    64
 10
-30.82416
 20
-64.4182
 11
-30.973088
 21
-64.343375
  0
LINE
  8
補助線
  6
BYBLOCK
 62
    64
 10
-30.86121
 20
-64.306322
 11
-30.936035
 21
-64.45525
  0
LINE
  8
型材断面
  6
CONTINUOUS
 10
-10.38969
 20
-73.752525
 11
-10.167388
 21
-74.423777
  0
LINE
  8
型材断面
  6
CONTINUOUS
 10
-10.167388
 20
-74.423777
 11
-10.46669
 21
-75.019482
  0
LINE
  8
型材断面
  6
CONTINUOUS
 10
-10.46669
 20
-75.019482
 11
-11.137943
 21
-75.241785
  0
LINE
  8
型材断面
  6
CONTINUOUS
 10
-30.822347
 20
-63.486507
 11
-31.493602
 21
-63.70881
  0
LINE
  8
型材断面
  6
CONTINUOUS
 10
-31.493602
 20
-63.70881
 11
-31.792905
 21
-64.304515
  0
LINE
  8
型材断面
  6
CONTINUOUS
 10
-31.792905
 20
-64.304515
 11
-31.5706
 21
-64.975767
  0
LINE
  8
型材断面
  6
CONTINUOUS
 10
-10.38969
 20
-73.752525
 11
-30.822347
 21
-63.486507
  0
LINE
  8
型材断面
  6
CONTINUOUS
 10
-11.137943
 20
-75.241785
 11
-31.5706
 21
-64.975767
  0
CIRCLE
  8
ボルト／ビス
  6
CONTINUOUS
 10
-11.061668
 20
-74.347502
 40
0.250185
  0
CIRCLE
  8
ボルト／ビス
  6
CONTINUOUS
 10
-11.061668
 20
-74.347502
 40
0.301025
  0
LINE
  8
ボルト／ビス
  6
CONTINUOUS
 62
    64
 10
-10.811902
 20
-74.333
 11
-10.949348
 21
-74.12395
  0
LINE
  8
ボルト／ビス
  6
CONTINUOUS
 62
    64
 10
-11.199112
 20
-74.138453
 11
-10.949348
 21
-74.12395
  0
LINE
  8
ボルト／ビス
  6
CONTINUOUS
 62
    64
 10
-10.924222
 20
-74.556552
 11
-11.173988
 21
-74.571055
  0
LINE
  8
ボルト／ビス
  6
CONTINUOUS
 62
    64
 10
-11.311432
 20
-74.362005
 11
-11.173988
 21
-74.571055
  0
LINE
  8
ボルト／ビス
  6
CONTINUOUS
 62
    64
 10
-10.811902
 20
-74.333
 11
-10.924222
 21
-74.556552
  0
LINE
  8
ボルト／ビス
  6
CONTINUOUS
 62
    64
 10
-11.199112
 20
-74.138453
 11
-11.311432
 21
-74.362005
  0
CIRCLE
  8
ボルト／ビス
  6
CONTINUOUS
 62
    64
 10
-11.061668
 20
-74.347502
 40
0.216668
  0
CIRCLE
  8
ボルト／ビス
  6
CONTINUOUS
 10
-20.980145
 20
-69.364145
 40
0.250185
  0
CIRCLE
  8
ボルト／ビス
  6
CONTINUOUS
 10
-20.980145
 20
-69.364145
 40
0.301025
  0
LINE
  8
ボルト／ビス
  6
CONTINUOUS
 62
    64
 10
-20.73038
 20
-69.34964
 11
-20.867825
 21
-69.14059
  0
LINE
  8
ボルト／ビス
  6
CONTINUOUS
 62
    64
 10
-21.11759
 20
-69.155092
 11
-20.867825
 21
-69.14059
  0
LINE
  8
ボルト／ビス
  6
CONTINUOUS
 62
    64
 10
-20.8427
 20
-69.573195
 11
-21.092468
 21
-69.5877
  0
LINE
  8
ボルト／ビス
  6
CONTINUOUS
 62
    64
 10
-21.22991
 20
-69.37865
 11
-21.092468
 21
-69.5877
  0
LINE
  8
ボルト／ビス
  6
CONTINUOUS
 62
    64
 10
-20.73038
 20
-69.34964
 11
-20.8427
 21
-69.573195
  0
LINE
  8
ボルト／ビス
  6
CONTINUOUS
 62
    64
 10
-21.11759
 20
-69.155092
 11
-21.22991
 21
-69.37865
  0
CIRCLE
  8
ボルト／ビス
  6
CONTINUOUS
 62
    64
 10
-20.980145
 20
-69.364145
 40
0.216668
  0
CIRCLE
  8
ボルト／ビス
  6
CONTINUOUS
 10
-30.898622
 20
-64.380788
 40
0.250185
  0
CIRCLE
  8
ボルト／ビス
  6
CONTINUOUS
 10
-30.898622
 20
-64.380788
 40
0.301025
  0
LINE
  8
ボルト／ビス
  6
CONTINUOUS
 62
    64
 10
-31.036067
 20
-64.171738
 11
-30.786302
 21
-64.157235
  0
LINE
  8
ボルト／ビス
  6
CONTINUOUS
 62
    64
 10
-30.648858
 20
-64.366285
 11
-30.786302
 21
-64.157235
  0
LINE
  8
ボルト／ビス
  6
CONTINUOUS
 62
    64
 10
-31.148387
 20
-64.395292
 11
-31.010945
 21
-64.60434
  0
LINE
  8
ボルト／ビス
  6
CONTINUOUS
 62
    64
 10
-30.761178
 20
-64.589837
 11
-31.010945
 21
-64.60434
  0
LINE
  8
ボルト／ビス
  6
CONTINUOUS
 62
    64
 10
-31.036067
 20
-64.171738
 11
-31.148387
 21
-64.395292
  0
LINE
  8
ボルト／ビス
  6
CONTINUOUS
 62
    64
 10
-30.648858
 20
-64.366285
 11
-30.761178
 21
-64.589837
  0
CIRCLE
  8
ボルト／ビス
  6
CONTINUOUS
 62
    64
 10
-30.898622
 20
-64.380788
 40
0.216668
  0
ENDBLK
  0
BLOCK
  2
*GRP_0022
 70
    65
 10
0.0
 20
0.0
  0
LINE
  8
補助線
  6
BYBLOCK
 62
    64
 10
-30.82416
 20
-74.31009
 11
-30.973085
 21
-74.384915
  0
LINE
  8
補助線
  6
BYBLOCK
 62
    64
 10
-30.936035
 20
-74.273038
 11
-30.86121
 21
-74.421965
  0
LINE
  8
補助線
  6
BYBLOCK
 62
    64
 10
-20.90568
 20
-69.326732
 11
-21.054608
 21
-69.401558
  0
LINE
  8
補助線
  6
BYBLOCK
 62
    64
 10
-21.017558
 20
-69.28968
 11
-20.942732
 21
-69.438608
  0
LINE
  8
補助線
  6
BYBLOCK
 62
    64
 10
-11.13613
 20
-64.4182
 11
-10.987202
 21
-64.343375
  0
LINE
  8
補助線
  6
BYBLOCK
 62
    64
 10
-11.09908
 20
-64.306322
 11
-11.024255
 21
-64.45525
  0
LINE
  8
型材断面
  6
CONTINUOUS
 10
-31.5706
 20
-73.752525
 11
-31.792903
 21
-74.423777
  0
LINE
  8
型材断面
  6
CONTINUOUS
 10
-31.792903
 20
-74.423777
 11
-31.4936
 21
-75.019482
  0
LINE
  8
型材断面
  6
CONTINUOUS
 10
-31.4936
 20
-75.019482
 11
-30.822347
 21
-75.241785
  0
LINE
  8
型材断面
  6
CONTINUOUS
 10
-11.137943
 20
-63.486507
 11
-10.466687
 21
-63.70881
  0
LINE
  8
型材断面
  6
CONTINUOUS
 10
-10.466687
 20
-63.70881
 11
-10.167385
 21
-64.304515
  0
LINE
  8
型材断面
  6
CONTINUOUS
 10
-10.167385
 20
-64.304515
 11
-10.38969
 21
-64.975767
  0
LINE
  8
型材断面
  6
CONTINUOUS
 10
-31.5706
 20
-73.752525
 11
-11.137943
 21
-63.486507
  0
LINE
  8
型材断面
  6
CONTINUOUS
 10
-30.822347
 20
-75.241785
 11
-10.38969
 21
-64.975767
  0
CIRCLE
  8
ボルト／ビス
  6
CONTINUOUS
 10
-30.898622
 20
-74.347502
 40
0.250185
  0
CIRCLE
  8
ボルト／ビス
  6
CONTINUOUS
 10
-30.898622
 20
-74.347502
 40
0.301025
  0
LINE
  8
ボルト／ビス
  6
CONTINUOUS
 62
    64
 10
-31.148387
 20
-74.333
 11
-31.010942
 21
-74.12395
  0
LINE
  8
ボルト／ビス
  6
CONTINUOUS
 62
    64
 10
-30.761178
 20
-74.138453
 11
-31.010942
 21
-74.12395
  0
LINE
  8
ボルト／ビス
  6
CONTINUOUS
 62
    64
 10
-31.036067
 20
-74.556552
 11
-30.786302
 21
-74.571055
  0
LINE
  8
ボルト／ビス
  6
CONTINUOUS
 62
    64
 10
-30.648858
 20
-74.362005
 11
-30.786302
 21
-74.571055
  0
LINE
  8
ボルト／ビス
  6
CONTINUOUS
 62
    64
 10
-31.148387
 20
-74.333
 11
-31.036067
 21
-74.556552
  0
LINE
  8
ボルト／ビス
  6
CONTINUOUS
 62
    64
 10
-30.761178
 20
-74.138453
 11
-30.648858
 21
-74.362005
  0
CIRCLE
  8
ボルト／ビス
  6
CONTINUOUS
 62
    64
 10
-30.898622
 20
-74.347502
 40
0.216668
  0
CIRCLE
  8
ボルト／ビス
  6
CONTINUOUS
 10
-20.980145
 20
-69.364145
 40
0.250185
  0
CIRCLE
  8
ボルト／ビス
  6
CONTINUOUS
 10
-20.980145
 20
-69.364145
 40
0.301025
  0
LINE
  8
ボルト／ビス
  6
CONTINUOUS
 62
    64
 10
-21.22991
 20
-69.34964
 11
-21.092465
 21
-69.14059
  0
LINE
  8
ボルト／ビス
  6
CONTINUOUS
 62
    64
 10
-20.8427
 20
-69.155092
 11
-21.092465
 21
-69.14059
  0
LINE
  8
ボルト／ビス
  6
CONTINUOUS
 62
    64
 10
-21.11759
 20
-69.573195
 11
-20.867822
 21
-69.5877
  0
LINE
  8
ボルト／ビス
  6
CONTINUOUS
 62
    64
 10
-20.73038
 20
-69.37865
 11
-20.867822
 21
-69.5877
  0
LINE
  8
ボルト／ビス
  6
CONTINUOUS
 62
    64
 10
-21.22991
 20
-69.34964
 11
-21.11759
 21
-69.573195
  0
LINE
  8
ボルト／ビス
  6
CONTINUOUS
 62
    64
 10
-20.8427
 20
-69.155092
 11
-20.73038
 21
-69.37865
  0
CIRCLE
  8
ボルト／ビス
  6
CONTINUOUS
 62
    64
 10
-20.980145
 20
-69.364145
 40
0.216668
  0
CIRCLE
  8
ボルト／ビス
  6
CONTINUOUS
 10
-11.061668
 20
-64.380788
 40
0.250185
  0
CIRCLE
  8
ボルト／ビス
  6
CONTINUOUS
 10
-11.061668
 20
-64.380788
 40
0.301025
  0
LINE
  8
ボルト／ビス
  6
CONTINUOUS
 62
    64
 10
-10.924222
 20
-64.171738
 11
-11.173988
 21
-64.157235
  0
LINE
  8
ボルト／ビス
  6
CONTINUOUS
 62
    64
 10
-11.311432
 20
-64.366285
 11
-11.173988
 21
-64.157235
  0
LINE
  8
ボルト／ビス
  6
CONTINUOUS
 62
    64
 10
-10.811902
 20
-64.395292
 11
-10.949345
 21
-64.60434
  0
LINE
  8
ボルト／ビス
  6
CONTINUOUS
 62
    64
 10
-11.199112
 20
-64.589837
 11
-10.949345
 21
-64.60434
  0
LINE
  8
ボルト／ビス
  6
CONTINUOUS
 62
    64
 10
-10.924222
 20
-64.171738
 11
-10.811902
 21
-64.395292
  0
LINE
  8
ボルト／ビス
  6
CONTINUOUS
 62
    64
 10
-11.311432
 20
-64.366285
 11
-11.199112
 21
-64.589837
  0
CIRCLE
  8
ボルト／ビス
  6
CONTINUOUS
 62
    64
 10
-11.061668
 20
-64.380788
 40
0.216668
  0
ENDBLK
  0
BLOCK
  2
*DIM_0023
 70
    65
 10
0.0
 20
0.0
  0
LINE
  8
寸法
  6
CONTINUOUS
 10
84.070162
 20
-68.70412
 11
102.688635
 21
-68.70412
  0
LINE
  8
寸法
  6
CONTINUOUS
 10
86.036525
 20
-76.17062
 11
102.688635
 21
-76.17062
  0
LINE
  8
寸法
  6
CONTINUOUS
 10
102.688635
 20
-68.70412
 11
102.688635
 21
-76.17062
  0
POINT
  8
寸法
 10
102.688635
 20
-68.70412
  0
POINT
  8
寸法
 10
102.688635
 20
-76.17062
  0
TEXT
  7
TextStyle03
  8
寸法
  6
CONTINUOUS
 10
102.275
 20
-74.8875
  1
224
 40
3.0
 50
90.0
 72
     5
 11
102.275
 21
-70.0125
  0
ENDBLK
  0
BLOCK
  2
*DIM_0024
 70
    65
 10
0.0
 20
0.0
  0
LINE
  8
寸法
  6
BYBLOCK
 62
     0
 10
-104.263162
 20
36.573195
 11
-104.263162
 21
31.35283
  0
LINE
  8
寸法
  6
BYBLOCK
 62
     0
 10
-20.92983
 20
36.573198
 11
-20.92983
 21
31.35283
  0
LINE
  8
寸法
  6
BYBLOCK
 62
     0
 10
-104.263162
 20
31.35283
 11
-20.92983
 21
31.35283
  0
POINT
  8
寸法
 62
     0
 10
-104.263162
 20
31.35283
  0
POINT
  8
寸法
 62
     0
 10
-20.92983
 20
31.35283
  0
TEXT
  7
TextStyle03
  8
寸法
  6
CONTINUOUS
 62
     0
 10
-65.90625
 20
31.7
  1
2500
 40
3.0
 72
     5
 11
-59.34375
 21
31.7
  0
ENDBLK
  0
BLOCK
  2
*DIM_0025
 70
    65
 10
0.0
 20
0.0
  0
LINE
  8
寸法
  6
BYBLOCK
 62
     0
 10
62.403502
 20
36.573195
 11
62.403502
 21
31.35283
  0
LINE
  8
寸法
  6
BYBLOCK
 62
     0
 10
-20.92983
 20
31.35283
 11
62.403502
 21
31.35283
  0
POINT
  8
寸法
 62
     0
 10
62.403502
 20
31.35283
  0
TEXT
  7
TextStyle03
  8
寸法
  6
CONTINUOUS
 62
     0
 10
17.44375
 20
31.7
  1
2500
 40
3.0
 72
     5
 11
24.00625
 21
31.7
  0
ENDBLK
  0
BLOCK
  2
*DIM_0026
 70
    65
 10
0.0
 20
0.0
  0
LINE
  8
寸法
  6
BYBLOCK
 62
     0
 10
82.700297
 20
56.303325
 11
89.47759
 21
56.303325
  0
LINE
  8
寸法
  6
BYBLOCK
 62
     0
 10
89.47759
 20
60.203325
 11
89.47759
 21
56.303325
  0
POINT
  8
寸法
 62
     0
 10
89.47759
 20
60.203325
  0
POINT
  8
寸法
 62
     0
 10
89.47759
 20
56.303325
  0
TEXT
  7
TextStyle03
  8
寸法
  6
CONTINUOUS
 62
     0
 10
89.175
 20
60.8625
  1
117
 40
3.0
 50
90.0
 72
     5
 11
89.175
 21
65.7375
  0
ENDBLK
  0
BLOCK
  2
*DIM_0027
 70
    65
 10
0.0
 20
0.0
  0
LINE
  8
寸法
  6
BYBLOCK
 62
     0
 10
82.700297
 20
44.103325
 11
89.47759
 21
44.103325
  0
LINE
  8
寸法
  6
BYBLOCK
 62
     0
 10
89.47759
 20
40.203325
 11
89.47759
 21
44.103325
  0
POINT
  8
寸法
 62
     0
 10
89.47759
 20
40.203325
  0
POINT
  8
寸法
 62
     0
 10
89.47759
 20
44.103325
  0
TEXT
  7
TextStyle03
  8
寸法
  6
CONTINUOUS
 62
     0
 10
89.35
 20
34.3875
  1
117
 40
3.0
 50
90.0
 72
     5
 11
89.35
 21
39.2625
  0
ENDBLK
  0
BLOCK
  2
*DIM_0028
 70
    65
 10
0.0
 20
0.0
  0
LINE
  8
寸法
  6
BYBLOCK
 62
     0
 10
-123.92983
 20
56.869993
 11
-137.222668
 21
56.869993
  0
LINE
  8
寸法
  6
BYBLOCK
 62
     0
 10
-123.92983
 20
43.536658
 11
-137.222668
 21
43.536658
  0
LINE
  8
寸法
  6
BYBLOCK
 62
     0
 10
-137.222668
 20
56.869993
 11
-137.222668
 21
43.536658
  0
POINT
  8
寸法
 62
     0
 10
-137.222668
 20
56.869993
  0
POINT
  8
寸法
 62
     0
 10
-137.222668
 20
43.536658
  0
TEXT
  7
TextStyle03
  8
寸法
  6
CONTINUOUS
 62
     0
 10
-137.55
 20
47.7375
  1
400
 40
3.0
 50
90.0
 72
     5
 11
-137.55
 21
52.6125
  0
ENDBLK
  0
BLOCK
  2
*DIM_0029
 70
    65
 10
0.0
 20
0.0
  0
LINE
  8
寸法
  6
BYBLOCK
 62
     0
 10
-114.263162
 20
63.203325
 11
-114.263162
 21
92.311398
  0
LINE
  8
寸法
  6
BYBLOCK
 62
     0
 10
-90.92983
 20
63.203325
 11
-90.92983
 21
92.311398
  0
LINE
  8
寸法
  6
BYBLOCK
 62
     0
 10
-114.263162
 20
92.311398
 11
-90.92983
 21
92.311398
  0
POINT
  8
寸法
 62
     0
 10
-114.263162
 20
92.311398
  0
POINT
  8
寸法
 62
     0
 10
-90.92983
 20
92.311398
  0
TEXT
  7
TextStyle03
  8
寸法
  6
CONTINUOUS
 62
     0
 10
-105.0625
 20
92.675
  1
700
 40
3.0
 72
     5
 11
-100.1875
 21
92.675
  0
ENDBLK
  0
BLOCK
  2
*DIM_0030
 70
    65
 10
0.0
 20
0.0
  0
LINE
  8
寸法
  6
BYBLOCK
 62
     0
 10
-67.596497
 20
63.203325
 11
-67.596497
 21
92.311398
  0
LINE
  8
寸法
  6
BYBLOCK
 62
     0
 10
-90.92983
 20
92.311398
 11
-67.596497
 21
92.311398
  0
POINT
  8
寸法
 62
     0
 10
-67.596497
 20
92.311398
  0
TEXT
  7
TextStyle03
  8
寸法
  6
CONTINUOUS
 62
     0
 10
-81.7375
 20
92.675
  1
700
 40
3.0
 72
     5
 11
-76.8625
 21
92.675
  0
ENDBLK
  0
BLOCK
  2
*DIM_0031
 70
    65
 10
0.0
 20
0.0
  0
LINE
  8
寸法
  6
BYBLOCK
 62
     0
 10
-44.263163
 20
63.203325
 11
-44.263163
 21
92.311398
  0
LINE
  8
寸法
  6
BYBLOCK
 62
     0
 10
-67.596497
 20
92.311398
 11
-44.263163
 21
92.311398
  0
POINT
  8
寸法
 62
     0
 10
-44.263163
 20
92.311398
  0
TEXT
  7
TextStyle03
  8
寸法
  6
CONTINUOUS
 62
     0
 10
-58.3875
 20
92.675
  1
700
 40
3.0
 72
     5
 11
-53.5125
 21
92.675
  0
ENDBLK
  0
BLOCK
  2
*DIM_0032
 70
    65
 10
0.0
 20
0.0
  0
LINE
  8
寸法
  6
BYBLOCK
 62
     0
 10
-20.92983
 20
63.203325
 11
-20.92983
 21
92.311398
  0
LINE
  8
寸法
  6
BYBLOCK
 62
     0
 10
-44.263163
 20
92.311398
 11
-20.92983
 21
92.311398
  0
POINT
  8
寸法
 62
     0
 10
-20.92983
 20
92.311398
  0
TEXT
  7
TextStyle03
  8
寸法
  6
CONTINUOUS
 62
     0
 10
-35.0625
 20
92.675
  1
700
 40
3.0
 72
     5
 11
-30.1875
 21
92.675
  0
ENDBLK
  0
BLOCK
  2
*DIM_0033
 70
    65
 10
0.0
 20
0.0
  0
LINE
  8
寸法
  6
BYBLOCK
 62
     0
 10
2.403502
 20
63.203325
 11
2.403502
 21
92.311398
  0
LINE
  8
寸法
  6
BYBLOCK
 62
     0
 10
-20.92983
 20
92.311398
 11
2.403502
 21
92.311398
  0
POINT
  8
寸法
 62
     0
 10
2.403502
 20
92.311398
  0
TEXT
  7
TextStyle03
  8
寸法
  6
CONTINUOUS
 62
     0
 10
-11.7375
 20
92.675
  1
700
 40
3.0
 72
     5
 11
-6.8625
 21
92.675
  0
ENDBLK
  0
BLOCK
  2
*DIM_0034
 70
    65
 10
0.0
 20
0.0
  0
LINE
  8
寸法
  6
BYBLOCK
 62
     0
 10
25.736838
 20
63.203325
 11
25.736838
 21
92.311398
  0
LINE
  8
寸法
  6
BYBLOCK
 62
     0
 10
2.403502
 20
92.311398
 11
25.736838
 21
92.311398
  0
POINT
  8
寸法
 62
     0
 10
25.736838
 20
92.311398
  0
TEXT
  7
TextStyle03
  8
寸法
  6
CONTINUOUS
 62
     0
 10
11.6125
 20
92.675
  1
700
 40
3.0
 72
     5
 11
16.4875
 21
92.675
  0
ENDBLK
  0
BLOCK
  2
*DIM_0035
 70
    65
 10
0.0
 20
0.0
  0
LINE
  8
寸法
  6
BYBLOCK
 62
     0
 10
49.07017
 20
63.203325
 11
49.07017
 21
92.311398
  0
LINE
  8
寸法
  6
BYBLOCK
 62
     0
 10
25.736838
 20
92.311398
 11
49.07017
 21
92.311398
  0
POINT
  8
寸法
 62
     0
 10
49.07017
 20
92.311398
  0
TEXT
  7
TextStyle03
  8
寸法
  6
CONTINUOUS
 62
     0
 10
34.9375
 20
92.675
  1
700
 40
3.0
 72
     5
 11
39.8125
 21
92.675
  0
ENDBLK
  0
BLOCK
  2
*DIM_0036
 70
    65
 10
0.0
 20
0.0
  0
LINE
  8
寸法
  6
BYBLOCK
 62
     0
 10
72.403502
 20
63.203325
 11
72.403502
 21
92.311398
  0
LINE
  8
寸法
  6
BYBLOCK
 62
     0
 10
49.07017
 20
92.311398
 11
72.403502
 21
92.311398
  0
POINT
  8
寸法
 62
     0
 10
72.403502
 20
92.311398
  0
TEXT
  7
TextStyle03
  8
寸法
  6
CONTINUOUS
 62
     0
 10
58.2625
 20
92.675
  1
700
 40
3.0
 72
     5
 11
63.1375
 21
92.675
  0
ENDBLK
  0
BLOCK
  2
*DIM_0037
 70
    65
 10
0.0
 20
0.0
  0
LINE
  8
寸法
  6
CONTINUOUS
 10
84.070162
 20
-68.70412
 11
102.688635
 21
-68.70412
  0
LINE
  8
寸法
  6
CONTINUOUS
 10
84.070162
 20
-61.370788
 11
102.688635
 21
-61.370788
  0
LINE
  8
寸法
  6
CONTINUOUS
 10
102.688635
 20
-68.70412
 11
102.688635
 21
-61.370788
  0
POINT
  8
寸法
 10
102.688635
 20
-68.70412
  0
POINT
  8
寸法
 10
102.688635
 20
-61.370788
  0
TEXT
  7
TextStyle03
  8
寸法
  6
CONTINUOUS
 10
105.65
 20
-74.14375
  1
上昇212以上
 40
3.0
 50
90.0
 72
     5
 11
105.65
 21
-55.95625
  0
ENDBLK
  0
BLOCK
  2
*GRP_0038
 70
    65
 10
0.0
 20
0.0
  0
INSERT
  2
M8横
  8
ゴム等
  6
DOT
 10
79.896522
 20
-62.963955
 50
180.0
 41
0.033333
 42
-0.033333
  0
LINE
  8
ボルト／ビス
  6
DOT
 10
79.76319
 20
-62.753955
 11
79.779855
 21
-62.73729
  0
LINE
  8
ボルト／ビス
  6
DOT
 10
80.01319
 20
-62.73729
 11
80.029855
 21
-62.753955
  0
LINE
  8
ボルト／ビス
  6
DOT
 10
80.029855
 20
-62.753955
 11
79.76319
 21
-62.753955
  0
LINE
  8
ボルト／ビス
  6
DOT
 10
80.01319
 20
-62.73729
 11
79.779855
 21
-62.73729
  0
LINE
  8
ボルト／ビス
  6
DOT
 10
79.779855
 20
-62.73729
 11
79.779855
 21
-62.78062
  0
LINE
  8
ボルト／ビス
  6
DOT
 10
79.76319
 20
-62.753955
 11
79.76319
 21
-62.78062
  0
LINE
  8
ボルト／ビス
  6
DOT
 10
80.029855
 20
-62.753955
 11
80.029855
 21
-62.78062
  0
LINE
  8
ボルト／ビス
  6
DOT
 10
80.01319
 20
-62.73729
 11
80.01319
 21
-62.78062
  0
LINE
  8
ボルト／ビス
  6
DOT
 10
80.26319
 20
-62.963955
 11
79.529855
 21
-62.963955
  0
LINE
  8
ボルト／ビス
  6
DOT
 10
79.479855
 20
-63.003955
 11
79.479855
 21
-63.087288
  0
LINE
  8
ボルト／ビス
  6
DOT
 10
79.479855
 20
-63.087288
 11
80.31319
 21
-63.087288
  0
LINE
  8
ボルト／ビス
  6
DOT
 10
80.31319
 20
-63.087288
 11
80.31319
 21
-63.003955
  0
LINE
  8
ボルト／ビス
  6
DOT
 10
79.479855
 20
-63.003955
 11
80.31319
 21
-63.003955
  0
LINE
  8
ボルト／ビス
  6
DOT
 10
80.26319
 20
-62.963955
 11
80.26319
 21
-63.003955
  0
LINE
  8
ボルト／ビス
  6
DOT
 10
79.529855
 20
-62.963955
 11
79.529855
 21
-63.003955
  0
LINE
  8
ボルト／ビス
  6
DOT
 10
79.896522
 20
-63.013955
 11
79.896522
 21
-62.963955
  0
ENDBLK
  0
BLOCK
  2
*GRP_0039
 70
    65
 10
0.0
 20
0.0
  0
LINE
  8
ボルト／ビス
  6
DOT
 10
80.10319
 20
-62.10412
 11
80.10319
 21
-62.037455
  0
LINE
  8
ボルト／ビス
  6
DOT
 10
80.10319
 20
-62.037455
 11
79.369858
 21
-62.037455
  0
LINE
  8
ボルト／ビス
  6
DOT
 10
79.369858
 20
-62.037455
 11
79.369858
 21
-62.10412
  0
LINE
  8
ボルト／ビス
  6
DOT
 10
80.10319
 20
-62.10412
 11
79.369858
 21
-62.10412
  0
LINE
  8
ボルト／ビス
  6
DOT
 10
80.036525
 20
-62.00412
 11
80.036525
 21
-62.037455
  0
LINE
  8
ボルト／ビス
  6
DOT
 10
80.036525
 20
-62.00412
 11
79.436525
 21
-62.00412
  0
LINE
  8
ボルト／ビス
  6
DOT
 10
79.436525
 20
-62.00412
 11
79.436525
 21
-62.037455
  0
LINE
  8
ボルト／ビス
  6
DOT
 62
    64
 10
79.8969
 20
-61.80412
 11
79.928975
 21
-61.815795
  0
ARC
  8
ボルト／ビス
  6
DOT
 62
    64
 10
79.88086
 20
-61.909098
 40
0.104978
 50
90.0
 51
117.278033
  0
ARC
  8
ボルト／ビス
  6
DOT
 62
    64
 10
79.736523
 20
-62.206522
 40
0.402402
 50
76.165015
 51
103.834998
  0
LINE
  8
ボルト／ビス
  6
DOT
 62
    64
 10
79.57615
 20
-61.80412
 11
79.544075
 21
-61.815795
  0
ARC
  8
ボルト／ビス
  6
DOT
 62
    64
 10
79.592185
 20
-61.909098
 40
0.104978
 50
62.721967
 51
90.0
  0
LINE
  8
ボルト／ビス
  6
DOT
 62
    64
 10
79.8969
 20
-61.80412
 11
79.57615
 21
-61.80412
  0
LINE
  8
ボルト／ビス
  6
DOT
 62
    64
 10
79.544075
 20
-61.815795
 11
79.544075
 21
-61.937455
  0
LINE
  8
ボルト／ビス
  6
DOT
 62
    64
 10
79.6403
 20
-61.815795
 11
79.6403
 21
-61.937455
  0
LINE
  8
ボルト／ビス
  6
DOT
 62
    64
 10
79.928975
 20
-61.815795
 11
79.928975
 21
-61.937455
  0
LINE
  8
ボルト／ビス
  6
DOT
 62
    64
 10
79.83275
 20
-61.815795
 11
79.83275
 21
-61.937455
  0
LINE
  8
ボルト／ビス
  6
DOT
 10
79.928975
 20
-61.937455
 11
79.544075
 21
-61.937455
  0
LINE
  8
ボルト／ビス
  6
DOT
 10
79.936525
 20
-61.937455
 11
79.936525
 21
-62.00412
  0
LINE
  8
ボルト／ビス
  6
DOT
 10
79.936525
 20
-61.937455
 11
79.536525
 21
-61.937455
  0
LINE
  8
ボルト／ビス
  6
DOT
 10
79.536525
 20
-61.937455
 11
79.536525
 21
-62.00412
  0
ENDBLK
  0
BLOCK
  2
*GRP_0040
 70
    65
 10
0.0
 20
0.0
  0
INSERT
  2
M8横
  8
ゴム等
  6
DOT
 10
-121.756182
 20
-62.963955
 41
0.033333
 42
0.033333
  0
LINE
  8
ボルト／ビス
  6
DOT
 10
-121.62285
 20
-62.753955
 11
-121.639515
 21
-62.73729
  0
LINE
  8
ボルト／ビス
  6
DOT
 10
-121.87285
 20
-62.73729
 11
-121.889515
 21
-62.753955
  0
LINE
  8
ボルト／ビス
  6
DOT
 10
-121.889515
 20
-62.753955
 11
-121.62285
 21
-62.753955
  0
LINE
  8
ボルト／ビス
  6
DOT
 10
-121.87285
 20
-62.73729
 11
-121.639515
 21
-62.73729
  0
LINE
  8
ボルト／ビス
  6
DOT
 10
-121.639515
 20
-62.73729
 11
-121.639515
 21
-62.78062
  0
LINE
  8
ボルト／ビス
  6
DOT
 10
-121.62285
 20
-62.753955
 11
-121.62285
 21
-62.78062
  0
LINE
  8
ボルト／ビス
  6
DOT
 10
-121.889515
 20
-62.753955
 11
-121.889515
 21
-62.78062
  0
LINE
  8
ボルト／ビス
  6
DOT
 10
-121.87285
 20
-62.73729
 11
-121.87285
 21
-62.78062
  0
LINE
  8
ボルト／ビス
  6
DOT
 10
-122.12285
 20
-62.963955
 11
-121.389515
 21
-62.963955
  0
LINE
  8
ボルト／ビス
  6
DOT
 10
-121.339515
 20
-63.003955
 11
-121.339515
 21
-63.087288
  0
LINE
  8
ボルト／ビス
  6
DOT
 10
-121.339515
 20
-63.087288
 11
-122.17285
 21
-63.087288
  0
LINE
  8
ボルト／ビス
  6
DOT
 10
-122.17285
 20
-63.087288
 11
-122.17285
 21
-63.003955
  0
LINE
  8
ボルト／ビス
  6
DOT
 10
-121.339515
 20
-63.003955
 11
-122.17285
 21
-63.003955
  0
LINE
  8
ボルト／ビス
  6
DOT
 10
-122.12285
 20
-62.963955
 11
-122.12285
 21
-63.003955
  0
LINE
  8
ボルト／ビス
  6
DOT
 10
-121.389515
 20
-62.963955
 11
-121.389515
 21
-63.003955
  0
LINE
  8
ボルト／ビス
  6
DOT
 10
-121.756182
 20
-63.013955
 11
-121.756182
 21
-62.963955
  0
ENDBLK
  0
BLOCK
  2
*GRP_0041
 70
    65
 10
0.0
 20
0.0
  0
LINE
  8
ボルト／ビス
  6
DOT
 10
-121.96285
 20
-62.10412
 11
-121.96285
 21
-62.037455
  0
LINE
  8
ボルト／ビス
  6
DOT
 10
-121.96285
 20
-62.037455
 11
-121.229518
 21
-62.037455
  0
LINE
  8
ボルト／ビス
  6
DOT
 10
-121.229518
 20
-62.037455
 11
-121.229518
 21
-62.10412
  0
LINE
  8
ボルト／ビス
  6
DOT
 10
-121.96285
 20
-62.10412
 11
-121.229518
 21
-62.10412
  0
LINE
  8
ボルト／ビス
  6
DOT
 10
-121.896185
 20
-62.00412
 11
-121.896185
 21
-62.037455
  0
LINE
  8
ボルト／ビス
  6
DOT
 10
-121.896185
 20
-62.00412
 11
-121.296185
 21
-62.00412
  0
LINE
  8
ボルト／ビス
  6
DOT
 10
-121.296185
 20
-62.00412
 11
-121.296185
 21
-62.037455
  0
LINE
  8
ボルト／ビス
  6
DOT
 62
    64
 10
-121.75656
 20
-61.80412
 11
-121.788635
 21
-61.815795
  0
ARC
  8
ボルト／ビス
  6
DOT
 62
    64
 10
-121.740524
 20
-61.909098
 40
0.104978
 50
62.721967
 51
90.0
  0
ARC
  8
ボルト／ビス
  6
DOT
 62
    64
 10
-121.596186
 20
-62.206522
 40
0.402402
 50
76.165002
 51
103.834985
  0
LINE
  8
ボルト／ビス
  6
DOT
 62
    64
 10
-121.43581
 20
-61.80412
 11
-121.403735
 21
-61.815795
  0
ARC
  8
ボルト／ビス
  6
DOT
 62
    64
 10
-121.451849
 20
-61.909098
 40
0.104978
 50
90.0
 51
117.278033
  0
LINE
  8
ボルト／ビス
  6
DOT
 62
    64
 10
-121.75656
 20
-61.80412
 11
-121.43581
 21
-61.80412
  0
LINE
  8
ボルト／ビス
  6
DOT
 62
    64
 10
-121.403735
 20
-61.815795
 11
-121.403735
 21
-61.937455
  0
LINE
  8
ボルト／ビス
  6
DOT
 62
    64
 10
-121.49996
 20
-61.815795
 11
-121.49996
 21
-61.937455
  0
LINE
  8
ボルト／ビス
  6
DOT
 62
    64
 10
-121.788635
 20
-61.815795
 11
-121.788635
 21
-61.937455
  0
LINE
  8
ボルト／ビス
  6
DOT
 62
    64
 10
-121.69241
 20
-61.815795
 11
-121.69241
 21
-61.937455
  0
LINE
  8
ボルト／ビス
  6
DOT
 10
-121.788635
 20
-61.937455
 11
-121.403735
 21
-61.937455
  0
LINE
  8
ボルト／ビス
  6
DOT
 10
-121.796185
 20
-61.937455
 11
-121.796185
 21
-62.00412
  0
LINE
  8
ボルト／ビス
  6
DOT
 10
-121.796185
 20
-61.937455
 11
-121.396185
 21
-61.937455
  0
LINE
  8
ボルト／ビス
  6
DOT
 10
-121.396185
 20
-61.937455
 11
-121.396185
 21
-62.00412
  0
ENDBLK
  0
BLOCK
  2
*DIM_0042
 70
    65
 10
0.0
 20
0.0
  0
LINE
  8
寸法
  6
CONTINUOUS
 10
81.349857
 20
-68.209977
 11
81.349857
 21
-32.437345
  0
LINE
  8
寸法
  6
CONTINUOUS
 10
79.070162
 20
-32.437345
 11
81.349857
 21
-32.437345
  0
POINT
  8
寸法
 10
79.070162
 20
-32.437345
  0
POINT
  8
寸法
 10
81.349857
 20
-32.437345
  0
TEXT
  7
TextStyle03
  8
寸法
  6
CONTINUOUS
 10
83.66875
 20
-32.075
  1
68.4
 40
3.0
 72
     5
 11
90.23125
 21
-32.075
  0
ENDBLK
  0
BLOCK
  2
*DIM_0043
 70
    65
 10
0.0
 20
0.0
  0
LINE
  8
寸法
  6
CONTINUOUS
 10
-123.209518
 20
-68.209977
 11
-123.209518
 21
-32.437345
  0
LINE
  8
寸法
  6
CONTINUOUS
 10
-120.929822
 20
-32.437345
 11
-123.209518
 21
-32.437345
  0
POINT
  8
寸法
 10
-120.929822
 20
-32.437345
  0
POINT
  8
寸法
 10
-123.209518
 20
-32.437345
  0
TEXT
  7
TextStyle03
  8
寸法
  6
CONTINUOUS
 10
-132.10625
 20
-32.075
  1
68.4
 40
3.0
 72
     5
 11
-125.54375
 21
-32.075
  0
ENDBLK
  0
BLOCK
  2
*DIM_0044
 70
    65
 10
0.0
 20
0.0
  0
LINE
  8
寸法
  6
CONTINUOUS
 10
79.070162
 20
-32.437345
 11
-120.929822
 21
-32.437345
  0
POINT
  8
寸法
 10
79.070162
 20
-32.437345
  0
POINT
  8
寸法
 10
-120.929822
 20
-32.437345
  0
TEXT
  7
TextStyle03
  8
寸法
  6
CONTINUOUS
 10
-32.66875
 20
-32.075
  1
呼称寸法　6000
 40
3.0
 72
     5
 11
-9.23125
 21
-32.075
  0
ENDBLK
  0
BLOCK
  2
M8横
 70
    64
 10
-88.370132
 20
140.837665
  0
LINE
  8
ボルト／ビス
 10
-95.870132
 20
140.837665
 11
-80.870132
 21
140.837665
  0
LINE
  8
ボルト／ビス
 10
-80.870132
 20
145.837665
 11
-81.370132
 21
146.337665
  0
POLYLINE
  8
ボルト／ビス
 66
     1
  0
VERTEX
  8
ボルト／ビス
 10
-84.120132
 20
146.337665
  0
VERTEX
  8
ボルト／ビス
 10
-84.620132
 20
145.837665
  0
VERTEX
  8
ボルト／ビス
 10
-85.120132
 20
146.337665
  0
SEQEND
  0
POLYLINE
  8
ボルト／ビス
 66
     1
  0
VERTEX
  8
ボルト／ビス
 10
-91.620132
 20
146.337665
  0
VERTEX
  8
ボルト／ビス
 10
-92.120132
 20
145.837665
  0
VERTEX
  8
ボルト／ビス
 10
-92.620132
 20
146.337665
  0
SEQEND
  0
LINE
  8
ボルト／ビス
 10
-95.370132
 20
146.337665
 11
-95.870132
 21
145.837665
  0
LINE
  8
ボルト／ビス
 10
-95.870132
 20
140.837665
 11
-95.870132
 21
145.837665
  0
LINE
  8
ボルト／ビス
 10
-80.870132
 20
140.837665
 11
-80.870132
 21
145.837665
  0
LINE
  8
ボルト／ビス
 10
-95.370132
 20
146.337665
 11
-81.370132
 21
146.337665
  0
LINE
  8
ボルト／ビス
 10
-84.620132
 20
140.837665
 11
-84.620132
 21
145.837665
  0
LINE
  8
ボルト／ビス
 10
-92.120132
 20
140.837665
 11
-92.120132
 21
145.837665
  0
ENDBLK
  0
ENDSEC
  0
SECTION
  2
ENTITIES
  0
POLYLINE
  8
通り芯
  6
CONTINUOUS
 66
     1
 70
     1
  0
VERTEX
  8
通り芯
 10
-210.0
 20
-148.5
  0
VERTEX
  8
通り芯
 10
210.0
 20
-148.5
  0
VERTEX
  8
通り芯
 10
210.0
 20
148.5
  0
VERTEX
  8
通り芯
 10
-210.0
 20
148.5
  0
SEQEND
  0
INSERT
  2
*GRP_0001
  8
型材断面
  6
CONTINUOUS
 10
0.0
 20
0.0
  0
LINE
  8
型材断面
  6
CONTINUOUS
 10
162.97617
 20
61.869993
 11
162.97617
 21
61.819993
  0
LINE
  8
型材断面
  6
CONTINUOUS
 10
162.47617
 20
60.203325
 11
161.742835
 21
60.203325
  0
LINE
  8
型材断面
  6
CONTINUOUS
 62
    47
 10
169.709335
 20
61.60302
 11
169.709335
 21
61.55302
  0
LINE
  8
型材断面
  6
CONTINUOUS
 62
    47
 10
169.709335
 20
61.60302
 11
169.209335
 21
61.60302
  0
LINE
  8
型材断面
  6
CONTINUOUS
 10
163.459335
 20
60.25302
 11
163.459335
 21
61.699688
  0
LINE
  8
型材断面
  6
CONTINUOUS
 10
163.909335
 20
61.699688
 11
163.459335
 21
61.699688
  0
LINE
  8
型材断面
  6
CONTINUOUS
 62
    47
 10
166.582028
 20
62.43302
 11
166.582028
 21
62.48302
  0
LINE
  8
型材断面
  6
CONTINUOUS
 62
    47
 10
166.582028
 20
62.48302
 11
166.248695
 21
62.48302
  0
LINE
  8
型材断面
  6
CONTINUOUS
 62
    47
 10
166.248695
 20
62.48302
 11
166.148695
 21
61.699688
  0
LINE
  8
型材断面
  6
CONTINUOUS
 62
    47
 10
165.74267
 20
61.699688
 11
166.148695
 21
61.699688
  0
LINE
  8
型材断面
  6
CONTINUOUS
 62
    47
 10
165.74267
 20
62.169687
 11
163.909335
 21
62.169687
  0
LINE
  8
型材断面
  6
CONTINUOUS
 10
162.97617
 20
61.869993
 11
162.47617
 21
61.869993
  0
LINE
  8
型材断面
  6
CONTINUOUS
 10
163.459335
 20
60.25302
 11
162.97617
 21
60.25302
  0
LINE
  8
型材断面
  6
CONTINUOUS
 62
    47
 10
169.209335
 20
62.169687
 11
166.582028
 21
62.169687
  0
INSERT
  2
*GRP_0002
  8
型材断面
  6
DOT
 10
0.0
 20
0.0
  0
INSERT
  2
*GRP_0003
  8
型材断面
  6
DOT
 10
0.0
 20
0.0
  0
LINE
  8
型材断面
  6
CONTINUOUS
 10
169.209335
 20
62.169687
 11
169.209335
 21
50.203325
  0
LINE
  8
型材断面
  6
CONTINUOUS
 10
169.709335
 20
61.60302
 11
169.709335
 21
50.203325
  0
LINE
  8
型材断面
  6
CONTINUOUS
 10
166.582028
 20
62.48302
 11
166.582028
 21
50.203325
  0
LINE
  8
型材断面
  6
CONTINUOUS
 10
166.248695
 20
62.48302
 11
166.248695
 21
50.203325
  0
LINE
  8
型材断面
  6
CONTINUOUS
 10
166.148695
 20
61.699688
 11
166.148695
 21
50.203325
  0
LINE
  8
型材断面
  6
CONTINUOUS
 10
165.74267
 20
62.169687
 11
165.74267
 21
50.203325
  0
LINE
  8
型材断面
  6
CONTINUOUS
 10
162.97617
 20
61.869993
 11
162.97617
 21
50.203325
  0
LINE
  8
型材断面
  6
CONTINUOUS
 10
161.742835
 20
60.203325
 11
161.742835
 21
50.203325
  0
LINE
  8
型材断面
  6
CONTINUOUS
 10
162.47617
 20
61.869993
 11
162.47617
 21
50.203325
  0
LINE
  8
型材断面
  6
CONTINUOUS
 10
163.459335
 20
61.699688
 11
163.459335
 21
50.203325
  0
LINE
  8
型材断面
  6
CONTINUOUS
 10
163.909335
 20
62.169687
 11
163.909335
 21
50.203325
  0
LINE
  8
型材断面
  6
CONTINUOUS
 10
162.97617
 20
38.53666
 11
162.97617
 21
38.58666
  0
LINE
  8
型材断面
  6
CONTINUOUS
 10
162.47617
 20
40.203325
 11
161.742835
 21
40.203325
  0
LINE
  8
型材断面
  6
CONTINUOUS
 62
    47
 10
169.709335
 20
38.80363
 11
169.709335
 21
38.85363
  0
LINE
  8
型材断面
  6
CONTINUOUS
 62
    47
 10
169.709335
 20
38.80363
 11
169.209335
 21
38.80363
  0
LINE
  8
型材断面
  6
CONTINUOUS
 10
163.459335
 20
40.15363
 11
163.459335
 21
38.706965
  0
LINE
  8
型材断面
  6
CONTINUOUS
 10
163.909335
 20
38.706965
 11
163.459335
 21
38.706965
  0
LINE
  8
型材断面
  6
CONTINUOUS
 62
    47
 10
166.582028
 20
37.97363
 11
166.582028
 21
37.92363
  0
LINE
  8
型材断面
  6
CONTINUOUS
 62
    47
 10
166.582028
 20
37.92363
 11
166.248695
 21
37.92363
  0
LINE
  8
型材断面
  6
CONTINUOUS
 62
    47
 10
166.248695
 20
37.92363
 11
166.148695
 21
38.706965
  0
LINE
  8
型材断面
  6
CONTINUOUS
 62
    47
 10
165.74267
 20
38.706965
 11
166.148695
 21
38.706965
  0
LINE
  8
型材断面
  6
CONTINUOUS
 62
    47
 10
165.74267
 20
38.236965
 11
163.909335
 21
38.236965
  0
LINE
  8
型材断面
  6
CONTINUOUS
 10
162.97617
 20
38.53666
 11
162.47617
 21
38.53666
  0
LINE
  8
型材断面
  6
CONTINUOUS
 10
163.459335
 20
40.15363
 11
162.97617
 21
40.15363
  0
LINE
  8
型材断面
  6
CONTINUOUS
 62
    47
 10
169.209335
 20
38.236965
 11
166.582028
 21
38.236965
  0
INSERT
  2
*GRP_0004
  8
型材断面
  6
DOT
 10
0.0
 20
0.0
  0
INSERT
  2
*GRP_0005
  8
型材断面
  6
DOT
 10
0.0
 20
0.0
  0
LINE
  8
型材断面
  6
CONTINUOUS
 10
169.209335
 20
38.236965
 11
169.209335
 21
50.203325
  0
LINE
  8
型材断面
  6
CONTINUOUS
 10
169.709335
 20
38.80363
 11
169.709335
 21
50.203325
  0
LINE
  8
型材断面
  6
CONTINUOUS
 10
166.582028
 20
37.92363
 11
166.582028
 21
50.203325
  0
LINE
  8
型材断面
  6
CONTINUOUS
 10
166.248695
 20
37.92363
 11
166.248695
 21
50.203325
  0
LINE
  8
型材断面
  6
CONTINUOUS
 10
166.148695
 20
38.706965
 11
166.148695
 21
50.203325
  0
LINE
  8
型材断面
  6
CONTINUOUS
 10
165.74267
 20
38.236965
 11
165.74267
 21
50.203325
  0
LINE
  8
型材断面
  6
CONTINUOUS
 10
162.97617
 20
38.53666
 11
162.97617
 21
50.203325
  0
LINE
  8
型材断面
  6
CONTINUOUS
 10
161.742835
 20
40.203325
 11
161.742835
 21
50.203325
  0
LINE
  8
型材断面
  6
CONTINUOUS
 10
162.47617
 20
38.53666
 11
162.47617
 21
50.203325
  0
LINE
  8
型材断面
  6
CONTINUOUS
 10
163.459335
 20
38.706965
 11
163.459335
 21
50.203325
  0
LINE
  8
型材断面
  6
CONTINUOUS
 10
163.909335
 20
38.236965
 11
163.909335
 21
50.203325
  0
LINE
  8
型材断面
  6
CONTINUOUS
 10
127.61203
 20
-30.961017
 11
148.301285
 21
-30.961017
  0
LINE
  8
型材断面
  6
DASHDOT
 10
-20.92983
 20
-79.253555
 11
-20.92983
 21
60.203325
  0
LINE
  8
型材断面
  6
CONTINUOUS
 10
80.73683
 20
-69.937453
 11
80.68683
 21
-69.937453
  0
LINE
  8
型材断面
  6
CONTINUOUS
 10
79.070162
 20
-69.437453
 11
79.070162
 21
-68.70412
  0
LINE
  8
型材断面
  6
CONTINUOUS
 62
    47
 10
80.469858
 20
-76.67062
 11
80.419858
 21
-76.67062
  0
LINE
  8
型材断面
  6
CONTINUOUS
 62
    47
 10
80.469858
 20
-76.67062
 11
80.469858
 21
-76.17062
  0
LINE
  8
型材断面
  6
CONTINUOUS
 10
79.119858
 20
-70.42062
 11
80.566525
 21
-70.42062
  0
LINE
  8
型材断面
  6
CONTINUOUS
 10
80.566525
 20
-70.87062
 11
80.566525
 21
-70.42062
  0
LINE
  8
型材断面
  6
CONTINUOUS
 62
    47
 10
81.299857
 20
-73.543312
 11
81.349857
 21
-73.543312
  0
LINE
  8
型材断面
  6
CONTINUOUS
 62
    47
 10
81.349857
 20
-73.543312
 11
81.349857
 21
-73.209977
  0
LINE
  8
型材断面
  6
CONTINUOUS
 62
    47
 10
81.349857
 20
-73.209977
 11
80.566525
 21
-73.109977
  0
LINE
  8
型材断面
  6
CONTINUOUS
 62
    47
 10
80.566525
 20
-72.703953
 11
80.566525
 21
-73.109977
  0
LINE
  8
型材断面
  6
CONTINUOUS
 62
    47
 10
81.036525
 20
-72.703953
 11
81.036525
 21
-70.87062
  0
LINE
  8
型材断面
  6
CONTINUOUS
 10
80.73683
 20
-69.937453
 11
80.73683
 21
-69.437453
  0
LINE
  8
型材断面
  6
CONTINUOUS
 10
79.119858
 20
-70.42062
 11
79.119858
 21
-69.937453
  0
LINE
  8
型材断面
  6
CONTINUOUS
 62
    47
 10
81.036525
 20
-76.17062
 11
81.036525
 21
-73.543312
  0
INSERT
  2
*GRP_0012
  8
型材断面
  6
DOT
 10
0.0
 20
0.0
  0
INSERT
  2
*GRP_0013
  8
型材断面
  6
DOT
 10
0.0
 20
0.0
  0
LINE
  8
型材断面
  6
CONTINUOUS
 10
81.036525
 20
-76.17062
 11
-20.92983
 21
-76.17062
  0
LINE
  8
型材断面
  6
CONTINUOUS
 10
80.469858
 20
-76.67062
 11
-20.92983
 21
-76.67062
  0
LINE
  8
型材断面
  6
CONTINUOUS
 10
81.349857
 20
-73.543312
 11
-20.92983
 21
-73.543312
  0
LINE
  8
型材断面
  6
CONTINUOUS
 10
81.349857
 20
-73.209977
 11
-20.92983
 21
-73.209977
  0
LINE
  8
型材断面
  6
CONTINUOUS
 10
80.566525
 20
-73.109977
 11
-20.92983
 21
-73.109977
  0
LINE
  8
型材断面
  6
CONTINUOUS
 10
81.036525
 20
-72.703953
 11
-20.92983
 21
-72.703953
  0
LINE
  8
型材断面
  6
CONTINUOUS
 10
80.73683
 20
-69.937453
 11
-20.92983
 21
-69.937453
  0
LINE
  8
型材断面
  6
CONTINUOUS
 10
79.070162
 20
-68.70412
 11
-20.92983
 21
-68.70412
  0
LINE
  8
型材断面
  6
CONTINUOUS
 10
80.73683
 20
-69.437453
 11
-20.92983
 21
-69.437453
  0
LINE
  8
型材断面
  6
CONTINUOUS
 10
80.566525
 20
-70.42062
 11
-20.92983
 21
-70.42062
  0
LINE
  8
型材断面
  6
CONTINUOUS
 10
81.036525
 20
-70.87062
 11
-20.92983
 21
-70.87062
  0
LINE
  8
型材断面
  6
CONTINUOUS
 10
79.070162
 20
40.203325
 11
79.070162
 21
60.203325
  0
LINE
  8
型材断面
  6
CONTINUOUS
 10
81.036525
 20
38.236962
 11
81.036525
 21
62.169687
  0
LINE
  8
型材断面
  6
CONTINUOUS
 10
81.349857
 20
37.92363
 11
81.349857
 21
62.48302
  0
LINE
  8
型材断面
  6
CONTINUOUS
 10
80.73683
 20
38.536658
 11
80.73683
 21
61.869993
  0
LINE
  8
型材断面
  6
CONTINUOUS
 10
78.23683
 20
41.036658
 11
81.349857
 21
37.92363
  0
LINE
  8
型材断面
  6
CONTINUOUS
 10
78.23683
 20
59.369993
 11
81.349857
 21
62.48302
  0
LINE
  8
型材断面
  6
CONTINUOUS
 10
78.23683
 20
50.619993
 11
79.070162
 21
50.619993
  0
LINE
  8
型材断面
  6
CONTINUOUS
 10
78.23683
 20
49.786658
 11
79.070162
 21
49.786658
  0
LINE
  8
型材断面
  6
CONTINUOUS
 10
78.23683
 20
41.036658
 11
78.23683
 21
49.786658
  0
LINE
  8
型材断面
  6
CONTINUOUS
 10
78.23683
 20
50.619993
 11
78.23683
 21
59.369993
  0
LINE
  8
型材断面
  6
DASHDOT
 10
79.070162
 20
-79.253555
 11
79.070162
 21
40.203325
  0
LINE
  8
型材断面
  6
CONTINUOUS
 10
-122.59649
 20
-69.937453
 11
-122.54649
 21
-69.937453
  0
LINE
  8
型材断面
  6
CONTINUOUS
 10
-120.929822
 20
-69.437453
 11
-120.929822
 21
-68.70412
  0
LINE
  8
型材断面
  6
CONTINUOUS
 62
    47
 10
-122.329518
 20
-76.67062
 11
-122.279518
 21
-76.67062
  0
LINE
  8
型材断面
  6
CONTINUOUS
 62
    47
 10
-122.329518
 20
-76.67062
 11
-122.329518
 21
-76.17062
  0
LINE
  8
型材断面
  6
CONTINUOUS
 10
-120.979518
 20
-70.42062
 11
-122.426185
 21
-70.42062
  0
LINE
  8
型材断面
  6
CONTINUOUS
 10
-122.426185
 20
-70.87062
 11
-122.426185
 21
-70.42062
  0
LINE
  8
型材断面
  6
CONTINUOUS
 62
    47
 10
-123.159518
 20
-73.543312
 11
-123.209518
 21
-73.543312
  0
LINE
  8
型材断面
  6
CONTINUOUS
 62
    47
 10
-123.209518
 20
-73.543312
 11
-123.209518
 21
-73.209977
  0
LINE
  8
型材断面
  6
CONTINUOUS
 62
    47
 10
-123.209518
 20
-73.209977
 11
-122.426185
 21
-73.109977
  0
LINE
  8
型材断面
  6
CONTINUOUS
 62
    47
 10
-122.426185
 20
-72.703953
 11
-122.426185
 21
-73.109977
  0
LINE
  8
型材断面
  6
CONTINUOUS
 62
    47
 10
-122.896185
 20
-72.703953
 11
-122.896185
 21
-70.87062
  0
LINE
  8
型材断面
  6
CONTINUOUS
 10
-122.59649
 20
-69.937453
 11
-122.59649
 21
-69.437453
  0
LINE
  8
型材断面
  6
CONTINUOUS
 10
-120.979518
 20
-70.42062
 11
-120.979518
 21
-69.937453
  0
LINE
  8
型材断面
  6
CONTINUOUS
 62
    47
 10
-122.896185
 20
-76.17062
 11
-122.896185
 21
-73.543312
  0
INSERT
  2
*GRP_0014
  8
型材断面
  6
DOT
 10
0.0
 20
0.0
  0
INSERT
  2
*GRP_0015
  8
型材断面
  6
DOT
 10
0.0
 20
0.0
  0
LINE
  8
型材断面
  6
CONTINUOUS
 10
-122.896185
 20
-76.17062
 11
-20.92983
 21
-76.17062
  0
LINE
  8
型材断面
  6
CONTINUOUS
 10
-122.329518
 20
-76.67062
 11
-20.92983
 21
-76.67062
  0
LINE
  8
型材断面
  6
CONTINUOUS
 10
-123.209518
 20
-73.543312
 11
-20.92983
 21
-73.543312
  0
LINE
  8
型材断面
  6
CONTINUOUS
 10
-123.209518
 20
-73.209977
 11
-20.92983
 21
-73.209977
  0
LINE
  8
型材断面
  6
CONTINUOUS
 10
-122.426185
 20
-73.109977
 11
-20.92983
 21
-73.109977
  0
LINE
  8
型材断面
  6
CONTINUOUS
 10
-122.896185
 20
-72.703953
 11
-20.92983
 21
-72.703953
  0
LINE
  8
型材断面
  6
CONTINUOUS
 10
-122.59649
 20
-69.937453
 11
-20.92983
 21
-69.937453
  0
LINE
  8
型材断面
  6
CONTINUOUS
 10
-120.929822
 20
-68.70412
 11
-20.92983
 21
-68.70412
  0
LINE
  8
型材断面
  6
CONTINUOUS
 10
-122.59649
 20
-69.437453
 11
-20.92983
 21
-69.437453
  0
LINE
  8
型材断面
  6
CONTINUOUS
 10
-122.426185
 20
-70.42062
 11
-20.92983
 21
-70.42062
  0
LINE
  8
型材断面
  6
CONTINUOUS
 10
-122.896185
 20
-70.87062
 11
-20.92983
 21
-70.87062
  0
LINE
  8
型材断面
  6
CONTINUOUS
 10
-120.929822
 20
40.203325
 11
-120.929822
 21
60.203325
  0
LINE
  8
型材断面
  6
CONTINUOUS
 10
-122.896185
 20
38.236962
 11
-122.896185
 21
62.169687
  0
LINE
  8
型材断面
  6
CONTINUOUS
 10
-123.209518
 20
37.92363
 11
-123.209518
 21
62.48302
  0
LINE
  8
型材断面
  6
CONTINUOUS
 10
-122.59649
 20
38.536658
 11
-122.59649
 21
61.869993
  0
LINE
  8
型材断面
  6
CONTINUOUS
 10
-120.09649
 20
59.369993
 11
-123.209518
 21
62.48302
  0
LINE
  8
型材断面
  6
CONTINUOUS
 10
-120.09649
 20
41.036658
 11
-123.209518
 21
37.92363
  0
LINE
  8
型材断面
  6
CONTINUOUS
 10
-120.09649
 20
49.786658
 11
-120.929822
 21
49.786658
  0
LINE
  8
型材断面
  6
CONTINUOUS
 10
-120.09649
 20
50.619993
 11
-120.929822
 21
50.619993
  0
LINE
  8
型材断面
  6
CONTINUOUS
 10
-120.09649
 20
41.036658
 11
-120.09649
 21
49.786658
  0
LINE
  8
型材断面
  6
CONTINUOUS
 10
-120.09649
 20
50.619993
 11
-120.09649
 21
59.369993
  0
LINE
  8
型材断面
  6
DASHDOT
 10
-120.929822
 20
-79.253555
 11
-120.929822
 21
40.203325
  0
LINE
  8
型材断面
  6
CONTINUOUS
 10
79.070162
 20
40.203325
 11
-120.929822
 21
40.203325
  0
LINE
  8
型材断面
  6
CONTINUOUS
 10
81.036525
 20
38.236962
 11
-122.896185
 21
38.236962
  0
LINE
  8
型材断面
  6
CONTINUOUS
 10
81.349857
 20
37.92363
 11
-123.209518
 21
37.92363
  0
LINE
  8
型材断面
  6
CONTINUOUS
 10
80.73683
 20
38.536658
 11
-122.59649
 21
38.536658
  0
LINE
  8
型材断面
  6
CONTINUOUS
 10
79.070162
 20
60.203325
 11
-120.929822
 21
60.203325
  0
LINE
  8
型材断面
  6
CONTINUOUS
 10
81.036525
 20
62.169687
 11
-122.896185
 21
62.169687
  0
LINE
  8
型材断面
  6
CONTINUOUS
 10
81.349857
 20
62.48302
 11
-123.209518
 21
62.48302
  0
LINE
  8
型材断面
  6
CONTINUOUS
 10
80.73683
 20
61.869993
 11
-122.59649
 21
61.869993
  0
POLYLINE
  8
型材断面
  6
CONTINUOUS
 66
     1
 70
     1
  0
VERTEX
  8
型材断面
 10
95.621115
 20
-91.899758
  0
VERTEX
  8
型材断面
 10
46.94244
 20
-91.899758
  0
VERTEX
  8
型材断面
 10
46.94244
 20
-108.244423
  0
VERTEX
  8
型材断面
 10
95.621115
 20
-108.244423
  0
SEQEND
  0
POLYLINE
  8
型材断面
  6
CONTINUOUS
 66
     1
 70
     1
  0
VERTEX
  8
型材断面
 10
-11.159167
 20
30.427403
  0
VERTEX
  8
型材断面
 10
-29.931098
 20
30.427403
  0
VERTEX
  8
型材断面
 10
-29.931098
 20
25.69056
  0
VERTEX
  8
型材断面
 10
-11.159167
 20
25.69056
  0
SEQEND
  0
POLYLINE
  8
型材断面
  6
CONTINUOUS
 66
     1
 70
     1
  0
VERTEX
  8
型材断面
 10
-11.159167
 20
69.979248
  0
VERTEX
  8
型材断面
 10
-29.931098
 20
69.979248
  0
VERTEX
  8
型材断面
 10
-29.931098
 20
74.71609
  0
VERTEX
  8
型材断面
 10
-11.159167
 20
74.71609
  0
SEQEND
  0
LINE
  8
型材断面
  6
CONTINUOUS
 10
-104.263162
 20
62.833455
 11
-105.758792
 21
65.423963
  0
LINE
  8
型材断面
  6
CONTINUOUS
 10
-104.263162
 20
62.833455
 11
-102.767533
 21
65.423963
  0
LINE
  8
型材断面
  6
CONTINUOUS
 10
-102.767533
 20
65.423963
 11
-105.758792
 21
65.423963
  0
LINE
  8
型材断面
  6
CONTINUOUS
 10
-161.782038
 20
98.180797
 11
-161.185982
 21
95.59029
  0
LINE
  8
型材断面
  6
CONTINUOUS
 10
-161.782038
 20
98.180797
 11
-162.378095
 21
95.59029
  0
LINE
  8
型材断面
  6
CONTINUOUS
 10
-162.378095
 20
95.59029
 11
-161.185982
 21
95.59029
  0
LINE
  8
型材断面
  6
CONTINUOUS
 10
-167.804625
 20
92.311398
 11
-121.562848
 21
92.311398
  0
LINE
  8
型材断面
  6
CONTINUOUS
 10
-161.782038
 20
104.710672
 11
-163.277668
 21
102.120165
  0
LINE
  8
型材断面
  6
CONTINUOUS
 10
-161.782038
 20
104.710672
 11
-160.286408
 21
102.120165
  0
LINE
  8
型材断面
  6
CONTINUOUS
 10
-160.286408
 20
102.120165
 11
-163.277668
 21
102.120165
  0
LINE
  8
型材断面
  6
CONTINUOUS
 10
-167.804625
 20
101.18157
 11
-121.562848
 21
101.18157
  0
LINE
  8
型材断面
  6
CONTINUOUS
 10
-167.804625
 20
86.523365
 11
-121.562848
 21
86.523365
  0
LINE
  8
型材断面
  6
CONTINUOUS
 10
62.403502
 20
62.833455
 11
63.899133
 21
65.423963
  0
LINE
  8
型材断面
  6
CONTINUOUS
 10
62.403502
 20
62.833455
 11
60.907872
 21
65.423963
  0
LINE
  8
型材断面
  6
CONTINUOUS
 10
60.907872
 20
65.423963
 11
63.899133
 21
65.423963
  0
LINE
  8
型材断面
  6
CONTINUOUS
 10
-123.55996
 20
50.203325
 11
-126.150468
 21
51.698955
  0
LINE
  8
型材断面
  6
CONTINUOUS
 10
-123.55996
 20
50.203325
 11
-126.150468
 21
48.707695
  0
LINE
  8
型材断面
  6
CONTINUOUS
 10
-126.150468
 20
48.707695
 11
-126.150468
 21
51.698955
  0
LINE
  8
型材断面
  6
CONTINUOUS
 10
-20.92983
 20
62.833453
 11
-22.42546
 21
65.42396
  0
LINE
  8
型材断面
  6
CONTINUOUS
 10
-20.92983
 20
62.833453
 11
-19.4342
 21
65.42396
  0
LINE
  8
型材断面
  6
CONTINUOUS
 10
-19.4342
 20
65.42396
 11
-22.42546
 21
65.42396
  0
LINE
  8
型材断面
  6
CONTINUOUS
 10
-104.263162
 20
37.573195
 11
-105.758792
 21
34.982688
  0
LINE
  8
型材断面
  6
CONTINUOUS
 10
-104.263162
 20
37.573195
 11
-102.767533
 21
34.982688
  0
LINE
  8
型材断面
  6
CONTINUOUS
 10
-102.767533
 20
34.982688
 11
-105.758792
 21
34.982688
  0
LINE
  8
型材断面
  6
CONTINUOUS
 10
62.403502
 20
37.573195
 11
63.899133
 21
34.982688
  0
LINE
  8
型材断面
  6
CONTINUOUS
 10
62.403502
 20
37.573195
 11
60.907872
 21
34.982688
  0
LINE
  8
型材断面
  6
CONTINUOUS
 10
60.907872
 20
34.982688
 11
63.899133
 21
34.982688
  0
LINE
  8
型材断面
  6
CONTINUOUS
 10
-20.92983
 20
37.573198
 11
-22.42546
 21
34.98269
  0
LINE
  8
型材断面
  6
CONTINUOUS
 10
-20.92983
 20
37.573198
 11
-19.4342
 21
34.98269
  0
LINE
  8
型材断面
  6
CONTINUOUS
 10
-19.4342
 20
34.98269
 11
-22.42546
 21
34.98269
  0
LINE
  8
型材断面
  6
CONTINUOUS
 10
81.7003
 20
50.203325
 11
84.290807
 21
51.698955
  0
LINE
  8
型材断面
  6
CONTINUOUS
 10
81.7003
 20
50.203325
 11
84.290807
 21
48.707695
  0
LINE
  8
型材断面
  6
CONTINUOUS
 10
84.290807
 20
48.707695
 11
84.290807
 21
51.698955
  0
LINE
  8
型材断面
  6
CONTINUOUS
 10
81.700297
 20
56.303325
 11
84.290805
 21
55.707267
  0
LINE
  8
型材断面
  6
CONTINUOUS
 10
81.700297
 20
56.303325
 11
84.290805
 21
56.899382
  0
LINE
  8
型材断面
  6
CONTINUOUS
 10
84.290805
 20
56.899382
 11
84.290805
 21
55.707267
  0
LINE
  8
型材断面
  6
CONTINUOUS
 10
81.700297
 20
44.103325
 11
84.290805
 21
44.699382
  0
LINE
  8
型材断面
  6
CONTINUOUS
 10
81.700297
 20
44.103325
 11
84.290805
 21
43.507267
  0
LINE
  8
型材断面
  6
CONTINUOUS
 10
84.290805
 20
43.507267
 11
84.290805
 21
44.699382
  0
LINE
  8
型材断面
  6
CONTINUOUS
 10
-123.559958
 20
56.303325
 11
-126.150465
 21
55.707267
  0
LINE
  8
型材断面
  6
CONTINUOUS
 10
-123.559958
 20
56.303325
 11
-126.150465
 21
56.899382
  0
LINE
  8
型材断面
  6
CONTINUOUS
 10
-126.150465
 20
56.899382
 11
-126.150465
 21
55.707267
  0
LINE
  8
型材断面
  6
CONTINUOUS
 10
-123.559958
 20
44.103325
 11
-126.150465
 21
44.699382
  0
LINE
  8
型材断面
  6
CONTINUOUS
 10
-123.559958
 20
44.103325
 11
-126.150465
 21
43.507267
  0
LINE
  8
型材断面
  6
CONTINUOUS
 10
-126.150465
 20
43.507267
 11
-126.150465
 21
44.699382
  0
LINE
  8
型材断面
  6
CONTINUOUS
 10
-167.804625
 20
80.735332
 11
-121.562848
 21
80.735332
  0
LINE
  8
型材断面
  6
DASHDOT
 10
-87.823165
 20
40.203325
 11
-87.823165
 21
60.203325
  0
LINE
  8
型材断面
  6
DASHDOT
 10
-54.3765
 20
40.203325
 11
-54.3765
 21
60.203325
  0
LINE
  8
型材断面
  6
DASHDOT
 10
45.963505
 20
40.203325
 11
45.963505
 21
60.203325
  0
LINE
  8
型材断面
  6
DASHDOT
 10
12.51684
 20
40.203325
 11
12.51684
 21
60.203325
  0
LINE
  8
型材断面
  6
CONTINUOUS
 10
-86.573165
 20
41.86999
 11
-89.073165
 21
41.86999
  0
LINE
  8
型材断面
  6
CONTINUOUS
 10
-86.573165
 20
58.53666
 11
-89.073165
 21
58.53666
  0
LINE
  8
型材断面
  6
CONTINUOUS
 10
-86.573165
 20
41.86999
 11
-86.573165
 21
58.53666
  0
LINE
  8
型材断面
  6
CONTINUOUS
 10
-87.573165
 20
41.86999
 11
-87.573165
 21
58.53666
  0
LINE
  8
型材断面
  6
CONTINUOUS
 10
-88.073165
 20
41.86999
 11
-88.073165
 21
58.53666
  0
LINE
  8
型材断面
  6
CONTINUOUS
 10
-89.073165
 20
41.86999
 11
-89.073165
 21
58.53666
  0
LINE
  8
型材断面
  6
CONTINUOUS
 10
-53.1265
 20
41.86999
 11
-55.6265
 21
41.86999
  0
LINE
  8
型材断面
  6
CONTINUOUS
 10
-53.1265
 20
58.53666
 11
-55.6265
 21
58.53666
  0
LINE
  8
型材断面
  6
CONTINUOUS
 10
-53.1265
 20
41.86999
 11
-53.1265
 21
58.53666
  0
LINE
  8
型材断面
  6
CONTINUOUS
 10
-54.1265
 20
41.86999
 11
-54.1265
 21
58.53666
  0
LINE
  8
型材断面
  6
CONTINUOUS
 10
-54.6265
 20
41.86999
 11
-54.6265
 21
58.53666
  0
LINE
  8
型材断面
  6
CONTINUOUS
 10
-55.6265
 20
41.86999
 11
-55.6265
 21
58.53666
  0
LINE
  8
型材断面
  6
CONTINUOUS
 10
-19.67983
 20
41.86999
 11
-22.17983
 21
41.86999
  0
LINE
  8
型材断面
  6
CONTINUOUS
 10
-19.67983
 20
58.53666
 11
-22.17983
 21
58.53666
  0
LINE
  8
型材断面
  6
CONTINUOUS
 10
-19.67983
 20
41.86999
 11
-19.67983
 21
58.53666
  0
LINE
  8
型材断面
  6
CONTINUOUS
 10
-20.67983
 20
41.86999
 11
-20.67983
 21
58.53666
  0
LINE
  8
型材断面
  6
CONTINUOUS
 10
-21.17983
 20
41.86999
 11
-21.17983
 21
58.53666
  0
LINE
  8
型材断面
  6
CONTINUOUS
 10
-22.17983
 20
41.86999
 11
-22.17983
 21
58.53666
  0
LINE
  8
型材断面
  6
CONTINUOUS
 10
44.713505
 20
41.86999
 11
47.213505
 21
41.86999
  0
LINE
  8
型材断面
  6
CONTINUOUS
 10
44.713505
 20
58.53666
 11
47.213505
 21
58.53666
  0
LINE
  8
型材断面
  6
CONTINUOUS
 10
44.713505
 20
41.86999
 11
44.713505
 21
58.53666
  0
LINE
  8
型材断面
  6
CONTINUOUS
 10
45.713505
 20
41.86999
 11
45.713505
 21
58.53666
  0
LINE
  8
型材断面
  6
CONTINUOUS
 10
46.213505
 20
41.86999
 11
46.213505
 21
58.53666
  0
LINE
  8
型材断面
  6
CONTINUOUS
 10
47.213505
 20
41.86999
 11
47.213505
 21
58.53666
  0
LINE
  8
型材断面
  6
CONTINUOUS
 10
11.26684
 20
41.86999
 11
13.76684
 21
41.86999
  0
LINE
  8
型材断面
  6
CONTINUOUS
 10
11.26684
 20
58.53666
 11
13.76684
 21
58.53666
  0
LINE
  8
型材断面
  6
CONTINUOUS
 10
11.26684
 20
41.86999
 11
11.26684
 21
58.53666
  0
LINE
  8
型材断面
  6
CONTINUOUS
 10
12.26684
 20
41.86999
 11
12.26684
 21
58.53666
  0
LINE
  8
型材断面
  6
CONTINUOUS
 10
12.76684
 20
41.86999
 11
12.76684
 21
58.53666
  0
LINE
  8
型材断面
  6
CONTINUOUS
 10
13.76684
 20
41.86999
 11
13.76684
 21
58.53666
  0
LINE
  8
型材断面
  6
CONTINUOUS
 10
-103.959825
 20
41.036658
 11
-103.959825
 21
40.203325
  0
LINE
  8
型材断面
  6
CONTINUOUS
 10
-104.79316
 20
41.036658
 11
-104.79316
 21
40.203325
  0
LINE
  8
型材断面
  6
CONTINUOUS
 10
-120.09649
 20
41.036658
 11
-104.79316
 21
41.036658
  0
LINE
  8
型材断面
  6
CONTINUOUS
 10
-70.683165
 20
41.036658
 11
-70.683165
 21
40.203325
  0
LINE
  8
型材断面
  6
CONTINUOUS
 10
-71.5165
 20
41.036658
 11
-71.5165
 21
40.203325
  0
LINE
  8
型材断面
  6
CONTINUOUS
 10
-37.236498
 20
41.036658
 11
-37.236498
 21
40.203325
  0
LINE
  8
型材断面
  6
CONTINUOUS
 10
-38.069833
 20
41.036658
 11
-38.069833
 21
40.203325
  0
LINE
  8
型材断面
  6
CONTINUOUS
 10
-103.959825
 20
41.036658
 11
-71.5165
 21
41.036658
  0
LINE
  8
型材断面
  6
CONTINUOUS
 10
-70.683165
 20
41.036658
 11
-38.069833
 21
41.036658
  0
LINE
  8
型材断面
  6
CONTINUOUS
 10
62.100165
 20
41.036658
 11
62.100165
 21
40.203325
  0
LINE
  8
型材断面
  6
CONTINUOUS
 10
62.9335
 20
41.036658
 11
62.9335
 21
40.203325
  0
LINE
  8
型材断面
  6
CONTINUOUS
 10
78.23683
 20
41.036658
 11
62.9335
 21
41.036658
  0
LINE
  8
型材断面
  6
CONTINUOUS
 10
28.823505
 20
41.036658
 11
28.823505
 21
40.203325
  0
LINE
  8
型材断面
  6
CONTINUOUS
 10
29.65684
 20
41.036658
 11
29.65684
 21
40.203325
  0
LINE
  8
型材断面
  6
CONTINUOUS
 10
-4.623163
 20
41.036658
 11
-4.623163
 21
40.203325
  0
LINE
  8
型材断面
  6
CONTINUOUS
 10
-3.789827
 20
41.036658
 11
-3.789827
 21
40.203325
  0
LINE
  8
型材断面
  6
CONTINUOUS
 10
62.100165
 20
41.036658
 11
29.65684
 21
41.036658
  0
LINE
  8
型材断面
  6
CONTINUOUS
 10
28.823505
 20
41.036658
 11
-3.789827
 21
41.036658
  0
LINE
  8
型材断面
  6
CONTINUOUS
 10
-37.236498
 20
41.036658
 11
-4.623163
 21
41.036658
  0
LINE
  8
型材断面
  6
CONTINUOUS
 10
-103.959825
 20
59.369993
 11
-103.959825
 21
60.203325
  0
LINE
  8
型材断面
  6
CONTINUOUS
 10
-104.79316
 20
59.369993
 11
-104.79316
 21
60.203325
  0
LINE
  8
型材断面
  6
CONTINUOUS
 10
-120.09649
 20
59.369993
 11
-104.79316
 21
59.369993
  0
LINE
  8
型材断面
  6
CONTINUOUS
 10
-70.683165
 20
59.369993
 11
-70.683165
 21
60.203325
  0
LINE
  8
型材断面
  6
CONTINUOUS
 10
-71.5165
 20
59.369993
 11
-71.5165
 21
60.203325
  0
LINE
  8
型材断面
  6
CONTINUOUS
 10
-37.236498
 20
59.369993
 11
-37.236498
 21
60.203325
  0
LINE
  8
型材断面
  6
CONTINUOUS
 10
-38.069833
 20
59.369993
 11
-38.069833
 21
60.203325
  0
LINE
  8
型材断面
  6
CONTINUOUS
 10
-103.959825
 20
59.369993
 11
-71.5165
 21
59.369993
  0
LINE
  8
型材断面
  6
CONTINUOUS
 10
-70.683165
 20
59.369993
 11
-38.069833
 21
59.369993
  0
LINE
  8
型材断面
  6
CONTINUOUS
 10
62.100165
 20
59.369993
 11
62.100165
 21
60.203325
  0
LINE
  8
型材断面
  6
CONTINUOUS
 10
62.9335
 20
59.369993
 11
62.9335
 21
60.203325
  0
LINE
  8
型材断面
  6
CONTINUOUS
 10
78.23683
 20
59.369993
 11
62.9335
 21
59.369993
  0
LINE
  8
型材断面
  6
CONTINUOUS
 10
28.823505
 20
59.369993
 11
28.823505
 21
60.203325
  0
LINE
  8
型材断面
  6
CONTINUOUS
 10
29.65684
 20
59.369993
 11
29.65684
 21
60.203325
  0
LINE
  8
型材断面
  6
CONTINUOUS
 10
-4.623163
 20
59.369993
 11
-4.623163
 21
60.203325
  0
LINE
  8
型材断面
  6
CONTINUOUS
 10
-3.789827
 20
59.369993
 11
-3.789827
 21
60.203325
  0
LINE
  8
型材断面
  6
CONTINUOUS
 10
62.100165
 20
59.369993
 11
29.65684
 21
59.369993
  0
LINE
  8
型材断面
  6
CONTINUOUS
 10
28.823505
 20
59.369993
 11
-3.789827
 21
59.369993
  0
LINE
  8
型材断面
  6
CONTINUOUS
 10
-37.236498
 20
59.369993
 11
-4.623163
 21
59.369993
  0
INSERT
  2
*GRP_0016
  8
型材断面
  6
DOT
 10
0.0
 20
0.0
  0
INSERT
  2
*GRP_0017
  8
型材断面
  6
CONTINUOUS
 10
0.0
 20
0.0
  0
INSERT
  2
*GRP_0018
  8
型材断面
  6
CONTINUOUS
 10
0.0
 20
0.0
  0
INSERT
  2
*GRP_0019
  8
型材断面
  6
CONTINUOUS
 10
0.0
 20
0.0
  0
INSERT
  2
*GRP_0020
  8
型材断面
  6
CONTINUOUS
 10
0.0
 20
0.0
  0
INSERT
  2
*GRP_0021
  8
型材断面
  6
CONTINUOUS
 10
0.0
 20
0.0
  0
INSERT
  2
*GRP_0022
  8
型材断面
  6
CONTINUOUS
 10
0.0
 20
0.0
  0
LINE
  8
型材断面
  6
DASHDOT
 10
172.29227
 20
40.203325
 11
79.070162
 21
40.203325
  0
LINE
  8
型材断面
  6
DASHDOT
 10
172.29227
 20
60.203325
 11
79.070162
 21
60.203325
  0
LINE
  8
型材断面
  6
DASHDOT
 10
172.29227
 20
50.203325
 11
-120.929822
 21
50.203325
  0
POLYLINE
  8
ガラス
  6
CONTINUOUS
 66
     1
 70
     1
  0
VERTEX
  8
ガラス
 10
163.18014
 20
-51.036005
  0
VERTEX
  8
ガラス
 10
131.08014
 20
-51.036005
  0
VERTEX
  8
ガラス
 10
131.08014
 20
-70.369337
  0
VERTEX
  8
ガラス
 10
163.18014
 20
-70.369337
  0
SEQEND
  0
TEXT
  7
TextStyle03
  8
文字
  6
CONTINUOUS
 10
78.1
 20
125.25
  1
シリーズ：ＳＴＤＬ
 40
5.0
 72
     5
 11
128.1
 21
125.25
  0
TEXT
  7
TextStyle03
  8
文字
  6
CONTINUOUS
 10
78.1
 20
119.625
  1
　　　　　（上下可動）600×6000タイプ
 40
5.0
 72
     5
 11
181.5375
 21
119.625
  0
TEXT
  7
TextStyle03
  8
文字
  6
CONTINUOUS
 10
78.1
 20
114.0
  1
図面名　：外観姿図
 40
5.0
 72
     5
 11
128.1
 21
114.0
  0
TEXT
  7
TextStyle03
  8
文字
  6
CONTINUOUS
 10
78.1
 20
108.375
  1
　　　　　　
 40
5.0
 72
     5
 11
111.225
 21
108.375
  0
TEXT
  7
TextStyle03
  8
文字
  6
CONTINUOUS
 10
130.575
 20
-29.775
  1
ガラス寸法
 40
3.0
 72
     5
 11
147.075
 21
-29.775
  0
TEXT
  7
TextStyle03
  8
文字
  6
CONTINUOUS
 10
51.2
 20
-97.625
  1
※トップライト枠高さ寸法
 40
3.0
 72
     5
 11
91.325
 21
-97.625
  0
TEXT
  7
TextStyle03
  8
文字
  6
CONTINUOUS
 10
51.2
 20
-101.0
  1
　シングルガラス：214
 40
3.0
 72
     5
 11
86.45
 21
-101.0
  0
TEXT
  7
TextStyle03
  8
文字
  6
CONTINUOUS
 10
51.2
 20
-104.375
  1
　ペアガラス：224
 40
3.0
 72
     5
 11
79.7
 21
-104.375
  0
TEXT
  7
TextStyle03
  8
文字
  6
CONTINUOUS
 10
-28.875
 20
26.7
  1
可動装置側
 40
3.0
 72
     5
 11
-12.375
 21
26.7
  0
TEXT
  7
TextStyle03
  8
文字
  6
CONTINUOUS
 10
-28.875
 20
70.675
  1
可動装置側
 40
3.0
 72
     5
 11
-12.375
 21
70.675
  0
TEXT
  7
TextStyle03
  8
文字
  6
CONTINUOUS
 10
-158.975
 20
96.8
  1
はケーシング位置を示す
 40
3.0
 72
     5
 11
-122.225
 21
96.8
  0
TEXT
  7
TextStyle03
  8
文字
  6
CONTINUOUS
 10
-158.975
 20
93.425
  1
４ヶ所中1ヶ所に設定
 40
3.0
 72
     5
 11
-127.2875
 21
93.425
  0
TEXT
  7
TextStyle03
  8
文字
  6
CONTINUOUS
 10
-158.975
 20
102.325
  1
は排水穴位置を示す
 40
3.0
 72
     5
 11
-128.975
 21
102.325
  0
TEXT
  7
TextStyle03
  8
文字
  6
CONTINUOUS
 10
-141.925
 20
28.65
  1
アンカーピッチ
 40
3.0
 50
90.0
 72
     5
 11
-141.925
 21
51.9
  0
TEXT
  7
TextStyle03
  8
文字
  6
CONTINUOUS
 10
-107.5
 20
97.35
  1
アンカーピッチ
 40
3.0
 72
     5
 11
-84.25
 21
97.35
  0
TEXT
  7
TextStyle03
  8
文字
  6
CONTINUOUS
 10
-162.7
 20
87.45
  1
アンカー数量　２２ヶ所
 40
3.0
 72
     5
 11
-125.95
 21
87.45
  0
TEXT
  7
TextStyle03
  8
文字
  6
CONTINUOUS
 10
-162.75
 20
81.675
  1
アームユニット数　４～６ヶ所
 40
3.0
 72
     5
 11
-115.875
 21
81.675
  0
TEXT
  7
TextStyle03
  8
文字
  6
CONTINUOUS
 10
-167.675
 20
76.725
  1
※重量に依るのでご相談ください
 40
3.0
 72
     5
 11
-117.425
 21
76.725
  0
TEXT
  7
TextStyle03
  8
文字
  6
CONTINUOUS
 10
150.275
 20
-68.05
  1
×６枚
 40
3.0
 72
     5
 11
160.025
 21
-68.05
  0
INSERT
  2
*DIM_0006
  8
寸法
  6
CONTINUOUS
 10
0.0
 20
0.0
  0
INSERT
  2
*DIM_0007
  8
寸法
  6
CONTINUOUS
 10
0.0
 20
0.0
  0
INSERT
  2
*DIM_0008
  8
寸法
  6
CONTINUOUS
 10
0.0
 20
0.0
  0
INSERT
  2
*DIM_0009
  8
寸法
  6
CONTINUOUS
 10
0.0
 20
0.0
  0
INSERT
  2
*DIM_0010
  8
寸法
  6
CONTINUOUS
 10
0.0
 20
0.0
  0
INSERT
  2
*DIM_0011
  8
寸法
  6
CONTINUOUS
 10
0.0
 20
0.0
  0
INSERT
  2
*DIM_0023
  8
寸法
  6
CONTINUOUS
 10
0.0
 20
0.0
  0
INSERT
  2
*DIM_0024
  8
寸法
  6
CONTINUOUS
 10
0.0
 20
0.0
  0
INSERT
  2
*DIM_0025
  8
寸法
  6
CONTINUOUS
 10
0.0
 20
0.0
  0
INSERT
  2
*DIM_0026
  8
寸法
  6
CONTINUOUS
 10
0.0
 20
0.0
  0
INSERT
  2
*DIM_0027
  8
寸法
  6
CONTINUOUS
 10
0.0
 20
0.0
  0
INSERT
  2
*DIM_0028
  8
寸法
  6
CONTINUOUS
 10
0.0
 20
0.0
  0
INSERT
  2
*DIM_0029
  8
寸法
  6
CONTINUOUS
 10
0.0
 20
0.0
  0
INSERT
  2
*DIM_0030
  8
寸法
  6
CONTINUOUS
 10
0.0
 20
0.0
  0
INSERT
  2
*DIM_0031
  8
寸法
  6
CONTINUOUS
 10
0.0
 20
0.0
  0
INSERT
  2
*DIM_0032
  8
寸法
  6
CONTINUOUS
 10
0.0
 20
0.0
  0
INSERT
  2
*DIM_0033
  8
寸法
  6
CONTINUOUS
 10
0.0
 20
0.0
  0
INSERT
  2
*DIM_0034
  8
寸法
  6
CONTINUOUS
 10
0.0
 20
0.0
  0
INSERT
  2
*DIM_0035
  8
寸法
  6
CONTINUOUS
 10
0.0
 20
0.0
  0
INSERT
  2
*DIM_0036
  8
寸法
  6
CONTINUOUS
 10
0.0
 20
0.0
  0
INSERT
  2
*DIM_0037
  8
寸法
  6
CONTINUOUS
 10
0.0
 20
0.0
  0
INSERT
  2
*DIM_0042
  8
寸法
  6
CONTINUOUS
 10
0.0
 20
0.0
  0
INSERT
  2
*DIM_0043
  8
寸法
  6
CONTINUOUS
 10
0.0
 20
0.0
  0
INSERT
  2
*DIM_0044
  8
寸法
  6
CONTINUOUS
 10
0.0
 20
0.0
  0
LINE
  8
曲げ物
  6
CONTINUOUS
 10
-102.137172
 20
52.128875
 11
-105.832485
 21
48.433562
  0
LINE
  8
曲げ物
  6
CONTINUOUS
 10
-102.840643
 20
50.592765
 11
-104.296372
 21
49.137035
  0
LINE
  8
曲げ物
  6
CONTINUOUS
 10
-103.673283
 20
51.425405
 11
-105.129013
 21
49.969675
  0
LINE
  8
曲げ物
  6
CONTINUOUS
 10
-69.300972
 20
52.128875
 11
-72.996285
 21
48.433562
  0
LINE
  8
曲げ物
  6
CONTINUOUS
 10
-70.004443
 20
50.592765
 11
-71.460173
 21
49.137035
  0
LINE
  8
曲げ物
  6
CONTINUOUS
 10
-70.837082
 20
51.425405
 11
-72.292813
 21
49.969675
  0
LINE
  8
曲げ物
  6
CONTINUOUS
 10
-34.98639
 20
52.128875
 11
-38.681703
 21
48.433562
  0
LINE
  8
曲げ物
  6
CONTINUOUS
 10
-35.68986
 20
50.592765
 11
-37.14559
 21
49.137035
  0
LINE
  8
曲げ物
  6
CONTINUOUS
 10
-36.5225
 20
51.425405
 11
-37.97823
 21
49.969675
  0
LINE
  8
曲げ物
  6
CONTINUOUS
 10
-3.343682
 20
52.128875
 11
-7.038995
 21
48.433562
  0
LINE
  8
曲げ物
  6
CONTINUOUS
 10
-4.047152
 20
50.592765
 11
-5.502883
 21
49.137035
  0
LINE
  8
曲げ物
  6
CONTINUOUS
 10
-4.879792
 20
51.425405
 11
-6.335523
 21
49.969675
  0
LINE
  8
曲げ物
  6
CONTINUOUS
 10
31.483403
 20
52.128875
 11
27.78809
 21
48.433562
  0
LINE
  8
曲げ物
  6
CONTINUOUS
 10
30.779932
 20
50.592765
 11
29.324202
 21
49.137035
  0
LINE
  8
曲げ物
  6
CONTINUOUS
 10
29.947293
 20
51.425405
 11
28.491562
 21
49.969675
  0
LINE
  8
曲げ物
  6
CONTINUOUS
 10
63.7959
 20
52.128875
 11
60.100588
 21
48.433562
  0
LINE
  8
曲げ物
  6
CONTINUOUS
 10
63.09243
 20
50.592765
 11
61.6367
 21
49.137035
  0
LINE
  8
曲げ物
  6
CONTINUOUS
 10
62.25979
 20
51.425405
 11
60.80406
 21
49.969675
  0
ENDSEC
  0
EOF
