  0
SECTION
  2
HEADER
  9
$EXTMIN
 10
-210.0
 20
-148.5
  9
$EXTMAX
 10
210.0
 20
148.5
  9
$PDMODE
 70
    32
  9
$PDSIZE
 40
1.5
  9
$LTSCALE
 40
10.0
  0
ENDSEC
  0
SECTION
  2
TABLES
  0
TABLE
  2
LTYPE
 70
    15
  0
LTYPE
  2
CONTINUOUS
 70
    64
  3
実線
 72
    65
 73
     0
 40
0.0
  0
LTYPE
  2
DASHED
 70
    64
  3
破線A
 72
    65
 73
     2
 40
0.6
 49
0.4
 49
-0.2
  0
LTYPE
  2
DASHEDX2
 70
    64
  3
破線B
 72
    65
 73
     2
 40
1.3
 49
0.9
 49
-0.4
  0
LTYPE
  2
DASHDOT
 70
    64
  3
１点鎖線A
 72
    65
 73
     4
 40
0.5375
 49
0.375
 49
-0.05
 49
0.0625
 49
-0.05
  0
LTYPE
  2
DASHDOTX2
 70
    64
  3
１点鎖線B
 72
    65
 73
     4
 40
1.075
 49
0.75
 49
-0.1
 49
0.125
 49
-0.1
  0
LTYPE
  2
DIVIDE2
 70
    64
  3
２点鎖線A
 72
    65
 73
     6
 40
0.5125
 49
0.3
 49
-0.0375
 49
0.05
 49
-0.0375
 49
0.05
 49
-0.0375
  0
LTYPE
  2
DIVIDE
 70
    64
  3
２点鎖線B
 72
    65
 73
     6
 40
1.05
 49
0.55
 49
-0.1
 49
0.1
 49
-0.1
 49
0.1
 49
-0.1
  0
LTYPE
  2
DOT
 70
    64
  3
点線A
 72
    65
 73
     2
 40
0.1125
 49
0.0625
 49
-0.05
  0
LTYPE
  2
DOTX2
 70
    64
  3
点線B
 72
    65
 73
     2
 40
0.275
 49
0.15
 49
-0.125
  0
LTYPE
  2
CONTINUOUS
 70
    64
  3
実線
 72
    65
 73
     0
 40
0.0
  0
LTYPE
  2
CONTINUOUS
 70
    64
  3
実線
 72
    65
 73
     0
 40
0.0
  0
LTYPE
  2
CONTINUOUS
 70
    64
  3
実線
 72
    65
 73
     0
 40
0.0
  0
LTYPE
  2
CONTINUOUS
 70
    64
  3
実線
 72
    65
 73
     0
 40
0.0
  0
LTYPE
  2
CONTINUOUS
 70
    64
  3
実線
 72
    65
 73
     0
 40
0.0
  0
LTYPE
  2
CONTINUOUS
 70
    64
  3
実線
 72
    65
 73
     0
 40
0.0
  0
ENDTAB
  0
TABLE
  2
LAYER
 70
    34
  0
LAYER
  2
通り芯
 70
     0
 62
    15
  6
CONTINUOUS
  0
LAYER
  2
補助線
 70
     0
 62
    16
  6
DOT
  0
LAYER
  2
躯体
 70
     0
 62
    31
  6
CONTINUOUS
  0
LAYER
  2
型材
 70
     0
 62
    32
  6
CONTINUOUS
  0
LAYER
  2
型材断面
 70
     0
 62
    47
  6
CONTINUOUS
  0
LAYER
  2
ガラス
 70
     0
 62
    48
  6
CONTINUOUS
  0
LAYER
  2
ゴム等
 70
     0
 62
    63
  6
CONTINUOUS
  0
LAYER
  2
ボルト／ビス
 70
     0
 62
    64
  6
CONTINUOUS
  0
LAYER
  2
文字
 70
     0
 62
    79
  6
CONTINUOUS
  0
LAYER
  2
寸法
 70
     0
 62
    80
  6
CONTINUOUS
  0
LAYER
  2
ﾊｯﾁﾝｸﾞ
 70
     0
 62
    95
  6
CONTINUOUS
  0
LAYER
  2
別途部材
 70
     0
 62
    96
  6
CONTINUOUS
  0
LAYER
  2
曲げ物
 70
     0
 62
   111
  6
CONTINUOUS
  0
LAYER
  2
鉄骨等
 70
     0
 62
   112
  6
CONTINUOUS
  0
LAYER
  2
St
 70
     0
 62
   127
  6
CONTINUOUS
  0
LAYER
  2
その他部品等
 70
     0
 62
   128
  6
CONTINUOUS
  0
LAYER
  2
ｶﾞｽｹｯﾄ
 70
     0
 62
   143
  6
CONTINUOUS
  0
LAYER
  2
ｽｹｯﾁ
 70
     0
 62
    14
  6
CONTINUOUS
  0
LAYER
  2
0
 70
     0
 62
    17
  6
CONTINUOUS
  0
LAYER
  2
1
 70
     0
 62
    30
  6
CONTINUOUS
  0
LAYER
  2
4
 70
     0
 62
    33
  6
CONTINUOUS
  0
LAYER
  2
ﾚｲﾔ3
 70
     0
 62
    46
  6
CONTINUOUS
  0
LAYER
  2
外形線
 70
     0
 62
    49
  6
CONTINUOUS
  0
LAYER
  2
部品
 70
     0
 62
    14
  6
CONTINUOUS
  0
LAYER
  2
サッシ芯
 70
     0
 62
    17
  6
DASHDOTX2
  0
LAYER
  2
寸法線
 70
     0
 62
    62
  6
CONTINUOUS
  0
LAYER
  2
姿図外形線
 70
     0
 62
    65
  6
CONTINUOUS
  0
LAYER
  2
姿補助線
 70
     0
 62
    30
  6
CONTINUOUS
  0
LAYER
  2
透視線
 70
     0
 62
    78
  6
DOT
  0
LAYER
  2
用紙
 70
     0
 62
    81
  6
CONTINUOUS
  0
LAYER
  2
実線図枠
 70
     0
 62
    94
  6
CONTINUOUS
  0
LAYER
  2
補助図枠
 70
     0
 62
    97
  6
CONTINUOUS
  0
LAYER
  2
建具記号
 70
     0
 62
   110
  6
CONTINUOUS
  0
LAYER
  2
補助文字
 70
     0
 62
   113
  6
CONTINUOUS
  0
ENDTAB
  0
TABLE
  2
STYLE
 70
    10
  0
STYLE
  2
STANDARD
 70
     0
 40
1.0
 41
1.0
 42
1.0
 50
0.0
 71
     0
  3
TXT
  4
BIGFONT
  0
STYLE
  2
TATE
 70
     4
 40
1.0
 41
1.0
 42
1.0
 50
0.0
 71
     0
  3
TXT
  4
BIGFONT
  0
STYLE
  2
TextStyle03
 70
     0
 40
1.0
 41
1.0
 42
1.0
 50
0.0
 71
     0
  3
MONOTXT
  4
BIGFONT
  0
STYLE
  2
TextStyle04
 70
     0
 40
1.0
 41
1.0
 42
1.0
 50
0.0
 71
     0
  3
MONOTXT
  4
BIGFONT
  0
STYLE
  2
TextStyle05
 70
     0
 40
1.0
 41
1.0
 42
1.0
 50
0.0
 71
     0
  3
MONOTXT
  4
BIGFONT
  0
STYLE
  2
TextStyle06
 70
     0
 40
1.0
 41
1.0
 42
1.0
 50
0.0
 71
     0
  3
MONOTXT
  4
BIGFONT
  0
STYLE
  2
TextStyle07
 70
     0
 40
1.0
 41
1.0
 42
1.0
 50
0.0
 71
     0
  3
MONOTXT
  4
BIGFONT
  0
STYLE
  2
TextStyle08
 70
     0
 40
1.0
 41
1.0
 42
1.0
 50
0.0
 71
     0
  3
MONOTXT
  4
BIGFONT
  0
STYLE
  2
TextStyle09
 70
     0
 40
1.0
 41
1.0
 42
1.0
 50
0.0
 71
     0
  3
MONOTXT
  4
BIGFONT
  0
STYLE
  2
TextStyle10
 70
     0
 40
1.0
 41
1.0
 42
1.0
 50
0.0
 71
     0
  3
MONOTXT
  4
BIGFONT
  0
ENDTAB
  0
ENDSEC
  0
SECTION
  2
BLOCKS
  0
BLOCK
  2
*GRP_0001
 70
    65
 10
0.0
 20
0.0
  0
LINE
  8
型材断面
  6
CONTINUOUS
 10
195.0
 20
133.5
 11
195.0
 21
-133.5
  0
LINE
  8
型材断面
  6
CONTINUOUS
 10
195.0
 20
-133.5
 11
-185.0
 21
-133.5
  0
LINE
  8
型材断面
  6
CONTINUOUS
 10
-185.0
 20
-133.5
 11
-185.0
 21
133.5
  0
LINE
  8
型材断面
  6
CONTINUOUS
 10
195.0
 20
133.5
 11
-185.0
 21
133.5
  0
LINE
  8
型材断面
  6
CONTINUOUS
 10
145.0
 20
-133.5
 11
145.0
 21
-118.5
  0
LINE
  8
型材断面
  6
CONTINUOUS
 10
195.0
 20
-118.5
 11
145.0
 21
-118.5
  0
ENDBLK
  0
BLOCK
  2
*GRP_0002
 70
    65
 10
0.0
 20
0.0
  0
INSERT
  2
M8横
  8
ゴム等
  6
CONTINUOUS
 10
163.336003
 20
66.029685
 50
270.0
 41
0.033333
 42
-0.033333
  0
LINE
  8
ボルト／ビス
  6
CONTINUOUS
 10
163.126005
 20
65.896352
 11
163.109338
 21
65.91302
  0
LINE
  8
ボルト／ビス
  6
CONTINUOUS
 10
163.109338
 20
66.146352
 11
163.126005
 21
66.16302
  0
LINE
  8
ボルト／ビス
  6
CONTINUOUS
 10
163.126005
 20
66.16302
 11
163.126005
 21
65.896352
  0
LINE
  8
ボルト／ビス
  6
CONTINUOUS
 10
163.109338
 20
66.146352
 11
163.109338
 21
65.91302
  0
LINE
  8
ボルト／ビス
  6
CONTINUOUS
 10
163.109338
 20
65.91302
 11
163.15267
 21
65.91302
  0
LINE
  8
ボルト／ビス
  6
CONTINUOUS
 10
163.126005
 20
65.896352
 11
163.15267
 21
65.896352
  0
LINE
  8
ボルト／ビス
  6
CONTINUOUS
 10
163.126005
 20
66.16302
 11
163.15267
 21
66.16302
  0
LINE
  8
ボルト／ビス
  6
CONTINUOUS
 10
163.109338
 20
66.146352
 11
163.15267
 21
66.146352
  0
LINE
  8
ボルト／ビス
  6
CONTINUOUS
 10
163.336003
 20
66.396352
 11
163.336003
 21
65.66302
  0
LINE
  8
ボルト／ビス
  6
CONTINUOUS
 10
163.376002
 20
65.61302
 11
163.459335
 21
65.61302
  0
LINE
  8
ボルト／ビス
  6
CONTINUOUS
 10
163.459335
 20
65.61302
 11
163.459335
 21
66.446352
  0
LINE
  8
ボルト／ビス
  6
CONTINUOUS
 10
163.459335
 20
66.446352
 11
163.376002
 21
66.446352
  0
LINE
  8
ボルト／ビス
  6
CONTINUOUS
 10
163.376002
 20
65.61302
 11
163.376002
 21
66.446352
  0
LINE
  8
ボルト／ビス
  6
CONTINUOUS
 10
163.336003
 20
66.396352
 11
163.376002
 21
66.396352
  0
LINE
  8
ボルト／ビス
  6
CONTINUOUS
 10
163.336003
 20
65.66302
 11
163.376002
 21
65.66302
  0
LINE
  8
ボルト／ビス
  6
CONTINUOUS
 10
163.386002
 20
66.029685
 11
163.336003
 21
66.029685
  0
ENDBLK
  0
BLOCK
  2
*GRP_0003
 70
    65
 10
0.0
 20
0.0
  0
LINE
  8
ボルト／ビス
  6
CONTINUOUS
 10
162.47617
 20
66.236355
 11
162.409503
 21
66.236355
  0
LINE
  8
ボルト／ビス
  6
CONTINUOUS
 10
162.409503
 20
66.236355
 11
162.409503
 21
65.50302
  0
LINE
  8
ボルト／ビス
  6
CONTINUOUS
 10
162.409503
 20
65.50302
 11
162.47617
 21
65.50302
  0
LINE
  8
ボルト／ビス
  6
CONTINUOUS
 10
162.47617
 20
66.236355
 11
162.47617
 21
65.50302
  0
LINE
  8
ボルト／ビス
  6
CONTINUOUS
 10
162.37617
 20
66.169687
 11
162.409503
 21
66.169687
  0
LINE
  8
ボルト／ビス
  6
CONTINUOUS
 10
162.37617
 20
66.169687
 11
162.37617
 21
65.569687
  0
LINE
  8
ボルト／ビス
  6
CONTINUOUS
 10
162.37617
 20
65.569687
 11
162.409503
 21
65.569687
  0
LINE
  8
ボルト／ビス
  6
CONTINUOUS
 62
    64
 10
162.17617
 20
66.030062
 11
162.187845
 21
66.062138
  0
ARC
  8
ボルト／ビス
  6
CONTINUOUS
 62
    64
 10
162.281149
 20
66.014031
 40
0.104978
 50
180.0
 51
207.278033
  0
ARC
  8
ボルト／ビス
  6
CONTINUOUS
 62
    64
 10
162.578573
 20
65.869693
 40
0.402402
 50
166.165015
 51
193.834998
  0
LINE
  8
ボルト／ビス
  6
CONTINUOUS
 62
    64
 10
162.17617
 20
65.709312
 11
162.187845
 21
65.677238
  0
ARC
  8
ボルト／ビス
  6
CONTINUOUS
 62
    64
 10
162.281149
 20
65.725355
 40
0.104978
 50
152.721967
 51
180.0
  0
LINE
  8
ボルト／ビス
  6
CONTINUOUS
 62
    64
 10
162.17617
 20
66.030062
 11
162.17617
 21
65.709312
  0
LINE
  8
ボルト／ビス
  6
CONTINUOUS
 62
    64
 10
162.187845
 20
65.677238
 11
162.309503
 21
65.677238
  0
LINE
  8
ボルト／ビス
  6
CONTINUOUS
 62
    64
 10
162.187845
 20
65.773462
 11
162.309503
 21
65.773462
  0
LINE
  8
ボルト／ビス
  6
CONTINUOUS
 62
    64
 10
162.187845
 20
66.062138
 11
162.309503
 21
66.062138
  0
LINE
  8
ボルト／ビス
  6
CONTINUOUS
 62
    64
 10
162.187845
 20
65.965913
 11
162.309503
 21
65.965913
  0
LINE
  8
ボルト／ビス
  6
CONTINUOUS
 10
162.309503
 20
66.062138
 11
162.309503
 21
65.677238
  0
LINE
  8
ボルト／ビス
  6
CONTINUOUS
 10
162.309503
 20
66.069687
 11
162.37617
 21
66.069687
  0
LINE
  8
ボルト／ビス
  6
CONTINUOUS
 10
162.309503
 20
66.069687
 11
162.309503
 21
65.669687
  0
LINE
  8
ボルト／ビス
  6
CONTINUOUS
 10
162.309503
 20
65.669687
 11
162.37617
 21
65.669687
  0
ENDBLK
  0
BLOCK
  2
*GRP_0004
 70
    65
 10
0.0
 20
0.0
  0
INSERT
  2
M8横
  8
ゴム等
  6
CONTINUOUS
 10
163.336003
 20
34.376965
 50
90.0
 41
0.033333
 42
0.033333
  0
LINE
  8
ボルト／ビス
  6
CONTINUOUS
 10
163.126005
 20
34.5103
 11
163.109338
 21
34.493633
  0
LINE
  8
ボルト／ビス
  6
CONTINUOUS
 10
163.109338
 20
34.2603
 11
163.126005
 21
34.243633
  0
LINE
  8
ボルト／ビス
  6
CONTINUOUS
 10
163.126005
 20
34.243633
 11
163.126005
 21
34.5103
  0
LINE
  8
ボルト／ビス
  6
CONTINUOUS
 10
163.109338
 20
34.2603
 11
163.109338
 21
34.493633
  0
LINE
  8
ボルト／ビス
  6
CONTINUOUS
 10
163.109338
 20
34.493633
 11
163.15267
 21
34.493633
  0
LINE
  8
ボルト／ビス
  6
CONTINUOUS
 10
163.126005
 20
34.5103
 11
163.15267
 21
34.5103
  0
LINE
  8
ボルト／ビス
  6
CONTINUOUS
 10
163.126005
 20
34.243633
 11
163.15267
 21
34.243633
  0
LINE
  8
ボルト／ビス
  6
CONTINUOUS
 10
163.109338
 20
34.2603
 11
163.15267
 21
34.2603
  0
LINE
  8
ボルト／ビス
  6
CONTINUOUS
 10
163.336003
 20
34.0103
 11
163.336003
 21
34.743633
  0
LINE
  8
ボルト／ビス
  6
CONTINUOUS
 10
163.376002
 20
34.793633
 11
163.459335
 21
34.793633
  0
LINE
  8
ボルト／ビス
  6
CONTINUOUS
 10
163.459335
 20
34.793633
 11
163.459335
 21
33.9603
  0
LINE
  8
ボルト／ビス
  6
CONTINUOUS
 10
163.459335
 20
33.9603
 11
163.376002
 21
33.9603
  0
LINE
  8
ボルト／ビス
  6
CONTINUOUS
 10
163.376002
 20
34.793633
 11
163.376002
 21
33.9603
  0
LINE
  8
ボルト／ビス
  6
CONTINUOUS
 10
163.336003
 20
34.0103
 11
163.376002
 21
34.0103
  0
LINE
  8
ボルト／ビス
  6
CONTINUOUS
 10
163.336003
 20
34.743633
 11
163.376002
 21
34.743633
  0
LINE
  8
ボルト／ビス
  6
CONTINUOUS
 10
163.386002
 20
34.376965
 11
163.336003
 21
34.376965
  0
ENDBLK
  0
BLOCK
  2
*GRP_0005
 70
    65
 10
0.0
 20
0.0
  0
LINE
  8
ボルト／ビス
  6
CONTINUOUS
 10
162.47617
 20
34.170298
 11
162.409503
 21
34.170298
  0
LINE
  8
ボルト／ビス
  6
CONTINUOUS
 10
162.409503
 20
34.170298
 11
162.409503
 21
34.90363
  0
LINE
  8
ボルト／ビス
  6
CONTINUOUS
 10
162.409503
 20
34.90363
 11
162.47617
 21
34.90363
  0
LINE
  8
ボルト／ビス
  6
CONTINUOUS
 10
162.47617
 20
34.170298
 11
162.47617
 21
34.90363
  0
LINE
  8
ボルト／ビス
  6
CONTINUOUS
 10
162.37617
 20
34.236965
 11
162.409503
 21
34.236965
  0
LINE
  8
ボルト／ビス
  6
CONTINUOUS
 10
162.37617
 20
34.236965
 11
162.37617
 21
34.836965
  0
LINE
  8
ボルト／ビス
  6
CONTINUOUS
 10
162.37617
 20
34.836965
 11
162.409503
 21
34.836965
  0
LINE
  8
ボルト／ビス
  6
CONTINUOUS
 62
    64
 10
162.17617
 20
34.37659
 11
162.187845
 21
34.344515
  0
ARC
  8
ボルト／ビス
  6
CONTINUOUS
 62
    64
 10
162.281149
 20
34.392632
 40
0.104978
 50
152.721967
 51
180.0
  0
ARC
  8
ボルト／ビス
  6
CONTINUOUS
 62
    64
 10
162.578573
 20
34.536969
 40
0.402402
 50
166.165002
 51
193.834985
  0
LINE
  8
ボルト／ビス
  6
CONTINUOUS
 62
    64
 10
162.17617
 20
34.69734
 11
162.187845
 21
34.729415
  0
ARC
  8
ボルト／ビス
  6
CONTINUOUS
 62
    64
 10
162.281149
 20
34.681307
 40
0.104978
 50
180.0
 51
207.278033
  0
LINE
  8
ボルト／ビス
  6
CONTINUOUS
 62
    64
 10
162.17617
 20
34.37659
 11
162.17617
 21
34.69734
  0
LINE
  8
ボルト／ビス
  6
CONTINUOUS
 62
    64
 10
162.187845
 20
34.729415
 11
162.309503
 21
34.729415
  0
LINE
  8
ボルト／ビス
  6
CONTINUOUS
 62
    64
 10
162.187845
 20
34.63319
 11
162.309503
 21
34.63319
  0
LINE
  8
ボルト／ビス
  6
CONTINUOUS
 62
    64
 10
162.187845
 20
34.344515
 11
162.309503
 21
34.344515
  0
LINE
  8
ボルト／ビス
  6
CONTINUOUS
 62
    64
 10
162.187845
 20
34.44074
 11
162.309503
 21
34.44074
  0
LINE
  8
ボルト／ビス
  6
CONTINUOUS
 10
162.309503
 20
34.344515
 11
162.309503
 21
34.729415
  0
LINE
  8
ボルト／ビス
  6
CONTINUOUS
 10
162.309503
 20
34.336965
 11
162.37617
 21
34.336965
  0
LINE
  8
ボルト／ビス
  6
CONTINUOUS
 10
162.309503
 20
34.336965
 11
162.309503
 21
34.736965
  0
LINE
  8
ボルト／ビス
  6
CONTINUOUS
 10
162.309503
 20
34.736965
 11
162.37617
 21
34.736965
  0
ENDBLK
  0
BLOCK
  2
*DIM_0006
 70
    65
 10
0.0
 20
0.0
  0
LINE
  8
寸法
  6
CONTINUOUS
 10
161.248695
 20
32.92363
 11
142.14273
 21
32.92363
  0
LINE
  8
寸法
  6
CONTINUOUS
 10
142.14273
 20
35.203325
 11
142.14273
 21
32.92363
  0
POINT
  8
寸法
 10
142.14273
 20
35.203325
  0
POINT
  8
寸法
 10
142.14273
 20
32.92363
  0
TEXT
  7
TextStyle03
  8
寸法
  6
CONTINUOUS
 10
141.75
 20
24.01875
  1
68.4
 40
3.0
 50
90.0
 72
     5
 11
141.75
 21
30.58125
  0
ENDBLK
  0
BLOCK
  2
*DIM_0007
 70
    65
 10
0.0
 20
0.0
  0
LINE
  8
寸法
  6
CONTINUOUS
 10
142.14273
 20
65.203325
 11
142.14273
 21
35.203325
  0
POINT
  8
寸法
 10
142.14273
 20
65.203325
  0
POINT
  8
寸法
 10
142.14273
 20
35.203325
  0
TEXT
  7
TextStyle03
  8
寸法
  6
CONTINUOUS
 10
141.75
 20
39.325
  1
呼称寸法　900
 40
3.0
 50
90.0
 72
     5
 11
141.75
 21
61.075
  0
ENDBLK
  0
BLOCK
  2
*DIM_0008
 70
    65
 10
0.0
 20
0.0
  0
LINE
  8
寸法
  6
CONTINUOUS
 10
161.248695
 20
67.48302
 11
142.14273
 21
67.48302
  0
LINE
  8
寸法
  6
CONTINUOUS
 10
142.14273
 20
65.203325
 11
142.14273
 21
67.48302
  0
POINT
  8
寸法
 10
142.14273
 20
65.203325
  0
POINT
  8
寸法
 10
142.14273
 20
67.48302
  0
TEXT
  7
TextStyle03
  8
寸法
  6
CONTINUOUS
 10
141.75
 20
69.79375
  1
68.4
 40
3.0
 50
90.0
 72
     5
 11
141.75
 21
76.35625
  0
ENDBLK
  0
BLOCK
  2
*DIM_0009
 70
    65
 10
0.0
 20
0.0
  0
LINE
  8
寸法
  6
CONTINUOUS
 10
169.209335
 20
28.236965
 11
169.209335
 21
20.327945
  0
LINE
  8
寸法
  6
CONTINUOUS
 10
161.742835
 20
30.203325
 11
161.742835
 21
20.327945
  0
LINE
  8
寸法
  6
CONTINUOUS
 10
169.209335
 20
20.327945
 11
161.742835
 21
20.327945
  0
POINT
  8
寸法
 10
169.209335
 20
20.327945
  0
POINT
  8
寸法
 10
161.742835
 20
20.327945
  0
TEXT
  7
TextStyle03
  8
寸法
  6
CONTINUOUS
 10
163.0375
 20
20.7
  1
224
 40
3.0
 72
     5
 11
167.9125
 21
20.7
  0
ENDBLK
  0
BLOCK
  2
*GRP_0010
 70
    65
 10
0.0
 20
0.0
  0
INSERT
  2
M8横
  8
ゴム等
  6
CONTINUOUS
 10
21.563192
 20
-70.297288
 50
180.0
 41
0.033333
 42
-0.033333
  0
LINE
  8
ボルト／ビス
  6
CONTINUOUS
 10
21.42986
 20
-70.087288
 11
21.446525
 21
-70.070622
  0
LINE
  8
ボルト／ビス
  6
CONTINUOUS
 10
21.67986
 20
-70.070622
 11
21.696525
 21
-70.087288
  0
LINE
  8
ボルト／ビス
  6
CONTINUOUS
 10
21.696525
 20
-70.087288
 11
21.42986
 21
-70.087288
  0
LINE
  8
ボルト／ビス
  6
CONTINUOUS
 10
21.67986
 20
-70.070622
 11
21.446525
 21
-70.070622
  0
LINE
  8
ボルト／ビス
  6
CONTINUOUS
 10
21.446525
 20
-70.070622
 11
21.446525
 21
-70.113952
  0
LINE
  8
ボルト／ビス
  6
CONTINUOUS
 10
21.42986
 20
-70.087288
 11
21.42986
 21
-70.113952
  0
LINE
  8
ボルト／ビス
  6
CONTINUOUS
 10
21.696525
 20
-70.087288
 11
21.696525
 21
-70.113952
  0
LINE
  8
ボルト／ビス
  6
CONTINUOUS
 10
21.67986
 20
-70.070622
 11
21.67986
 21
-70.113952
  0
LINE
  8
ボルト／ビス
  6
CONTINUOUS
 10
21.92986
 20
-70.297288
 11
21.196525
 21
-70.297288
  0
LINE
  8
ボルト／ビス
  6
CONTINUOUS
 10
21.146525
 20
-70.337288
 11
21.146525
 21
-70.42062
  0
LINE
  8
ボルト／ビス
  6
CONTINUOUS
 10
21.146525
 20
-70.42062
 11
21.97986
 21
-70.42062
  0
LINE
  8
ボルト／ビス
  6
CONTINUOUS
 10
21.97986
 20
-70.42062
 11
21.97986
 21
-70.337288
  0
LINE
  8
ボルト／ビス
  6
CONTINUOUS
 10
21.146525
 20
-70.337288
 11
21.97986
 21
-70.337288
  0
LINE
  8
ボルト／ビス
  6
CONTINUOUS
 10
21.92986
 20
-70.297288
 11
21.92986
 21
-70.337288
  0
LINE
  8
ボルト／ビス
  6
CONTINUOUS
 10
21.196525
 20
-70.297288
 11
21.196525
 21
-70.337288
  0
LINE
  8
ボルト／ビス
  6
CONTINUOUS
 10
21.563192
 20
-70.347288
 11
21.563192
 21
-70.297288
  0
ENDBLK
  0
BLOCK
  2
*GRP_0011
 70
    65
 10
0.0
 20
0.0
  0
LINE
  8
ボルト／ビス
  6
CONTINUOUS
 10
21.76986
 20
-69.437453
 11
21.76986
 21
-69.370788
  0
LINE
  8
ボルト／ビス
  6
CONTINUOUS
 10
21.76986
 20
-69.370788
 11
21.036528
 21
-69.370788
  0
LINE
  8
ボルト／ビス
  6
CONTINUOUS
 10
21.036528
 20
-69.370788
 11
21.036528
 21
-69.437453
  0
LINE
  8
ボルト／ビス
  6
CONTINUOUS
 10
21.76986
 20
-69.437453
 11
21.036528
 21
-69.437453
  0
LINE
  8
ボルト／ビス
  6
CONTINUOUS
 10
21.703195
 20
-69.337453
 11
21.703195
 21
-69.370788
  0
LINE
  8
ボルト／ビス
  6
CONTINUOUS
 10
21.703195
 20
-69.337453
 11
21.103195
 21
-69.337453
  0
LINE
  8
ボルト／ビス
  6
CONTINUOUS
 10
21.103195
 20
-69.337453
 11
21.103195
 21
-69.370788
  0
LINE
  8
ボルト／ビス
  6
CONTINUOUS
 62
    64
 10
21.56357
 20
-69.137453
 11
21.595645
 21
-69.149128
  0
ARC
  8
ボルト／ビス
  6
CONTINUOUS
 62
    64
 10
21.547531
 20
-69.242431
 40
0.104978
 50
90.0
 51
117.278033
  0
ARC
  8
ボルト／ビス
  6
CONTINUOUS
 62
    64
 10
21.403194
 20
-69.539855
 40
0.402402
 50
76.165015
 51
103.834998
  0
LINE
  8
ボルト／ビス
  6
CONTINUOUS
 62
    64
 10
21.24282
 20
-69.137453
 11
21.210745
 21
-69.149128
  0
ARC
  8
ボルト／ビス
  6
CONTINUOUS
 62
    64
 10
21.258856
 20
-69.242431
 40
0.104978
 50
62.721967
 51
90.0
  0
LINE
  8
ボルト／ビス
  6
CONTINUOUS
 62
    64
 10
21.56357
 20
-69.137453
 11
21.24282
 21
-69.137453
  0
LINE
  8
ボルト／ビス
  6
CONTINUOUS
 62
    64
 10
21.210745
 20
-69.149128
 11
21.210745
 21
-69.270788
  0
LINE
  8
ボルト／ビス
  6
CONTINUOUS
 62
    64
 10
21.30697
 20
-69.149128
 11
21.30697
 21
-69.270788
  0
LINE
  8
ボルト／ビス
  6
CONTINUOUS
 62
    64
 10
21.595645
 20
-69.149128
 11
21.595645
 21
-69.270788
  0
LINE
  8
ボルト／ビス
  6
CONTINUOUS
 62
    64
 10
21.49942
 20
-69.149128
 11
21.49942
 21
-69.270788
  0
LINE
  8
ボルト／ビス
  6
CONTINUOUS
 10
21.595645
 20
-69.270788
 11
21.210745
 21
-69.270788
  0
LINE
  8
ボルト／ビス
  6
CONTINUOUS
 10
21.603195
 20
-69.270788
 11
21.603195
 21
-69.337453
  0
LINE
  8
ボルト／ビス
  6
CONTINUOUS
 10
21.603195
 20
-69.270788
 11
21.203195
 21
-69.270788
  0
LINE
  8
ボルト／ビス
  6
CONTINUOUS
 10
21.203195
 20
-69.270788
 11
21.203195
 21
-69.337453
  0
ENDBLK
  0
BLOCK
  2
*DIM_0012
 70
    65
 10
0.0
 20
0.0
  0
LINE
  8
寸法
  6
CONTINUOUS
 10
25.736832
 20
-68.70412
 11
44.355305
 21
-68.70412
  0
LINE
  8
寸法
  6
CONTINUOUS
 10
27.703195
 20
-76.17062
 11
44.355305
 21
-76.17062
  0
LINE
  8
寸法
  6
CONTINUOUS
 10
44.355305
 20
-68.70412
 11
44.355305
 21
-76.17062
  0
POINT
  8
寸法
 10
44.355305
 20
-68.70412
  0
POINT
  8
寸法
 10
44.355305
 20
-76.17062
  0
TEXT
  7
TextStyle03
  8
寸法
  6
CONTINUOUS
 10
43.975
 20
-74.8875
  1
224
 40
3.0
 50
90.0
 72
     5
 11
43.975
 21
-70.0125
  0
ENDBLK
  0
BLOCK
  2
*GRP_0013
 70
    65
 10
0.0
 20
0.0
  0
INSERT
  2
M8横
  8
ゴム等
  6
CONTINUOUS
 10
-96.756188
 20
-70.297288
 41
0.033333
 42
0.033333
  0
LINE
  8
ボルト／ビス
  6
CONTINUOUS
 10
-96.622855
 20
-70.087288
 11
-96.63952
 21
-70.070622
  0
LINE
  8
ボルト／ビス
  6
CONTINUOUS
 10
-96.872855
 20
-70.070622
 11
-96.88952
 21
-70.087288
  0
LINE
  8
ボルト／ビス
  6
CONTINUOUS
 10
-96.88952
 20
-70.087288
 11
-96.622855
 21
-70.087288
  0
LINE
  8
ボルト／ビス
  6
CONTINUOUS
 10
-96.872855
 20
-70.070622
 11
-96.63952
 21
-70.070622
  0
LINE
  8
ボルト／ビス
  6
CONTINUOUS
 10
-96.63952
 20
-70.070622
 11
-96.63952
 21
-70.113952
  0
LINE
  8
ボルト／ビス
  6
CONTINUOUS
 10
-96.622855
 20
-70.087288
 11
-96.622855
 21
-70.113952
  0
LINE
  8
ボルト／ビス
  6
CONTINUOUS
 10
-96.88952
 20
-70.087288
 11
-96.88952
 21
-70.113952
  0
LINE
  8
ボルト／ビス
  6
CONTINUOUS
 10
-96.872855
 20
-70.070622
 11
-96.872855
 21
-70.113952
  0
LINE
  8
ボルト／ビス
  6
CONTINUOUS
 10
-97.122855
 20
-70.297288
 11
-96.38952
 21
-70.297288
  0
LINE
  8
ボルト／ビス
  6
CONTINUOUS
 10
-96.33952
 20
-70.337288
 11
-96.33952
 21
-70.42062
  0
LINE
  8
ボルト／ビス
  6
CONTINUOUS
 10
-96.33952
 20
-70.42062
 11
-97.172855
 21
-70.42062
  0
LINE
  8
ボルト／ビス
  6
CONTINUOUS
 10
-97.172855
 20
-70.42062
 11
-97.172855
 21
-70.337288
  0
LINE
  8
ボルト／ビス
  6
CONTINUOUS
 10
-96.33952
 20
-70.337288
 11
-97.172855
 21
-70.337288
  0
LINE
  8
ボルト／ビス
  6
CONTINUOUS
 10
-97.122855
 20
-70.297288
 11
-97.122855
 21
-70.337288
  0
LINE
  8
ボルト／ビス
  6
CONTINUOUS
 10
-96.38952
 20
-70.297288
 11
-96.38952
 21
-70.337288
  0
LINE
  8
ボルト／ビス
  6
CONTINUOUS
 10
-96.756188
 20
-70.347288
 11
-96.756188
 21
-70.297288
  0
ENDBLK
  0
BLOCK
  2
*GRP_0014
 70
    65
 10
0.0
 20
0.0
  0
LINE
  8
ボルト／ビス
  6
CONTINUOUS
 10
-96.962855
 20
-69.437453
 11
-96.962855
 21
-69.370788
  0
LINE
  8
ボルト／ビス
  6
CONTINUOUS
 10
-96.962855
 20
-69.370788
 11
-96.229522
 21
-69.370788
  0
LINE
  8
ボルト／ビス
  6
CONTINUOUS
 10
-96.229522
 20
-69.370788
 11
-96.229522
 21
-69.437453
  0
LINE
  8
ボルト／ビス
  6
CONTINUOUS
 10
-96.962855
 20
-69.437453
 11
-96.229522
 21
-69.437453
  0
LINE
  8
ボルト／ビス
  6
CONTINUOUS
 10
-96.89619
 20
-69.337453
 11
-96.89619
 21
-69.370788
  0
LINE
  8
ボルト／ビス
  6
CONTINUOUS
 10
-96.89619
 20
-69.337453
 11
-96.29619
 21
-69.337453
  0
LINE
  8
ボルト／ビス
  6
CONTINUOUS
 10
-96.29619
 20
-69.337453
 11
-96.29619
 21
-69.370788
  0
LINE
  8
ボルト／ビス
  6
CONTINUOUS
 62
    64
 10
-96.756565
 20
-69.137453
 11
-96.78864
 21
-69.149128
  0
ARC
  8
ボルト／ビス
  6
CONTINUOUS
 62
    64
 10
-96.740528
 20
-69.242431
 40
0.104978
 50
62.721967
 51
90.0
  0
ARC
  8
ボルト／ビス
  6
CONTINUOUS
 62
    64
 10
-96.59619
 20
-69.539855
 40
0.402402
 50
76.165002
 51
103.834985
  0
LINE
  8
ボルト／ビス
  6
CONTINUOUS
 62
    64
 10
-96.435815
 20
-69.137453
 11
-96.40374
 21
-69.149128
  0
ARC
  8
ボルト／ビス
  6
CONTINUOUS
 62
    64
 10
-96.451853
 20
-69.242431
 40
0.104978
 50
90.0
 51
117.278033
  0
LINE
  8
ボルト／ビス
  6
CONTINUOUS
 62
    64
 10
-96.756565
 20
-69.137453
 11
-96.435815
 21
-69.137453
  0
LINE
  8
ボルト／ビス
  6
CONTINUOUS
 62
    64
 10
-96.40374
 20
-69.149128
 11
-96.40374
 21
-69.270788
  0
LINE
  8
ボルト／ビス
  6
CONTINUOUS
 62
    64
 10
-96.499965
 20
-69.149128
 11
-96.499965
 21
-69.270788
  0
LINE
  8
ボルト／ビス
  6
CONTINUOUS
 62
    64
 10
-96.78864
 20
-69.149128
 11
-96.78864
 21
-69.270788
  0
LINE
  8
ボルト／ビス
  6
CONTINUOUS
 62
    64
 10
-96.692415
 20
-69.149128
 11
-96.692415
 21
-69.270788
  0
LINE
  8
ボルト／ビス
  6
CONTINUOUS
 10
-96.78864
 20
-69.270788
 11
-96.40374
 21
-69.270788
  0
LINE
  8
ボルト／ビス
  6
CONTINUOUS
 10
-96.79619
 20
-69.270788
 11
-96.79619
 21
-69.337453
  0
LINE
  8
ボルト／ビス
  6
CONTINUOUS
 10
-96.79619
 20
-69.270788
 11
-96.39619
 21
-69.270788
  0
LINE
  8
ボルト／ビス
  6
CONTINUOUS
 10
-96.39619
 20
-69.270788
 11
-96.39619
 21
-69.337453
  0
ENDBLK
  0
BLOCK
  2
*DIM_0015
 70
    65
 10
0.0
 20
0.0
  0
LINE
  8
寸法
  6
BYBLOCK
 62
     0
 10
-79.263165
 20
31.573195
 11
-79.263165
 21
26.38995
  0
LINE
  8
寸法
  6
BYBLOCK
 62
     0
 10
4.07017
 20
31.573195
 11
4.07017
 21
26.38995
  0
LINE
  8
寸法
  6
BYBLOCK
 62
     0
 10
-79.263165
 20
26.38995
 11
4.07017
 21
26.38995
  0
POINT
  8
寸法
 62
     0
 10
-79.263165
 20
26.38995
  0
POINT
  8
寸法
 62
     0
 10
4.07017
 20
26.38995
  0
TEXT
  7
TextStyle03
  8
寸法
  6
CONTINUOUS
 62
     0
 10
-40.88125
 20
26.75
  1
2500
 40
3.0
 72
     5
 11
-34.31875
 21
26.75
  0
ENDBLK
  0
BLOCK
  2
*DIM_0016
 70
    65
 10
0.0
 20
0.0
  0
LINE
  8
寸法
  6
BYBLOCK
 62
     0
 10
24.366963
 20
61.303325
 11
31.144255
 21
61.303325
  0
LINE
  8
寸法
  6
BYBLOCK
 62
     0
 10
31.144255
 20
65.203325
 11
31.144255
 21
61.303325
  0
POINT
  8
寸法
 62
     0
 10
31.144255
 20
65.203325
  0
POINT
  8
寸法
 62
     0
 10
31.144255
 20
61.303325
  0
TEXT
  7
TextStyle03
  8
寸法
  6
CONTINUOUS
 62
     0
 10
30.85
 20
65.8625
  1
117
 40
3.0
 50
90.0
 72
     5
 11
30.85
 21
70.7375
  0
ENDBLK
  0
BLOCK
  2
*DIM_0017
 70
    65
 10
0.0
 20
0.0
  0
LINE
  8
寸法
  6
BYBLOCK
 62
     0
 10
24.366963
 20
39.103325
 11
31.144255
 21
39.103325
  0
LINE
  8
寸法
  6
BYBLOCK
 62
     0
 10
31.144255
 20
35.203325
 11
31.144255
 21
39.103325
  0
POINT
  8
寸法
 62
     0
 10
31.144255
 20
35.203325
  0
POINT
  8
寸法
 62
     0
 10
31.144255
 20
39.103325
  0
TEXT
  7
TextStyle03
  8
寸法
  6
CONTINUOUS
 62
     0
 10
31.225
 20
29.5875
  1
117
 40
3.0
 50
90.0
 72
     5
 11
31.225
 21
34.4625
  0
ENDBLK
  0
BLOCK
  2
*DIM_0018
 70
    65
 10
0.0
 20
0.0
  0
LINE
  8
寸法
  6
BYBLOCK
 62
     0
 10
-98.929832
 20
60.203325
 11
-112.22267
 21
60.203325
  0
LINE
  8
寸法
  6
BYBLOCK
 62
     0
 10
-98.929832
 20
40.203325
 11
-112.22267
 21
40.203325
  0
LINE
  8
寸法
  6
BYBLOCK
 62
     0
 10
-112.22267
 20
60.203325
 11
-112.22267
 21
40.203325
  0
POINT
  8
寸法
 62
     0
 10
-112.22267
 20
60.203325
  0
POINT
  8
寸法
 62
     0
 10
-112.22267
 20
40.203325
  0
TEXT
  7
TextStyle03
  8
寸法
  6
CONTINUOUS
 62
     0
 10
-112.6
 20
47.7375
  1
600
 40
3.0
 50
90.0
 72
     5
 11
-112.6
 21
52.6125
  0
ENDBLK
  0
BLOCK
  2
*DIM_0019
 70
    65
 10
0.0
 20
0.0
  0
LINE
  8
寸法
  6
BYBLOCK
 62
     0
 10
-90.92983
 20
68.203325
 11
-90.92983
 21
97.311398
  0
LINE
  8
寸法
  6
BYBLOCK
 62
     0
 10
-64.263165
 20
68.203325
 11
-64.263165
 21
97.311398
  0
LINE
  8
寸法
  6
BYBLOCK
 62
     0
 10
-90.92983
 20
97.311398
 11
-64.263165
 21
97.311398
  0
POINT
  8
寸法
 62
     0
 10
-90.92983
 20
97.311398
  0
POINT
  8
寸法
 62
     0
 10
-64.263165
 20
97.311398
  0
TEXT
  7
TextStyle03
  8
寸法
  6
CONTINUOUS
 62
     0
 10
-80.0375
 20
97.675
  1
800
 40
3.0
 72
     5
 11
-75.1625
 21
97.675
  0
ENDBLK
  0
BLOCK
  2
*DIM_0020
 70
    65
 10
0.0
 20
0.0
  0
LINE
  8
寸法
  6
BYBLOCK
 62
     0
 10
-37.596497
 20
68.203325
 11
-37.596497
 21
97.311398
  0
LINE
  8
寸法
  6
BYBLOCK
 62
     0
 10
-64.263165
 20
97.311398
 11
-37.596497
 21
97.311398
  0
POINT
  8
寸法
 62
     0
 10
-37.596497
 20
97.311398
  0
TEXT
  7
TextStyle03
  8
寸法
  6
CONTINUOUS
 62
     0
 10
-53.3875
 20
97.675
  1
800
 40
3.0
 72
     5
 11
-48.5125
 21
97.675
  0
ENDBLK
  0
BLOCK
  2
*DIM_0021
 70
    65
 10
0.0
 20
0.0
  0
LINE
  8
寸法
  6
BYBLOCK
 62
     0
 10
-10.92983
 20
68.203325
 11
-10.92983
 21
97.311398
  0
LINE
  8
寸法
  6
BYBLOCK
 62
     0
 10
-37.596497
 20
97.311398
 11
-10.92983
 21
97.311398
  0
POINT
  8
寸法
 62
     0
 10
-10.92983
 20
97.311398
  0
TEXT
  7
TextStyle03
  8
寸法
  6
CONTINUOUS
 62
     0
 10
-26.7125
 20
97.675
  1
800
 40
3.0
 72
     5
 11
-21.8375
 21
97.675
  0
ENDBLK
  0
BLOCK
  2
*DIM_0022
 70
    65
 10
0.0
 20
0.0
  0
LINE
  8
寸法
  6
BYBLOCK
 62
     0
 10
15.736835
 20
68.203325
 11
15.736835
 21
97.311398
  0
LINE
  8
寸法
  6
BYBLOCK
 62
     0
 10
-10.92983
 20
97.311398
 11
15.736835
 21
97.311398
  0
POINT
  8
寸法
 62
     0
 10
15.736835
 20
97.311398
  0
TEXT
  7
TextStyle03
  8
寸法
  6
CONTINUOUS
 62
     0
 10
-0.0375
 20
97.675
  1
800
 40
3.0
 72
     5
 11
4.8375
 21
97.675
  0
ENDBLK
  0
BLOCK
  2
*GRP_0023
 70
    65
 10
0.0
 20
0.0
  0
LINE
  8
型材断面
  6
DOT
 10
22.4035
 20
-58.270785
 11
22.3535
 21
-58.270785
  0
LINE
  8
型材断面
  6
DOT
 10
20.736832
 20
-57.770785
 11
20.736832
 21
-57.037453
  0
LINE
  8
型材断面
  6
DOT
 10
20.786528
 20
-58.753953
 11
22.233195
 21
-58.753953
  0
LINE
  8
型材断面
  6
DOT
 10
22.233195
 20
-59.203953
 11
22.233195
 21
-58.753953
  0
LINE
  8
型材断面
  6
DOT
 62
    47
 10
22.966527
 20
-61.876645
 11
23.016527
 21
-61.876645
  0
LINE
  8
型材断面
  6
DOT
 62
    47
 10
23.016527
 20
-61.876645
 11
23.016527
 21
-61.54331
  0
LINE
  8
型材断面
  6
DOT
 62
    47
 10
23.016527
 20
-61.54331
 11
22.233195
 21
-61.44331
  0
LINE
  8
型材断面
  6
DOT
 62
    47
 10
22.233195
 20
-61.037285
 11
22.233195
 21
-61.44331
  0
LINE
  8
型材断面
  6
DOT
 62
    47
 10
22.703195
 20
-61.037285
 11
22.703195
 21
-59.203953
  0
LINE
  8
型材断面
  6
DOT
 10
22.4035
 20
-58.270785
 11
22.4035
 21
-57.770785
  0
LINE
  8
型材断面
  6
DOT
 10
20.786528
 20
-58.753953
 11
20.786528
 21
-58.270785
  0
INSERT
  2
*GRP_0024
  8
型材断面
  6
DOT
 10
0.0
 20
0.0
  0
INSERT
  2
*GRP_0025
  8
型材断面
  6
DOT
 10
0.0
 20
0.0
  0
LINE
  8
型材断面
  6
DOT
 10
23.016527
 20
-61.876645
 11
-37.596497
 21
-61.876645
  0
LINE
  8
型材断面
  6
DOT
 10
23.016527
 20
-61.54331
 11
-37.596497
 21
-61.54331
  0
LINE
  8
型材断面
  6
DOT
 10
22.233195
 20
-61.44331
 11
-37.596497
 21
-61.44331
  0
LINE
  8
型材断面
  6
DOT
 10
22.703195
 20
-61.037285
 11
-37.596497
 21
-61.037285
  0
LINE
  8
型材断面
  6
DOT
 10
22.4035
 20
-58.270785
 11
-37.596497
 21
-58.270785
  0
LINE
  8
型材断面
  6
DOT
 10
20.736832
 20
-57.037453
 11
-37.596497
 21
-57.037453
  0
LINE
  8
型材断面
  6
DOT
 10
22.4035
 20
-57.770785
 11
-37.596497
 21
-57.770785
  0
LINE
  8
型材断面
  6
DOT
 10
22.233195
 20
-58.753953
 11
-37.596497
 21
-58.753953
  0
LINE
  8
型材断面
  6
DOT
 10
22.703195
 20
-59.203953
 11
-37.596497
 21
-59.203953
  0
LINE
  8
型材断面
  6
DOT
 10
-97.596495
 20
-58.270785
 11
-97.546495
 21
-58.270785
  0
LINE
  8
型材断面
  6
DOT
 10
-95.929828
 20
-57.770785
 11
-95.929828
 21
-57.037453
  0
LINE
  8
型材断面
  6
DOT
 10
-95.979522
 20
-58.753953
 11
-97.42619
 21
-58.753953
  0
LINE
  8
型材断面
  6
DOT
 10
-97.42619
 20
-59.203953
 11
-97.42619
 21
-58.753953
  0
LINE
  8
型材断面
  6
DOT
 62
    47
 10
-98.159523
 20
-61.876645
 11
-98.209523
 21
-61.876645
  0
LINE
  8
型材断面
  6
DOT
 62
    47
 10
-98.209523
 20
-61.876645
 11
-98.209523
 21
-61.54331
  0
LINE
  8
型材断面
  6
DOT
 62
    47
 10
-98.209523
 20
-61.54331
 11
-97.42619
 21
-61.44331
  0
LINE
  8
型材断面
  6
DOT
 62
    47
 10
-97.42619
 20
-61.037285
 11
-97.42619
 21
-61.44331
  0
LINE
  8
型材断面
  6
DOT
 62
    47
 10
-97.89619
 20
-61.037285
 11
-97.89619
 21
-59.203953
  0
LINE
  8
型材断面
  6
DOT
 10
-97.596495
 20
-58.270785
 11
-97.596495
 21
-57.770785
  0
LINE
  8
型材断面
  6
DOT
 10
-95.979522
 20
-58.753953
 11
-95.979522
 21
-58.270785
  0
INSERT
  2
*GRP_0026
  8
型材断面
  6
DOT
 10
0.0
 20
0.0
  0
INSERT
  2
*GRP_0027
  8
型材断面
  6
DOT
 10
0.0
 20
0.0
  0
LINE
  8
型材断面
  6
DOT
 10
-98.209523
 20
-61.876645
 11
-37.596497
 21
-61.876645
  0
LINE
  8
型材断面
  6
DOT
 10
-98.209523
 20
-61.54331
 11
-37.596497
 21
-61.54331
  0
LINE
  8
型材断面
  6
DOT
 10
-97.42619
 20
-61.44331
 11
-37.596497
 21
-61.44331
  0
LINE
  8
型材断面
  6
DOT
 10
-97.89619
 20
-61.037285
 11
-37.596497
 21
-61.037285
  0
LINE
  8
型材断面
  6
DOT
 10
-97.596495
 20
-58.270785
 11
-37.596497
 21
-58.270785
  0
LINE
  8
型材断面
  6
DOT
 10
-95.929828
 20
-57.037453
 11
-37.596497
 21
-57.037453
  0
LINE
  8
型材断面
  6
DOT
 10
-97.596495
 20
-57.770785
 11
-37.596497
 21
-57.770785
  0
LINE
  8
型材断面
  6
DOT
 10
-97.42619
 20
-58.753953
 11
-37.596497
 21
-58.753953
  0
LINE
  8
型材断面
  6
DOT
 10
-97.89619
 20
-59.203953
 11
-37.596497
 21
-59.203953
  0
ENDBLK
  0
BLOCK
  2
*GRP_0024
 70
    65
 10
0.0
 20
0.0
  0
INSERT
  2
M8横
  8
ゴム等
  6
DOT
 10
21.563192
 20
-58.63062
 50
180.0
 41
0.033333
 42
-0.033333
  0
LINE
  8
ボルト／ビス
  6
DOT
 10
21.42986
 20
-58.42062
 11
21.446525
 21
-58.403955
  0
LINE
  8
ボルト／ビス
  6
DOT
 10
21.67986
 20
-58.403955
 11
21.696525
 21
-58.42062
  0
LINE
  8
ボルト／ビス
  6
DOT
 10
21.696525
 20
-58.42062
 11
21.42986
 21
-58.42062
  0
LINE
  8
ボルト／ビス
  6
DOT
 10
21.67986
 20
-58.403955
 11
21.446525
 21
-58.403955
  0
LINE
  8
ボルト／ビス
  6
DOT
 10
21.446525
 20
-58.403955
 11
21.446525
 21
-58.447285
  0
LINE
  8
ボルト／ビス
  6
DOT
 10
21.42986
 20
-58.42062
 11
21.42986
 21
-58.447285
  0
LINE
  8
ボルト／ビス
  6
DOT
 10
21.696525
 20
-58.42062
 11
21.696525
 21
-58.447285
  0
LINE
  8
ボルト／ビス
  6
DOT
 10
21.67986
 20
-58.403955
 11
21.67986
 21
-58.447285
  0
LINE
  8
ボルト／ビス
  6
DOT
 10
21.92986
 20
-58.63062
 11
21.196525
 21
-58.63062
  0
LINE
  8
ボルト／ビス
  6
DOT
 10
21.146525
 20
-58.67062
 11
21.146525
 21
-58.753953
  0
LINE
  8
ボルト／ビス
  6
DOT
 10
21.146525
 20
-58.753953
 11
21.97986
 21
-58.753953
  0
LINE
  8
ボルト／ビス
  6
DOT
 10
21.97986
 20
-58.753953
 11
21.97986
 21
-58.67062
  0
LINE
  8
ボルト／ビス
  6
DOT
 10
21.146525
 20
-58.67062
 11
21.97986
 21
-58.67062
  0
LINE
  8
ボルト／ビス
  6
DOT
 10
21.92986
 20
-58.63062
 11
21.92986
 21
-58.67062
  0
LINE
  8
ボルト／ビス
  6
DOT
 10
21.196525
 20
-58.63062
 11
21.196525
 21
-58.67062
  0
LINE
  8
ボルト／ビス
  6
DOT
 10
21.563192
 20
-58.68062
 11
21.563192
 21
-58.63062
  0
ENDBLK
  0
BLOCK
  2
*GRP_0025
 70
    65
 10
0.0
 20
0.0
  0
LINE
  8
ボルト／ビス
  6
DOT
 10
21.76986
 20
-57.770785
 11
21.76986
 21
-57.70412
  0
LINE
  8
ボルト／ビス
  6
DOT
 10
21.76986
 20
-57.70412
 11
21.036528
 21
-57.70412
  0
LINE
  8
ボルト／ビス
  6
DOT
 10
21.036528
 20
-57.70412
 11
21.036528
 21
-57.770785
  0
LINE
  8
ボルト／ビス
  6
DOT
 10
21.76986
 20
-57.770785
 11
21.036528
 21
-57.770785
  0
LINE
  8
ボルト／ビス
  6
DOT
 10
21.703195
 20
-57.670785
 11
21.703195
 21
-57.70412
  0
LINE
  8
ボルト／ビス
  6
DOT
 10
21.703195
 20
-57.670785
 11
21.103195
 21
-57.670785
  0
LINE
  8
ボルト／ビス
  6
DOT
 10
21.103195
 20
-57.670785
 11
21.103195
 21
-57.70412
  0
LINE
  8
ボルト／ビス
  6
DOT
 62
    64
 10
21.56357
 20
-57.470785
 11
21.595645
 21
-57.48246
  0
ARC
  8
ボルト／ビス
  6
DOT
 62
    64
 10
21.547531
 20
-57.575764
 40
0.104978
 50
90.0
 51
117.278033
  0
ARC
  8
ボルト／ビス
  6
DOT
 62
    64
 10
21.403194
 20
-57.873188
 40
0.402402
 50
76.165015
 51
103.834998
  0
LINE
  8
ボルト／ビス
  6
DOT
 62
    64
 10
21.24282
 20
-57.470785
 11
21.210745
 21
-57.48246
  0
ARC
  8
ボルト／ビス
  6
DOT
 62
    64
 10
21.258856
 20
-57.575764
 40
0.104978
 50
62.721967
 51
90.0
  0
LINE
  8
ボルト／ビス
  6
DOT
 62
    64
 10
21.56357
 20
-57.470785
 11
21.24282
 21
-57.470785
  0
LINE
  8
ボルト／ビス
  6
DOT
 62
    64
 10
21.210745
 20
-57.48246
 11
21.210745
 21
-57.60412
  0
LINE
  8
ボルト／ビス
  6
DOT
 62
    64
 10
21.30697
 20
-57.48246
 11
21.30697
 21
-57.60412
  0
LINE
  8
ボルト／ビス
  6
DOT
 62
    64
 10
21.595645
 20
-57.48246
 11
21.595645
 21
-57.60412
  0
LINE
  8
ボルト／ビス
  6
DOT
 62
    64
 10
21.49942
 20
-57.48246
 11
21.49942
 21
-57.60412
  0
LINE
  8
ボルト／ビス
  6
DOT
 10
21.595645
 20
-57.60412
 11
21.210745
 21
-57.60412
  0
LINE
  8
ボルト／ビス
  6
DOT
 10
21.603195
 20
-57.60412
 11
21.603195
 21
-57.670785
  0
LINE
  8
ボルト／ビス
  6
DOT
 10
21.603195
 20
-57.60412
 11
21.203195
 21
-57.60412
  0
LINE
  8
ボルト／ビス
  6
DOT
 10
21.203195
 20
-57.60412
 11
21.203195
 21
-57.670785
  0
ENDBLK
  0
BLOCK
  2
*GRP_0026
 70
    65
 10
0.0
 20
0.0
  0
INSERT
  2
M8横
  8
ゴム等
  6
DOT
 10
-96.756188
 20
-58.63062
 41
0.033333
 42
0.033333
  0
LINE
  8
ボルト／ビス
  6
DOT
 10
-96.622855
 20
-58.42062
 11
-96.63952
 21
-58.403955
  0
LINE
  8
ボルト／ビス
  6
DOT
 10
-96.872855
 20
-58.403955
 11
-96.88952
 21
-58.42062
  0
LINE
  8
ボルト／ビス
  6
DOT
 10
-96.88952
 20
-58.42062
 11
-96.622855
 21
-58.42062
  0
LINE
  8
ボルト／ビス
  6
DOT
 10
-96.872855
 20
-58.403955
 11
-96.63952
 21
-58.403955
  0
LINE
  8
ボルト／ビス
  6
DOT
 10
-96.63952
 20
-58.403955
 11
-96.63952
 21
-58.447285
  0
LINE
  8
ボルト／ビス
  6
DOT
 10
-96.622855
 20
-58.42062
 11
-96.622855
 21
-58.447285
  0
LINE
  8
ボルト／ビス
  6
DOT
 10
-96.88952
 20
-58.42062
 11
-96.88952
 21
-58.447285
  0
LINE
  8
ボルト／ビス
  6
DOT
 10
-96.872855
 20
-58.403955
 11
-96.872855
 21
-58.447285
  0
LINE
  8
ボルト／ビス
  6
DOT
 10
-97.122855
 20
-58.63062
 11
-96.38952
 21
-58.63062
  0
LINE
  8
ボルト／ビス
  6
DOT
 10
-96.33952
 20
-58.67062
 11
-96.33952
 21
-58.753953
  0
LINE
  8
ボルト／ビス
  6
DOT
 10
-96.33952
 20
-58.753953
 11
-97.172855
 21
-58.753953
  0
LINE
  8
ボルト／ビス
  6
DOT
 10
-97.172855
 20
-58.753953
 11
-97.172855
 21
-58.67062
  0
LINE
  8
ボルト／ビス
  6
DOT
 10
-96.33952
 20
-58.67062
 11
-97.172855
 21
-58.67062
  0
LINE
  8
ボルト／ビス
  6
DOT
 10
-97.122855
 20
-58.63062
 11
-97.122855
 21
-58.67062
  0
LINE
  8
ボルト／ビス
  6
DOT
 10
-96.38952
 20
-58.63062
 11
-96.38952
 21
-58.67062
  0
LINE
  8
ボルト／ビス
  6
DOT
 10
-96.756188
 20
-58.68062
 11
-96.756188
 21
-58.63062
  0
ENDBLK
  0
BLOCK
  2
*GRP_0027
 70
    65
 10
0.0
 20
0.0
  0
LINE
  8
ボルト／ビス
  6
DOT
 10
-96.962855
 20
-57.770785
 11
-96.962855
 21
-57.70412
  0
LINE
  8
ボルト／ビス
  6
DOT
 10
-96.962855
 20
-57.70412
 11
-96.229522
 21
-57.70412
  0
LINE
  8
ボルト／ビス
  6
DOT
 10
-96.229522
 20
-57.70412
 11
-96.229522
 21
-57.770785
  0
LINE
  8
ボルト／ビス
  6
DOT
 10
-96.962855
 20
-57.770785
 11
-96.229522
 21
-57.770785
  0
LINE
  8
ボルト／ビス
  6
DOT
 10
-96.89619
 20
-57.670785
 11
-96.89619
 21
-57.70412
  0
LINE
  8
ボルト／ビス
  6
DOT
 10
-96.89619
 20
-57.670785
 11
-96.29619
 21
-57.670785
  0
LINE
  8
ボルト／ビス
  6
DOT
 10
-96.29619
 20
-57.670785
 11
-96.29619
 21
-57.70412
  0
LINE
  8
ボルト／ビス
  6
DOT
 62
    64
 10
-96.756565
 20
-57.470785
 11
-96.78864
 21
-57.48246
  0
ARC
  8
ボルト／ビス
  6
DOT
 62
    64
 10
-96.740528
 20
-57.575764
 40
0.104978
 50
62.721967
 51
90.0
  0
ARC
  8
ボルト／ビス
  6
DOT
 62
    64
 10
-96.59619
 20
-57.873188
 40
0.402402
 50
76.165002
 51
103.834985
  0
LINE
  8
ボルト／ビス
  6
DOT
 62
    64
 10
-96.435815
 20
-57.470785
 11
-96.40374
 21
-57.48246
  0
ARC
  8
ボルト／ビス
  6
DOT
 62
    64
 10
-96.451853
 20
-57.575764
 40
0.104978
 50
90.0
 51
117.278033
  0
LINE
  8
ボルト／ビス
  6
DOT
 62
    64
 10
-96.756565
 20
-57.470785
 11
-96.435815
 21
-57.470785
  0
LINE
  8
ボルト／ビス
  6
DOT
 62
    64
 10
-96.40374
 20
-57.48246
 11
-96.40374
 21
-57.60412
  0
LINE
  8
ボルト／ビス
  6
DOT
 62
    64
 10
-96.499965
 20
-57.48246
 11
-96.499965
 21
-57.60412
  0
LINE
  8
ボルト／ビス
  6
DOT
 62
    64
 10
-96.78864
 20
-57.48246
 11
-96.78864
 21
-57.60412
  0
LINE
  8
ボルト／ビス
  6
DOT
 62
    64
 10
-96.692415
 20
-57.48246
 11
-96.692415
 21
-57.60412
  0
LINE
  8
ボルト／ビス
  6
DOT
 10
-96.78864
 20
-57.60412
 11
-96.40374
 21
-57.60412
  0
LINE
  8
ボルト／ビス
  6
DOT
 10
-96.79619
 20
-57.60412
 11
-96.79619
 21
-57.670785
  0
LINE
  8
ボルト／ビス
  6
DOT
 10
-96.79619
 20
-57.60412
 11
-96.39619
 21
-57.60412
  0
LINE
  8
ボルト／ビス
  6
DOT
 10
-96.39619
 20
-57.60412
 11
-96.39619
 21
-57.670785
  0
ENDBLK
  0
BLOCK
  2
*GRP_0028
 70
    65
 10
0.0
 20
0.0
  0
LINE
  8
補助線
  6
BYBLOCK
 62
    64
 10
-84.249733
 20
-74.368295
 11
-84.377218
 21
-74.475655
  0
LINE
  8
補助線
  6
BYBLOCK
 62
    64
 10
-84.367155
 20
-74.35823
 11
-84.259795
 21
-74.485718
  0
LINE
  8
補助線
  6
BYBLOCK
 62
    64
 10
-75.759315
 20
-67.218272
 11
-75.8868
 21
-67.325627
  0
LINE
  8
補助線
  6
BYBLOCK
 62
    64
 10
-75.876738
 20
-67.208208
 11
-75.769377
 21
-67.33569
  0
LINE
  8
補助線
  6
BYBLOCK
 62
    64
 10
-67.39638
 20
-60.175602
 11
-67.268898
 21
-60.068245
  0
LINE
  8
補助線
  6
BYBLOCK
 62
    64
 10
-67.38632
 20
-60.05818
 11
-67.27896
 21
-60.185668
  0
LINE
  8
型材断面
  6
CONTINUOUS
 10
-85.10523
 20
-73.999273
 11
-85.165607
 21
-74.703798
  0
LINE
  8
型材断面
  6
CONTINUOUS
 10
-85.165607
 20
-74.703798
 11
-84.736175
 21
-75.213732
  0
LINE
  8
型材断面
  6
CONTINUOUS
 10
-84.736175
 20
-75.213732
 11
-84.03165
 21
-75.27411
  0
LINE
  8
型材断面
  6
CONTINUOUS
 10
-67.614462
 20
-59.269793
 11
-66.909937
 21
-59.33017
  0
LINE
  8
型材断面
  6
CONTINUOUS
 10
-66.909937
 20
-59.33017
 11
-66.480505
 21
-59.840105
  0
LINE
  8
型材断面
  6
CONTINUOUS
 10
-66.480505
 20
-59.840105
 11
-66.540883
 21
-60.54463
  0
LINE
  8
型材断面
  6
CONTINUOUS
 10
-85.10523
 20
-73.999273
 11
-67.614462
 21
-59.269793
  0
LINE
  8
型材断面
  6
CONTINUOUS
 10
-84.03165
 20
-75.27411
 11
-66.540883
 21
-60.54463
  0
CIRCLE
  8
ボルト／ビス
  6
CONTINUOUS
 10
-84.313475
 20
-74.421975
 40
0.250185
  0
CIRCLE
  8
ボルト／ビス
  6
CONTINUOUS
 10
-84.313475
 20
-74.421975
 40
0.301025
  0
LINE
  8
ボルト／ビス
  6
CONTINUOUS
 62
    64
 10
-84.559782
 20
-74.465858
 11
-84.47463
 21
-74.23061
  0
LINE
  8
ボルト／ビス
  6
CONTINUOUS
 62
    64
 10
-84.228323
 20
-74.186725
 11
-84.47463
 21
-74.23061
  0
LINE
  8
ボルト／ビス
  6
CONTINUOUS
 62
    64
 10
-84.398628
 20
-74.657225
 11
-84.15232
 21
-74.61334
  0
LINE
  8
ボルト／ビス
  6
CONTINUOUS
 62
    64
 10
-84.067167
 20
-74.378093
 11
-84.15232
 21
-74.61334
  0
LINE
  8
ボルト／ビス
  6
CONTINUOUS
 62
    64
 10
-84.559782
 20
-74.465858
 11
-84.398628
 21
-74.657225
  0
LINE
  8
ボルト／ビス
  6
CONTINUOUS
 62
    64
 10
-84.228323
 20
-74.186725
 11
-84.067167
 21
-74.378093
  0
CIRCLE
  8
ボルト／ビス
  6
CONTINUOUS
 62
    64
 10
-84.313475
 20
-74.421975
 40
0.216668
  0
CIRCLE
  8
ボルト／ビス
  6
CONTINUOUS
 10
-75.823057
 20
-67.27195
 40
0.250185
  0
CIRCLE
  8
ボルト／ビス
  6
CONTINUOUS
 10
-75.823057
 20
-67.27195
 40
0.301025
  0
LINE
  8
ボルト／ビス
  6
CONTINUOUS
 62
    64
 10
-76.069365
 20
-67.315833
 11
-75.984213
 21
-67.080583
  0
LINE
  8
ボルト／ビス
  6
CONTINUOUS
 62
    64
 10
-75.737905
 20
-67.0367
 11
-75.984213
 21
-67.080583
  0
LINE
  8
ボルト／ビス
  6
CONTINUOUS
 62
    64
 10
-75.90821
 20
-67.5072
 11
-75.6619
 21
-67.463317
  0
LINE
  8
ボルト／ビス
  6
CONTINUOUS
 62
    64
 10
-75.57675
 20
-67.22807
 11
-75.6619
 21
-67.463317
  0
LINE
  8
ボルト／ビス
  6
CONTINUOUS
 62
    64
 10
-76.069365
 20
-67.315833
 11
-75.90821
 21
-67.5072
  0
LINE
  8
ボルト／ビス
  6
CONTINUOUS
 62
    64
 10
-75.737905
 20
-67.0367
 11
-75.57675
 21
-67.22807
  0
CIRCLE
  8
ボルト／ビス
  6
CONTINUOUS
 62
    64
 10
-75.823057
 20
-67.27195
 40
0.216668
  0
CIRCLE
  8
ボルト／ビス
  6
CONTINUOUS
 10
-67.332637
 20
-60.121925
 40
0.250185
  0
CIRCLE
  8
ボルト／ビス
  6
CONTINUOUS
 10
-67.332637
 20
-60.121925
 40
0.301025
  0
LINE
  8
ボルト／ビス
  6
CONTINUOUS
 62
    64
 10
-67.247485
 20
-59.886675
 11
-67.493795
 21
-59.93056
  0
LINE
  8
ボルト／ビス
  6
CONTINUOUS
 62
    64
 10
-67.578947
 20
-60.165808
 11
-67.493795
 21
-59.93056
  0
LINE
  8
ボルト／ビス
  6
CONTINUOUS
 62
    64
 10
-67.086333
 20
-60.078042
 11
-67.171482
 21
-60.31329
  0
LINE
  8
ボルト／ビス
  6
CONTINUOUS
 62
    64
 10
-67.417792
 20
-60.357175
 11
-67.171482
 21
-60.31329
  0
LINE
  8
ボルト／ビス
  6
CONTINUOUS
 62
    64
 10
-67.247485
 20
-59.886675
 11
-67.086333
 21
-60.078042
  0
LINE
  8
ボルト／ビス
  6
CONTINUOUS
 62
    64
 10
-67.578947
 20
-60.165808
 11
-67.417792
 21
-60.357175
  0
CIRCLE
  8
ボルト／ビス
  6
CONTINUOUS
 62
    64
 10
-67.332637
 20
-60.121925
 40
0.216668
  0
ENDBLK
  0
BLOCK
  2
*GRP_0029
 70
    65
 10
0.0
 20
0.0
  0
LINE
  8
補助線
  6
BYBLOCK
 62
    64
 10
-67.396382
 20
-74.368295
 11
-67.268898
 21
-74.475655
  0
LINE
  8
補助線
  6
BYBLOCK
 62
    64
 10
-67.27896
 20
-74.35823
 11
-67.38632
 21
-74.485718
  0
LINE
  8
補助線
  6
BYBLOCK
 62
    64
 10
-75.8868
 20
-67.218272
 11
-75.759315
 21
-67.325627
  0
LINE
  8
補助線
  6
BYBLOCK
 62
    64
 10
-75.769377
 20
-67.208208
 11
-75.876738
 21
-67.33569
  0
LINE
  8
補助線
  6
BYBLOCK
 62
    64
 10
-84.249735
 20
-60.175602
 11
-84.377218
 21
-60.068245
  0
LINE
  8
補助線
  6
BYBLOCK
 62
    64
 10
-84.259795
 20
-60.05818
 11
-84.367155
 21
-60.185668
  0
LINE
  8
型材断面
  6
CONTINUOUS
 10
-66.540885
 20
-73.999273
 11
-66.480508
 21
-74.703798
  0
LINE
  8
型材断面
  6
CONTINUOUS
 10
-66.480508
 20
-74.703798
 11
-66.90994
 21
-75.213732
  0
LINE
  8
型材断面
  6
CONTINUOUS
 10
-66.90994
 20
-75.213732
 11
-67.614465
 21
-75.27411
  0
LINE
  8
型材断面
  6
CONTINUOUS
 10
-84.031653
 20
-59.269793
 11
-84.736178
 21
-59.33017
  0
LINE
  8
型材断面
  6
CONTINUOUS
 10
-84.736178
 20
-59.33017
 11
-85.16561
 21
-59.840105
  0
LINE
  8
型材断面
  6
CONTINUOUS
 10
-85.16561
 20
-59.840105
 11
-85.105232
 21
-60.54463
  0
LINE
  8
型材断面
  6
CONTINUOUS
 10
-66.540885
 20
-73.999273
 11
-84.031653
 21
-59.269793
  0
LINE
  8
型材断面
  6
CONTINUOUS
 10
-67.614465
 20
-75.27411
 11
-85.105232
 21
-60.54463
  0
CIRCLE
  8
ボルト／ビス
  6
CONTINUOUS
 10
-67.33264
 20
-74.421975
 40
0.250185
  0
CIRCLE
  8
ボルト／ビス
  6
CONTINUOUS
 10
-67.33264
 20
-74.421975
 40
0.301025
  0
LINE
  8
ボルト／ビス
  6
CONTINUOUS
 62
    64
 10
-67.086333
 20
-74.465858
 11
-67.171485
 21
-74.23061
  0
LINE
  8
ボルト／ビス
  6
CONTINUOUS
 62
    64
 10
-67.417792
 20
-74.186725
 11
-67.171485
 21
-74.23061
  0
LINE
  8
ボルト／ビス
  6
CONTINUOUS
 62
    64
 10
-67.247487
 20
-74.657225
 11
-67.493795
 21
-74.61334
  0
LINE
  8
ボルト／ビス
  6
CONTINUOUS
 62
    64
 10
-67.578947
 20
-74.378093
 11
-67.493795
 21
-74.61334
  0
LINE
  8
ボルト／ビス
  6
CONTINUOUS
 62
    64
 10
-67.086333
 20
-74.465858
 11
-67.247487
 21
-74.657225
  0
LINE
  8
ボルト／ビス
  6
CONTINUOUS
 62
    64
 10
-67.417792
 20
-74.186725
 11
-67.578947
 21
-74.378093
  0
CIRCLE
  8
ボルト／ビス
  6
CONTINUOUS
 62
    64
 10
-67.33264
 20
-74.421975
 40
0.216668
  0
CIRCLE
  8
ボルト／ビス
  6
CONTINUOUS
 10
-75.823057
 20
-67.27195
 40
0.250185
  0
CIRCLE
  8
ボルト／ビス
  6
CONTINUOUS
 10
-75.823057
 20
-67.27195
 40
0.301025
  0
LINE
  8
ボルト／ビス
  6
CONTINUOUS
 62
    64
 10
-75.57675
 20
-67.315833
 11
-75.661902
 21
-67.080583
  0
LINE
  8
ボルト／ビス
  6
CONTINUOUS
 62
    64
 10
-75.90821
 20
-67.0367
 11
-75.661902
 21
-67.080583
  0
LINE
  8
ボルト／ビス
  6
CONTINUOUS
 62
    64
 10
-75.737905
 20
-67.5072
 11
-75.984215
 21
-67.463317
  0
LINE
  8
ボルト／ビス
  6
CONTINUOUS
 62
    64
 10
-76.069365
 20
-67.22807
 11
-75.984215
 21
-67.463317
  0
LINE
  8
ボルト／ビス
  6
CONTINUOUS
 62
    64
 10
-75.57675
 20
-67.315833
 11
-75.737905
 21
-67.5072
  0
LINE
  8
ボルト／ビス
  6
CONTINUOUS
 62
    64
 10
-75.90821
 20
-67.0367
 11
-76.069365
 21
-67.22807
  0
CIRCLE
  8
ボルト／ビス
  6
CONTINUOUS
 62
    64
 10
-75.823057
 20
-67.27195
 40
0.216668
  0
CIRCLE
  8
ボルト／ビス
  6
CONTINUOUS
 10
-84.313478
 20
-60.121925
 40
0.250185
  0
CIRCLE
  8
ボルト／ビス
  6
CONTINUOUS
 10
-84.313478
 20
-60.121925
 40
0.301025
  0
LINE
  8
ボルト／ビス
  6
CONTINUOUS
 62
    64
 10
-84.39863
 20
-59.886675
 11
-84.15232
 21
-59.93056
  0
LINE
  8
ボルト／ビス
  6
CONTINUOUS
 62
    64
 10
-84.067167
 20
-60.165808
 11
-84.15232
 21
-59.93056
  0
LINE
  8
ボルト／ビス
  6
CONTINUOUS
 62
    64
 10
-84.559782
 20
-60.078042
 11
-84.474633
 21
-60.31329
  0
LINE
  8
ボルト／ビス
  6
CONTINUOUS
 62
    64
 10
-84.228323
 20
-60.357175
 11
-84.474633
 21
-60.31329
  0
LINE
  8
ボルト／ビス
  6
CONTINUOUS
 62
    64
 10
-84.39863
 20
-59.886675
 11
-84.559782
 21
-60.078042
  0
LINE
  8
ボルト／ビス
  6
CONTINUOUS
 62
    64
 10
-84.067167
 20
-60.165808
 11
-84.228323
 21
-60.357175
  0
CIRCLE
  8
ボルト／ビス
  6
CONTINUOUS
 62
    64
 10
-84.313478
 20
-60.121925
 40
0.216668
  0
ENDBLK
  0
BLOCK
  2
*GRP_0030
 70
    65
 10
0.0
 20
0.0
  0
LINE
  8
補助線
  6
BYBLOCK
 62
    64
 10
8.956118
 20
-74.368295
 11
9.083603
 21
-74.475655
  0
LINE
  8
補助線
  6
BYBLOCK
 62
    64
 10
9.07354
 20
-74.35823
 11
8.96618
 21
-74.485718
  0
LINE
  8
補助線
  6
BYBLOCK
 62
    64
 10
0.4657
 20
-67.218272
 11
0.593185
 21
-67.325627
  0
LINE
  8
補助線
  6
BYBLOCK
 62
    64
 10
0.583122
 20
-67.208208
 11
0.475763
 21
-67.33569
  0
LINE
  8
補助線
  6
BYBLOCK
 62
    64
 10
-7.897235
 20
-60.175602
 11
-8.024718
 21
-60.068245
  0
LINE
  8
補助線
  6
BYBLOCK
 62
    64
 10
-7.907295
 20
-60.05818
 11
-8.014655
 21
-60.185668
  0
LINE
  8
型材断面
  6
CONTINUOUS
 10
9.811615
 20
-73.999273
 11
9.871992
 21
-74.703798
  0
LINE
  8
型材断面
  6
CONTINUOUS
 10
9.871992
 20
-74.703798
 11
9.44256
 21
-75.213732
  0
LINE
  8
型材断面
  6
CONTINUOUS
 10
9.44256
 20
-75.213732
 11
8.738035
 21
-75.27411
  0
LINE
  8
型材断面
  6
CONTINUOUS
 10
-7.679152
 20
-59.269793
 11
-8.383677
 21
-59.33017
  0
LINE
  8
型材断面
  6
CONTINUOUS
 10
-8.383677
 20
-59.33017
 11
-8.81311
 21
-59.840105
  0
LINE
  8
型材断面
  6
CONTINUOUS
 10
-8.81311
 20
-59.840105
 11
-8.752733
 21
-60.54463
  0
LINE
  8
型材断面
  6
CONTINUOUS
 10
9.811615
 20
-73.999273
 11
-7.679152
 21
-59.269793
  0
LINE
  8
型材断面
  6
CONTINUOUS
 10
8.738035
 20
-75.27411
 11
-8.752733
 21
-60.54463
  0
CIRCLE
  8
ボルト／ビス
  6
CONTINUOUS
 10
9.01986
 20
-74.421975
 40
0.250185
  0
CIRCLE
  8
ボルト／ビス
  6
CONTINUOUS
 10
9.01986
 20
-74.421975
 40
0.301025
  0
LINE
  8
ボルト／ビス
  6
CONTINUOUS
 62
    64
 10
9.266167
 20
-74.465858
 11
9.181015
 21
-74.23061
  0
LINE
  8
ボルト／ビス
  6
CONTINUOUS
 62
    64
 10
8.934707
 20
-74.186725
 11
9.181015
 21
-74.23061
  0
LINE
  8
ボルト／ビス
  6
CONTINUOUS
 62
    64
 10
9.105012
 20
-74.657225
 11
8.858705
 21
-74.61334
  0
LINE
  8
ボルト／ビス
  6
CONTINUOUS
 62
    64
 10
8.773553
 20
-74.378093
 11
8.858705
 21
-74.61334
  0
LINE
  8
ボルト／ビス
  6
CONTINUOUS
 62
    64
 10
9.266167
 20
-74.465858
 11
9.105012
 21
-74.657225
  0
LINE
  8
ボルト／ビス
  6
CONTINUOUS
 62
    64
 10
8.934707
 20
-74.186725
 11
8.773553
 21
-74.378093
  0
CIRCLE
  8
ボルト／ビス
  6
CONTINUOUS
 62
    64
 10
9.01986
 20
-74.421975
 40
0.216668
  0
CIRCLE
  8
ボルト／ビス
  6
CONTINUOUS
 10
0.529443
 20
-67.27195
 40
0.250185
  0
CIRCLE
  8
ボルト／ビス
  6
CONTINUOUS
 10
0.529443
 20
-67.27195
 40
0.301025
  0
LINE
  8
ボルト／ビス
  6
CONTINUOUS
 62
    64
 10
0.77575
 20
-67.315833
 11
0.690597
 21
-67.080583
  0
LINE
  8
ボルト／ビス
  6
CONTINUOUS
 62
    64
 10
0.44429
 20
-67.0367
 11
0.690597
 21
-67.080583
  0
LINE
  8
ボルト／ビス
  6
CONTINUOUS
 62
    64
 10
0.614595
 20
-67.5072
 11
0.368285
 21
-67.463317
  0
LINE
  8
ボルト／ビス
  6
CONTINUOUS
 62
    64
 10
0.283135
 20
-67.22807
 11
0.368285
 21
-67.463317
  0
LINE
  8
ボルト／ビス
  6
CONTINUOUS
 62
    64
 10
0.77575
 20
-67.315833
 11
0.614595
 21
-67.5072
  0
LINE
  8
ボルト／ビス
  6
CONTINUOUS
 62
    64
 10
0.44429
 20
-67.0367
 11
0.283135
 21
-67.22807
  0
CIRCLE
  8
ボルト／ビス
  6
CONTINUOUS
 62
    64
 10
0.529443
 20
-67.27195
 40
0.216668
  0
CIRCLE
  8
ボルト／ビス
  6
CONTINUOUS
 10
-7.960977
 20
-60.121925
 40
0.250185
  0
CIRCLE
  8
ボルト／ビス
  6
CONTINUOUS
 10
-7.960977
 20
-60.121925
 40
0.301025
  0
LINE
  8
ボルト／ビス
  6
CONTINUOUS
 62
    64
 10
-8.04613
 20
-59.886675
 11
-7.79982
 21
-59.93056
  0
LINE
  8
ボルト／ビス
  6
CONTINUOUS
 62
    64
 10
-7.714667
 20
-60.165808
 11
-7.79982
 21
-59.93056
  0
LINE
  8
ボルト／ビス
  6
CONTINUOUS
 62
    64
 10
-8.207283
 20
-60.078042
 11
-8.122133
 21
-60.31329
  0
LINE
  8
ボルト／ビス
  6
CONTINUOUS
 62
    64
 10
-7.875822
 20
-60.357175
 11
-8.122133
 21
-60.31329
  0
LINE
  8
ボルト／ビス
  6
CONTINUOUS
 62
    64
 10
-8.04613
 20
-59.886675
 11
-8.207283
 21
-60.078042
  0
LINE
  8
ボルト／ビス
  6
CONTINUOUS
 62
    64
 10
-7.714667
 20
-60.165808
 11
-7.875822
 21
-60.357175
  0
CIRCLE
  8
ボルト／ビス
  6
CONTINUOUS
 62
    64
 10
-7.960977
 20
-60.121925
 40
0.216668
  0
ENDBLK
  0
BLOCK
  2
*GRP_0031
 70
    65
 10
0.0
 20
0.0
  0
LINE
  8
補助線
  6
BYBLOCK
 62
    64
 10
-7.897232
 20
-74.368295
 11
-8.024718
 21
-74.475655
  0
LINE
  8
補助線
  6
BYBLOCK
 62
    64
 10
-8.014655
 20
-74.35823
 11
-7.907295
 21
-74.485718
  0
LINE
  8
補助線
  6
BYBLOCK
 62
    64
 10
0.593185
 20
-67.218272
 11
0.4657
 21
-67.325627
  0
LINE
  8
補助線
  6
BYBLOCK
 62
    64
 10
0.475763
 20
-67.208208
 11
0.583122
 21
-67.33569
  0
LINE
  8
補助線
  6
BYBLOCK
 62
    64
 10
8.95612
 20
-60.175602
 11
9.083603
 21
-60.068245
  0
LINE
  8
補助線
  6
BYBLOCK
 62
    64
 10
8.96618
 20
-60.05818
 11
9.07354
 21
-60.185668
  0
LINE
  8
型材断面
  6
CONTINUOUS
 10
-8.75273
 20
-73.999273
 11
-8.813108
 21
-74.703798
  0
LINE
  8
型材断面
  6
CONTINUOUS
 10
-8.813108
 20
-74.703798
 11
-8.383675
 21
-75.213732
  0
LINE
  8
型材断面
  6
CONTINUOUS
 10
-8.383675
 20
-75.213732
 11
-7.67915
 21
-75.27411
  0
LINE
  8
型材断面
  6
CONTINUOUS
 10
8.738038
 20
-59.269793
 11
9.442562
 21
-59.33017
  0
LINE
  8
型材断面
  6
CONTINUOUS
 10
9.442562
 20
-59.33017
 11
9.871995
 21
-59.840105
  0
LINE
  8
型材断面
  6
CONTINUOUS
 10
9.871995
 20
-59.840105
 11
9.811617
 21
-60.54463
  0
LINE
  8
型材断面
  6
CONTINUOUS
 10
-8.75273
 20
-73.999273
 11
8.738038
 21
-59.269793
  0
LINE
  8
型材断面
  6
CONTINUOUS
 10
-7.67915
 20
-75.27411
 11
9.811617
 21
-60.54463
  0
CIRCLE
  8
ボルト／ビス
  6
CONTINUOUS
 10
-7.960975
 20
-74.421975
 40
0.250185
  0
CIRCLE
  8
ボルト／ビス
  6
CONTINUOUS
 10
-7.960975
 20
-74.421975
 40
0.301025
  0
LINE
  8
ボルト／ビス
  6
CONTINUOUS
 62
    64
 10
-8.207283
 20
-74.465858
 11
-8.12213
 21
-74.23061
  0
LINE
  8
ボルト／ビス
  6
CONTINUOUS
 62
    64
 10
-7.875822
 20
-74.186725
 11
-8.12213
 21
-74.23061
  0
LINE
  8
ボルト／ビス
  6
CONTINUOUS
 62
    64
 10
-8.046127
 20
-74.657225
 11
-7.79982
 21
-74.61334
  0
LINE
  8
ボルト／ビス
  6
CONTINUOUS
 62
    64
 10
-7.714667
 20
-74.378093
 11
-7.79982
 21
-74.61334
  0
LINE
  8
ボルト／ビス
  6
CONTINUOUS
 62
    64
 10
-8.207283
 20
-74.465858
 11
-8.046127
 21
-74.657225
  0
LINE
  8
ボルト／ビス
  6
CONTINUOUS
 62
    64
 10
-7.875822
 20
-74.186725
 11
-7.714667
 21
-74.378093
  0
CIRCLE
  8
ボルト／ビス
  6
CONTINUOUS
 62
    64
 10
-7.960975
 20
-74.421975
 40
0.216668
  0
CIRCLE
  8
ボルト／ビス
  6
CONTINUOUS
 10
0.529443
 20
-67.27195
 40
0.250185
  0
CIRCLE
  8
ボルト／ビス
  6
CONTINUOUS
 10
0.529443
 20
-67.27195
 40
0.301025
  0
LINE
  8
ボルト／ビス
  6
CONTINUOUS
 62
    64
 10
0.283135
 20
-67.315833
 11
0.368288
 21
-67.080583
  0
LINE
  8
ボルト／ビス
  6
CONTINUOUS
 62
    64
 10
0.614595
 20
-67.0367
 11
0.368288
 21
-67.080583
  0
LINE
  8
ボルト／ビス
  6
CONTINUOUS
 62
    64
 10
0.44429
 20
-67.5072
 11
0.6906
 21
-67.463317
  0
LINE
  8
ボルト／ビス
  6
CONTINUOUS
 62
    64
 10
0.77575
 20
-67.22807
 11
0.6906
 21
-67.463317
  0
LINE
  8
ボルト／ビス
  6
CONTINUOUS
 62
    64
 10
0.283135
 20
-67.315833
 11
0.44429
 21
-67.5072
  0
LINE
  8
ボルト／ビス
  6
CONTINUOUS
 62
    64
 10
0.614595
 20
-67.0367
 11
0.77575
 21
-67.22807
  0
CIRCLE
  8
ボルト／ビス
  6
CONTINUOUS
 62
    64
 10
0.529443
 20
-67.27195
 40
0.216668
  0
CIRCLE
  8
ボルト／ビス
  6
CONTINUOUS
 10
9.019863
 20
-60.121925
 40
0.250185
  0
CIRCLE
  8
ボルト／ビス
  6
CONTINUOUS
 10
9.019863
 20
-60.121925
 40
0.301025
  0
LINE
  8
ボルト／ビス
  6
CONTINUOUS
 62
    64
 10
9.105015
 20
-59.886675
 11
8.858705
 21
-59.93056
  0
LINE
  8
ボルト／ビス
  6
CONTINUOUS
 62
    64
 10
8.773553
 20
-60.165808
 11
8.858705
 21
-59.93056
  0
LINE
  8
ボルト／ビス
  6
CONTINUOUS
 62
    64
 10
9.266167
 20
-60.078042
 11
9.181018
 21
-60.31329
  0
LINE
  8
ボルト／ビス
  6
CONTINUOUS
 62
    64
 10
8.934707
 20
-60.357175
 11
9.181018
 21
-60.31329
  0
LINE
  8
ボルト／ビス
  6
CONTINUOUS
 62
    64
 10
9.105015
 20
-59.886675
 11
9.266167
 21
-60.078042
  0
LINE
  8
ボルト／ビス
  6
CONTINUOUS
 62
    64
 10
8.773553
 20
-60.165808
 11
8.934707
 21
-60.357175
  0
CIRCLE
  8
ボルト／ビス
  6
CONTINUOUS
 62
    64
 10
9.019863
 20
-60.121925
 40
0.216668
  0
ENDBLK
  0
BLOCK
  2
*DIM_0032
 70
    65
 10
0.0
 20
0.0
  0
LINE
  8
寸法
  6
CONTINUOUS
 10
25.736832
 20
-68.70412
 11
44.355305
 21
-68.70412
  0
LINE
  8
寸法
  6
CONTINUOUS
 10
25.736832
 20
-57.037453
 11
44.355305
 21
-57.037453
  0
LINE
  8
寸法
  6
CONTINUOUS
 10
44.355305
 20
-68.70412
 11
44.355305
 21
-57.037453
  0
POINT
  8
寸法
 10
44.355305
 20
-68.70412
  0
POINT
  8
寸法
 10
44.355305
 20
-57.037453
  0
TEXT
  7
TextStyle03
  8
寸法
  6
CONTINUOUS
 10
47.35
 20
-71.96875
  1
上昇294以上
 40
3.0
 50
90.0
 72
     5
 11
47.35
 21
-53.78125
  0
ENDBLK
  0
BLOCK
  2
*DIM_0033
 70
    65
 10
0.0
 20
0.0
  0
LINE
  8
寸法
  6
CONTINUOUS
 10
112.098842
 20
-43.44923
 11
112.098842
 21
-32.524668
  0
LINE
  8
寸法
  6
CONTINUOUS
 10
149.868843
 20
-43.44923
 11
149.868843
 21
-32.524668
  0
LINE
  8
寸法
  6
CONTINUOUS
 10
112.098842
 20
-32.524668
 11
149.868843
 21
-32.524668
  0
POINT
  8
寸法
 10
112.098842
 20
-32.524668
  0
POINT
  8
寸法
 10
149.868843
 20
-32.524668
  0
TEXT
  7
TextStyle03
  8
寸法
  6
CONTINUOUS
 10
126.00625
 20
-32.15
  1
1133.1
 40
3.0
 72
     5
 11
135.94375
 21
-32.15
  0
ENDBLK
  0
BLOCK
  2
*DIM_0034
 70
    65
 10
0.0
 20
0.0
  0
LINE
  8
寸法
  6
CONTINUOUS
 10
154.868843
 20
-48.44923
 11
166.542588
 21
-48.44923
  0
LINE
  8
寸法
  6
CONTINUOUS
 10
154.868843
 20
-77.782563
 11
166.542588
 21
-77.782563
  0
LINE
  8
寸法
  6
CONTINUOUS
 10
166.542588
 20
-48.44923
 11
166.542588
 21
-77.782563
  0
POINT
  8
寸法
 10
166.542588
 20
-48.44923
  0
POINT
  8
寸法
 10
166.542588
 20
-77.782563
  0
TEXT
  7
TextStyle03
  8
寸法
  6
CONTINUOUS
 10
166.15
 20
-65.5625
  1
880
 40
3.0
 50
90.0
 72
     5
 11
166.15
 21
-60.6875
  0
ENDBLK
  0
BLOCK
  2
*DIM_0035
 70
    65
 10
0.0
 20
0.0
  0
LINE
  8
寸法
  6
CONTINUOUS
 10
23.016527
 20
-68.209977
 11
23.016527
 21
-32.437345
  0
LINE
  8
寸法
  6
CONTINUOUS
 10
20.736832
 20
-32.437345
 11
23.016527
 21
-32.437345
  0
POINT
  8
寸法
 10
20.736832
 20
-32.437345
  0
POINT
  8
寸法
 10
23.016527
 20
-32.437345
  0
TEXT
  7
TextStyle03
  8
寸法
  6
CONTINUOUS
 10
25.34375
 20
-32.075
  1
68.4
 40
3.0
 72
     5
 11
31.90625
 21
-32.075
  0
ENDBLK
  0
BLOCK
  2
*DIM_0036
 70
    65
 10
0.0
 20
0.0
  0
LINE
  8
寸法
  6
CONTINUOUS
 10
-98.209523
 20
-68.209977
 11
-98.209523
 21
-32.437345
  0
LINE
  8
寸法
  6
CONTINUOUS
 10
-95.929828
 20
-32.437345
 11
-98.209523
 21
-32.437345
  0
POINT
  8
寸法
 10
-95.929828
 20
-32.437345
  0
POINT
  8
寸法
 10
-98.209523
 20
-32.437345
  0
TEXT
  7
TextStyle03
  8
寸法
  6
CONTINUOUS
 10
-107.10625
 20
-32.075
  1
68.4
 40
3.0
 72
     5
 11
-100.54375
 21
-32.075
  0
ENDBLK
  0
BLOCK
  2
*DIM_0037
 70
    65
 10
0.0
 20
0.0
  0
LINE
  8
寸法
  6
CONTINUOUS
 10
20.736832
 20
-32.437345
 11
-95.929828
 21
-32.437345
  0
POINT
  8
寸法
 10
20.736832
 20
-32.437345
  0
POINT
  8
寸法
 10
-95.929828
 20
-32.437345
  0
TEXT
  7
TextStyle03
  8
寸法
  6
CONTINUOUS
 10
-49.31875
 20
-32.075
  1
呼称寸法　3500
 40
3.0
 72
     5
 11
-25.88125
 21
-32.075
  0
ENDBLK
  0
BLOCK
  2
M8横
 70
    64
 10
-88.370132
 20
140.837665
  0
LINE
  8
ボルト／ビス
 10
-95.870132
 20
140.837665
 11
-80.870132
 21
140.837665
  0
LINE
  8
ボルト／ビス
 10
-80.870132
 20
145.837665
 11
-81.370132
 21
146.337665
  0
POLYLINE
  8
ボルト／ビス
 66
     1
  0
VERTEX
  8
ボルト／ビス
 10
-84.120132
 20
146.337665
  0
VERTEX
  8
ボルト／ビス
 10
-84.620132
 20
145.837665
  0
VERTEX
  8
ボルト／ビス
 10
-85.120132
 20
146.337665
  0
SEQEND
  0
POLYLINE
  8
ボルト／ビス
 66
     1
  0
VERTEX
  8
ボルト／ビス
 10
-91.620132
 20
146.337665
  0
VERTEX
  8
ボルト／ビス
 10
-92.120132
 20
145.837665
  0
VERTEX
  8
ボルト／ビス
 10
-92.620132
 20
146.337665
  0
SEQEND
  0
LINE
  8
ボルト／ビス
 10
-95.370132
 20
146.337665
 11
-95.870132
 21
145.837665
  0
LINE
  8
ボルト／ビス
 10
-95.870132
 20
140.837665
 11
-95.870132
 21
145.837665
  0
LINE
  8
ボルト／ビス
 10
-80.870132
 20
140.837665
 11
-80.870132
 21
145.837665
  0
LINE
  8
ボルト／ビス
 10
-95.370132
 20
146.337665
 11
-81.370132
 21
146.337665
  0
LINE
  8
ボルト／ビス
 10
-84.620132
 20
140.837665
 11
-84.620132
 21
145.837665
  0
LINE
  8
ボルト／ビス
 10
-92.120132
 20
140.837665
 11
-92.120132
 21
145.837665
  0
ENDBLK
  0
ENDSEC
  0
SECTION
  2
ENTITIES
  0
POLYLINE
  8
通り芯
  6
CONTINUOUS
 66
     1
 70
     1
  0
VERTEX
  8
通り芯
 10
-210.0
 20
-148.5
  0
VERTEX
  8
通り芯
 10
210.0
 20
-148.5
  0
VERTEX
  8
通り芯
 10
210.0
 20
148.5
  0
VERTEX
  8
通り芯
 10
-210.0
 20
148.5
  0
SEQEND
  0
INSERT
  2
*GRP_0001
  8
型材断面
  6
CONTINUOUS
 10
0.0
 20
0.0
  0
LINE
  8
型材断面
  6
CONTINUOUS
 10
162.97617
 20
66.869993
 11
162.97617
 21
66.819993
  0
LINE
  8
型材断面
  6
CONTINUOUS
 10
162.47617
 20
65.203325
 11
161.742835
 21
65.203325
  0
LINE
  8
型材断面
  6
CONTINUOUS
 62
    47
 10
169.709335
 20
66.60302
 11
169.709335
 21
66.55302
  0
LINE
  8
型材断面
  6
CONTINUOUS
 62
    47
 10
169.709335
 20
66.60302
 11
169.209335
 21
66.60302
  0
LINE
  8
型材断面
  6
CONTINUOUS
 10
163.459335
 20
65.25302
 11
163.459335
 21
66.699688
  0
LINE
  8
型材断面
  6
CONTINUOUS
 10
163.909335
 20
66.699688
 11
163.459335
 21
66.699688
  0
LINE
  8
型材断面
  6
CONTINUOUS
 62
    47
 10
166.582028
 20
67.43302
 11
166.582028
 21
67.48302
  0
LINE
  8
型材断面
  6
CONTINUOUS
 62
    47
 10
166.582028
 20
67.48302
 11
166.248695
 21
67.48302
  0
LINE
  8
型材断面
  6
CONTINUOUS
 62
    47
 10
166.248695
 20
67.48302
 11
166.148695
 21
66.699688
  0
LINE
  8
型材断面
  6
CONTINUOUS
 62
    47
 10
165.74267
 20
66.699688
 11
166.148695
 21
66.699688
  0
LINE
  8
型材断面
  6
CONTINUOUS
 62
    47
 10
165.74267
 20
67.169687
 11
163.909335
 21
67.169687
  0
LINE
  8
型材断面
  6
CONTINUOUS
 10
162.97617
 20
66.869993
 11
162.47617
 21
66.869993
  0
LINE
  8
型材断面
  6
CONTINUOUS
 10
163.459335
 20
65.25302
 11
162.97617
 21
65.25302
  0
LINE
  8
型材断面
  6
CONTINUOUS
 62
    47
 10
169.209335
 20
67.169687
 11
166.582028
 21
67.169687
  0
INSERT
  2
*GRP_0002
  8
型材断面
  6
DOT
 10
0.0
 20
0.0
  0
INSERT
  2
*GRP_0003
  8
型材断面
  6
DOT
 10
0.0
 20
0.0
  0
LINE
  8
型材断面
  6
CONTINUOUS
 10
169.209335
 20
67.169687
 11
169.209335
 21
50.203325
  0
LINE
  8
型材断面
  6
CONTINUOUS
 10
169.709335
 20
66.60302
 11
169.709335
 21
50.203325
  0
LINE
  8
型材断面
  6
CONTINUOUS
 10
166.582028
 20
67.48302
 11
166.582028
 21
50.203325
  0
LINE
  8
型材断面
  6
CONTINUOUS
 10
166.248695
 20
67.48302
 11
166.248695
 21
50.203325
  0
LINE
  8
型材断面
  6
CONTINUOUS
 10
166.148695
 20
66.699688
 11
166.148695
 21
50.203325
  0
LINE
  8
型材断面
  6
CONTINUOUS
 10
165.74267
 20
67.169687
 11
165.74267
 21
50.203325
  0
LINE
  8
型材断面
  6
CONTINUOUS
 10
162.97617
 20
66.869993
 11
162.97617
 21
50.203325
  0
LINE
  8
型材断面
  6
CONTINUOUS
 10
161.742835
 20
65.203325
 11
161.742835
 21
50.203325
  0
LINE
  8
型材断面
  6
CONTINUOUS
 10
162.47617
 20
66.869993
 11
162.47617
 21
50.203325
  0
LINE
  8
型材断面
  6
CONTINUOUS
 10
163.459335
 20
66.699688
 11
163.459335
 21
50.203325
  0
LINE
  8
型材断面
  6
CONTINUOUS
 10
163.909335
 20
67.169687
 11
163.909335
 21
50.203325
  0
LINE
  8
型材断面
  6
DASHDOT
 10
-37.596497
 20
-79.253555
 11
-37.596497
 21
65.203325
  0
LINE
  8
型材断面
  6
CONTINUOUS
 10
162.97617
 20
33.53666
 11
162.97617
 21
33.58666
  0
LINE
  8
型材断面
  6
CONTINUOUS
 10
162.47617
 20
35.203325
 11
161.742835
 21
35.203325
  0
LINE
  8
型材断面
  6
CONTINUOUS
 62
    47
 10
169.709335
 20
33.80363
 11
169.709335
 21
33.85363
  0
LINE
  8
型材断面
  6
CONTINUOUS
 62
    47
 10
169.709335
 20
33.80363
 11
169.209335
 21
33.80363
  0
LINE
  8
型材断面
  6
CONTINUOUS
 10
163.459335
 20
35.15363
 11
163.459335
 21
33.706965
  0
LINE
  8
型材断面
  6
CONTINUOUS
 10
163.909335
 20
33.706965
 11
163.459335
 21
33.706965
  0
LINE
  8
型材断面
  6
CONTINUOUS
 62
    47
 10
166.582028
 20
32.97363
 11
166.582028
 21
32.92363
  0
LINE
  8
型材断面
  6
CONTINUOUS
 62
    47
 10
166.582028
 20
32.92363
 11
166.248695
 21
32.92363
  0
LINE
  8
型材断面
  6
CONTINUOUS
 62
    47
 10
166.248695
 20
32.92363
 11
166.148695
 21
33.706965
  0
LINE
  8
型材断面
  6
CONTINUOUS
 62
    47
 10
165.74267
 20
33.706965
 11
166.148695
 21
33.706965
  0
LINE
  8
型材断面
  6
CONTINUOUS
 62
    47
 10
165.74267
 20
33.236965
 11
163.909335
 21
33.236965
  0
LINE
  8
型材断面
  6
CONTINUOUS
 10
162.97617
 20
33.53666
 11
162.47617
 21
33.53666
  0
LINE
  8
型材断面
  6
CONTINUOUS
 10
163.459335
 20
35.15363
 11
162.97617
 21
35.15363
  0
LINE
  8
型材断面
  6
CONTINUOUS
 62
    47
 10
169.209335
 20
33.236965
 11
166.582028
 21
33.236965
  0
INSERT
  2
*GRP_0004
  8
型材断面
  6
DOT
 10
0.0
 20
0.0
  0
INSERT
  2
*GRP_0005
  8
型材断面
  6
DOT
 10
0.0
 20
0.0
  0
LINE
  8
型材断面
  6
CONTINUOUS
 10
169.209335
 20
33.236965
 11
169.209335
 21
50.203325
  0
LINE
  8
型材断面
  6
CONTINUOUS
 10
169.709335
 20
33.80363
 11
169.709335
 21
50.203325
  0
LINE
  8
型材断面
  6
CONTINUOUS
 10
166.582028
 20
32.92363
 11
166.582028
 21
50.203325
  0
LINE
  8
型材断面
  6
CONTINUOUS
 10
166.248695
 20
32.92363
 11
166.248695
 21
50.203325
  0
LINE
  8
型材断面
  6
CONTINUOUS
 10
166.148695
 20
33.706965
 11
166.148695
 21
50.203325
  0
LINE
  8
型材断面
  6
CONTINUOUS
 10
165.74267
 20
33.236965
 11
165.74267
 21
50.203325
  0
LINE
  8
型材断面
  6
CONTINUOUS
 10
162.97617
 20
33.53666
 11
162.97617
 21
50.203325
  0
LINE
  8
型材断面
  6
CONTINUOUS
 10
161.742835
 20
35.203325
 11
161.742835
 21
50.203325
  0
LINE
  8
型材断面
  6
CONTINUOUS
 10
162.47617
 20
33.53666
 11
162.47617
 21
50.203325
  0
LINE
  8
型材断面
  6
CONTINUOUS
 10
163.459335
 20
33.706965
 11
163.459335
 21
50.203325
  0
LINE
  8
型材断面
  6
CONTINUOUS
 10
163.909335
 20
33.236965
 11
163.909335
 21
50.203325
  0
POLYLINE
  8
型材断面
  6
CONTINUOUS
 66
     1
 70
     1
  0
VERTEX
  8
型材断面
 10
28.91449
 20
-94.850355
  0
VERTEX
  8
型材断面
 10
-19.764185
 20
-94.850355
  0
VERTEX
  8
型材断面
 10
-19.764185
 20
-111.19502
  0
VERTEX
  8
型材断面
 10
28.91449
 20
-111.19502
  0
SEQEND
  0
LINE
  8
型材断面
  6
CONTINUOUS
 10
22.4035
 20
-69.937453
 11
22.3535
 21
-69.937453
  0
LINE
  8
型材断面
  6
CONTINUOUS
 10
20.736832
 20
-69.437453
 11
20.736832
 21
-68.70412
  0
LINE
  8
型材断面
  6
CONTINUOUS
 62
    47
 10
22.136528
 20
-76.67062
 11
22.086528
 21
-76.67062
  0
LINE
  8
型材断面
  6
CONTINUOUS
 62
    47
 10
22.136528
 20
-76.67062
 11
22.136528
 21
-76.17062
  0
LINE
  8
型材断面
  6
CONTINUOUS
 10
20.786528
 20
-70.42062
 11
22.233195
 21
-70.42062
  0
LINE
  8
型材断面
  6
CONTINUOUS
 10
22.233195
 20
-70.87062
 11
22.233195
 21
-70.42062
  0
LINE
  8
型材断面
  6
CONTINUOUS
 62
    47
 10
22.966527
 20
-73.543312
 11
23.016527
 21
-73.543312
  0
LINE
  8
型材断面
  6
CONTINUOUS
 62
    47
 10
23.016527
 20
-73.543312
 11
23.016527
 21
-73.209977
  0
LINE
  8
型材断面
  6
CONTINUOUS
 62
    47
 10
23.016527
 20
-73.209977
 11
22.233195
 21
-73.109977
  0
LINE
  8
型材断面
  6
CONTINUOUS
 62
    47
 10
22.233195
 20
-72.703953
 11
22.233195
 21
-73.109977
  0
LINE
  8
型材断面
  6
CONTINUOUS
 62
    47
 10
22.703195
 20
-72.703953
 11
22.703195
 21
-70.87062
  0
LINE
  8
型材断面
  6
CONTINUOUS
 10
22.4035
 20
-69.937453
 11
22.4035
 21
-69.437453
  0
LINE
  8
型材断面
  6
CONTINUOUS
 10
20.786528
 20
-70.42062
 11
20.786528
 21
-69.937453
  0
LINE
  8
型材断面
  6
CONTINUOUS
 62
    47
 10
22.703195
 20
-76.17062
 11
22.703195
 21
-73.543312
  0
INSERT
  2
*GRP_0010
  8
型材断面
  6
DOT
 10
0.0
 20
0.0
  0
INSERT
  2
*GRP_0011
  8
型材断面
  6
DOT
 10
0.0
 20
0.0
  0
LINE
  8
型材断面
  6
CONTINUOUS
 10
22.703195
 20
-76.17062
 11
-37.596497
 21
-76.17062
  0
LINE
  8
型材断面
  6
CONTINUOUS
 10
22.136528
 20
-76.67062
 11
-37.596497
 21
-76.67062
  0
LINE
  8
型材断面
  6
CONTINUOUS
 10
23.016527
 20
-73.543312
 11
-37.596497
 21
-73.543312
  0
LINE
  8
型材断面
  6
CONTINUOUS
 10
23.016527
 20
-73.209977
 11
-37.596497
 21
-73.209977
  0
LINE
  8
型材断面
  6
CONTINUOUS
 10
22.233195
 20
-73.109977
 11
-37.596497
 21
-73.109977
  0
LINE
  8
型材断面
  6
CONTINUOUS
 10
22.703195
 20
-72.703953
 11
-37.596497
 21
-72.703953
  0
LINE
  8
型材断面
  6
CONTINUOUS
 10
22.4035
 20
-69.937453
 11
-37.596497
 21
-69.937453
  0
LINE
  8
型材断面
  6
CONTINUOUS
 10
20.736832
 20
-68.70412
 11
-37.596497
 21
-68.70412
  0
LINE
  8
型材断面
  6
CONTINUOUS
 10
22.4035
 20
-69.437453
 11
-37.596497
 21
-69.437453
  0
LINE
  8
型材断面
  6
CONTINUOUS
 10
22.233195
 20
-70.42062
 11
-37.596497
 21
-70.42062
  0
LINE
  8
型材断面
  6
CONTINUOUS
 10
22.703195
 20
-70.87062
 11
-37.596497
 21
-70.87062
  0
LINE
  8
型材断面
  6
CONTINUOUS
 10
19.9035
 20
50.619993
 11
20.736832
 21
50.619993
  0
LINE
  8
型材断面
  6
CONTINUOUS
 10
19.9035
 20
49.786658
 11
20.736832
 21
49.786658
  0
LINE
  8
型材断面
  6
CONTINUOUS
 10
19.9035
 20
64.369993
 11
23.016527
 21
67.48302
  0
LINE
  8
型材断面
  6
CONTINUOUS
 10
19.9035
 20
50.619993
 11
19.9035
 21
64.369993
  0
LINE
  8
型材断面
  6
DASHDOT
 10
172.29227
 20
65.203325
 11
20.736832
 21
65.203325
  0
LINE
  8
型材断面
  6
CONTINUOUS
 10
19.9035
 20
36.036658
 11
23.016527
 21
32.92363
  0
LINE
  8
型材断面
  6
CONTINUOUS
 10
19.9035
 20
36.036658
 11
19.9035
 21
49.786658
  0
LINE
  8
型材断面
  6
DASHDOT
 10
172.29227
 20
35.203325
 11
20.736832
 21
35.203325
  0
LINE
  8
型材断面
  6
DASHDOT
 10
20.736832
 20
-79.253555
 11
20.736832
 21
35.203325
  0
LINE
  8
型材断面
  6
CONTINUOUS
 10
20.736832
 20
35.203325
 11
20.736832
 21
65.203325
  0
LINE
  8
型材断面
  6
CONTINUOUS
 10
22.703195
 20
33.236962
 11
22.703195
 21
67.169687
  0
LINE
  8
型材断面
  6
CONTINUOUS
 10
23.016527
 20
32.92363
 11
23.016527
 21
67.48302
  0
LINE
  8
型材断面
  6
CONTINUOUS
 10
22.4035
 20
33.536658
 11
22.4035
 21
66.869993
  0
LINE
  8
型材断面
  6
CONTINUOUS
 10
-97.596495
 20
-69.937453
 11
-97.546495
 21
-69.937453
  0
LINE
  8
型材断面
  6
CONTINUOUS
 10
-95.929828
 20
-69.437453
 11
-95.929828
 21
-68.70412
  0
LINE
  8
型材断面
  6
CONTINUOUS
 62
    47
 10
-97.329522
 20
-76.67062
 11
-97.279522
 21
-76.67062
  0
LINE
  8
型材断面
  6
CONTINUOUS
 62
    47
 10
-97.329522
 20
-76.67062
 11
-97.329522
 21
-76.17062
  0
LINE
  8
型材断面
  6
CONTINUOUS
 10
-95.979522
 20
-70.42062
 11
-97.42619
 21
-70.42062
  0
LINE
  8
型材断面
  6
CONTINUOUS
 10
-97.42619
 20
-70.87062
 11
-97.42619
 21
-70.42062
  0
LINE
  8
型材断面
  6
CONTINUOUS
 62
    47
 10
-98.159523
 20
-73.543312
 11
-98.209523
 21
-73.543312
  0
LINE
  8
型材断面
  6
CONTINUOUS
 62
    47
 10
-98.209523
 20
-73.543312
 11
-98.209523
 21
-73.209977
  0
LINE
  8
型材断面
  6
CONTINUOUS
 62
    47
 10
-98.209523
 20
-73.209977
 11
-97.42619
 21
-73.109977
  0
LINE
  8
型材断面
  6
CONTINUOUS
 62
    47
 10
-97.42619
 20
-72.703953
 11
-97.42619
 21
-73.109977
  0
LINE
  8
型材断面
  6
CONTINUOUS
 62
    47
 10
-97.89619
 20
-72.703953
 11
-97.89619
 21
-70.87062
  0
LINE
  8
型材断面
  6
CONTINUOUS
 10
-97.596495
 20
-69.937453
 11
-97.596495
 21
-69.437453
  0
LINE
  8
型材断面
  6
CONTINUOUS
 10
-95.979522
 20
-70.42062
 11
-95.979522
 21
-69.937453
  0
LINE
  8
型材断面
  6
CONTINUOUS
 62
    47
 10
-97.89619
 20
-76.17062
 11
-97.89619
 21
-73.543312
  0
INSERT
  2
*GRP_0013
  8
型材断面
  6
DOT
 10
0.0
 20
0.0
  0
INSERT
  2
*GRP_0014
  8
型材断面
  6
DOT
 10
0.0
 20
0.0
  0
LINE
  8
型材断面
  6
CONTINUOUS
 10
-97.89619
 20
-76.17062
 11
-37.596497
 21
-76.17062
  0
LINE
  8
型材断面
  6
CONTINUOUS
 10
-97.329522
 20
-76.67062
 11
-37.596497
 21
-76.67062
  0
LINE
  8
型材断面
  6
CONTINUOUS
 10
-98.209523
 20
-73.543312
 11
-37.596497
 21
-73.543312
  0
LINE
  8
型材断面
  6
CONTINUOUS
 10
-98.209523
 20
-73.209977
 11
-37.596497
 21
-73.209977
  0
LINE
  8
型材断面
  6
CONTINUOUS
 10
-97.42619
 20
-73.109977
 11
-37.596497
 21
-73.109977
  0
LINE
  8
型材断面
  6
CONTINUOUS
 10
-97.89619
 20
-72.703953
 11
-37.596497
 21
-72.703953
  0
LINE
  8
型材断面
  6
CONTINUOUS
 10
-97.596495
 20
-69.937453
 11
-37.596497
 21
-69.937453
  0
LINE
  8
型材断面
  6
CONTINUOUS
 10
-95.929828
 20
-68.70412
 11
-37.596497
 21
-68.70412
  0
LINE
  8
型材断面
  6
CONTINUOUS
 10
-97.596495
 20
-69.437453
 11
-37.596497
 21
-69.437453
  0
LINE
  8
型材断面
  6
CONTINUOUS
 10
-97.42619
 20
-70.42062
 11
-37.596497
 21
-70.42062
  0
LINE
  8
型材断面
  6
CONTINUOUS
 10
-97.89619
 20
-70.87062
 11
-37.596497
 21
-70.87062
  0
LINE
  8
型材断面
  6
CONTINUOUS
 10
-95.096495
 20
49.786658
 11
-95.929828
 21
49.786658
  0
LINE
  8
型材断面
  6
CONTINUOUS
 10
-95.096495
 20
50.619993
 11
-95.929828
 21
50.619993
  0
LINE
  8
型材断面
  6
DASHDOT
 10
172.29227
 20
50.203325
 11
-95.929828
 21
50.203325
  0
LINE
  8
型材断面
  6
CONTINUOUS
 10
-95.096495
 20
64.369993
 11
-98.209523
 21
67.48302
  0
LINE
  8
型材断面
  6
CONTINUOUS
 10
-95.096495
 20
50.619993
 11
-95.096495
 21
64.369993
  0
LINE
  8
型材断面
  6
CONTINUOUS
 10
-95.096495
 20
36.036658
 11
-98.209523
 21
32.92363
  0
LINE
  8
型材断面
  6
CONTINUOUS
 10
-95.096495
 20
36.036658
 11
-95.096495
 21
49.786658
  0
LINE
  8
型材断面
  6
DASHDOT
 10
-95.929828
 20
-79.253555
 11
-95.929828
 21
35.203325
  0
LINE
  8
型材断面
  6
CONTINUOUS
 10
-95.929828
 20
35.203325
 11
-95.929828
 21
65.203325
  0
LINE
  8
型材断面
  6
CONTINUOUS
 10
-97.89619
 20
33.236962
 11
-97.89619
 21
67.169687
  0
LINE
  8
型材断面
  6
CONTINUOUS
 10
-98.209523
 20
32.92363
 11
-98.209523
 21
67.48302
  0
LINE
  8
型材断面
  6
CONTINUOUS
 10
-97.596495
 20
33.536658
 11
-97.596495
 21
66.869993
  0
LINE
  8
型材断面
  6
CONTINUOUS
 10
20.736832
 20
65.203325
 11
-95.929828
 21
65.203325
  0
LINE
  8
型材断面
  6
CONTINUOUS
 10
22.703195
 20
67.169687
 11
-97.89619
 21
67.169687
  0
LINE
  8
型材断面
  6
CONTINUOUS
 10
23.016527
 20
67.48302
 11
-98.209523
 21
67.48302
  0
LINE
  8
型材断面
  6
CONTINUOUS
 10
22.4035
 20
66.869993
 11
-97.596495
 21
66.869993
  0
LINE
  8
型材断面
  6
CONTINUOUS
 10
20.736832
 20
35.203325
 11
-95.929828
 21
35.203325
  0
LINE
  8
型材断面
  6
CONTINUOUS
 10
22.703195
 20
33.236962
 11
-97.89619
 21
33.236962
  0
LINE
  8
型材断面
  6
CONTINUOUS
 10
23.016527
 20
32.92363
 11
-98.209523
 21
32.92363
  0
LINE
  8
型材断面
  6
CONTINUOUS
 10
22.4035
 20
33.536658
 11
-97.596495
 21
33.536658
  0
LINE
  8
型材断面
  6
CONTINUOUS
 10
-55.9065
 20
36.86999
 11
-58.4065
 21
36.86999
  0
LINE
  8
型材断面
  6
CONTINUOUS
 10
-19.286495
 20
36.86999
 11
-16.786495
 21
36.86999
  0
LINE
  8
型材断面
  6
CONTINUOUS
 10
-95.096495
 20
36.036658
 11
-76.95983
 21
36.036658
  0
LINE
  8
型材断面
  6
CONTINUOUS
 10
-76.126495
 20
36.036658
 11
-76.126495
 21
35.203325
  0
LINE
  8
型材断面
  6
CONTINUOUS
 10
-76.95983
 20
36.036658
 11
-76.95983
 21
35.203325
  0
LINE
  8
型材断面
  6
CONTINUOUS
 10
-37.17983
 20
36.036658
 11
-37.17983
 21
35.203325
  0
LINE
  8
型材断面
  6
CONTINUOUS
 10
-38.013165
 20
36.036658
 11
-38.013165
 21
35.203325
  0
LINE
  8
型材断面
  6
CONTINUOUS
 10
-76.126495
 20
36.036658
 11
-38.013165
 21
36.036658
  0
LINE
  8
型材断面
  6
CONTINUOUS
 10
-55.9065
 20
63.53666
 11
-58.4065
 21
63.53666
  0
LINE
  8
型材断面
  6
CONTINUOUS
 10
-19.286495
 20
63.53666
 11
-16.786495
 21
63.53666
  0
LINE
  8
型材断面
  6
CONTINUOUS
 10
-58.4065
 20
36.86999
 11
-58.4065
 21
63.53666
  0
LINE
  8
型材断面
  6
CONTINUOUS
 10
-57.4065
 20
36.86999
 11
-57.4065
 21
63.53666
  0
LINE
  8
型材断面
  6
CONTINUOUS
 10
-56.9065
 20
36.86999
 11
-56.9065
 21
63.53666
  0
LINE
  8
型材断面
  6
CONTINUOUS
 10
-55.9065
 20
36.86999
 11
-55.9065
 21
63.53666
  0
LINE
  8
型材断面
  6
DASHDOT
 10
-57.1565
 20
35.203325
 11
-57.1565
 21
65.203325
  0
LINE
  8
型材断面
  6
CONTINUOUS
 10
-16.786495
 20
36.86999
 11
-16.786495
 21
63.53666
  0
LINE
  8
型材断面
  6
CONTINUOUS
 10
-18.286495
 20
36.86999
 11
-18.286495
 21
63.53666
  0
LINE
  8
型材断面
  6
CONTINUOUS
 10
-17.786495
 20
36.86999
 11
-17.786495
 21
63.53666
  0
LINE
  8
型材断面
  6
CONTINUOUS
 10
-19.286495
 20
36.86999
 11
-19.286495
 21
63.53666
  0
LINE
  8
型材断面
  6
DASHDOT
 10
-18.036495
 20
35.203325
 11
-18.036495
 21
65.203325
  0
LINE
  8
型材断面
  6
CONTINUOUS
 10
19.9035
 20
36.036658
 11
1.766835
 21
36.036658
  0
LINE
  8
型材断面
  6
CONTINUOUS
 10
0.9335
 20
36.036658
 11
0.9335
 21
35.203325
  0
LINE
  8
型材断面
  6
CONTINUOUS
 10
1.766835
 20
36.036658
 11
1.766835
 21
35.203325
  0
LINE
  8
型材断面
  6
CONTINUOUS
 10
-37.17983
 20
36.036658
 11
0.9335
 21
36.036658
  0
LINE
  8
型材断面
  6
CONTINUOUS
 10
-95.096495
 20
64.369993
 11
-76.95983
 21
64.369993
  0
LINE
  8
型材断面
  6
CONTINUOUS
 10
-76.126495
 20
64.369993
 11
-76.126495
 21
65.203325
  0
LINE
  8
型材断面
  6
CONTINUOUS
 10
-76.95983
 20
64.369993
 11
-76.95983
 21
65.203325
  0
LINE
  8
型材断面
  6
CONTINUOUS
 10
-37.17983
 20
64.369993
 11
-37.17983
 21
65.203325
  0
LINE
  8
型材断面
  6
CONTINUOUS
 10
-38.013165
 20
64.369993
 11
-38.013165
 21
65.203325
  0
LINE
  8
型材断面
  6
CONTINUOUS
 10
-76.126495
 20
64.369993
 11
-38.013165
 21
64.369993
  0
LINE
  8
型材断面
  6
CONTINUOUS
 10
19.9035
 20
64.369993
 11
1.766835
 21
64.369993
  0
LINE
  8
型材断面
  6
CONTINUOUS
 10
0.9335
 20
64.369993
 11
0.9335
 21
65.203325
  0
LINE
  8
型材断面
  6
CONTINUOUS
 10
1.766835
 20
64.369993
 11
1.766835
 21
65.203325
  0
LINE
  8
型材断面
  6
CONTINUOUS
 10
-37.17983
 20
64.369993
 11
0.9335
 21
64.369993
  0
POLYLINE
  8
型材断面
  6
CONTINUOUS
 66
     1
 70
     1
  0
VERTEX
  8
型材断面
 10
-28.050192
 20
25.427403
  0
VERTEX
  8
型材断面
 10
-46.822123
 20
25.427403
  0
VERTEX
  8
型材断面
 10
-46.822123
 20
20.69056
  0
VERTEX
  8
型材断面
 10
-28.050192
 20
20.69056
  0
SEQEND
  0
POLYLINE
  8
型材断面
  6
CONTINUOUS
 66
     1
 70
     1
  0
VERTEX
  8
型材断面
 10
-28.050192
 20
74.979248
  0
VERTEX
  8
型材断面
 10
-46.822123
 20
74.979248
  0
VERTEX
  8
型材断面
 10
-46.822123
 20
79.71609
  0
VERTEX
  8
型材断面
 10
-28.050192
 20
79.71609
  0
SEQEND
  0
LINE
  8
型材断面
  6
CONTINUOUS
 10
-79.263165
 20
67.833455
 11
-80.758795
 21
70.423963
  0
LINE
  8
型材断面
  6
CONTINUOUS
 10
-79.263165
 20
67.833455
 11
-77.767535
 21
70.423963
  0
LINE
  8
型材断面
  6
CONTINUOUS
 10
-77.767535
 20
70.423963
 11
-80.758795
 21
70.423963
  0
LINE
  8
型材断面
  6
CONTINUOUS
 10
-98.559962
 20
50.203325
 11
-101.15047
 21
51.698955
  0
LINE
  8
型材断面
  6
CONTINUOUS
 10
-98.559962
 20
50.203325
 11
-101.15047
 21
48.707695
  0
LINE
  8
型材断面
  6
CONTINUOUS
 10
-101.15047
 20
48.707695
 11
-101.15047
 21
51.698955
  0
LINE
  8
型材断面
  6
CONTINUOUS
 10
-79.263165
 20
32.573195
 11
-80.758795
 21
29.982688
  0
LINE
  8
型材断面
  6
CONTINUOUS
 10
-79.263165
 20
32.573195
 11
-77.767535
 21
29.982688
  0
LINE
  8
型材断面
  6
CONTINUOUS
 10
-77.767535
 20
29.982688
 11
-80.758795
 21
29.982688
  0
LINE
  8
型材断面
  6
CONTINUOUS
 10
-149.808355
 20
103.180797
 11
-149.2123
 21
100.59029
  0
LINE
  8
型材断面
  6
CONTINUOUS
 10
-149.808355
 20
103.180797
 11
-150.404413
 21
100.59029
  0
LINE
  8
型材断面
  6
CONTINUOUS
 10
-150.404413
 20
100.59029
 11
-149.2123
 21
100.59029
  0
LINE
  8
型材断面
  6
CONTINUOUS
 10
-155.830943
 20
97.311398
 11
-109.589165
 21
97.311398
  0
LINE
  8
型材断面
  6
CONTINUOUS
 10
-149.808355
 20
109.710672
 11
-151.303985
 21
107.120165
  0
LINE
  8
型材断面
  6
CONTINUOUS
 10
-149.808355
 20
109.710672
 11
-148.312725
 21
107.120165
  0
LINE
  8
型材断面
  6
CONTINUOUS
 10
-148.312725
 20
107.120165
 11
-151.303985
 21
107.120165
  0
LINE
  8
型材断面
  6
CONTINUOUS
 10
-155.830943
 20
106.18157
 11
-109.589165
 21
106.18157
  0
LINE
  8
型材断面
  6
CONTINUOUS
 10
-155.830943
 20
91.523365
 11
-109.589165
 21
91.523365
  0
LINE
  8
型材断面
  6
CONTINUOUS
 10
4.07017
 20
67.833455
 11
5.5658
 21
70.423963
  0
LINE
  8
型材断面
  6
CONTINUOUS
 10
4.07017
 20
67.833455
 11
2.57454
 21
70.423963
  0
LINE
  8
型材断面
  6
CONTINUOUS
 10
2.57454
 20
70.423963
 11
5.5658
 21
70.423963
  0
LINE
  8
型材断面
  6
CONTINUOUS
 10
23.366967
 20
50.203325
 11
25.957475
 21
51.698955
  0
LINE
  8
型材断面
  6
CONTINUOUS
 10
23.366967
 20
50.203325
 11
25.957475
 21
48.707695
  0
LINE
  8
型材断面
  6
CONTINUOUS
 10
25.957475
 20
48.707695
 11
25.957475
 21
51.698955
  0
LINE
  8
型材断面
  6
CONTINUOUS
 10
4.07017
 20
32.573195
 11
5.5658
 21
29.982688
  0
LINE
  8
型材断面
  6
CONTINUOUS
 10
4.07017
 20
32.573195
 11
2.57454
 21
29.982688
  0
LINE
  8
型材断面
  6
CONTINUOUS
 10
2.57454
 20
29.982688
 11
5.5658
 21
29.982688
  0
LINE
  8
型材断面
  6
CONTINUOUS
 10
23.366963
 20
61.303325
 11
25.95747
 21
60.707267
  0
LINE
  8
型材断面
  6
CONTINUOUS
 10
23.366963
 20
61.303325
 11
25.95747
 21
61.899382
  0
LINE
  8
型材断面
  6
CONTINUOUS
 10
25.95747
 20
61.899382
 11
25.95747
 21
60.707267
  0
LINE
  8
型材断面
  6
CONTINUOUS
 10
23.366963
 20
39.103325
 11
25.95747
 21
39.699382
  0
LINE
  8
型材断面
  6
CONTINUOUS
 10
23.366963
 20
39.103325
 11
25.95747
 21
38.507267
  0
LINE
  8
型材断面
  6
CONTINUOUS
 10
25.95747
 20
38.507267
 11
25.95747
 21
39.699382
  0
LINE
  8
型材断面
  6
CONTINUOUS
 10
-98.559958
 20
61.303325
 11
-101.150465
 21
60.707267
  0
LINE
  8
型材断面
  6
CONTINUOUS
 10
-98.559958
 20
61.303325
 11
-101.150465
 21
61.899382
  0
LINE
  8
型材断面
  6
CONTINUOUS
 10
-101.150465
 20
61.899382
 11
-101.150465
 21
60.707267
  0
LINE
  8
型材断面
  6
CONTINUOUS
 10
-98.559958
 20
39.103325
 11
-101.150465
 21
39.699382
  0
LINE
  8
型材断面
  6
CONTINUOUS
 10
-98.559958
 20
39.103325
 11
-101.150465
 21
38.507267
  0
LINE
  8
型材断面
  6
CONTINUOUS
 10
-101.150465
 20
38.507267
 11
-101.150465
 21
39.699382
  0
LINE
  8
型材断面
  6
CONTINUOUS
 10
-155.830943
 20
85.735332
 11
-109.589165
 21
85.735332
  0
INSERT
  2
*GRP_0023
  8
型材断面
  6
DOT
 10
0.0
 20
0.0
  0
INSERT
  2
*GRP_0028
  8
型材断面
  6
CONTINUOUS
 10
0.0
 20
0.0
  0
INSERT
  2
*GRP_0029
  8
型材断面
  6
CONTINUOUS
 10
0.0
 20
0.0
  0
INSERT
  2
*GRP_0030
  8
型材断面
  6
CONTINUOUS
 10
0.0
 20
0.0
  0
INSERT
  2
*GRP_0031
  8
型材断面
  6
CONTINUOUS
 10
0.0
 20
0.0
  0
LINE
  8
型材断面
  6
CONTINUOUS
 10
127.854092
 20
-25.493692
 11
107.044793
 21
-25.493692
  0
POLYLINE
  8
ガラス
  6
CONTINUOUS
 66
     1
 70
     1
  0
VERTEX
  8
ガラス
 10
149.868843
 20
-48.44923
  0
VERTEX
  8
ガラス
 10
112.098842
 20
-48.44923
  0
VERTEX
  8
ガラス
 10
112.098842
 20
-77.782563
  0
VERTEX
  8
ガラス
 10
149.868843
 20
-77.782563
  0
SEQEND
  0
TEXT
  7
TextStyle03
  8
文字
  6
CONTINUOUS
 10
-15.45
 20
-100.575
  1
※トップライト枠高さ寸法
 40
3.0
 72
     5
 11
24.675
 21
-100.575
  0
TEXT
  7
TextStyle03
  8
文字
  6
CONTINUOUS
 10
-15.45
 20
-103.95
  1
　シングルガラス：214
 40
3.0
 72
     5
 11
19.8
 21
-103.95
  0
TEXT
  7
TextStyle03
  8
文字
  6
CONTINUOUS
 10
-15.45
 20
-107.325
  1
　ペアガラス：224
 40
3.0
 72
     5
 11
13.05
 21
-107.325
  0
TEXT
  7
TextStyle03
  8
文字
  6
CONTINUOUS
 10
78.1
 20
125.25
  1
シリーズ：ＳＴＤＬ
 40
5.0
 72
     5
 11
128.1
 21
125.25
  0
TEXT
  7
TextStyle03
  8
文字
  6
CONTINUOUS
 10
78.1
 20
119.625
  1
　　　　　（上下可動）900×3500タイプ
 40
5.0
 72
     5
 11
181.5375
 21
119.625
  0
TEXT
  7
TextStyle03
  8
文字
  6
CONTINUOUS
 10
78.1
 20
114.0
  1
図面名　：外観姿図
 40
5.0
 72
     5
 11
128.1
 21
114.0
  0
TEXT
  7
TextStyle03
  8
文字
  6
CONTINUOUS
 10
78.1
 20
108.375
  1
　　　　　　
 40
5.0
 72
     5
 11
111.225
 21
108.375
  0
TEXT
  7
TextStyle03
  8
文字
  6
CONTINUOUS
 10
-45.725
 20
21.7
  1
可動装置側
 40
3.0
 72
     5
 11
-29.225
 21
21.7
  0
TEXT
  7
TextStyle03
  8
文字
  6
CONTINUOUS
 10
-45.725
 20
75.65
  1
可動装置側
 40
3.0
 72
     5
 11
-29.225
 21
75.65
  0
TEXT
  7
TextStyle03
  8
文字
  6
CONTINUOUS
 10
-147.025
 20
101.775
  1
はケーシング位置を示す
 40
3.0
 72
     5
 11
-110.275
 21
101.775
  0
TEXT
  7
TextStyle03
  8
文字
  6
CONTINUOUS
 10
-147.025
 20
98.4
  1
４ヶ所中1ヶ所に設定
 40
3.0
 72
     5
 11
-115.3375
 21
98.4
  0
TEXT
  7
TextStyle03
  8
文字
  6
CONTINUOUS
 10
-147.025
 20
107.3
  1
は排水穴位置を示す
 40
3.0
 72
     5
 11
-117.025
 21
107.3
  0
TEXT
  7
TextStyle03
  8
文字
  6
CONTINUOUS
 10
-116.925
 20
28.65
  1
アンカーピッチ
 40
3.0
 50
90.0
 72
     5
 11
-116.925
 21
51.9
  0
TEXT
  7
TextStyle03
  8
文字
  6
CONTINUOUS
 10
-84.775
 20
102.15
  1
アンカーピッチ
 40
3.0
 72
     5
 11
-61.525
 21
102.15
  0
TEXT
  7
TextStyle03
  8
文字
  6
CONTINUOUS
 10
-150.75
 20
92.425
  1
アンカー数量　１４ヶ所
 40
3.0
 72
     5
 11
-114.0
 21
92.425
  0
TEXT
  7
TextStyle03
  8
文字
  6
CONTINUOUS
 10
-150.8
 20
86.675
  1
アームユニット数　４ヶ所
 40
3.0
 72
     5
 11
-110.675
 21
86.675
  0
TEXT
  7
TextStyle03
  8
文字
  6
CONTINUOUS
 10
108.85
 20
-24.6
  1
ガラス寸法
 40
3.0
 72
     5
 11
125.35
 21
-24.6
  0
TEXT
  7
TextStyle03
  8
文字
  6
CONTINUOUS
 10
136.875
 20
-74.15
  1
×３枚
 40
3.0
 72
     5
 11
146.625
 21
-74.15
  0
INSERT
  2
*DIM_0006
  8
寸法
  6
CONTINUOUS
 10
0.0
 20
0.0
  0
INSERT
  2
*DIM_0007
  8
寸法
  6
CONTINUOUS
 10
0.0
 20
0.0
  0
INSERT
  2
*DIM_0008
  8
寸法
  6
CONTINUOUS
 10
0.0
 20
0.0
  0
INSERT
  2
*DIM_0009
  8
寸法
  6
CONTINUOUS
 10
0.0
 20
0.0
  0
INSERT
  2
*DIM_0012
  8
寸法
  6
CONTINUOUS
 10
0.0
 20
0.0
  0
INSERT
  2
*DIM_0015
  8
寸法
  6
CONTINUOUS
 10
0.0
 20
0.0
  0
INSERT
  2
*DIM_0016
  8
寸法
  6
CONTINUOUS
 10
0.0
 20
0.0
  0
INSERT
  2
*DIM_0017
  8
寸法
  6
CONTINUOUS
 10
0.0
 20
0.0
  0
INSERT
  2
*DIM_0018
  8
寸法
  6
CONTINUOUS
 10
0.0
 20
0.0
  0
INSERT
  2
*DIM_0019
  8
寸法
  6
CONTINUOUS
 10
0.0
 20
0.0
  0
INSERT
  2
*DIM_0020
  8
寸法
  6
CONTINUOUS
 10
0.0
 20
0.0
  0
INSERT
  2
*DIM_0021
  8
寸法
  6
CONTINUOUS
 10
0.0
 20
0.0
  0
INSERT
  2
*DIM_0022
  8
寸法
  6
CONTINUOUS
 10
0.0
 20
0.0
  0
INSERT
  2
*DIM_0032
  8
寸法
  6
CONTINUOUS
 10
0.0
 20
0.0
  0
INSERT
  2
*DIM_0033
  8
寸法
  6
CONTINUOUS
 10
0.0
 20
0.0
  0
INSERT
  2
*DIM_0034
  8
寸法
  6
CONTINUOUS
 10
0.0
 20
0.0
  0
INSERT
  2
*DIM_0035
  8
寸法
  6
CONTINUOUS
 10
0.0
 20
0.0
  0
INSERT
  2
*DIM_0036
  8
寸法
  6
CONTINUOUS
 10
0.0
 20
0.0
  0
INSERT
  2
*DIM_0037
  8
寸法
  6
CONTINUOUS
 10
0.0
 20
0.0
  0
LINE
  8
曲げ物
  6
CONTINUOUS
 10
3.456595
 20
52.128875
 11
-0.238717
 21
48.433562
  0
LINE
  8
曲げ物
  6
CONTINUOUS
 10
2.753125
 20
50.592765
 11
1.297395
 21
49.137035
  0
LINE
  8
曲げ物
  6
CONTINUOUS
 10
1.920485
 20
51.425405
 11
0.464755
 21
49.969675
  0
LINE
  8
曲げ物
  6
CONTINUOUS
 10
-35.701967
 20
52.128875
 11
-39.39728
 21
48.433562
  0
LINE
  8
曲げ物
  6
CONTINUOUS
 10
-36.405437
 20
50.592765
 11
-37.861168
 21
49.137035
  0
LINE
  8
曲げ物
  6
CONTINUOUS
 10
-37.238077
 20
51.425405
 11
-38.693808
 21
49.969675
  0
LINE
  8
曲げ物
  6
CONTINUOUS
 10
-75.040995
 20
52.128875
 11
-78.736308
 21
48.433562
  0
LINE
  8
曲げ物
  6
CONTINUOUS
 10
-75.744465
 20
50.592765
 11
-77.200195
 21
49.137035
  0
LINE
  8
曲げ物
  6
CONTINUOUS
 10
-76.577105
 20
51.425405
 11
-78.032835
 21
49.969675
  0
ENDSEC
  0
EOF
