  0
SECTION
  2
HEADER
  9
$EXTMIN
 10
-210.0
 20
-148.5
  9
$EXTMAX
 10
210.0
 20
148.5
  9
$PDMODE
 70
    32
  9
$PDSIZE
 40
1.5
  9
$LTSCALE
 40
10.0
  0
ENDSEC
  0
SECTION
  2
TABLES
  0
TABLE
  2
LTYPE
 70
    15
  0
LTYPE
  2
CONTINUOUS
 70
    64
  3
実線
 72
    65
 73
     0
 40
0.0
  0
LTYPE
  2
DASHED
 70
    64
  3
破線A
 72
    65
 73
     2
 40
0.6
 49
0.4
 49
-0.2
  0
LTYPE
  2
DASHEDX2
 70
    64
  3
破線B
 72
    65
 73
     2
 40
1.3
 49
0.9
 49
-0.4
  0
LTYPE
  2
DASHDOT
 70
    64
  3
１点鎖線A
 72
    65
 73
     4
 40
0.5375
 49
0.375
 49
-0.05
 49
0.0625
 49
-0.05
  0
LTYPE
  2
DASHDOTX2
 70
    64
  3
１点鎖線B
 72
    65
 73
     4
 40
1.075
 49
0.75
 49
-0.1
 49
0.125
 49
-0.1
  0
LTYPE
  2
DIVIDE2
 70
    64
  3
２点鎖線A
 72
    65
 73
     6
 40
0.5125
 49
0.3
 49
-0.0375
 49
0.05
 49
-0.0375
 49
0.05
 49
-0.0375
  0
LTYPE
  2
DIVIDE
 70
    64
  3
２点鎖線B
 72
    65
 73
     6
 40
1.05
 49
0.55
 49
-0.1
 49
0.1
 49
-0.1
 49
0.1
 49
-0.1
  0
LTYPE
  2
DOT
 70
    64
  3
点線A
 72
    65
 73
     2
 40
0.1125
 49
0.0625
 49
-0.05
  0
LTYPE
  2
DOTX2
 70
    64
  3
点線B
 72
    65
 73
     2
 40
0.275
 49
0.15
 49
-0.125
  0
LTYPE
  2
CONTINUOUS
 70
    64
  3
実線
 72
    65
 73
     0
 40
0.0
  0
LTYPE
  2
CONTINUOUS
 70
    64
  3
実線
 72
    65
 73
     0
 40
0.0
  0
LTYPE
  2
CONTINUOUS
 70
    64
  3
実線
 72
    65
 73
     0
 40
0.0
  0
LTYPE
  2
CONTINUOUS
 70
    64
  3
実線
 72
    65
 73
     0
 40
0.0
  0
LTYPE
  2
CONTINUOUS
 70
    64
  3
実線
 72
    65
 73
     0
 40
0.0
  0
LTYPE
  2
CONTINUOUS
 70
    64
  3
実線
 72
    65
 73
     0
 40
0.0
  0
ENDTAB
  0
TABLE
  2
LAYER
 70
    34
  0
LAYER
  2
通り芯
 70
     0
 62
    15
  6
CONTINUOUS
  0
LAYER
  2
補助線
 70
     0
 62
    16
  6
DOT
  0
LAYER
  2
躯体
 70
     0
 62
    31
  6
CONTINUOUS
  0
LAYER
  2
型材
 70
     0
 62
    32
  6
CONTINUOUS
  0
LAYER
  2
型材断面
 70
     0
 62
    47
  6
CONTINUOUS
  0
LAYER
  2
ガラス
 70
     0
 62
    48
  6
CONTINUOUS
  0
LAYER
  2
ゴム等
 70
     0
 62
    63
  6
CONTINUOUS
  0
LAYER
  2
ボルト／ビス
 70
     0
 62
    64
  6
CONTINUOUS
  0
LAYER
  2
文字
 70
     0
 62
    79
  6
CONTINUOUS
  0
LAYER
  2
寸法
 70
     0
 62
    80
  6
CONTINUOUS
  0
LAYER
  2
ﾊｯﾁﾝｸﾞ
 70
     0
 62
    95
  6
CONTINUOUS
  0
LAYER
  2
別途部材
 70
     0
 62
    96
  6
CONTINUOUS
  0
LAYER
  2
曲げ物
 70
     0
 62
   111
  6
CONTINUOUS
  0
LAYER
  2
鉄骨等
 70
     0
 62
   112
  6
CONTINUOUS
  0
LAYER
  2
St
 70
     0
 62
   127
  6
CONTINUOUS
  0
LAYER
  2
その他部品等
 70
     0
 62
   128
  6
CONTINUOUS
  0
LAYER
  2
ｶﾞｽｹｯﾄ
 70
     0
 62
   143
  6
CONTINUOUS
  0
LAYER
  2
ｽｹｯﾁ
 70
     0
 62
    14
  6
CONTINUOUS
  0
LAYER
  2
0
 70
     0
 62
    17
  6
CONTINUOUS
  0
LAYER
  2
1
 70
     0
 62
    30
  6
CONTINUOUS
  0
LAYER
  2
4
 70
     0
 62
    33
  6
CONTINUOUS
  0
LAYER
  2
ﾚｲﾔ3
 70
     0
 62
    46
  6
CONTINUOUS
  0
LAYER
  2
外形線
 70
     0
 62
    49
  6
CONTINUOUS
  0
LAYER
  2
部品
 70
     0
 62
    14
  6
CONTINUOUS
  0
LAYER
  2
サッシ芯
 70
     0
 62
    17
  6
DASHDOTX2
  0
LAYER
  2
寸法線
 70
     0
 62
    62
  6
CONTINUOUS
  0
LAYER
  2
姿図外形線
 70
     0
 62
    65
  6
CONTINUOUS
  0
LAYER
  2
姿補助線
 70
     0
 62
    30
  6
CONTINUOUS
  0
LAYER
  2
透視線
 70
     0
 62
    78
  6
DOT
  0
LAYER
  2
用紙
 70
     0
 62
    81
  6
CONTINUOUS
  0
LAYER
  2
実線図枠
 70
     0
 62
    94
  6
CONTINUOUS
  0
LAYER
  2
補助図枠
 70
     0
 62
    97
  6
CONTINUOUS
  0
LAYER
  2
建具記号
 70
     0
 62
   110
  6
CONTINUOUS
  0
LAYER
  2
補助文字
 70
     0
 62
   113
  6
CONTINUOUS
  0
ENDTAB
  0
TABLE
  2
STYLE
 70
    10
  0
STYLE
  2
STANDARD
 70
     0
 40
1.0
 41
1.0
 42
1.0
 50
0.0
 71
     0
  3
TXT
  4
BIGFONT
  0
STYLE
  2
TATE
 70
     4
 40
1.0
 41
1.0
 42
1.0
 50
0.0
 71
     0
  3
TXT
  4
BIGFONT
  0
STYLE
  2
TextStyle03
 70
     0
 40
1.0
 41
1.0
 42
1.0
 50
0.0
 71
     0
  3
MONOTXT
  4
BIGFONT
  0
STYLE
  2
TextStyle04
 70
     0
 40
1.0
 41
1.0
 42
1.0
 50
0.0
 71
     0
  3
MONOTXT
  4
BIGFONT
  0
STYLE
  2
TextStyle05
 70
     0
 40
1.0
 41
1.0
 42
1.0
 50
0.0
 71
     0
  3
MONOTXT
  4
BIGFONT
  0
STYLE
  2
TextStyle06
 70
     0
 40
1.0
 41
1.0
 42
1.0
 50
0.0
 71
     0
  3
MONOTXT
  4
BIGFONT
  0
STYLE
  2
TextStyle07
 70
     0
 40
1.0
 41
1.0
 42
1.0
 50
0.0
 71
     0
  3
MONOTXT
  4
BIGFONT
  0
STYLE
  2
TextStyle08
 70
     0
 40
1.0
 41
1.0
 42
1.0
 50
0.0
 71
     0
  3
MONOTXT
  4
BIGFONT
  0
STYLE
  2
TextStyle09
 70
     0
 40
1.0
 41
1.0
 42
1.0
 50
0.0
 71
     0
  3
MONOTXT
  4
BIGFONT
  0
STYLE
  2
TextStyle10
 70
     0
 40
1.0
 41
1.0
 42
1.0
 50
0.0
 71
     0
  3
MONOTXT
  4
BIGFONT
  0
ENDTAB
  0
ENDSEC
  0
SECTION
  2
BLOCKS
  0
BLOCK
  2
*GRP_0001
 70
    65
 10
0.0
 20
0.0
  0
LINE
  8
型材断面
  6
CONTINUOUS
 10
195.0
 20
133.5
 11
195.0
 21
-133.5
  0
LINE
  8
型材断面
  6
CONTINUOUS
 10
195.0
 20
-133.5
 11
-185.0
 21
-133.5
  0
LINE
  8
型材断面
  6
CONTINUOUS
 10
-185.0
 20
-133.5
 11
-185.0
 21
133.5
  0
LINE
  8
型材断面
  6
CONTINUOUS
 10
195.0
 20
133.5
 11
-185.0
 21
133.5
  0
LINE
  8
型材断面
  6
CONTINUOUS
 10
145.0
 20
-133.5
 11
145.0
 21
-118.5
  0
LINE
  8
型材断面
  6
CONTINUOUS
 10
195.0
 20
-118.5
 11
145.0
 21
-118.5
  0
ENDBLK
  0
BLOCK
  2
*GRP_0002
 70
    65
 10
0.0
 20
0.0
  0
INSERT
  2
M8横
  8
ゴム等
  6
CONTINUOUS
 10
163.336003
 20
66.029685
 50
270.0
 41
0.033333
 42
-0.033333
  0
LINE
  8
ボルト／ビス
  6
CONTINUOUS
 10
163.126005
 20
65.896352
 11
163.109338
 21
65.91302
  0
LINE
  8
ボルト／ビス
  6
CONTINUOUS
 10
163.109338
 20
66.146352
 11
163.126005
 21
66.16302
  0
LINE
  8
ボルト／ビス
  6
CONTINUOUS
 10
163.126005
 20
66.16302
 11
163.126005
 21
65.896352
  0
LINE
  8
ボルト／ビス
  6
CONTINUOUS
 10
163.109338
 20
66.146352
 11
163.109338
 21
65.91302
  0
LINE
  8
ボルト／ビス
  6
CONTINUOUS
 10
163.109338
 20
65.91302
 11
163.15267
 21
65.91302
  0
LINE
  8
ボルト／ビス
  6
CONTINUOUS
 10
163.126005
 20
65.896352
 11
163.15267
 21
65.896352
  0
LINE
  8
ボルト／ビス
  6
CONTINUOUS
 10
163.126005
 20
66.16302
 11
163.15267
 21
66.16302
  0
LINE
  8
ボルト／ビス
  6
CONTINUOUS
 10
163.109338
 20
66.146352
 11
163.15267
 21
66.146352
  0
LINE
  8
ボルト／ビス
  6
CONTINUOUS
 10
163.336003
 20
66.396352
 11
163.336003
 21
65.66302
  0
LINE
  8
ボルト／ビス
  6
CONTINUOUS
 10
163.376002
 20
65.61302
 11
163.459335
 21
65.61302
  0
LINE
  8
ボルト／ビス
  6
CONTINUOUS
 10
163.459335
 20
65.61302
 11
163.459335
 21
66.446352
  0
LINE
  8
ボルト／ビス
  6
CONTINUOUS
 10
163.459335
 20
66.446352
 11
163.376002
 21
66.446352
  0
LINE
  8
ボルト／ビス
  6
CONTINUOUS
 10
163.376002
 20
65.61302
 11
163.376002
 21
66.446352
  0
LINE
  8
ボルト／ビス
  6
CONTINUOUS
 10
163.336003
 20
66.396352
 11
163.376002
 21
66.396352
  0
LINE
  8
ボルト／ビス
  6
CONTINUOUS
 10
163.336003
 20
65.66302
 11
163.376002
 21
65.66302
  0
LINE
  8
ボルト／ビス
  6
CONTINUOUS
 10
163.386002
 20
66.029685
 11
163.336003
 21
66.029685
  0
ENDBLK
  0
BLOCK
  2
*GRP_0003
 70
    65
 10
0.0
 20
0.0
  0
LINE
  8
ボルト／ビス
  6
CONTINUOUS
 10
162.47617
 20
66.236355
 11
162.409503
 21
66.236355
  0
LINE
  8
ボルト／ビス
  6
CONTINUOUS
 10
162.409503
 20
66.236355
 11
162.409503
 21
65.50302
  0
LINE
  8
ボルト／ビス
  6
CONTINUOUS
 10
162.409503
 20
65.50302
 11
162.47617
 21
65.50302
  0
LINE
  8
ボルト／ビス
  6
CONTINUOUS
 10
162.47617
 20
66.236355
 11
162.47617
 21
65.50302
  0
LINE
  8
ボルト／ビス
  6
CONTINUOUS
 10
162.37617
 20
66.169687
 11
162.409503
 21
66.169687
  0
LINE
  8
ボルト／ビス
  6
CONTINUOUS
 10
162.37617
 20
66.169687
 11
162.37617
 21
65.569687
  0
LINE
  8
ボルト／ビス
  6
CONTINUOUS
 10
162.37617
 20
65.569687
 11
162.409503
 21
65.569687
  0
LINE
  8
ボルト／ビス
  6
CONTINUOUS
 62
    64
 10
162.17617
 20
66.030062
 11
162.187845
 21
66.062138
  0
ARC
  8
ボルト／ビス
  6
CONTINUOUS
 62
    64
 10
162.281149
 20
66.014031
 40
0.104978
 50
180.0
 51
207.278033
  0
ARC
  8
ボルト／ビス
  6
CONTINUOUS
 62
    64
 10
162.578573
 20
65.869693
 40
0.402402
 50
166.165015
 51
193.834998
  0
LINE
  8
ボルト／ビス
  6
CONTINUOUS
 62
    64
 10
162.17617
 20
65.709312
 11
162.187845
 21
65.677238
  0
ARC
  8
ボルト／ビス
  6
CONTINUOUS
 62
    64
 10
162.281149
 20
65.725355
 40
0.104978
 50
152.721967
 51
180.0
  0
LINE
  8
ボルト／ビス
  6
CONTINUOUS
 62
    64
 10
162.17617
 20
66.030062
 11
162.17617
 21
65.709312
  0
LINE
  8
ボルト／ビス
  6
CONTINUOUS
 62
    64
 10
162.187845
 20
65.677238
 11
162.309503
 21
65.677238
  0
LINE
  8
ボルト／ビス
  6
CONTINUOUS
 62
    64
 10
162.187845
 20
65.773462
 11
162.309503
 21
65.773462
  0
LINE
  8
ボルト／ビス
  6
CONTINUOUS
 62
    64
 10
162.187845
 20
66.062138
 11
162.309503
 21
66.062138
  0
LINE
  8
ボルト／ビス
  6
CONTINUOUS
 62
    64
 10
162.187845
 20
65.965913
 11
162.309503
 21
65.965913
  0
LINE
  8
ボルト／ビス
  6
CONTINUOUS
 10
162.309503
 20
66.062138
 11
162.309503
 21
65.677238
  0
LINE
  8
ボルト／ビス
  6
CONTINUOUS
 10
162.309503
 20
66.069687
 11
162.37617
 21
66.069687
  0
LINE
  8
ボルト／ビス
  6
CONTINUOUS
 10
162.309503
 20
66.069687
 11
162.309503
 21
65.669687
  0
LINE
  8
ボルト／ビス
  6
CONTINUOUS
 10
162.309503
 20
65.669687
 11
162.37617
 21
65.669687
  0
ENDBLK
  0
BLOCK
  2
*GRP_0004
 70
    65
 10
0.0
 20
0.0
  0
INSERT
  2
M8横
  8
ゴム等
  6
CONTINUOUS
 10
163.336003
 20
34.376965
 50
90.0
 41
0.033333
 42
0.033333
  0
LINE
  8
ボルト／ビス
  6
CONTINUOUS
 10
163.126005
 20
34.5103
 11
163.109338
 21
34.493633
  0
LINE
  8
ボルト／ビス
  6
CONTINUOUS
 10
163.109338
 20
34.2603
 11
163.126005
 21
34.243633
  0
LINE
  8
ボルト／ビス
  6
CONTINUOUS
 10
163.126005
 20
34.243633
 11
163.126005
 21
34.5103
  0
LINE
  8
ボルト／ビス
  6
CONTINUOUS
 10
163.109338
 20
34.2603
 11
163.109338
 21
34.493633
  0
LINE
  8
ボルト／ビス
  6
CONTINUOUS
 10
163.109338
 20
34.493633
 11
163.15267
 21
34.493633
  0
LINE
  8
ボルト／ビス
  6
CONTINUOUS
 10
163.126005
 20
34.5103
 11
163.15267
 21
34.5103
  0
LINE
  8
ボルト／ビス
  6
CONTINUOUS
 10
163.126005
 20
34.243633
 11
163.15267
 21
34.243633
  0
LINE
  8
ボルト／ビス
  6
CONTINUOUS
 10
163.109338
 20
34.2603
 11
163.15267
 21
34.2603
  0
LINE
  8
ボルト／ビス
  6
CONTINUOUS
 10
163.336003
 20
34.0103
 11
163.336003
 21
34.743633
  0
LINE
  8
ボルト／ビス
  6
CONTINUOUS
 10
163.376002
 20
34.793633
 11
163.459335
 21
34.793633
  0
LINE
  8
ボルト／ビス
  6
CONTINUOUS
 10
163.459335
 20
34.793633
 11
163.459335
 21
33.9603
  0
LINE
  8
ボルト／ビス
  6
CONTINUOUS
 10
163.459335
 20
33.9603
 11
163.376002
 21
33.9603
  0
LINE
  8
ボルト／ビス
  6
CONTINUOUS
 10
163.376002
 20
34.793633
 11
163.376002
 21
33.9603
  0
LINE
  8
ボルト／ビス
  6
CONTINUOUS
 10
163.336003
 20
34.0103
 11
163.376002
 21
34.0103
  0
LINE
  8
ボルト／ビス
  6
CONTINUOUS
 10
163.336003
 20
34.743633
 11
163.376002
 21
34.743633
  0
LINE
  8
ボルト／ビス
  6
CONTINUOUS
 10
163.386002
 20
34.376965
 11
163.336003
 21
34.376965
  0
ENDBLK
  0
BLOCK
  2
*GRP_0005
 70
    65
 10
0.0
 20
0.0
  0
LINE
  8
ボルト／ビス
  6
CONTINUOUS
 10
162.47617
 20
34.170298
 11
162.409503
 21
34.170298
  0
LINE
  8
ボルト／ビス
  6
CONTINUOUS
 10
162.409503
 20
34.170298
 11
162.409503
 21
34.90363
  0
LINE
  8
ボルト／ビス
  6
CONTINUOUS
 10
162.409503
 20
34.90363
 11
162.47617
 21
34.90363
  0
LINE
  8
ボルト／ビス
  6
CONTINUOUS
 10
162.47617
 20
34.170298
 11
162.47617
 21
34.90363
  0
LINE
  8
ボルト／ビス
  6
CONTINUOUS
 10
162.37617
 20
34.236965
 11
162.409503
 21
34.236965
  0
LINE
  8
ボルト／ビス
  6
CONTINUOUS
 10
162.37617
 20
34.236965
 11
162.37617
 21
34.836965
  0
LINE
  8
ボルト／ビス
  6
CONTINUOUS
 10
162.37617
 20
34.836965
 11
162.409503
 21
34.836965
  0
LINE
  8
ボルト／ビス
  6
CONTINUOUS
 62
    64
 10
162.17617
 20
34.37659
 11
162.187845
 21
34.344515
  0
ARC
  8
ボルト／ビス
  6
CONTINUOUS
 62
    64
 10
162.281149
 20
34.392632
 40
0.104978
 50
152.721967
 51
180.0
  0
ARC
  8
ボルト／ビス
  6
CONTINUOUS
 62
    64
 10
162.578573
 20
34.536969
 40
0.402402
 50
166.165002
 51
193.834985
  0
LINE
  8
ボルト／ビス
  6
CONTINUOUS
 62
    64
 10
162.17617
 20
34.69734
 11
162.187845
 21
34.729415
  0
ARC
  8
ボルト／ビス
  6
CONTINUOUS
 62
    64
 10
162.281149
 20
34.681307
 40
0.104978
 50
180.0
 51
207.278033
  0
LINE
  8
ボルト／ビス
  6
CONTINUOUS
 62
    64
 10
162.17617
 20
34.37659
 11
162.17617
 21
34.69734
  0
LINE
  8
ボルト／ビス
  6
CONTINUOUS
 62
    64
 10
162.187845
 20
34.729415
 11
162.309503
 21
34.729415
  0
LINE
  8
ボルト／ビス
  6
CONTINUOUS
 62
    64
 10
162.187845
 20
34.63319
 11
162.309503
 21
34.63319
  0
LINE
  8
ボルト／ビス
  6
CONTINUOUS
 62
    64
 10
162.187845
 20
34.344515
 11
162.309503
 21
34.344515
  0
LINE
  8
ボルト／ビス
  6
CONTINUOUS
 62
    64
 10
162.187845
 20
34.44074
 11
162.309503
 21
34.44074
  0
LINE
  8
ボルト／ビス
  6
CONTINUOUS
 10
162.309503
 20
34.344515
 11
162.309503
 21
34.729415
  0
LINE
  8
ボルト／ビス
  6
CONTINUOUS
 10
162.309503
 20
34.336965
 11
162.37617
 21
34.336965
  0
LINE
  8
ボルト／ビス
  6
CONTINUOUS
 10
162.309503
 20
34.336965
 11
162.309503
 21
34.736965
  0
LINE
  8
ボルト／ビス
  6
CONTINUOUS
 10
162.309503
 20
34.736965
 11
162.37617
 21
34.736965
  0
ENDBLK
  0
BLOCK
  2
*DIM_0006
 70
    65
 10
0.0
 20
0.0
  0
LINE
  8
寸法
  6
CONTINUOUS
 10
161.248695
 20
32.92363
 11
142.14273
 21
32.92363
  0
LINE
  8
寸法
  6
CONTINUOUS
 10
142.14273
 20
35.203325
 11
142.14273
 21
32.92363
  0
POINT
  8
寸法
 10
142.14273
 20
35.203325
  0
POINT
  8
寸法
 10
142.14273
 20
32.92363
  0
TEXT
  7
TextStyle03
  8
寸法
  6
CONTINUOUS
 10
141.75
 20
24.01875
  1
68.4
 40
3.0
 50
90.0
 72
     5
 11
141.75
 21
30.58125
  0
ENDBLK
  0
BLOCK
  2
*DIM_0007
 70
    65
 10
0.0
 20
0.0
  0
LINE
  8
寸法
  6
CONTINUOUS
 10
142.14273
 20
65.203325
 11
142.14273
 21
35.203325
  0
POINT
  8
寸法
 10
142.14273
 20
65.203325
  0
POINT
  8
寸法
 10
142.14273
 20
35.203325
  0
TEXT
  7
TextStyle03
  8
寸法
  6
CONTINUOUS
 10
141.75
 20
39.325
  1
呼称寸法　900
 40
3.0
 50
90.0
 72
     5
 11
141.75
 21
61.075
  0
ENDBLK
  0
BLOCK
  2
*DIM_0008
 70
    65
 10
0.0
 20
0.0
  0
LINE
  8
寸法
  6
CONTINUOUS
 10
161.248695
 20
67.48302
 11
142.14273
 21
67.48302
  0
LINE
  8
寸法
  6
CONTINUOUS
 10
142.14273
 20
65.203325
 11
142.14273
 21
67.48302
  0
POINT
  8
寸法
 10
142.14273
 20
65.203325
  0
POINT
  8
寸法
 10
142.14273
 20
67.48302
  0
TEXT
  7
TextStyle03
  8
寸法
  6
CONTINUOUS
 10
141.75
 20
69.79375
  1
68.4
 40
3.0
 50
90.0
 72
     5
 11
141.75
 21
76.35625
  0
ENDBLK
  0
BLOCK
  2
*DIM_0009
 70
    65
 10
0.0
 20
0.0
  0
LINE
  8
寸法
  6
CONTINUOUS
 10
169.209335
 20
28.236965
 11
169.209335
 21
20.327945
  0
LINE
  8
寸法
  6
CONTINUOUS
 10
161.742835
 20
30.203325
 11
161.742835
 21
20.327945
  0
LINE
  8
寸法
  6
CONTINUOUS
 10
169.209335
 20
20.327945
 11
161.742835
 21
20.327945
  0
POINT
  8
寸法
 10
169.209335
 20
20.327945
  0
POINT
  8
寸法
 10
161.742835
 20
20.327945
  0
TEXT
  7
TextStyle03
  8
寸法
  6
CONTINUOUS
 10
163.0375
 20
20.7
  1
224
 40
3.0
 72
     5
 11
167.9125
 21
20.7
  0
ENDBLK
  0
BLOCK
  2
*GRP_0010
 70
    65
 10
0.0
 20
0.0
  0
INSERT
  2
M8横
  8
ゴム等
  6
CONTINUOUS
 10
54.896522
 20
-70.297288
 50
180.0
 41
0.033333
 42
-0.033333
  0
LINE
  8
ボルト／ビス
  6
CONTINUOUS
 10
54.76319
 20
-70.087288
 11
54.779855
 21
-70.070622
  0
LINE
  8
ボルト／ビス
  6
CONTINUOUS
 10
55.01319
 20
-70.070622
 11
55.029855
 21
-70.087288
  0
LINE
  8
ボルト／ビス
  6
CONTINUOUS
 10
55.029855
 20
-70.087288
 11
54.76319
 21
-70.087288
  0
LINE
  8
ボルト／ビス
  6
CONTINUOUS
 10
55.01319
 20
-70.070622
 11
54.779855
 21
-70.070622
  0
LINE
  8
ボルト／ビス
  6
CONTINUOUS
 10
54.779855
 20
-70.070622
 11
54.779855
 21
-70.113952
  0
LINE
  8
ボルト／ビス
  6
CONTINUOUS
 10
54.76319
 20
-70.087288
 11
54.76319
 21
-70.113952
  0
LINE
  8
ボルト／ビス
  6
CONTINUOUS
 10
55.029855
 20
-70.087288
 11
55.029855
 21
-70.113952
  0
LINE
  8
ボルト／ビス
  6
CONTINUOUS
 10
55.01319
 20
-70.070622
 11
55.01319
 21
-70.113952
  0
LINE
  8
ボルト／ビス
  6
CONTINUOUS
 10
55.26319
 20
-70.297288
 11
54.529855
 21
-70.297288
  0
LINE
  8
ボルト／ビス
  6
CONTINUOUS
 10
54.479855
 20
-70.337288
 11
54.479855
 21
-70.42062
  0
LINE
  8
ボルト／ビス
  6
CONTINUOUS
 10
54.479855
 20
-70.42062
 11
55.31319
 21
-70.42062
  0
LINE
  8
ボルト／ビス
  6
CONTINUOUS
 10
55.31319
 20
-70.42062
 11
55.31319
 21
-70.337288
  0
LINE
  8
ボルト／ビス
  6
CONTINUOUS
 10
54.479855
 20
-70.337288
 11
55.31319
 21
-70.337288
  0
LINE
  8
ボルト／ビス
  6
CONTINUOUS
 10
55.26319
 20
-70.297288
 11
55.26319
 21
-70.337288
  0
LINE
  8
ボルト／ビス
  6
CONTINUOUS
 10
54.529855
 20
-70.297288
 11
54.529855
 21
-70.337288
  0
LINE
  8
ボルト／ビス
  6
CONTINUOUS
 10
54.896522
 20
-70.347288
 11
54.896522
 21
-70.297288
  0
ENDBLK
  0
BLOCK
  2
*GRP_0011
 70
    65
 10
0.0
 20
0.0
  0
LINE
  8
ボルト／ビス
  6
CONTINUOUS
 10
55.10319
 20
-69.437453
 11
55.10319
 21
-69.370788
  0
LINE
  8
ボルト／ビス
  6
CONTINUOUS
 10
55.10319
 20
-69.370788
 11
54.369858
 21
-69.370788
  0
LINE
  8
ボルト／ビス
  6
CONTINUOUS
 10
54.369858
 20
-69.370788
 11
54.369858
 21
-69.437453
  0
LINE
  8
ボルト／ビス
  6
CONTINUOUS
 10
55.10319
 20
-69.437453
 11
54.369858
 21
-69.437453
  0
LINE
  8
ボルト／ビス
  6
CONTINUOUS
 10
55.036525
 20
-69.337453
 11
55.036525
 21
-69.370788
  0
LINE
  8
ボルト／ビス
  6
CONTINUOUS
 10
55.036525
 20
-69.337453
 11
54.436525
 21
-69.337453
  0
LINE
  8
ボルト／ビス
  6
CONTINUOUS
 10
54.436525
 20
-69.337453
 11
54.436525
 21
-69.370788
  0
LINE
  8
ボルト／ビス
  6
CONTINUOUS
 62
    64
 10
54.8969
 20
-69.137453
 11
54.928975
 21
-69.149128
  0
ARC
  8
ボルト／ビス
  6
CONTINUOUS
 62
    64
 10
54.880861
 20
-69.242431
 40
0.104978
 50
90.0
 51
117.278033
  0
ARC
  8
ボルト／ビス
  6
CONTINUOUS
 62
    64
 10
54.736524
 20
-69.539855
 40
0.402402
 50
76.165015
 51
103.834998
  0
LINE
  8
ボルト／ビス
  6
CONTINUOUS
 62
    64
 10
54.57615
 20
-69.137453
 11
54.544075
 21
-69.149128
  0
ARC
  8
ボルト／ビス
  6
CONTINUOUS
 62
    64
 10
54.592186
 20
-69.242431
 40
0.104978
 50
62.721967
 51
90.0
  0
LINE
  8
ボルト／ビス
  6
CONTINUOUS
 62
    64
 10
54.8969
 20
-69.137453
 11
54.57615
 21
-69.137453
  0
LINE
  8
ボルト／ビス
  6
CONTINUOUS
 62
    64
 10
54.544075
 20
-69.149128
 11
54.544075
 21
-69.270788
  0
LINE
  8
ボルト／ビス
  6
CONTINUOUS
 62
    64
 10
54.6403
 20
-69.149128
 11
54.6403
 21
-69.270788
  0
LINE
  8
ボルト／ビス
  6
CONTINUOUS
 62
    64
 10
54.928975
 20
-69.149128
 11
54.928975
 21
-69.270788
  0
LINE
  8
ボルト／ビス
  6
CONTINUOUS
 62
    64
 10
54.83275
 20
-69.149128
 11
54.83275
 21
-69.270788
  0
LINE
  8
ボルト／ビス
  6
CONTINUOUS
 10
54.928975
 20
-69.270788
 11
54.544075
 21
-69.270788
  0
LINE
  8
ボルト／ビス
  6
CONTINUOUS
 10
54.936525
 20
-69.270788
 11
54.936525
 21
-69.337453
  0
LINE
  8
ボルト／ビス
  6
CONTINUOUS
 10
54.936525
 20
-69.270788
 11
54.536525
 21
-69.270788
  0
LINE
  8
ボルト／ビス
  6
CONTINUOUS
 10
54.536525
 20
-69.270788
 11
54.536525
 21
-69.337453
  0
ENDBLK
  0
BLOCK
  2
*DIM_0012
 70
    65
 10
0.0
 20
0.0
  0
LINE
  8
寸法
  6
CONTINUOUS
 10
59.070162
 20
-68.70412
 11
77.688635
 21
-68.70412
  0
LINE
  8
寸法
  6
CONTINUOUS
 10
61.036525
 20
-76.17062
 11
77.688635
 21
-76.17062
  0
LINE
  8
寸法
  6
CONTINUOUS
 10
77.688635
 20
-68.70412
 11
77.688635
 21
-76.17062
  0
POINT
  8
寸法
 10
77.688635
 20
-68.70412
  0
POINT
  8
寸法
 10
77.688635
 20
-76.17062
  0
TEXT
  7
TextStyle03
  8
寸法
  6
CONTINUOUS
 10
77.3
 20
-74.8875
  1
224
 40
3.0
 50
90.0
 72
     5
 11
77.3
 21
-70.0125
  0
ENDBLK
  0
BLOCK
  2
*GRP_0013
 70
    65
 10
0.0
 20
0.0
  0
INSERT
  2
M8横
  8
ゴム等
  6
CONTINUOUS
 10
-130.089517
 20
-70.297288
 41
0.033333
 42
0.033333
  0
LINE
  8
ボルト／ビス
  6
CONTINUOUS
 10
-129.956185
 20
-70.087288
 11
-129.97285
 21
-70.070622
  0
LINE
  8
ボルト／ビス
  6
CONTINUOUS
 10
-130.206185
 20
-70.070622
 11
-130.22285
 21
-70.087288
  0
LINE
  8
ボルト／ビス
  6
CONTINUOUS
 10
-130.22285
 20
-70.087288
 11
-129.956185
 21
-70.087288
  0
LINE
  8
ボルト／ビス
  6
CONTINUOUS
 10
-130.206185
 20
-70.070622
 11
-129.97285
 21
-70.070622
  0
LINE
  8
ボルト／ビス
  6
CONTINUOUS
 10
-129.97285
 20
-70.070622
 11
-129.97285
 21
-70.113952
  0
LINE
  8
ボルト／ビス
  6
CONTINUOUS
 10
-129.956185
 20
-70.087288
 11
-129.956185
 21
-70.113952
  0
LINE
  8
ボルト／ビス
  6
CONTINUOUS
 10
-130.22285
 20
-70.087288
 11
-130.22285
 21
-70.113952
  0
LINE
  8
ボルト／ビス
  6
CONTINUOUS
 10
-130.206185
 20
-70.070622
 11
-130.206185
 21
-70.113952
  0
LINE
  8
ボルト／ビス
  6
CONTINUOUS
 10
-130.456185
 20
-70.297288
 11
-129.72285
 21
-70.297288
  0
LINE
  8
ボルト／ビス
  6
CONTINUOUS
 10
-129.67285
 20
-70.337288
 11
-129.67285
 21
-70.42062
  0
LINE
  8
ボルト／ビス
  6
CONTINUOUS
 10
-129.67285
 20
-70.42062
 11
-130.506185
 21
-70.42062
  0
LINE
  8
ボルト／ビス
  6
CONTINUOUS
 10
-130.506185
 20
-70.42062
 11
-130.506185
 21
-70.337288
  0
LINE
  8
ボルト／ビス
  6
CONTINUOUS
 10
-129.67285
 20
-70.337288
 11
-130.506185
 21
-70.337288
  0
LINE
  8
ボルト／ビス
  6
CONTINUOUS
 10
-130.456185
 20
-70.297288
 11
-130.456185
 21
-70.337288
  0
LINE
  8
ボルト／ビス
  6
CONTINUOUS
 10
-129.72285
 20
-70.297288
 11
-129.72285
 21
-70.337288
  0
LINE
  8
ボルト／ビス
  6
CONTINUOUS
 10
-130.089517
 20
-70.347288
 11
-130.089517
 21
-70.297288
  0
ENDBLK
  0
BLOCK
  2
*GRP_0014
 70
    65
 10
0.0
 20
0.0
  0
LINE
  8
ボルト／ビス
  6
CONTINUOUS
 10
-130.296185
 20
-69.437453
 11
-130.296185
 21
-69.370788
  0
LINE
  8
ボルト／ビス
  6
CONTINUOUS
 10
-130.296185
 20
-69.370788
 11
-129.562853
 21
-69.370788
  0
LINE
  8
ボルト／ビス
  6
CONTINUOUS
 10
-129.562853
 20
-69.370788
 11
-129.562853
 21
-69.437453
  0
LINE
  8
ボルト／ビス
  6
CONTINUOUS
 10
-130.296185
 20
-69.437453
 11
-129.562853
 21
-69.437453
  0
LINE
  8
ボルト／ビス
  6
CONTINUOUS
 10
-130.22952
 20
-69.337453
 11
-130.22952
 21
-69.370788
  0
LINE
  8
ボルト／ビス
  6
CONTINUOUS
 10
-130.22952
 20
-69.337453
 11
-129.62952
 21
-69.337453
  0
LINE
  8
ボルト／ビス
  6
CONTINUOUS
 10
-129.62952
 20
-69.337453
 11
-129.62952
 21
-69.370788
  0
LINE
  8
ボルト／ビス
  6
CONTINUOUS
 62
    64
 10
-130.089895
 20
-69.137453
 11
-130.12197
 21
-69.149128
  0
ARC
  8
ボルト／ビス
  6
CONTINUOUS
 62
    64
 10
-130.073858
 20
-69.242431
 40
0.104978
 50
62.721967
 51
90.0
  0
ARC
  8
ボルト／ビス
  6
CONTINUOUS
 62
    64
 10
-129.92952
 20
-69.539855
 40
0.402402
 50
76.165002
 51
103.834985
  0
LINE
  8
ボルト／ビス
  6
CONTINUOUS
 62
    64
 10
-129.769145
 20
-69.137453
 11
-129.73707
 21
-69.149128
  0
ARC
  8
ボルト／ビス
  6
CONTINUOUS
 62
    64
 10
-129.785183
 20
-69.242431
 40
0.104978
 50
90.0
 51
117.278033
  0
LINE
  8
ボルト／ビス
  6
CONTINUOUS
 62
    64
 10
-130.089895
 20
-69.137453
 11
-129.769145
 21
-69.137453
  0
LINE
  8
ボルト／ビス
  6
CONTINUOUS
 62
    64
 10
-129.73707
 20
-69.149128
 11
-129.73707
 21
-69.270788
  0
LINE
  8
ボルト／ビス
  6
CONTINUOUS
 62
    64
 10
-129.833295
 20
-69.149128
 11
-129.833295
 21
-69.270788
  0
LINE
  8
ボルト／ビス
  6
CONTINUOUS
 62
    64
 10
-130.12197
 20
-69.149128
 11
-130.12197
 21
-69.270788
  0
LINE
  8
ボルト／ビス
  6
CONTINUOUS
 62
    64
 10
-130.025745
 20
-69.149128
 11
-130.025745
 21
-69.270788
  0
LINE
  8
ボルト／ビス
  6
CONTINUOUS
 10
-130.12197
 20
-69.270788
 11
-129.73707
 21
-69.270788
  0
LINE
  8
ボルト／ビス
  6
CONTINUOUS
 10
-130.12952
 20
-69.270788
 11
-130.12952
 21
-69.337453
  0
LINE
  8
ボルト／ビス
  6
CONTINUOUS
 10
-130.12952
 20
-69.270788
 11
-129.72952
 21
-69.270788
  0
LINE
  8
ボルト／ビス
  6
CONTINUOUS
 10
-129.72952
 20
-69.270788
 11
-129.72952
 21
-69.337453
  0
ENDBLK
  0
BLOCK
  2
*DIM_0015
 70
    65
 10
0.0
 20
0.0
  0
LINE
  8
寸法
  6
BYBLOCK
 62
     0
 10
-112.596495
 20
31.573195
 11
-112.596495
 21
26.58783
  0
LINE
  8
寸法
  6
BYBLOCK
 62
     0
 10
-37.596497
 20
31.573198
 11
-37.596497
 21
26.58783
  0
LINE
  8
寸法
  6
BYBLOCK
 62
     0
 10
-112.596495
 20
26.58783
 11
-37.596497
 21
26.58783
  0
POINT
  8
寸法
 62
     0
 10
-112.596495
 20
26.58783
  0
POINT
  8
寸法
 62
     0
 10
-37.596497
 20
26.58783
  0
TEXT
  7
TextStyle03
  8
寸法
  6
CONTINUOUS
 62
     0
 10
-78.38125
 20
26.95
  1
2250
 40
3.0
 72
     5
 11
-71.81875
 21
26.95
  0
ENDBLK
  0
BLOCK
  2
*DIM_0016
 70
    65
 10
0.0
 20
0.0
  0
LINE
  8
寸法
  6
BYBLOCK
 62
     0
 10
37.4035
 20
31.573195
 11
37.4035
 21
26.58783
  0
LINE
  8
寸法
  6
BYBLOCK
 62
     0
 10
-37.596497
 20
26.58783
 11
37.4035
 21
26.58783
  0
POINT
  8
寸法
 62
     0
 10
37.4035
 20
26.58783
  0
TEXT
  7
TextStyle03
  8
寸法
  6
CONTINUOUS
 62
     0
 10
-3.38125
 20
26.95
  1
2250
 40
3.0
 72
     5
 11
3.18125
 21
26.95
  0
ENDBLK
  0
BLOCK
  2
*DIM_0017
 70
    65
 10
0.0
 20
0.0
  0
LINE
  8
寸法
  6
BYBLOCK
 62
     0
 10
57.700297
 20
61.303325
 11
64.47759
 21
61.303325
  0
LINE
  8
寸法
  6
BYBLOCK
 62
     0
 10
64.47759
 20
65.203325
 11
64.47759
 21
61.303325
  0
POINT
  8
寸法
 62
     0
 10
64.47759
 20
65.203325
  0
POINT
  8
寸法
 62
     0
 10
64.47759
 20
61.303325
  0
TEXT
  7
TextStyle03
  8
寸法
  6
CONTINUOUS
 62
     0
 10
64.15
 20
65.8875
  1
117
 40
3.0
 50
90.0
 72
     5
 11
64.15
 21
70.7625
  0
ENDBLK
  0
BLOCK
  2
*DIM_0018
 70
    65
 10
0.0
 20
0.0
  0
LINE
  8
寸法
  6
BYBLOCK
 62
     0
 10
57.700297
 20
39.103325
 11
64.47759
 21
39.103325
  0
LINE
  8
寸法
  6
BYBLOCK
 62
     0
 10
64.47759
 20
35.203325
 11
64.47759
 21
39.103325
  0
POINT
  8
寸法
 62
     0
 10
64.47759
 20
35.203325
  0
POINT
  8
寸法
 62
     0
 10
64.47759
 20
39.103325
  0
TEXT
  7
TextStyle03
  8
寸法
  6
CONTINUOUS
 62
     0
 10
64.525
 20
29.6125
  1
117
 40
3.0
 50
90.0
 72
     5
 11
64.525
 21
34.4875
  0
ENDBLK
  0
BLOCK
  2
*DIM_0019
 70
    65
 10
0.0
 20
0.0
  0
LINE
  8
寸法
  6
BYBLOCK
 62
     0
 10
-132.263162
 20
60.203325
 11
-145.556
 21
60.203325
  0
LINE
  8
寸法
  6
BYBLOCK
 62
     0
 10
-132.263162
 20
40.203325
 11
-145.556
 21
40.203325
  0
LINE
  8
寸法
  6
BYBLOCK
 62
     0
 10
-145.556
 20
60.203325
 11
-145.556
 21
40.203325
  0
POINT
  8
寸法
 62
     0
 10
-145.556
 20
60.203325
  0
POINT
  8
寸法
 62
     0
 10
-145.556
 20
40.203325
  0
TEXT
  7
TextStyle03
  8
寸法
  6
CONTINUOUS
 62
     0
 10
-145.9
 20
47.7625
  1
600
 40
3.0
 50
90.0
 72
     5
 11
-145.9
 21
52.6375
  0
ENDBLK
  0
BLOCK
  2
*DIM_0020
 70
    65
 10
0.0
 20
0.0
  0
LINE
  8
寸法
  6
BYBLOCK
 62
     0
 10
-117.596497
 20
68.203325
 11
-117.596497
 21
97.311398
  0
LINE
  8
寸法
  6
BYBLOCK
 62
     0
 10
-90.92983
 20
68.203325
 11
-90.92983
 21
97.311398
  0
LINE
  8
寸法
  6
BYBLOCK
 62
     0
 10
-117.596497
 20
97.311398
 11
-90.92983
 21
97.311398
  0
POINT
  8
寸法
 62
     0
 10
-117.596497
 20
97.311398
  0
POINT
  8
寸法
 62
     0
 10
-90.92983
 20
97.311398
  0
TEXT
  7
TextStyle03
  8
寸法
  6
CONTINUOUS
 62
     0
 10
-106.7125
 20
97.675
  1
800
 40
3.0
 72
     5
 11
-101.8375
 21
97.675
  0
ENDBLK
  0
BLOCK
  2
*DIM_0021
 70
    65
 10
0.0
 20
0.0
  0
LINE
  8
寸法
  6
BYBLOCK
 62
     0
 10
-64.263165
 20
68.203325
 11
-64.263165
 21
97.311398
  0
LINE
  8
寸法
  6
BYBLOCK
 62
     0
 10
-90.92983
 20
97.311398
 11
-64.263165
 21
97.311398
  0
POINT
  8
寸法
 62
     0
 10
-64.263165
 20
97.311398
  0
TEXT
  7
TextStyle03
  8
寸法
  6
CONTINUOUS
 62
     0
 10
-80.0375
 20
97.675
  1
800
 40
3.0
 72
     5
 11
-75.1625
 21
97.675
  0
ENDBLK
  0
BLOCK
  2
*DIM_0022
 70
    65
 10
0.0
 20
0.0
  0
LINE
  8
寸法
  6
BYBLOCK
 62
     0
 10
-37.596497
 20
68.203325
 11
-37.596497
 21
97.311398
  0
LINE
  8
寸法
  6
BYBLOCK
 62
     0
 10
-64.263165
 20
97.311398
 11
-37.596497
 21
97.311398
  0
POINT
  8
寸法
 62
     0
 10
-37.596497
 20
97.311398
  0
TEXT
  7
TextStyle03
  8
寸法
  6
CONTINUOUS
 62
     0
 10
-53.3625
 20
97.675
  1
800
 40
3.0
 72
     5
 11
-48.4875
 21
97.675
  0
ENDBLK
  0
BLOCK
  2
*DIM_0023
 70
    65
 10
0.0
 20
0.0
  0
LINE
  8
寸法
  6
BYBLOCK
 62
     0
 10
-10.92983
 20
68.203325
 11
-10.92983
 21
97.311398
  0
LINE
  8
寸法
  6
BYBLOCK
 62
     0
 10
-37.596497
 20
97.311398
 11
-10.92983
 21
97.311398
  0
POINT
  8
寸法
 62
     0
 10
-10.92983
 20
97.311398
  0
TEXT
  7
TextStyle03
  8
寸法
  6
CONTINUOUS
 62
     0
 10
-26.7125
 20
97.675
  1
800
 40
3.0
 72
     5
 11
-21.8375
 21
97.675
  0
ENDBLK
  0
BLOCK
  2
*DIM_0024
 70
    65
 10
0.0
 20
0.0
  0
LINE
  8
寸法
  6
BYBLOCK
 62
     0
 10
15.736835
 20
68.203325
 11
15.736835
 21
97.311398
  0
LINE
  8
寸法
  6
BYBLOCK
 62
     0
 10
-10.92983
 20
97.311398
 11
15.736835
 21
97.311398
  0
POINT
  8
寸法
 62
     0
 10
15.736835
 20
97.311398
  0
TEXT
  7
TextStyle03
  8
寸法
  6
CONTINUOUS
 62
     0
 10
-0.0375
 20
97.675
  1
800
 40
3.0
 72
     5
 11
4.8375
 21
97.675
  0
ENDBLK
  0
BLOCK
  2
*DIM_0025
 70
    65
 10
0.0
 20
0.0
  0
LINE
  8
寸法
  6
BYBLOCK
 62
     0
 10
42.403502
 20
68.203325
 11
42.403502
 21
97.311398
  0
LINE
  8
寸法
  6
BYBLOCK
 62
     0
 10
15.736835
 20
97.311398
 11
42.403502
 21
97.311398
  0
POINT
  8
寸法
 62
     0
 10
42.403502
 20
97.311398
  0
TEXT
  7
TextStyle03
  8
寸法
  6
CONTINUOUS
 62
     0
 10
26.6375
 20
97.675
  1
800
 40
3.0
 72
     5
 11
31.5125
 21
97.675
  0
ENDBLK
  0
BLOCK
  2
*GRP_0026
 70
    65
 10
0.0
 20
0.0
  0
LINE
  8
型材断面
  6
DOT
 10
55.73683
 20
-58.270785
 11
55.68683
 21
-58.270785
  0
LINE
  8
型材断面
  6
DOT
 10
54.070162
 20
-57.770785
 11
54.070162
 21
-57.037453
  0
LINE
  8
型材断面
  6
DOT
 10
54.119858
 20
-58.753953
 11
55.566525
 21
-58.753953
  0
LINE
  8
型材断面
  6
DOT
 10
55.566525
 20
-59.203953
 11
55.566525
 21
-58.753953
  0
LINE
  8
型材断面
  6
DOT
 62
    47
 10
56.299857
 20
-61.876645
 11
56.349857
 21
-61.876645
  0
LINE
  8
型材断面
  6
DOT
 62
    47
 10
56.349857
 20
-61.876645
 11
56.349857
 21
-61.54331
  0
LINE
  8
型材断面
  6
DOT
 62
    47
 10
56.349857
 20
-61.54331
 11
55.566525
 21
-61.44331
  0
LINE
  8
型材断面
  6
DOT
 62
    47
 10
55.566525
 20
-61.037285
 11
55.566525
 21
-61.44331
  0
LINE
  8
型材断面
  6
DOT
 62
    47
 10
56.036525
 20
-61.037285
 11
56.036525
 21
-59.203953
  0
LINE
  8
型材断面
  6
DOT
 10
55.73683
 20
-58.270785
 11
55.73683
 21
-57.770785
  0
LINE
  8
型材断面
  6
DOT
 10
54.119858
 20
-58.753953
 11
54.119858
 21
-58.270785
  0
INSERT
  2
*GRP_0027
  8
型材断面
  6
DOT
 10
0.0
 20
0.0
  0
INSERT
  2
*GRP_0028
  8
型材断面
  6
DOT
 10
0.0
 20
0.0
  0
LINE
  8
型材断面
  6
DOT
 10
56.349857
 20
-61.876645
 11
-37.596497
 21
-61.876645
  0
LINE
  8
型材断面
  6
DOT
 10
56.349857
 20
-61.54331
 11
-37.596497
 21
-61.54331
  0
LINE
  8
型材断面
  6
DOT
 10
55.566525
 20
-61.44331
 11
-37.596497
 21
-61.44331
  0
LINE
  8
型材断面
  6
DOT
 10
56.036525
 20
-61.037285
 11
-37.596497
 21
-61.037285
  0
LINE
  8
型材断面
  6
DOT
 10
55.73683
 20
-58.270785
 11
-37.596497
 21
-58.270785
  0
LINE
  8
型材断面
  6
DOT
 10
54.070162
 20
-57.037453
 11
-37.596497
 21
-57.037453
  0
LINE
  8
型材断面
  6
DOT
 10
55.73683
 20
-57.770785
 11
-37.596497
 21
-57.770785
  0
LINE
  8
型材断面
  6
DOT
 10
55.566525
 20
-58.753953
 11
-37.596497
 21
-58.753953
  0
LINE
  8
型材断面
  6
DOT
 10
56.036525
 20
-59.203953
 11
-37.596497
 21
-59.203953
  0
LINE
  8
型材断面
  6
DOT
 10
-130.929825
 20
-58.270785
 11
-130.879825
 21
-58.270785
  0
LINE
  8
型材断面
  6
DOT
 10
-129.263158
 20
-57.770785
 11
-129.263158
 21
-57.037453
  0
LINE
  8
型材断面
  6
DOT
 10
-129.312853
 20
-58.753953
 11
-130.75952
 21
-58.753953
  0
LINE
  8
型材断面
  6
DOT
 10
-130.75952
 20
-59.203953
 11
-130.75952
 21
-58.753953
  0
LINE
  8
型材断面
  6
DOT
 62
    47
 10
-131.492853
 20
-61.876645
 11
-131.542853
 21
-61.876645
  0
LINE
  8
型材断面
  6
DOT
 62
    47
 10
-131.542853
 20
-61.876645
 11
-131.542853
 21
-61.54331
  0
LINE
  8
型材断面
  6
DOT
 62
    47
 10
-131.542853
 20
-61.54331
 11
-130.75952
 21
-61.44331
  0
LINE
  8
型材断面
  6
DOT
 62
    47
 10
-130.75952
 20
-61.037285
 11
-130.75952
 21
-61.44331
  0
LINE
  8
型材断面
  6
DOT
 62
    47
 10
-131.22952
 20
-61.037285
 11
-131.22952
 21
-59.203953
  0
LINE
  8
型材断面
  6
DOT
 10
-130.929825
 20
-58.270785
 11
-130.929825
 21
-57.770785
  0
LINE
  8
型材断面
  6
DOT
 10
-129.312853
 20
-58.753953
 11
-129.312853
 21
-58.270785
  0
INSERT
  2
*GRP_0029
  8
型材断面
  6
DOT
 10
0.0
 20
0.0
  0
INSERT
  2
*GRP_0030
  8
型材断面
  6
DOT
 10
0.0
 20
0.0
  0
LINE
  8
型材断面
  6
DOT
 10
-131.542853
 20
-61.876645
 11
-37.596497
 21
-61.876645
  0
LINE
  8
型材断面
  6
DOT
 10
-131.542853
 20
-61.54331
 11
-37.596497
 21
-61.54331
  0
LINE
  8
型材断面
  6
DOT
 10
-130.75952
 20
-61.44331
 11
-37.596497
 21
-61.44331
  0
LINE
  8
型材断面
  6
DOT
 10
-131.22952
 20
-61.037285
 11
-37.596497
 21
-61.037285
  0
LINE
  8
型材断面
  6
DOT
 10
-130.929825
 20
-58.270785
 11
-37.596497
 21
-58.270785
  0
LINE
  8
型材断面
  6
DOT
 10
-129.263158
 20
-57.037453
 11
-37.596497
 21
-57.037453
  0
LINE
  8
型材断面
  6
DOT
 10
-130.929825
 20
-57.770785
 11
-37.596497
 21
-57.770785
  0
LINE
  8
型材断面
  6
DOT
 10
-130.75952
 20
-58.753953
 11
-37.596497
 21
-58.753953
  0
LINE
  8
型材断面
  6
DOT
 10
-131.22952
 20
-59.203953
 11
-37.596497
 21
-59.203953
  0
ENDBLK
  0
BLOCK
  2
*GRP_0027
 70
    65
 10
0.0
 20
0.0
  0
INSERT
  2
M8横
  8
ゴム等
  6
DOT
 10
54.896522
 20
-58.63062
 50
180.0
 41
0.033333
 42
-0.033333
  0
LINE
  8
ボルト／ビス
  6
DOT
 10
54.76319
 20
-58.42062
 11
54.779855
 21
-58.403955
  0
LINE
  8
ボルト／ビス
  6
DOT
 10
55.01319
 20
-58.403955
 11
55.029855
 21
-58.42062
  0
LINE
  8
ボルト／ビス
  6
DOT
 10
55.029855
 20
-58.42062
 11
54.76319
 21
-58.42062
  0
LINE
  8
ボルト／ビス
  6
DOT
 10
55.01319
 20
-58.403955
 11
54.779855
 21
-58.403955
  0
LINE
  8
ボルト／ビス
  6
DOT
 10
54.779855
 20
-58.403955
 11
54.779855
 21
-58.447285
  0
LINE
  8
ボルト／ビス
  6
DOT
 10
54.76319
 20
-58.42062
 11
54.76319
 21
-58.447285
  0
LINE
  8
ボルト／ビス
  6
DOT
 10
55.029855
 20
-58.42062
 11
55.029855
 21
-58.447285
  0
LINE
  8
ボルト／ビス
  6
DOT
 10
55.01319
 20
-58.403955
 11
55.01319
 21
-58.447285
  0
LINE
  8
ボルト／ビス
  6
DOT
 10
55.26319
 20
-58.63062
 11
54.529855
 21
-58.63062
  0
LINE
  8
ボルト／ビス
  6
DOT
 10
54.479855
 20
-58.67062
 11
54.479855
 21
-58.753953
  0
LINE
  8
ボルト／ビス
  6
DOT
 10
54.479855
 20
-58.753953
 11
55.31319
 21
-58.753953
  0
LINE
  8
ボルト／ビス
  6
DOT
 10
55.31319
 20
-58.753953
 11
55.31319
 21
-58.67062
  0
LINE
  8
ボルト／ビス
  6
DOT
 10
54.479855
 20
-58.67062
 11
55.31319
 21
-58.67062
  0
LINE
  8
ボルト／ビス
  6
DOT
 10
55.26319
 20
-58.63062
 11
55.26319
 21
-58.67062
  0
LINE
  8
ボルト／ビス
  6
DOT
 10
54.529855
 20
-58.63062
 11
54.529855
 21
-58.67062
  0
LINE
  8
ボルト／ビス
  6
DOT
 10
54.896522
 20
-58.68062
 11
54.896522
 21
-58.63062
  0
ENDBLK
  0
BLOCK
  2
*GRP_0028
 70
    65
 10
0.0
 20
0.0
  0
LINE
  8
ボルト／ビス
  6
DOT
 10
55.10319
 20
-57.770785
 11
55.10319
 21
-57.70412
  0
LINE
  8
ボルト／ビス
  6
DOT
 10
55.10319
 20
-57.70412
 11
54.369858
 21
-57.70412
  0
LINE
  8
ボルト／ビス
  6
DOT
 10
54.369858
 20
-57.70412
 11
54.369858
 21
-57.770785
  0
LINE
  8
ボルト／ビス
  6
DOT
 10
55.10319
 20
-57.770785
 11
54.369858
 21
-57.770785
  0
LINE
  8
ボルト／ビス
  6
DOT
 10
55.036525
 20
-57.670785
 11
55.036525
 21
-57.70412
  0
LINE
  8
ボルト／ビス
  6
DOT
 10
55.036525
 20
-57.670785
 11
54.436525
 21
-57.670785
  0
LINE
  8
ボルト／ビス
  6
DOT
 10
54.436525
 20
-57.670785
 11
54.436525
 21
-57.70412
  0
LINE
  8
ボルト／ビス
  6
DOT
 62
    64
 10
54.8969
 20
-57.470785
 11
54.928975
 21
-57.48246
  0
ARC
  8
ボルト／ビス
  6
DOT
 62
    64
 10
54.880861
 20
-57.575764
 40
0.104978
 50
90.0
 51
117.278033
  0
ARC
  8
ボルト／ビス
  6
DOT
 62
    64
 10
54.736524
 20
-57.873188
 40
0.402402
 50
76.165015
 51
103.834998
  0
LINE
  8
ボルト／ビス
  6
DOT
 62
    64
 10
54.57615
 20
-57.470785
 11
54.544075
 21
-57.48246
  0
ARC
  8
ボルト／ビス
  6
DOT
 62
    64
 10
54.592186
 20
-57.575764
 40
0.104978
 50
62.721967
 51
90.0
  0
LINE
  8
ボルト／ビス
  6
DOT
 62
    64
 10
54.8969
 20
-57.470785
 11
54.57615
 21
-57.470785
  0
LINE
  8
ボルト／ビス
  6
DOT
 62
    64
 10
54.544075
 20
-57.48246
 11
54.544075
 21
-57.60412
  0
LINE
  8
ボルト／ビス
  6
DOT
 62
    64
 10
54.6403
 20
-57.48246
 11
54.6403
 21
-57.60412
  0
LINE
  8
ボルト／ビス
  6
DOT
 62
    64
 10
54.928975
 20
-57.48246
 11
54.928975
 21
-57.60412
  0
LINE
  8
ボルト／ビス
  6
DOT
 62
    64
 10
54.83275
 20
-57.48246
 11
54.83275
 21
-57.60412
  0
LINE
  8
ボルト／ビス
  6
DOT
 10
54.928975
 20
-57.60412
 11
54.544075
 21
-57.60412
  0
LINE
  8
ボルト／ビス
  6
DOT
 10
54.936525
 20
-57.60412
 11
54.936525
 21
-57.670785
  0
LINE
  8
ボルト／ビス
  6
DOT
 10
54.936525
 20
-57.60412
 11
54.536525
 21
-57.60412
  0
LINE
  8
ボルト／ビス
  6
DOT
 10
54.536525
 20
-57.60412
 11
54.536525
 21
-57.670785
  0
ENDBLK
  0
BLOCK
  2
*GRP_0029
 70
    65
 10
0.0
 20
0.0
  0
INSERT
  2
M8横
  8
ゴム等
  6
DOT
 10
-130.089517
 20
-58.63062
 41
0.033333
 42
0.033333
  0
LINE
  8
ボルト／ビス
  6
DOT
 10
-129.956185
 20
-58.42062
 11
-129.97285
 21
-58.403955
  0
LINE
  8
ボルト／ビス
  6
DOT
 10
-130.206185
 20
-58.403955
 11
-130.22285
 21
-58.42062
  0
LINE
  8
ボルト／ビス
  6
DOT
 10
-130.22285
 20
-58.42062
 11
-129.956185
 21
-58.42062
  0
LINE
  8
ボルト／ビス
  6
DOT
 10
-130.206185
 20
-58.403955
 11
-129.97285
 21
-58.403955
  0
LINE
  8
ボルト／ビス
  6
DOT
 10
-129.97285
 20
-58.403955
 11
-129.97285
 21
-58.447285
  0
LINE
  8
ボルト／ビス
  6
DOT
 10
-129.956185
 20
-58.42062
 11
-129.956185
 21
-58.447285
  0
LINE
  8
ボルト／ビス
  6
DOT
 10
-130.22285
 20
-58.42062
 11
-130.22285
 21
-58.447285
  0
LINE
  8
ボルト／ビス
  6
DOT
 10
-130.206185
 20
-58.403955
 11
-130.206185
 21
-58.447285
  0
LINE
  8
ボルト／ビス
  6
DOT
 10
-130.456185
 20
-58.63062
 11
-129.72285
 21
-58.63062
  0
LINE
  8
ボルト／ビス
  6
DOT
 10
-129.67285
 20
-58.67062
 11
-129.67285
 21
-58.753953
  0
LINE
  8
ボルト／ビス
  6
DOT
 10
-129.67285
 20
-58.753953
 11
-130.506185
 21
-58.753953
  0
LINE
  8
ボルト／ビス
  6
DOT
 10
-130.506185
 20
-58.753953
 11
-130.506185
 21
-58.67062
  0
LINE
  8
ボルト／ビス
  6
DOT
 10
-129.67285
 20
-58.67062
 11
-130.506185
 21
-58.67062
  0
LINE
  8
ボルト／ビス
  6
DOT
 10
-130.456185
 20
-58.63062
 11
-130.456185
 21
-58.67062
  0
LINE
  8
ボルト／ビス
  6
DOT
 10
-129.72285
 20
-58.63062
 11
-129.72285
 21
-58.67062
  0
LINE
  8
ボルト／ビス
  6
DOT
 10
-130.089517
 20
-58.68062
 11
-130.089517
 21
-58.63062
  0
ENDBLK
  0
BLOCK
  2
*GRP_0030
 70
    65
 10
0.0
 20
0.0
  0
LINE
  8
ボルト／ビス
  6
DOT
 10
-130.296185
 20
-57.770785
 11
-130.296185
 21
-57.70412
  0
LINE
  8
ボルト／ビス
  6
DOT
 10
-130.296185
 20
-57.70412
 11
-129.562853
 21
-57.70412
  0
LINE
  8
ボルト／ビス
  6
DOT
 10
-129.562853
 20
-57.70412
 11
-129.562853
 21
-57.770785
  0
LINE
  8
ボルト／ビス
  6
DOT
 10
-130.296185
 20
-57.770785
 11
-129.562853
 21
-57.770785
  0
LINE
  8
ボルト／ビス
  6
DOT
 10
-130.22952
 20
-57.670785
 11
-130.22952
 21
-57.70412
  0
LINE
  8
ボルト／ビス
  6
DOT
 10
-130.22952
 20
-57.670785
 11
-129.62952
 21
-57.670785
  0
LINE
  8
ボルト／ビス
  6
DOT
 10
-129.62952
 20
-57.670785
 11
-129.62952
 21
-57.70412
  0
LINE
  8
ボルト／ビス
  6
DOT
 62
    64
 10
-130.089895
 20
-57.470785
 11
-130.12197
 21
-57.48246
  0
ARC
  8
ボルト／ビス
  6
DOT
 62
    64
 10
-130.073858
 20
-57.575764
 40
0.104978
 50
62.721967
 51
90.0
  0
ARC
  8
ボルト／ビス
  6
DOT
 62
    64
 10
-129.92952
 20
-57.873188
 40
0.402402
 50
76.165002
 51
103.834985
  0
LINE
  8
ボルト／ビス
  6
DOT
 62
    64
 10
-129.769145
 20
-57.470785
 11
-129.73707
 21
-57.48246
  0
ARC
  8
ボルト／ビス
  6
DOT
 62
    64
 10
-129.785183
 20
-57.575764
 40
0.104978
 50
90.0
 51
117.278033
  0
LINE
  8
ボルト／ビス
  6
DOT
 62
    64
 10
-130.089895
 20
-57.470785
 11
-129.769145
 21
-57.470785
  0
LINE
  8
ボルト／ビス
  6
DOT
 62
    64
 10
-129.73707
 20
-57.48246
 11
-129.73707
 21
-57.60412
  0
LINE
  8
ボルト／ビス
  6
DOT
 62
    64
 10
-129.833295
 20
-57.48246
 11
-129.833295
 21
-57.60412
  0
LINE
  8
ボルト／ビス
  6
DOT
 62
    64
 10
-130.12197
 20
-57.48246
 11
-130.12197
 21
-57.60412
  0
LINE
  8
ボルト／ビス
  6
DOT
 62
    64
 10
-130.025745
 20
-57.48246
 11
-130.025745
 21
-57.60412
  0
LINE
  8
ボルト／ビス
  6
DOT
 10
-130.12197
 20
-57.60412
 11
-129.73707
 21
-57.60412
  0
LINE
  8
ボルト／ビス
  6
DOT
 10
-130.12952
 20
-57.60412
 11
-130.12952
 21
-57.670785
  0
LINE
  8
ボルト／ビス
  6
DOT
 10
-130.12952
 20
-57.60412
 11
-129.72952
 21
-57.60412
  0
LINE
  8
ボルト／ビス
  6
DOT
 10
-129.72952
 20
-57.60412
 11
-129.72952
 21
-57.670785
  0
ENDBLK
  0
BLOCK
  2
*DIM_0031
 70
    65
 10
0.0
 20
0.0
  0
LINE
  8
寸法
  6
CONTINUOUS
 10
59.070162
 20
-68.70412
 11
77.688635
 21
-68.70412
  0
LINE
  8
寸法
  6
CONTINUOUS
 10
59.070162
 20
-57.037453
 11
77.688635
 21
-57.037453
  0
LINE
  8
寸法
  6
CONTINUOUS
 10
77.688635
 20
-68.70412
 11
77.688635
 21
-57.037453
  0
POINT
  8
寸法
 10
77.688635
 20
-68.70412
  0
POINT
  8
寸法
 10
77.688635
 20
-57.037453
  0
TEXT
  7
TextStyle03
  8
寸法
  6
CONTINUOUS
 10
80.675
 20
-71.96875
  1
上昇324以上
 40
3.0
 50
90.0
 72
     5
 11
80.675
 21
-53.78125
  0
ENDBLK
  0
BLOCK
  2
*GRP_0032
 70
    65
 10
0.0
 20
0.0
  0
LINE
  8
補助線
  6
BYBLOCK
 62
    64
 10
-125.866405
 20
-74.368295
 11
-125.99389
 21
-74.475655
  0
LINE
  8
補助線
  6
BYBLOCK
 62
    64
 10
-125.983828
 20
-74.35823
 11
-125.876468
 21
-74.485718
  0
LINE
  8
補助線
  6
BYBLOCK
 62
    64
 10
-117.375987
 20
-67.218272
 11
-117.503473
 21
-67.325627
  0
LINE
  8
補助線
  6
BYBLOCK
 62
    64
 10
-117.49341
 20
-67.208208
 11
-117.38605
 21
-67.33569
  0
LINE
  8
補助線
  6
BYBLOCK
 62
    64
 10
-109.013052
 20
-60.175602
 11
-108.88557
 21
-60.068245
  0
LINE
  8
補助線
  6
BYBLOCK
 62
    64
 10
-109.002992
 20
-60.05818
 11
-108.895633
 21
-60.185668
  0
LINE
  8
型材断面
  6
CONTINUOUS
 10
-126.721903
 20
-73.999273
 11
-126.78228
 21
-74.703798
  0
LINE
  8
型材断面
  6
CONTINUOUS
 10
-126.78228
 20
-74.703798
 11
-126.352848
 21
-75.213732
  0
LINE
  8
型材断面
  6
CONTINUOUS
 10
-126.352848
 20
-75.213732
 11
-125.648322
 21
-75.27411
  0
LINE
  8
型材断面
  6
CONTINUOUS
 10
-109.231135
 20
-59.269793
 11
-108.52661
 21
-59.33017
  0
LINE
  8
型材断面
  6
CONTINUOUS
 10
-108.52661
 20
-59.33017
 11
-108.097178
 21
-59.840105
  0
LINE
  8
型材断面
  6
CONTINUOUS
 10
-108.097178
 20
-59.840105
 11
-108.157555
 21
-60.54463
  0
LINE
  8
型材断面
  6
CONTINUOUS
 10
-126.721903
 20
-73.999273
 11
-109.231135
 21
-59.269793
  0
LINE
  8
型材断面
  6
CONTINUOUS
 10
-125.648322
 20
-75.27411
 11
-108.157555
 21
-60.54463
  0
CIRCLE
  8
ボルト／ビス
  6
CONTINUOUS
 10
-125.930148
 20
-74.421975
 40
0.250185
  0
CIRCLE
  8
ボルト／ビス
  6
CONTINUOUS
 10
-125.930148
 20
-74.421975
 40
0.301025
  0
LINE
  8
ボルト／ビス
  6
CONTINUOUS
 62
    64
 10
-126.176455
 20
-74.465858
 11
-126.091302
 21
-74.23061
  0
LINE
  8
ボルト／ビス
  6
CONTINUOUS
 62
    64
 10
-125.844995
 20
-74.186725
 11
-126.091302
 21
-74.23061
  0
LINE
  8
ボルト／ビス
  6
CONTINUOUS
 62
    64
 10
-126.0153
 20
-74.657225
 11
-125.768992
 21
-74.61334
  0
LINE
  8
ボルト／ビス
  6
CONTINUOUS
 62
    64
 10
-125.68384
 20
-74.378093
 11
-125.768992
 21
-74.61334
  0
LINE
  8
ボルト／ビス
  6
CONTINUOUS
 62
    64
 10
-126.176455
 20
-74.465858
 11
-126.0153
 21
-74.657225
  0
LINE
  8
ボルト／ビス
  6
CONTINUOUS
 62
    64
 10
-125.844995
 20
-74.186725
 11
-125.68384
 21
-74.378093
  0
CIRCLE
  8
ボルト／ビス
  6
CONTINUOUS
 62
    64
 10
-125.930148
 20
-74.421975
 40
0.216668
  0
CIRCLE
  8
ボルト／ビス
  6
CONTINUOUS
 10
-117.43973
 20
-67.27195
 40
0.250185
  0
CIRCLE
  8
ボルト／ビス
  6
CONTINUOUS
 10
-117.43973
 20
-67.27195
 40
0.301025
  0
LINE
  8
ボルト／ビス
  6
CONTINUOUS
 62
    64
 10
-117.686038
 20
-67.315833
 11
-117.600885
 21
-67.080583
  0
LINE
  8
ボルト／ビス
  6
CONTINUOUS
 62
    64
 10
-117.354577
 20
-67.0367
 11
-117.600885
 21
-67.080583
  0
LINE
  8
ボルト／ビス
  6
CONTINUOUS
 62
    64
 10
-117.524882
 20
-67.5072
 11
-117.278572
 21
-67.463317
  0
LINE
  8
ボルト／ビス
  6
CONTINUOUS
 62
    64
 10
-117.193423
 20
-67.22807
 11
-117.278572
 21
-67.463317
  0
LINE
  8
ボルト／ビス
  6
CONTINUOUS
 62
    64
 10
-117.686038
 20
-67.315833
 11
-117.524882
 21
-67.5072
  0
LINE
  8
ボルト／ビス
  6
CONTINUOUS
 62
    64
 10
-117.354577
 20
-67.0367
 11
-117.193423
 21
-67.22807
  0
CIRCLE
  8
ボルト／ビス
  6
CONTINUOUS
 62
    64
 10
-117.43973
 20
-67.27195
 40
0.216668
  0
CIRCLE
  8
ボルト／ビス
  6
CONTINUOUS
 10
-108.94931
 20
-60.121925
 40
0.250185
  0
CIRCLE
  8
ボルト／ビス
  6
CONTINUOUS
 10
-108.94931
 20
-60.121925
 40
0.301025
  0
LINE
  8
ボルト／ビス
  6
CONTINUOUS
 62
    64
 10
-108.864157
 20
-59.886675
 11
-109.110467
 21
-59.93056
  0
LINE
  8
ボルト／ビス
  6
CONTINUOUS
 62
    64
 10
-109.19562
 20
-60.165808
 11
-109.110467
 21
-59.93056
  0
LINE
  8
ボルト／ビス
  6
CONTINUOUS
 62
    64
 10
-108.703005
 20
-60.078042
 11
-108.788155
 21
-60.31329
  0
LINE
  8
ボルト／ビス
  6
CONTINUOUS
 62
    64
 10
-109.034465
 20
-60.357175
 11
-108.788155
 21
-60.31329
  0
LINE
  8
ボルト／ビス
  6
CONTINUOUS
 62
    64
 10
-108.864157
 20
-59.886675
 11
-108.703005
 21
-60.078042
  0
LINE
  8
ボルト／ビス
  6
CONTINUOUS
 62
    64
 10
-109.19562
 20
-60.165808
 11
-109.034465
 21
-60.357175
  0
CIRCLE
  8
ボルト／ビス
  6
CONTINUOUS
 62
    64
 10
-108.94931
 20
-60.121925
 40
0.216668
  0
ENDBLK
  0
BLOCK
  2
*GRP_0033
 70
    65
 10
0.0
 20
0.0
  0
LINE
  8
補助線
  6
BYBLOCK
 62
    64
 10
-109.013055
 20
-74.368295
 11
-108.88557
 21
-74.475655
  0
LINE
  8
補助線
  6
BYBLOCK
 62
    64
 10
-108.895633
 20
-74.35823
 11
-109.002992
 21
-74.485718
  0
LINE
  8
補助線
  6
BYBLOCK
 62
    64
 10
-117.503473
 20
-67.218272
 11
-117.375987
 21
-67.325627
  0
LINE
  8
補助線
  6
BYBLOCK
 62
    64
 10
-117.38605
 20
-67.208208
 11
-117.49341
 21
-67.33569
  0
LINE
  8
補助線
  6
BYBLOCK
 62
    64
 10
-125.866407
 20
-60.175602
 11
-125.99389
 21
-60.068245
  0
LINE
  8
補助線
  6
BYBLOCK
 62
    64
 10
-125.876468
 20
-60.05818
 11
-125.983828
 21
-60.185668
  0
LINE
  8
型材断面
  6
CONTINUOUS
 10
-108.157557
 20
-73.999273
 11
-108.09718
 21
-74.703798
  0
LINE
  8
型材断面
  6
CONTINUOUS
 10
-108.09718
 20
-74.703798
 11
-108.526613
 21
-75.213732
  0
LINE
  8
型材断面
  6
CONTINUOUS
 10
-108.526613
 20
-75.213732
 11
-109.231138
 21
-75.27411
  0
LINE
  8
型材断面
  6
CONTINUOUS
 10
-125.648325
 20
-59.269793
 11
-126.35285
 21
-59.33017
  0
LINE
  8
型材断面
  6
CONTINUOUS
 10
-126.35285
 20
-59.33017
 11
-126.782283
 21
-59.840105
  0
LINE
  8
型材断面
  6
CONTINUOUS
 10
-126.782283
 20
-59.840105
 11
-126.721905
 21
-60.54463
  0
LINE
  8
型材断面
  6
CONTINUOUS
 10
-108.157557
 20
-73.999273
 11
-125.648325
 21
-59.269793
  0
LINE
  8
型材断面
  6
CONTINUOUS
 10
-109.231138
 20
-75.27411
 11
-126.721905
 21
-60.54463
  0
CIRCLE
  8
ボルト／ビス
  6
CONTINUOUS
 10
-108.949312
 20
-74.421975
 40
0.250185
  0
CIRCLE
  8
ボルト／ビス
  6
CONTINUOUS
 10
-108.949312
 20
-74.421975
 40
0.301025
  0
LINE
  8
ボルト／ビス
  6
CONTINUOUS
 62
    64
 10
-108.703005
 20
-74.465858
 11
-108.788158
 21
-74.23061
  0
LINE
  8
ボルト／ビス
  6
CONTINUOUS
 62
    64
 10
-109.034465
 20
-74.186725
 11
-108.788158
 21
-74.23061
  0
LINE
  8
ボルト／ビス
  6
CONTINUOUS
 62
    64
 10
-108.86416
 20
-74.657225
 11
-109.110467
 21
-74.61334
  0
LINE
  8
ボルト／ビス
  6
CONTINUOUS
 62
    64
 10
-109.19562
 20
-74.378093
 11
-109.110467
 21
-74.61334
  0
LINE
  8
ボルト／ビス
  6
CONTINUOUS
 62
    64
 10
-108.703005
 20
-74.465858
 11
-108.86416
 21
-74.657225
  0
LINE
  8
ボルト／ビス
  6
CONTINUOUS
 62
    64
 10
-109.034465
 20
-74.186725
 11
-109.19562
 21
-74.378093
  0
CIRCLE
  8
ボルト／ビス
  6
CONTINUOUS
 62
    64
 10
-108.949312
 20
-74.421975
 40
0.216668
  0
CIRCLE
  8
ボルト／ビス
  6
CONTINUOUS
 10
-117.43973
 20
-67.27195
 40
0.250185
  0
CIRCLE
  8
ボルト／ビス
  6
CONTINUOUS
 10
-117.43973
 20
-67.27195
 40
0.301025
  0
LINE
  8
ボルト／ビス
  6
CONTINUOUS
 62
    64
 10
-117.193423
 20
-67.315833
 11
-117.278575
 21
-67.080583
  0
LINE
  8
ボルト／ビス
  6
CONTINUOUS
 62
    64
 10
-117.524882
 20
-67.0367
 11
-117.278575
 21
-67.080583
  0
LINE
  8
ボルト／ビス
  6
CONTINUOUS
 62
    64
 10
-117.354577
 20
-67.5072
 11
-117.600888
 21
-67.463317
  0
LINE
  8
ボルト／ビス
  6
CONTINUOUS
 62
    64
 10
-117.686038
 20
-67.22807
 11
-117.600888
 21
-67.463317
  0
LINE
  8
ボルト／ビス
  6
CONTINUOUS
 62
    64
 10
-117.193423
 20
-67.315833
 11
-117.354577
 21
-67.5072
  0
LINE
  8
ボルト／ビス
  6
CONTINUOUS
 62
    64
 10
-117.524882
 20
-67.0367
 11
-117.686038
 21
-67.22807
  0
CIRCLE
  8
ボルト／ビス
  6
CONTINUOUS
 62
    64
 10
-117.43973
 20
-67.27195
 40
0.216668
  0
CIRCLE
  8
ボルト／ビス
  6
CONTINUOUS
 10
-125.93015
 20
-60.121925
 40
0.250185
  0
CIRCLE
  8
ボルト／ビス
  6
CONTINUOUS
 10
-125.93015
 20
-60.121925
 40
0.301025
  0
LINE
  8
ボルト／ビス
  6
CONTINUOUS
 62
    64
 10
-126.015302
 20
-59.886675
 11
-125.768992
 21
-59.93056
  0
LINE
  8
ボルト／ビス
  6
CONTINUOUS
 62
    64
 10
-125.68384
 20
-60.165808
 11
-125.768992
 21
-59.93056
  0
LINE
  8
ボルト／ビス
  6
CONTINUOUS
 62
    64
 10
-126.176455
 20
-60.078042
 11
-126.091305
 21
-60.31329
  0
LINE
  8
ボルト／ビス
  6
CONTINUOUS
 62
    64
 10
-125.844995
 20
-60.357175
 11
-126.091305
 21
-60.31329
  0
LINE
  8
ボルト／ビス
  6
CONTINUOUS
 62
    64
 10
-126.015302
 20
-59.886675
 11
-126.176455
 21
-60.078042
  0
LINE
  8
ボルト／ビス
  6
CONTINUOUS
 62
    64
 10
-125.68384
 20
-60.165808
 11
-125.844995
 21
-60.357175
  0
CIRCLE
  8
ボルト／ビス
  6
CONTINUOUS
 62
    64
 10
-125.93015
 20
-60.121925
 40
0.216668
  0
ENDBLK
  0
BLOCK
  2
*GRP_0034
 70
    65
 10
0.0
 20
0.0
  0
LINE
  8
補助線
  6
BYBLOCK
 62
    64
 10
50.67278
 20
-74.368295
 11
50.800265
 21
-74.475655
  0
LINE
  8
補助線
  6
BYBLOCK
 62
    64
 10
50.790202
 20
-74.35823
 11
50.682842
 21
-74.485718
  0
LINE
  8
補助線
  6
BYBLOCK
 62
    64
 10
42.182363
 20
-67.218272
 11
42.309848
 21
-67.325627
  0
LINE
  8
補助線
  6
BYBLOCK
 62
    64
 10
42.299785
 20
-67.208208
 11
42.192425
 21
-67.33569
  0
LINE
  8
補助線
  6
BYBLOCK
 62
    64
 10
33.819427
 20
-60.175602
 11
33.691945
 21
-60.068245
  0
LINE
  8
補助線
  6
BYBLOCK
 62
    64
 10
33.809368
 20
-60.05818
 11
33.702008
 21
-60.185668
  0
LINE
  8
型材断面
  6
CONTINUOUS
 10
51.528277
 20
-73.999273
 11
51.588655
 21
-74.703798
  0
LINE
  8
型材断面
  6
CONTINUOUS
 10
51.588655
 20
-74.703798
 11
51.159223
 21
-75.213732
  0
LINE
  8
型材断面
  6
CONTINUOUS
 10
51.159223
 20
-75.213732
 11
50.454697
 21
-75.27411
  0
LINE
  8
型材断面
  6
CONTINUOUS
 10
34.03751
 20
-59.269793
 11
33.332985
 21
-59.33017
  0
LINE
  8
型材断面
  6
CONTINUOUS
 10
33.332985
 20
-59.33017
 11
32.903552
 21
-59.840105
  0
LINE
  8
型材断面
  6
CONTINUOUS
 10
32.903552
 20
-59.840105
 11
32.96393
 21
-60.54463
  0
LINE
  8
型材断面
  6
CONTINUOUS
 10
51.528277
 20
-73.999273
 11
34.03751
 21
-59.269793
  0
LINE
  8
型材断面
  6
CONTINUOUS
 10
50.454697
 20
-75.27411
 11
32.96393
 21
-60.54463
  0
CIRCLE
  8
ボルト／ビス
  6
CONTINUOUS
 10
50.736522
 20
-74.421975
 40
0.250185
  0
CIRCLE
  8
ボルト／ビス
  6
CONTINUOUS
 10
50.736522
 20
-74.421975
 40
0.301025
  0
LINE
  8
ボルト／ビス
  6
CONTINUOUS
 62
    64
 10
50.98283
 20
-74.465858
 11
50.897677
 21
-74.23061
  0
LINE
  8
ボルト／ビス
  6
CONTINUOUS
 62
    64
 10
50.65137
 20
-74.186725
 11
50.897677
 21
-74.23061
  0
LINE
  8
ボルト／ビス
  6
CONTINUOUS
 62
    64
 10
50.821675
 20
-74.657225
 11
50.575367
 21
-74.61334
  0
LINE
  8
ボルト／ビス
  6
CONTINUOUS
 62
    64
 10
50.490215
 20
-74.378093
 11
50.575367
 21
-74.61334
  0
LINE
  8
ボルト／ビス
  6
CONTINUOUS
 62
    64
 10
50.98283
 20
-74.465858
 11
50.821675
 21
-74.657225
  0
LINE
  8
ボルト／ビス
  6
CONTINUOUS
 62
    64
 10
50.65137
 20
-74.186725
 11
50.490215
 21
-74.378093
  0
CIRCLE
  8
ボルト／ビス
  6
CONTINUOUS
 62
    64
 10
50.736522
 20
-74.421975
 40
0.216668
  0
CIRCLE
  8
ボルト／ビス
  6
CONTINUOUS
 10
42.246105
 20
-67.27195
 40
0.250185
  0
CIRCLE
  8
ボルト／ビス
  6
CONTINUOUS
 10
42.246105
 20
-67.27195
 40
0.301025
  0
LINE
  8
ボルト／ビス
  6
CONTINUOUS
 62
    64
 10
42.492412
 20
-67.315833
 11
42.40726
 21
-67.080583
  0
LINE
  8
ボルト／ビス
  6
CONTINUOUS
 62
    64
 10
42.160952
 20
-67.0367
 11
42.40726
 21
-67.080583
  0
LINE
  8
ボルト／ビス
  6
CONTINUOUS
 62
    64
 10
42.331257
 20
-67.5072
 11
42.084948
 21
-67.463317
  0
LINE
  8
ボルト／ビス
  6
CONTINUOUS
 62
    64
 10
41.999798
 20
-67.22807
 11
42.084948
 21
-67.463317
  0
LINE
  8
ボルト／ビス
  6
CONTINUOUS
 62
    64
 10
42.492412
 20
-67.315833
 11
42.331257
 21
-67.5072
  0
LINE
  8
ボルト／ビス
  6
CONTINUOUS
 62
    64
 10
42.160952
 20
-67.0367
 11
41.999798
 21
-67.22807
  0
CIRCLE
  8
ボルト／ビス
  6
CONTINUOUS
 62
    64
 10
42.246105
 20
-67.27195
 40
0.216668
  0
CIRCLE
  8
ボルト／ビス
  6
CONTINUOUS
 10
33.755685
 20
-60.121925
 40
0.250185
  0
CIRCLE
  8
ボルト／ビス
  6
CONTINUOUS
 10
33.755685
 20
-60.121925
 40
0.301025
  0
LINE
  8
ボルト／ビス
  6
CONTINUOUS
 62
    64
 10
33.670533
 20
-59.886675
 11
33.916842
 21
-59.93056
  0
LINE
  8
ボルト／ビス
  6
CONTINUOUS
 62
    64
 10
34.001995
 20
-60.165808
 11
33.916842
 21
-59.93056
  0
LINE
  8
ボルト／ビス
  6
CONTINUOUS
 62
    64
 10
33.50938
 20
-60.078042
 11
33.59453
 21
-60.31329
  0
LINE
  8
ボルト／ビス
  6
CONTINUOUS
 62
    64
 10
33.84084
 20
-60.357175
 11
33.59453
 21
-60.31329
  0
LINE
  8
ボルト／ビス
  6
CONTINUOUS
 62
    64
 10
33.670533
 20
-59.886675
 11
33.50938
 21
-60.078042
  0
LINE
  8
ボルト／ビス
  6
CONTINUOUS
 62
    64
 10
34.001995
 20
-60.165808
 11
33.84084
 21
-60.357175
  0
CIRCLE
  8
ボルト／ビス
  6
CONTINUOUS
 62
    64
 10
33.755685
 20
-60.121925
 40
0.216668
  0
ENDBLK
  0
BLOCK
  2
*GRP_0035
 70
    65
 10
0.0
 20
0.0
  0
LINE
  8
補助線
  6
BYBLOCK
 62
    64
 10
33.81943
 20
-74.368295
 11
33.691945
 21
-74.475655
  0
LINE
  8
補助線
  6
BYBLOCK
 62
    64
 10
33.702008
 20
-74.35823
 11
33.809368
 21
-74.485718
  0
LINE
  8
補助線
  6
BYBLOCK
 62
    64
 10
42.309848
 20
-67.218272
 11
42.182363
 21
-67.325627
  0
LINE
  8
補助線
  6
BYBLOCK
 62
    64
 10
42.192425
 20
-67.208208
 11
42.299785
 21
-67.33569
  0
LINE
  8
補助線
  6
BYBLOCK
 62
    64
 10
50.672782
 20
-60.175602
 11
50.800265
 21
-60.068245
  0
LINE
  8
補助線
  6
BYBLOCK
 62
    64
 10
50.682842
 20
-60.05818
 11
50.790202
 21
-60.185668
  0
LINE
  8
型材断面
  6
CONTINUOUS
 10
32.963933
 20
-73.999273
 11
32.903555
 21
-74.703798
  0
LINE
  8
型材断面
  6
CONTINUOUS
 10
32.903555
 20
-74.703798
 11
33.332987
 21
-75.213732
  0
LINE
  8
型材断面
  6
CONTINUOUS
 10
33.332987
 20
-75.213732
 11
34.037513
 21
-75.27411
  0
LINE
  8
型材断面
  6
CONTINUOUS
 10
50.4547
 20
-59.269793
 11
51.159225
 21
-59.33017
  0
LINE
  8
型材断面
  6
CONTINUOUS
 10
51.159225
 20
-59.33017
 11
51.588658
 21
-59.840105
  0
LINE
  8
型材断面
  6
CONTINUOUS
 10
51.588658
 20
-59.840105
 11
51.52828
 21
-60.54463
  0
LINE
  8
型材断面
  6
CONTINUOUS
 10
32.963933
 20
-73.999273
 11
50.4547
 21
-59.269793
  0
LINE
  8
型材断面
  6
CONTINUOUS
 10
34.037513
 20
-75.27411
 11
51.52828
 21
-60.54463
  0
CIRCLE
  8
ボルト／ビス
  6
CONTINUOUS
 10
33.755688
 20
-74.421975
 40
0.250185
  0
CIRCLE
  8
ボルト／ビス
  6
CONTINUOUS
 10
33.755688
 20
-74.421975
 40
0.301025
  0
LINE
  8
ボルト／ビス
  6
CONTINUOUS
 62
    64
 10
33.50938
 20
-74.465858
 11
33.594533
 21
-74.23061
  0
LINE
  8
ボルト／ビス
  6
CONTINUOUS
 62
    64
 10
33.84084
 20
-74.186725
 11
33.594533
 21
-74.23061
  0
LINE
  8
ボルト／ビス
  6
CONTINUOUS
 62
    64
 10
33.670535
 20
-74.657225
 11
33.916842
 21
-74.61334
  0
LINE
  8
ボルト／ビス
  6
CONTINUOUS
 62
    64
 10
34.001995
 20
-74.378093
 11
33.916842
 21
-74.61334
  0
LINE
  8
ボルト／ビス
  6
CONTINUOUS
 62
    64
 10
33.50938
 20
-74.465858
 11
33.670535
 21
-74.657225
  0
LINE
  8
ボルト／ビス
  6
CONTINUOUS
 62
    64
 10
33.84084
 20
-74.186725
 11
34.001995
 21
-74.378093
  0
CIRCLE
  8
ボルト／ビス
  6
CONTINUOUS
 62
    64
 10
33.755688
 20
-74.421975
 40
0.216668
  0
CIRCLE
  8
ボルト／ビス
  6
CONTINUOUS
 10
42.246105
 20
-67.27195
 40
0.250185
  0
CIRCLE
  8
ボルト／ビス
  6
CONTINUOUS
 10
42.246105
 20
-67.27195
 40
0.301025
  0
LINE
  8
ボルト／ビス
  6
CONTINUOUS
 62
    64
 10
41.999798
 20
-67.315833
 11
42.08495
 21
-67.080583
  0
LINE
  8
ボルト／ビス
  6
CONTINUOUS
 62
    64
 10
42.331257
 20
-67.0367
 11
42.08495
 21
-67.080583
  0
LINE
  8
ボルト／ビス
  6
CONTINUOUS
 62
    64
 10
42.160952
 20
-67.5072
 11
42.407263
 21
-67.463317
  0
LINE
  8
ボルト／ビス
  6
CONTINUOUS
 62
    64
 10
42.492412
 20
-67.22807
 11
42.407263
 21
-67.463317
  0
LINE
  8
ボルト／ビス
  6
CONTINUOUS
 62
    64
 10
41.999798
 20
-67.315833
 11
42.160952
 21
-67.5072
  0
LINE
  8
ボルト／ビス
  6
CONTINUOUS
 62
    64
 10
42.331257
 20
-67.0367
 11
42.492412
 21
-67.22807
  0
CIRCLE
  8
ボルト／ビス
  6
CONTINUOUS
 62
    64
 10
42.246105
 20
-67.27195
 40
0.216668
  0
CIRCLE
  8
ボルト／ビス
  6
CONTINUOUS
 10
50.736525
 20
-60.121925
 40
0.250185
  0
CIRCLE
  8
ボルト／ビス
  6
CONTINUOUS
 10
50.736525
 20
-60.121925
 40
0.301025
  0
LINE
  8
ボルト／ビス
  6
CONTINUOUS
 62
    64
 10
50.821678
 20
-59.886675
 11
50.575367
 21
-59.93056
  0
LINE
  8
ボルト／ビス
  6
CONTINUOUS
 62
    64
 10
50.490215
 20
-60.165808
 11
50.575367
 21
-59.93056
  0
LINE
  8
ボルト／ビス
  6
CONTINUOUS
 62
    64
 10
50.98283
 20
-60.078042
 11
50.89768
 21
-60.31329
  0
LINE
  8
ボルト／ビス
  6
CONTINUOUS
 62
    64
 10
50.65137
 20
-60.357175
 11
50.89768
 21
-60.31329
  0
LINE
  8
ボルト／ビス
  6
CONTINUOUS
 62
    64
 10
50.821678
 20
-59.886675
 11
50.98283
 21
-60.078042
  0
LINE
  8
ボルト／ビス
  6
CONTINUOUS
 62
    64
 10
50.490215
 20
-60.165808
 11
50.65137
 21
-60.357175
  0
CIRCLE
  8
ボルト／ビス
  6
CONTINUOUS
 62
    64
 10
50.736525
 20
-60.121925
 40
0.216668
  0
ENDBLK
  0
BLOCK
  2
*GRP_0036
 70
    65
 10
0.0
 20
0.0
  0
LINE
  8
補助線
  6
BYBLOCK
 62
    64
 10
-29.170137
 20
-74.368295
 11
-29.042652
 21
-74.475655
  0
LINE
  8
補助線
  6
BYBLOCK
 62
    64
 10
-29.052715
 20
-74.35823
 11
-29.160075
 21
-74.485718
  0
LINE
  8
補助線
  6
BYBLOCK
 62
    64
 10
-37.660555
 20
-67.218272
 11
-37.53307
 21
-67.325627
  0
LINE
  8
補助線
  6
BYBLOCK
 62
    64
 10
-37.543132
 20
-67.208208
 11
-37.650493
 21
-67.33569
  0
LINE
  8
補助線
  6
BYBLOCK
 62
    64
 10
-46.02349
 20
-60.175602
 11
-46.150972
 21
-60.068245
  0
LINE
  8
補助線
  6
BYBLOCK
 62
    64
 10
-46.03355
 20
-60.05818
 11
-46.14091
 21
-60.185668
  0
LINE
  8
型材断面
  6
CONTINUOUS
 10
-28.31464
 20
-73.999273
 11
-28.254263
 21
-74.703798
  0
LINE
  8
型材断面
  6
CONTINUOUS
 10
-28.254263
 20
-74.703798
 11
-28.683695
 21
-75.213732
  0
LINE
  8
型材断面
  6
CONTINUOUS
 10
-28.683695
 20
-75.213732
 11
-29.38822
 21
-75.27411
  0
LINE
  8
型材断面
  6
CONTINUOUS
 10
-45.805408
 20
-59.269793
 11
-46.509933
 21
-59.33017
  0
LINE
  8
型材断面
  6
CONTINUOUS
 10
-46.509933
 20
-59.33017
 11
-46.939365
 21
-59.840105
  0
LINE
  8
型材断面
  6
CONTINUOUS
 10
-46.939365
 20
-59.840105
 11
-46.878988
 21
-60.54463
  0
LINE
  8
型材断面
  6
CONTINUOUS
 10
-28.31464
 20
-73.999273
 11
-45.805408
 21
-59.269793
  0
LINE
  8
型材断面
  6
CONTINUOUS
 10
-29.38822
 20
-75.27411
 11
-46.878988
 21
-60.54463
  0
CIRCLE
  8
ボルト／ビス
  6
CONTINUOUS
 10
-29.106395
 20
-74.421975
 40
0.250185
  0
CIRCLE
  8
ボルト／ビス
  6
CONTINUOUS
 10
-29.106395
 20
-74.421975
 40
0.301025
  0
LINE
  8
ボルト／ビス
  6
CONTINUOUS
 62
    64
 10
-28.860088
 20
-74.465858
 11
-28.94524
 21
-74.23061
  0
LINE
  8
ボルト／ビス
  6
CONTINUOUS
 62
    64
 10
-29.191547
 20
-74.186725
 11
-28.94524
 21
-74.23061
  0
LINE
  8
ボルト／ビス
  6
CONTINUOUS
 62
    64
 10
-29.021242
 20
-74.657225
 11
-29.26755
 21
-74.61334
  0
LINE
  8
ボルト／ビス
  6
CONTINUOUS
 62
    64
 10
-29.352703
 20
-74.378093
 11
-29.26755
 21
-74.61334
  0
LINE
  8
ボルト／ビス
  6
CONTINUOUS
 62
    64
 10
-28.860088
 20
-74.465858
 11
-29.021242
 21
-74.657225
  0
LINE
  8
ボルト／ビス
  6
CONTINUOUS
 62
    64
 10
-29.191547
 20
-74.186725
 11
-29.352703
 21
-74.378093
  0
CIRCLE
  8
ボルト／ビス
  6
CONTINUOUS
 62
    64
 10
-29.106395
 20
-74.421975
 40
0.216668
  0
CIRCLE
  8
ボルト／ビス
  6
CONTINUOUS
 10
-37.596813
 20
-67.27195
 40
0.250185
  0
CIRCLE
  8
ボルト／ビス
  6
CONTINUOUS
 10
-37.596813
 20
-67.27195
 40
0.301025
  0
LINE
  8
ボルト／ビス
  6
CONTINUOUS
 62
    64
 10
-37.350505
 20
-67.315833
 11
-37.435657
 21
-67.080583
  0
LINE
  8
ボルト／ビス
  6
CONTINUOUS
 62
    64
 10
-37.681965
 20
-67.0367
 11
-37.435657
 21
-67.080583
  0
LINE
  8
ボルト／ビス
  6
CONTINUOUS
 62
    64
 10
-37.51166
 20
-67.5072
 11
-37.75797
 21
-67.463317
  0
LINE
  8
ボルト／ビス
  6
CONTINUOUS
 62
    64
 10
-37.84312
 20
-67.22807
 11
-37.75797
 21
-67.463317
  0
LINE
  8
ボルト／ビス
  6
CONTINUOUS
 62
    64
 10
-37.350505
 20
-67.315833
 11
-37.51166
 21
-67.5072
  0
LINE
  8
ボルト／ビス
  6
CONTINUOUS
 62
    64
 10
-37.681965
 20
-67.0367
 11
-37.84312
 21
-67.22807
  0
CIRCLE
  8
ボルト／ビス
  6
CONTINUOUS
 62
    64
 10
-37.596813
 20
-67.27195
 40
0.216668
  0
CIRCLE
  8
ボルト／ビス
  6
CONTINUOUS
 10
-46.087233
 20
-60.121925
 40
0.250185
  0
CIRCLE
  8
ボルト／ビス
  6
CONTINUOUS
 10
-46.087233
 20
-60.121925
 40
0.301025
  0
LINE
  8
ボルト／ビス
  6
CONTINUOUS
 62
    64
 10
-46.172385
 20
-59.886675
 11
-45.926075
 21
-59.93056
  0
LINE
  8
ボルト／ビス
  6
CONTINUOUS
 62
    64
 10
-45.840923
 20
-60.165808
 11
-45.926075
 21
-59.93056
  0
LINE
  8
ボルト／ビス
  6
CONTINUOUS
 62
    64
 10
-46.333537
 20
-60.078042
 11
-46.248387
 21
-60.31329
  0
LINE
  8
ボルト／ビス
  6
CONTINUOUS
 62
    64
 10
-46.002077
 20
-60.357175
 11
-46.248387
 21
-60.31329
  0
LINE
  8
ボルト／ビス
  6
CONTINUOUS
 62
    64
 10
-46.172385
 20
-59.886675
 11
-46.333537
 21
-60.078042
  0
LINE
  8
ボルト／ビス
  6
CONTINUOUS
 62
    64
 10
-45.840923
 20
-60.165808
 11
-46.002077
 21
-60.357175
  0
CIRCLE
  8
ボルト／ビス
  6
CONTINUOUS
 62
    64
 10
-46.087233
 20
-60.121925
 40
0.216668
  0
ENDBLK
  0
BLOCK
  2
*GRP_0037
 70
    65
 10
0.0
 20
0.0
  0
LINE
  8
補助線
  6
BYBLOCK
 62
    64
 10
-46.023488
 20
-74.368295
 11
-46.150972
 21
-74.475655
  0
LINE
  8
補助線
  6
BYBLOCK
 62
    64
 10
-46.14091
 20
-74.35823
 11
-46.03355
 21
-74.485718
  0
LINE
  8
補助線
  6
BYBLOCK
 62
    64
 10
-37.53307
 20
-67.218272
 11
-37.660555
 21
-67.325627
  0
LINE
  8
補助線
  6
BYBLOCK
 62
    64
 10
-37.650493
 20
-67.208208
 11
-37.543132
 21
-67.33569
  0
LINE
  8
補助線
  6
BYBLOCK
 62
    64
 10
-29.170135
 20
-60.175602
 11
-29.042652
 21
-60.068245
  0
LINE
  8
補助線
  6
BYBLOCK
 62
    64
 10
-29.160075
 20
-60.05818
 11
-29.052715
 21
-60.185668
  0
LINE
  8
型材断面
  6
CONTINUOUS
 10
-46.878985
 20
-73.999273
 11
-46.939362
 21
-74.703798
  0
LINE
  8
型材断面
  6
CONTINUOUS
 10
-46.939362
 20
-74.703798
 11
-46.50993
 21
-75.213732
  0
LINE
  8
型材断面
  6
CONTINUOUS
 10
-46.50993
 20
-75.213732
 11
-45.805405
 21
-75.27411
  0
LINE
  8
型材断面
  6
CONTINUOUS
 10
-29.388217
 20
-59.269793
 11
-28.683692
 21
-59.33017
  0
LINE
  8
型材断面
  6
CONTINUOUS
 10
-28.683692
 20
-59.33017
 11
-28.25426
 21
-59.840105
  0
LINE
  8
型材断面
  6
CONTINUOUS
 10
-28.25426
 20
-59.840105
 11
-28.314638
 21
-60.54463
  0
LINE
  8
型材断面
  6
CONTINUOUS
 10
-46.878985
 20
-73.999273
 11
-29.388217
 21
-59.269793
  0
LINE
  8
型材断面
  6
CONTINUOUS
 10
-45.805405
 20
-75.27411
 11
-28.314638
 21
-60.54463
  0
CIRCLE
  8
ボルト／ビス
  6
CONTINUOUS
 10
-46.08723
 20
-74.421975
 40
0.250185
  0
CIRCLE
  8
ボルト／ビス
  6
CONTINUOUS
 10
-46.08723
 20
-74.421975
 40
0.301025
  0
LINE
  8
ボルト／ビス
  6
CONTINUOUS
 62
    64
 10
-46.333537
 20
-74.465858
 11
-46.248385
 21
-74.23061
  0
LINE
  8
ボルト／ビス
  6
CONTINUOUS
 62
    64
 10
-46.002077
 20
-74.186725
 11
-46.248385
 21
-74.23061
  0
LINE
  8
ボルト／ビス
  6
CONTINUOUS
 62
    64
 10
-46.172383
 20
-74.657225
 11
-45.926075
 21
-74.61334
  0
LINE
  8
ボルト／ビス
  6
CONTINUOUS
 62
    64
 10
-45.840923
 20
-74.378093
 11
-45.926075
 21
-74.61334
  0
LINE
  8
ボルト／ビス
  6
CONTINUOUS
 62
    64
 10
-46.333537
 20
-74.465858
 11
-46.172383
 21
-74.657225
  0
LINE
  8
ボルト／ビス
  6
CONTINUOUS
 62
    64
 10
-46.002077
 20
-74.186725
 11
-45.840923
 21
-74.378093
  0
CIRCLE
  8
ボルト／ビス
  6
CONTINUOUS
 62
    64
 10
-46.08723
 20
-74.421975
 40
0.216668
  0
CIRCLE
  8
ボルト／ビス
  6
CONTINUOUS
 10
-37.596813
 20
-67.27195
 40
0.250185
  0
CIRCLE
  8
ボルト／ビス
  6
CONTINUOUS
 10
-37.596813
 20
-67.27195
 40
0.301025
  0
LINE
  8
ボルト／ビス
  6
CONTINUOUS
 62
    64
 10
-37.84312
 20
-67.315833
 11
-37.757967
 21
-67.080583
  0
LINE
  8
ボルト／ビス
  6
CONTINUOUS
 62
    64
 10
-37.51166
 20
-67.0367
 11
-37.757967
 21
-67.080583
  0
LINE
  8
ボルト／ビス
  6
CONTINUOUS
 62
    64
 10
-37.681965
 20
-67.5072
 11
-37.435655
 21
-67.463317
  0
LINE
  8
ボルト／ビス
  6
CONTINUOUS
 62
    64
 10
-37.350505
 20
-67.22807
 11
-37.435655
 21
-67.463317
  0
LINE
  8
ボルト／ビス
  6
CONTINUOUS
 62
    64
 10
-37.84312
 20
-67.315833
 11
-37.681965
 21
-67.5072
  0
LINE
  8
ボルト／ビス
  6
CONTINUOUS
 62
    64
 10
-37.51166
 20
-67.0367
 11
-37.350505
 21
-67.22807
  0
CIRCLE
  8
ボルト／ビス
  6
CONTINUOUS
 62
    64
 10
-37.596813
 20
-67.27195
 40
0.216668
  0
CIRCLE
  8
ボルト／ビス
  6
CONTINUOUS
 10
-29.106393
 20
-60.121925
 40
0.250185
  0
CIRCLE
  8
ボルト／ビス
  6
CONTINUOUS
 10
-29.106393
 20
-60.121925
 40
0.301025
  0
LINE
  8
ボルト／ビス
  6
CONTINUOUS
 62
    64
 10
-29.02124
 20
-59.886675
 11
-29.26755
 21
-59.93056
  0
LINE
  8
ボルト／ビス
  6
CONTINUOUS
 62
    64
 10
-29.352703
 20
-60.165808
 11
-29.26755
 21
-59.93056
  0
LINE
  8
ボルト／ビス
  6
CONTINUOUS
 62
    64
 10
-28.860088
 20
-60.078042
 11
-28.945237
 21
-60.31329
  0
LINE
  8
ボルト／ビス
  6
CONTINUOUS
 62
    64
 10
-29.191547
 20
-60.357175
 11
-28.945237
 21
-60.31329
  0
LINE
  8
ボルト／ビス
  6
CONTINUOUS
 62
    64
 10
-29.02124
 20
-59.886675
 11
-28.860088
 21
-60.078042
  0
LINE
  8
ボルト／ビス
  6
CONTINUOUS
 62
    64
 10
-29.352703
 20
-60.165808
 11
-29.191547
 21
-60.357175
  0
CIRCLE
  8
ボルト／ビス
  6
CONTINUOUS
 62
    64
 10
-29.106393
 20
-60.121925
 40
0.216668
  0
ENDBLK
  0
BLOCK
  2
*DIM_0038
 70
    65
 10
0.0
 20
0.0
  0
LINE
  8
寸法
  6
CONTINUOUS
 10
122.931872
 20
-38.6033
 11
122.931872
 21
-29.80608
  0
LINE
  8
寸法
  6
CONTINUOUS
 10
158.388537
 20
-38.6033
 11
158.388537
 21
-29.80608
  0
LINE
  8
寸法
  6
CONTINUOUS
 10
122.931872
 20
-29.80608
 11
158.388537
 21
-29.80608
  0
POINT
  8
寸法
 10
122.931872
 20
-29.80608
  0
POINT
  8
寸法
 10
158.388537
 20
-29.80608
  0
TEXT
  7
TextStyle03
  8
寸法
  6
CONTINUOUS
 10
135.68125
 20
-29.45
  1
1063.7
 40
3.0
 72
     5
 11
145.61875
 21
-29.45
  0
ENDBLK
  0
BLOCK
  2
*DIM_0039
 70
    65
 10
0.0
 20
0.0
  0
LINE
  8
寸法
  6
CONTINUOUS
 10
163.388537
 20
-43.6033
 11
172.470353
 21
-43.6033
  0
LINE
  8
寸法
  6
CONTINUOUS
 10
163.388537
 20
-72.936633
 11
172.470353
 21
-72.936633
  0
LINE
  8
寸法
  6
CONTINUOUS
 10
172.470353
 20
-43.6033
 11
172.470353
 21
-72.936633
  0
POINT
  8
寸法
 10
172.470353
 20
-43.6033
  0
POINT
  8
寸法
 10
172.470353
 20
-72.936633
  0
TEXT
  7
TextStyle03
  8
寸法
  6
CONTINUOUS
 10
172.075
 20
-60.7125
  1
880
 40
3.0
 50
90.0
 72
     5
 11
172.075
 21
-55.8375
  0
ENDBLK
  0
BLOCK
  2
*DIM_0040
 70
    65
 10
0.0
 20
0.0
  0
LINE
  8
寸法
  6
CONTINUOUS
 10
56.349857
 20
-68.209977
 11
56.349857
 21
-32.437345
  0
LINE
  8
寸法
  6
CONTINUOUS
 10
54.070162
 20
-32.437345
 11
56.349857
 21
-32.437345
  0
POINT
  8
寸法
 10
54.070162
 20
-32.437345
  0
POINT
  8
寸法
 10
56.349857
 20
-32.437345
  0
TEXT
  7
TextStyle03
  8
寸法
  6
CONTINUOUS
 10
58.66875
 20
-32.075
  1
68.4
 40
3.0
 72
     5
 11
65.23125
 21
-32.075
  0
ENDBLK
  0
BLOCK
  2
*DIM_0041
 70
    65
 10
0.0
 20
0.0
  0
LINE
  8
寸法
  6
CONTINUOUS
 10
-131.542853
 20
-68.209977
 11
-131.542853
 21
-32.437345
  0
LINE
  8
寸法
  6
CONTINUOUS
 10
-129.263158
 20
-32.437345
 11
-131.542853
 21
-32.437345
  0
POINT
  8
寸法
 10
-129.263158
 20
-32.437345
  0
POINT
  8
寸法
 10
-131.542853
 20
-32.437345
  0
TEXT
  7
TextStyle03
  8
寸法
  6
CONTINUOUS
 10
-140.45625
 20
-32.075
  1
68.4
 40
3.0
 72
     5
 11
-133.89375
 21
-32.075
  0
ENDBLK
  0
BLOCK
  2
*DIM_0042
 70
    65
 10
0.0
 20
0.0
  0
LINE
  8
寸法
  6
CONTINUOUS
 10
54.070162
 20
-32.437345
 11
-129.263158
 21
-32.437345
  0
POINT
  8
寸法
 10
54.070162
 20
-32.437345
  0
POINT
  8
寸法
 10
-129.263158
 20
-32.437345
  0
TEXT
  7
TextStyle03
  8
寸法
  6
CONTINUOUS
 10
-49.31875
 20
-32.075
  1
呼称寸法　5500
 40
3.0
 72
     5
 11
-25.88125
 21
-32.075
  0
ENDBLK
  0
BLOCK
  2
M8横
 70
    64
 10
-88.370132
 20
140.837665
  0
LINE
  8
ボルト／ビス
 10
-95.870132
 20
140.837665
 11
-80.870132
 21
140.837665
  0
LINE
  8
ボルト／ビス
 10
-80.870132
 20
145.837665
 11
-81.370132
 21
146.337665
  0
POLYLINE
  8
ボルト／ビス
 66
     1
  0
VERTEX
  8
ボルト／ビス
 10
-84.120132
 20
146.337665
  0
VERTEX
  8
ボルト／ビス
 10
-84.620132
 20
145.837665
  0
VERTEX
  8
ボルト／ビス
 10
-85.120132
 20
146.337665
  0
SEQEND
  0
POLYLINE
  8
ボルト／ビス
 66
     1
  0
VERTEX
  8
ボルト／ビス
 10
-91.620132
 20
146.337665
  0
VERTEX
  8
ボルト／ビス
 10
-92.120132
 20
145.837665
  0
VERTEX
  8
ボルト／ビス
 10
-92.620132
 20
146.337665
  0
SEQEND
  0
LINE
  8
ボルト／ビス
 10
-95.370132
 20
146.337665
 11
-95.870132
 21
145.837665
  0
LINE
  8
ボルト／ビス
 10
-95.870132
 20
140.837665
 11
-95.870132
 21
145.837665
  0
LINE
  8
ボルト／ビス
 10
-80.870132
 20
140.837665
 11
-80.870132
 21
145.837665
  0
LINE
  8
ボルト／ビス
 10
-95.370132
 20
146.337665
 11
-81.370132
 21
146.337665
  0
LINE
  8
ボルト／ビス
 10
-84.620132
 20
140.837665
 11
-84.620132
 21
145.837665
  0
LINE
  8
ボルト／ビス
 10
-92.120132
 20
140.837665
 11
-92.120132
 21
145.837665
  0
ENDBLK
  0
ENDSEC
  0
SECTION
  2
ENTITIES
  0
POLYLINE
  8
通り芯
  6
CONTINUOUS
 66
     1
 70
     1
  0
VERTEX
  8
通り芯
 10
-210.0
 20
-148.5
  0
VERTEX
  8
通り芯
 10
210.0
 20
-148.5
  0
VERTEX
  8
通り芯
 10
210.0
 20
148.5
  0
VERTEX
  8
通り芯
 10
-210.0
 20
148.5
  0
SEQEND
  0
INSERT
  2
*GRP_0001
  8
型材断面
  6
CONTINUOUS
 10
0.0
 20
0.0
  0
LINE
  8
型材断面
  6
CONTINUOUS
 10
162.97617
 20
66.869993
 11
162.97617
 21
66.819993
  0
LINE
  8
型材断面
  6
CONTINUOUS
 10
162.47617
 20
65.203325
 11
161.742835
 21
65.203325
  0
LINE
  8
型材断面
  6
CONTINUOUS
 62
    47
 10
169.709335
 20
66.60302
 11
169.709335
 21
66.55302
  0
LINE
  8
型材断面
  6
CONTINUOUS
 62
    47
 10
169.709335
 20
66.60302
 11
169.209335
 21
66.60302
  0
LINE
  8
型材断面
  6
CONTINUOUS
 10
163.459335
 20
65.25302
 11
163.459335
 21
66.699688
  0
LINE
  8
型材断面
  6
CONTINUOUS
 10
163.909335
 20
66.699688
 11
163.459335
 21
66.699688
  0
LINE
  8
型材断面
  6
CONTINUOUS
 62
    47
 10
166.582028
 20
67.43302
 11
166.582028
 21
67.48302
  0
LINE
  8
型材断面
  6
CONTINUOUS
 62
    47
 10
166.582028
 20
67.48302
 11
166.248695
 21
67.48302
  0
LINE
  8
型材断面
  6
CONTINUOUS
 62
    47
 10
166.248695
 20
67.48302
 11
166.148695
 21
66.699688
  0
LINE
  8
型材断面
  6
CONTINUOUS
 62
    47
 10
165.74267
 20
66.699688
 11
166.148695
 21
66.699688
  0
LINE
  8
型材断面
  6
CONTINUOUS
 62
    47
 10
165.74267
 20
67.169687
 11
163.909335
 21
67.169687
  0
LINE
  8
型材断面
  6
CONTINUOUS
 10
162.97617
 20
66.869993
 11
162.47617
 21
66.869993
  0
LINE
  8
型材断面
  6
CONTINUOUS
 10
163.459335
 20
65.25302
 11
162.97617
 21
65.25302
  0
LINE
  8
型材断面
  6
CONTINUOUS
 62
    47
 10
169.209335
 20
67.169687
 11
166.582028
 21
67.169687
  0
INSERT
  2
*GRP_0002
  8
型材断面
  6
DOT
 10
0.0
 20
0.0
  0
INSERT
  2
*GRP_0003
  8
型材断面
  6
DOT
 10
0.0
 20
0.0
  0
LINE
  8
型材断面
  6
CONTINUOUS
 10
169.209335
 20
67.169687
 11
169.209335
 21
50.203325
  0
LINE
  8
型材断面
  6
CONTINUOUS
 10
169.709335
 20
66.60302
 11
169.709335
 21
50.203325
  0
LINE
  8
型材断面
  6
CONTINUOUS
 10
166.582028
 20
67.48302
 11
166.582028
 21
50.203325
  0
LINE
  8
型材断面
  6
CONTINUOUS
 10
166.248695
 20
67.48302
 11
166.248695
 21
50.203325
  0
LINE
  8
型材断面
  6
CONTINUOUS
 10
166.148695
 20
66.699688
 11
166.148695
 21
50.203325
  0
LINE
  8
型材断面
  6
CONTINUOUS
 10
165.74267
 20
67.169687
 11
165.74267
 21
50.203325
  0
LINE
  8
型材断面
  6
CONTINUOUS
 10
162.97617
 20
66.869993
 11
162.97617
 21
50.203325
  0
LINE
  8
型材断面
  6
CONTINUOUS
 10
161.742835
 20
65.203325
 11
161.742835
 21
50.203325
  0
LINE
  8
型材断面
  6
CONTINUOUS
 10
162.47617
 20
66.869993
 11
162.47617
 21
50.203325
  0
LINE
  8
型材断面
  6
CONTINUOUS
 10
163.459335
 20
66.699688
 11
163.459335
 21
50.203325
  0
LINE
  8
型材断面
  6
CONTINUOUS
 10
163.909335
 20
67.169687
 11
163.909335
 21
50.203325
  0
LINE
  8
型材断面
  6
DASHDOT
 10
-37.596497
 20
-79.253555
 11
-37.596497
 21
65.203325
  0
LINE
  8
型材断面
  6
CONTINUOUS
 10
162.97617
 20
33.53666
 11
162.97617
 21
33.58666
  0
LINE
  8
型材断面
  6
CONTINUOUS
 10
162.47617
 20
35.203325
 11
161.742835
 21
35.203325
  0
LINE
  8
型材断面
  6
CONTINUOUS
 62
    47
 10
169.709335
 20
33.80363
 11
169.709335
 21
33.85363
  0
LINE
  8
型材断面
  6
CONTINUOUS
 62
    47
 10
169.709335
 20
33.80363
 11
169.209335
 21
33.80363
  0
LINE
  8
型材断面
  6
CONTINUOUS
 10
163.459335
 20
35.15363
 11
163.459335
 21
33.706965
  0
LINE
  8
型材断面
  6
CONTINUOUS
 10
163.909335
 20
33.706965
 11
163.459335
 21
33.706965
  0
LINE
  8
型材断面
  6
CONTINUOUS
 62
    47
 10
166.582028
 20
32.97363
 11
166.582028
 21
32.92363
  0
LINE
  8
型材断面
  6
CONTINUOUS
 62
    47
 10
166.582028
 20
32.92363
 11
166.248695
 21
32.92363
  0
LINE
  8
型材断面
  6
CONTINUOUS
 62
    47
 10
166.248695
 20
32.92363
 11
166.148695
 21
33.706965
  0
LINE
  8
型材断面
  6
CONTINUOUS
 62
    47
 10
165.74267
 20
33.706965
 11
166.148695
 21
33.706965
  0
LINE
  8
型材断面
  6
CONTINUOUS
 62
    47
 10
165.74267
 20
33.236965
 11
163.909335
 21
33.236965
  0
LINE
  8
型材断面
  6
CONTINUOUS
 10
162.97617
 20
33.53666
 11
162.47617
 21
33.53666
  0
LINE
  8
型材断面
  6
CONTINUOUS
 10
163.459335
 20
35.15363
 11
162.97617
 21
35.15363
  0
LINE
  8
型材断面
  6
CONTINUOUS
 62
    47
 10
169.209335
 20
33.236965
 11
166.582028
 21
33.236965
  0
INSERT
  2
*GRP_0004
  8
型材断面
  6
DOT
 10
0.0
 20
0.0
  0
INSERT
  2
*GRP_0005
  8
型材断面
  6
DOT
 10
0.0
 20
0.0
  0
LINE
  8
型材断面
  6
CONTINUOUS
 10
169.209335
 20
33.236965
 11
169.209335
 21
50.203325
  0
LINE
  8
型材断面
  6
CONTINUOUS
 10
169.709335
 20
33.80363
 11
169.709335
 21
50.203325
  0
LINE
  8
型材断面
  6
CONTINUOUS
 10
166.582028
 20
32.92363
 11
166.582028
 21
50.203325
  0
LINE
  8
型材断面
  6
CONTINUOUS
 10
166.248695
 20
32.92363
 11
166.248695
 21
50.203325
  0
LINE
  8
型材断面
  6
CONTINUOUS
 10
166.148695
 20
33.706965
 11
166.148695
 21
50.203325
  0
LINE
  8
型材断面
  6
CONTINUOUS
 10
165.74267
 20
33.236965
 11
165.74267
 21
50.203325
  0
LINE
  8
型材断面
  6
CONTINUOUS
 10
162.97617
 20
33.53666
 11
162.97617
 21
50.203325
  0
LINE
  8
型材断面
  6
CONTINUOUS
 10
161.742835
 20
35.203325
 11
161.742835
 21
50.203325
  0
LINE
  8
型材断面
  6
CONTINUOUS
 10
162.47617
 20
33.53666
 11
162.47617
 21
50.203325
  0
LINE
  8
型材断面
  6
CONTINUOUS
 10
163.459335
 20
33.706965
 11
163.459335
 21
50.203325
  0
LINE
  8
型材断面
  6
CONTINUOUS
 10
163.909335
 20
33.236965
 11
163.909335
 21
50.203325
  0
POLYLINE
  8
型材断面
  6
CONTINUOUS
 66
     1
 70
     1
  0
VERTEX
  8
型材断面
 10
28.91449
 20
-94.850355
  0
VERTEX
  8
型材断面
 10
-19.764185
 20
-94.850355
  0
VERTEX
  8
型材断面
 10
-19.764185
 20
-111.19502
  0
VERTEX
  8
型材断面
 10
28.91449
 20
-111.19502
  0
SEQEND
  0
LINE
  8
型材断面
  6
CONTINUOUS
 10
55.73683
 20
-69.937453
 11
55.68683
 21
-69.937453
  0
LINE
  8
型材断面
  6
CONTINUOUS
 10
54.070162
 20
-69.437453
 11
54.070162
 21
-68.70412
  0
LINE
  8
型材断面
  6
CONTINUOUS
 62
    47
 10
55.469858
 20
-76.67062
 11
55.419858
 21
-76.67062
  0
LINE
  8
型材断面
  6
CONTINUOUS
 62
    47
 10
55.469858
 20
-76.67062
 11
55.469858
 21
-76.17062
  0
LINE
  8
型材断面
  6
CONTINUOUS
 10
54.119858
 20
-70.42062
 11
55.566525
 21
-70.42062
  0
LINE
  8
型材断面
  6
CONTINUOUS
 10
55.566525
 20
-70.87062
 11
55.566525
 21
-70.42062
  0
LINE
  8
型材断面
  6
CONTINUOUS
 62
    47
 10
56.299857
 20
-73.543312
 11
56.349857
 21
-73.543312
  0
LINE
  8
型材断面
  6
CONTINUOUS
 62
    47
 10
56.349857
 20
-73.543312
 11
56.349857
 21
-73.209977
  0
LINE
  8
型材断面
  6
CONTINUOUS
 62
    47
 10
56.349857
 20
-73.209977
 11
55.566525
 21
-73.109977
  0
LINE
  8
型材断面
  6
CONTINUOUS
 62
    47
 10
55.566525
 20
-72.703953
 11
55.566525
 21
-73.109977
  0
LINE
  8
型材断面
  6
CONTINUOUS
 62
    47
 10
56.036525
 20
-72.703953
 11
56.036525
 21
-70.87062
  0
LINE
  8
型材断面
  6
CONTINUOUS
 10
55.73683
 20
-69.937453
 11
55.73683
 21
-69.437453
  0
LINE
  8
型材断面
  6
CONTINUOUS
 10
54.119858
 20
-70.42062
 11
54.119858
 21
-69.937453
  0
LINE
  8
型材断面
  6
CONTINUOUS
 62
    47
 10
56.036525
 20
-76.17062
 11
56.036525
 21
-73.543312
  0
INSERT
  2
*GRP_0010
  8
型材断面
  6
DOT
 10
0.0
 20
0.0
  0
INSERT
  2
*GRP_0011
  8
型材断面
  6
DOT
 10
0.0
 20
0.0
  0
LINE
  8
型材断面
  6
CONTINUOUS
 10
56.036525
 20
-76.17062
 11
-37.596497
 21
-76.17062
  0
LINE
  8
型材断面
  6
CONTINUOUS
 10
55.469858
 20
-76.67062
 11
-37.596497
 21
-76.67062
  0
LINE
  8
型材断面
  6
CONTINUOUS
 10
56.349857
 20
-73.543312
 11
-37.596497
 21
-73.543312
  0
LINE
  8
型材断面
  6
CONTINUOUS
 10
56.349857
 20
-73.209977
 11
-37.596497
 21
-73.209977
  0
LINE
  8
型材断面
  6
CONTINUOUS
 10
55.566525
 20
-73.109977
 11
-37.596497
 21
-73.109977
  0
LINE
  8
型材断面
  6
CONTINUOUS
 10
56.036525
 20
-72.703953
 11
-37.596497
 21
-72.703953
  0
LINE
  8
型材断面
  6
CONTINUOUS
 10
55.73683
 20
-69.937453
 11
-37.596497
 21
-69.937453
  0
LINE
  8
型材断面
  6
CONTINUOUS
 10
54.070162
 20
-68.70412
 11
-37.596497
 21
-68.70412
  0
LINE
  8
型材断面
  6
CONTINUOUS
 10
55.73683
 20
-69.437453
 11
-37.596497
 21
-69.437453
  0
LINE
  8
型材断面
  6
CONTINUOUS
 10
55.566525
 20
-70.42062
 11
-37.596497
 21
-70.42062
  0
LINE
  8
型材断面
  6
CONTINUOUS
 10
56.036525
 20
-70.87062
 11
-37.596497
 21
-70.87062
  0
LINE
  8
型材断面
  6
CONTINUOUS
 10
53.23683
 20
50.619993
 11
54.070162
 21
50.619993
  0
LINE
  8
型材断面
  6
CONTINUOUS
 10
53.23683
 20
49.786658
 11
54.070162
 21
49.786658
  0
LINE
  8
型材断面
  6
CONTINUOUS
 10
53.23683
 20
64.369993
 11
56.349857
 21
67.48302
  0
LINE
  8
型材断面
  6
CONTINUOUS
 10
53.23683
 20
50.619993
 11
53.23683
 21
64.369993
  0
LINE
  8
型材断面
  6
DASHDOT
 10
172.29227
 20
65.203325
 11
54.070162
 21
65.203325
  0
LINE
  8
型材断面
  6
CONTINUOUS
 10
53.23683
 20
36.036658
 11
56.349857
 21
32.92363
  0
LINE
  8
型材断面
  6
CONTINUOUS
 10
53.23683
 20
36.036658
 11
53.23683
 21
49.786658
  0
LINE
  8
型材断面
  6
DASHDOT
 10
172.29227
 20
35.203325
 11
54.070162
 21
35.203325
  0
LINE
  8
型材断面
  6
DASHDOT
 10
54.070162
 20
-79.253555
 11
54.070162
 21
35.203325
  0
LINE
  8
型材断面
  6
CONTINUOUS
 10
54.070162
 20
35.203325
 11
54.070162
 21
65.203325
  0
LINE
  8
型材断面
  6
CONTINUOUS
 10
56.036525
 20
33.236962
 11
56.036525
 21
67.169687
  0
LINE
  8
型材断面
  6
CONTINUOUS
 10
56.349857
 20
32.92363
 11
56.349857
 21
67.48302
  0
LINE
  8
型材断面
  6
CONTINUOUS
 10
55.73683
 20
33.536658
 11
55.73683
 21
66.869993
  0
LINE
  8
型材断面
  6
CONTINUOUS
 10
-130.929825
 20
-69.937453
 11
-130.879825
 21
-69.937453
  0
LINE
  8
型材断面
  6
CONTINUOUS
 10
-129.263158
 20
-69.437453
 11
-129.263158
 21
-68.70412
  0
LINE
  8
型材断面
  6
CONTINUOUS
 62
    47
 10
-130.662853
 20
-76.67062
 11
-130.612853
 21
-76.67062
  0
LINE
  8
型材断面
  6
CONTINUOUS
 62
    47
 10
-130.662853
 20
-76.67062
 11
-130.662853
 21
-76.17062
  0
LINE
  8
型材断面
  6
CONTINUOUS
 10
-129.312853
 20
-70.42062
 11
-130.75952
 21
-70.42062
  0
LINE
  8
型材断面
  6
CONTINUOUS
 10
-130.75952
 20
-70.87062
 11
-130.75952
 21
-70.42062
  0
LINE
  8
型材断面
  6
CONTINUOUS
 62
    47
 10
-131.492853
 20
-73.543312
 11
-131.542853
 21
-73.543312
  0
LINE
  8
型材断面
  6
CONTINUOUS
 62
    47
 10
-131.542853
 20
-73.543312
 11
-131.542853
 21
-73.209977
  0
LINE
  8
型材断面
  6
CONTINUOUS
 62
    47
 10
-131.542853
 20
-73.209977
 11
-130.75952
 21
-73.109977
  0
LINE
  8
型材断面
  6
CONTINUOUS
 62
    47
 10
-130.75952
 20
-72.703953
 11
-130.75952
 21
-73.109977
  0
LINE
  8
型材断面
  6
CONTINUOUS
 62
    47
 10
-131.22952
 20
-72.703953
 11
-131.22952
 21
-70.87062
  0
LINE
  8
型材断面
  6
CONTINUOUS
 10
-130.929825
 20
-69.937453
 11
-130.929825
 21
-69.437453
  0
LINE
  8
型材断面
  6
CONTINUOUS
 10
-129.312853
 20
-70.42062
 11
-129.312853
 21
-69.937453
  0
LINE
  8
型材断面
  6
CONTINUOUS
 62
    47
 10
-131.22952
 20
-76.17062
 11
-131.22952
 21
-73.543312
  0
INSERT
  2
*GRP_0013
  8
型材断面
  6
DOT
 10
0.0
 20
0.0
  0
INSERT
  2
*GRP_0014
  8
型材断面
  6
DOT
 10
0.0
 20
0.0
  0
LINE
  8
型材断面
  6
CONTINUOUS
 10
-131.22952
 20
-76.17062
 11
-37.596497
 21
-76.17062
  0
LINE
  8
型材断面
  6
CONTINUOUS
 10
-130.662853
 20
-76.67062
 11
-37.596497
 21
-76.67062
  0
LINE
  8
型材断面
  6
CONTINUOUS
 10
-131.542853
 20
-73.543312
 11
-37.596497
 21
-73.543312
  0
LINE
  8
型材断面
  6
CONTINUOUS
 10
-131.542853
 20
-73.209977
 11
-37.596497
 21
-73.209977
  0
LINE
  8
型材断面
  6
CONTINUOUS
 10
-130.75952
 20
-73.109977
 11
-37.596497
 21
-73.109977
  0
LINE
  8
型材断面
  6
CONTINUOUS
 10
-131.22952
 20
-72.703953
 11
-37.596497
 21
-72.703953
  0
LINE
  8
型材断面
  6
CONTINUOUS
 10
-130.929825
 20
-69.937453
 11
-37.596497
 21
-69.937453
  0
LINE
  8
型材断面
  6
CONTINUOUS
 10
-129.263158
 20
-68.70412
 11
-37.596497
 21
-68.70412
  0
LINE
  8
型材断面
  6
CONTINUOUS
 10
-130.929825
 20
-69.437453
 11
-37.596497
 21
-69.437453
  0
LINE
  8
型材断面
  6
CONTINUOUS
 10
-130.75952
 20
-70.42062
 11
-37.596497
 21
-70.42062
  0
LINE
  8
型材断面
  6
CONTINUOUS
 10
-131.22952
 20
-70.87062
 11
-37.596497
 21
-70.87062
  0
LINE
  8
型材断面
  6
CONTINUOUS
 10
-128.429825
 20
49.786658
 11
-129.263158
 21
49.786658
  0
LINE
  8
型材断面
  6
CONTINUOUS
 10
-128.429825
 20
50.619993
 11
-129.263158
 21
50.619993
  0
LINE
  8
型材断面
  6
DASHDOT
 10
172.29227
 20
50.203325
 11
-129.263158
 21
50.203325
  0
LINE
  8
型材断面
  6
CONTINUOUS
 10
-128.429825
 20
64.369993
 11
-131.542853
 21
67.48302
  0
LINE
  8
型材断面
  6
CONTINUOUS
 10
-128.429825
 20
50.619993
 11
-128.429825
 21
64.369993
  0
LINE
  8
型材断面
  6
CONTINUOUS
 10
-128.429825
 20
36.036658
 11
-131.542853
 21
32.92363
  0
LINE
  8
型材断面
  6
CONTINUOUS
 10
-128.429825
 20
36.036658
 11
-128.429825
 21
49.786658
  0
LINE
  8
型材断面
  6
DASHDOT
 10
-129.263158
 20
-79.253555
 11
-129.263158
 21
35.203325
  0
LINE
  8
型材断面
  6
CONTINUOUS
 10
-129.263158
 20
35.203325
 11
-129.263158
 21
65.203325
  0
LINE
  8
型材断面
  6
CONTINUOUS
 10
-131.22952
 20
33.236962
 11
-131.22952
 21
67.169687
  0
LINE
  8
型材断面
  6
CONTINUOUS
 10
-131.542853
 20
32.92363
 11
-131.542853
 21
67.48302
  0
LINE
  8
型材断面
  6
CONTINUOUS
 10
-130.929825
 20
33.536658
 11
-130.929825
 21
66.869993
  0
LINE
  8
型材断面
  6
CONTINUOUS
 10
54.070162
 20
65.203325
 11
-129.263158
 21
65.203325
  0
LINE
  8
型材断面
  6
CONTINUOUS
 10
56.036525
 20
67.169687
 11
-131.22952
 21
67.169687
  0
LINE
  8
型材断面
  6
CONTINUOUS
 10
56.349857
 20
67.48302
 11
-131.542853
 21
67.48302
  0
LINE
  8
型材断面
  6
CONTINUOUS
 10
55.73683
 20
66.869993
 11
-130.929825
 21
66.869993
  0
LINE
  8
型材断面
  6
CONTINUOUS
 10
54.070162
 20
35.203325
 11
-129.263158
 21
35.203325
  0
LINE
  8
型材断面
  6
CONTINUOUS
 10
56.036525
 20
33.236962
 11
-131.22952
 21
33.236962
  0
LINE
  8
型材断面
  6
CONTINUOUS
 10
56.349857
 20
32.92363
 11
-131.542853
 21
32.92363
  0
LINE
  8
型材断面
  6
CONTINUOUS
 10
55.73683
 20
33.536658
 11
-130.929825
 21
33.536658
  0
LINE
  8
型材断面
  6
CONTINUOUS
 10
-91.550497
 20
36.86999
 11
-94.050497
 21
36.86999
  0
LINE
  8
型材断面
  6
CONTINUOUS
 10
-54.747833
 20
36.86999
 11
-57.247833
 21
36.86999
  0
LINE
  8
型材断面
  6
CONTINUOUS
 10
-110.61516
 20
36.036658
 11
-110.61516
 21
35.203325
  0
LINE
  8
型材断面
  6
CONTINUOUS
 10
-111.448495
 20
36.036658
 11
-111.448495
 21
35.203325
  0
LINE
  8
型材断面
  6
CONTINUOUS
 10
-128.429825
 20
36.036658
 11
-111.448495
 21
36.036658
  0
LINE
  8
型材断面
  6
CONTINUOUS
 10
-73.982498
 20
36.036658
 11
-73.982498
 21
35.203325
  0
LINE
  8
型材断面
  6
CONTINUOUS
 10
-74.815833
 20
36.036658
 11
-74.815833
 21
35.203325
  0
LINE
  8
型材断面
  6
CONTINUOUS
 10
-110.61516
 20
36.036658
 11
-74.815833
 21
36.036658
  0
LINE
  8
型材断面
  6
CONTINUOUS
 10
-73.982498
 20
36.036658
 11
-38.013165
 21
36.036658
  0
LINE
  8
型材断面
  6
CONTINUOUS
 10
-91.550497
 20
63.53666
 11
-94.050497
 21
63.53666
  0
LINE
  8
型材断面
  6
CONTINUOUS
 10
-54.747833
 20
63.53666
 11
-57.247833
 21
63.53666
  0
LINE
  8
型材断面
  6
DASHDOT
 10
-55.997833
 20
35.203325
 11
-55.997833
 21
65.203325
  0
LINE
  8
型材断面
  6
DASHDOT
 10
-92.800497
 20
35.203325
 11
-92.800497
 21
65.203325
  0
LINE
  8
型材断面
  6
CONTINUOUS
 10
-91.550497
 20
36.86999
 11
-91.550497
 21
63.53666
  0
LINE
  8
型材断面
  6
CONTINUOUS
 10
-92.550497
 20
36.86999
 11
-92.550497
 21
63.53666
  0
LINE
  8
型材断面
  6
CONTINUOUS
 10
-93.050497
 20
36.86999
 11
-93.050497
 21
63.53666
  0
LINE
  8
型材断面
  6
CONTINUOUS
 10
-94.050497
 20
36.86999
 11
-94.050497
 21
63.53666
  0
LINE
  8
型材断面
  6
CONTINUOUS
 10
-54.747833
 20
36.86999
 11
-54.747833
 21
63.53666
  0
LINE
  8
型材断面
  6
CONTINUOUS
 10
-55.747833
 20
36.86999
 11
-55.747833
 21
63.53666
  0
LINE
  8
型材断面
  6
CONTINUOUS
 10
-56.247833
 20
36.86999
 11
-56.247833
 21
63.53666
  0
LINE
  8
型材断面
  6
CONTINUOUS
 10
-57.247833
 20
36.86999
 11
-57.247833
 21
63.53666
  0
LINE
  8
型材断面
  6
CONTINUOUS
 10
16.357503
 20
36.86999
 11
18.857503
 21
36.86999
  0
LINE
  8
型材断面
  6
CONTINUOUS
 10
-20.445162
 20
36.86999
 11
-17.945162
 21
36.86999
  0
LINE
  8
型材断面
  6
CONTINUOUS
 10
35.422165
 20
36.036658
 11
35.422165
 21
35.203325
  0
LINE
  8
型材断面
  6
CONTINUOUS
 10
36.2555
 20
36.036658
 11
36.2555
 21
35.203325
  0
LINE
  8
型材断面
  6
CONTINUOUS
 10
53.23683
 20
36.036658
 11
36.2555
 21
36.036658
  0
LINE
  8
型材断面
  6
CONTINUOUS
 10
-1.210498
 20
36.036658
 11
-1.210498
 21
35.203325
  0
LINE
  8
型材断面
  6
CONTINUOUS
 10
-0.377163
 20
36.036658
 11
-0.377163
 21
35.203325
  0
LINE
  8
型材断面
  6
CONTINUOUS
 10
-38.013165
 20
36.036658
 11
-38.013165
 21
35.203325
  0
LINE
  8
型材断面
  6
CONTINUOUS
 10
-37.17983
 20
36.036658
 11
-37.17983
 21
35.203325
  0
LINE
  8
型材断面
  6
CONTINUOUS
 10
35.422165
 20
36.036658
 11
-0.377163
 21
36.036658
  0
LINE
  8
型材断面
  6
CONTINUOUS
 10
-1.210498
 20
36.036658
 11
-37.17983
 21
36.036658
  0
LINE
  8
型材断面
  6
CONTINUOUS
 10
16.357503
 20
63.53666
 11
18.857503
 21
63.53666
  0
LINE
  8
型材断面
  6
CONTINUOUS
 10
-20.445162
 20
63.53666
 11
-17.945162
 21
63.53666
  0
LINE
  8
型材断面
  6
DASHDOT
 10
-19.195162
 20
35.203325
 11
-19.195162
 21
65.203325
  0
LINE
  8
型材断面
  6
DASHDOT
 10
17.607503
 20
35.203325
 11
17.607503
 21
65.203325
  0
LINE
  8
型材断面
  6
CONTINUOUS
 10
16.357503
 20
36.86999
 11
16.357503
 21
63.53666
  0
LINE
  8
型材断面
  6
CONTINUOUS
 10
17.357503
 20
36.86999
 11
17.357503
 21
63.53666
  0
LINE
  8
型材断面
  6
CONTINUOUS
 10
17.857503
 20
36.86999
 11
17.857503
 21
63.53666
  0
LINE
  8
型材断面
  6
CONTINUOUS
 10
18.857503
 20
36.86999
 11
18.857503
 21
63.53666
  0
LINE
  8
型材断面
  6
CONTINUOUS
 10
-20.445162
 20
36.86999
 11
-20.445162
 21
63.53666
  0
LINE
  8
型材断面
  6
CONTINUOUS
 10
-19.445162
 20
36.86999
 11
-19.445162
 21
63.53666
  0
LINE
  8
型材断面
  6
CONTINUOUS
 10
-18.945162
 20
36.86999
 11
-18.945162
 21
63.53666
  0
LINE
  8
型材断面
  6
CONTINUOUS
 10
-17.945162
 20
36.86999
 11
-17.945162
 21
63.53666
  0
LINE
  8
型材断面
  6
CONTINUOUS
 10
-110.61516
 20
64.369993
 11
-110.61516
 21
65.203325
  0
LINE
  8
型材断面
  6
CONTINUOUS
 10
-111.448495
 20
64.369993
 11
-111.448495
 21
65.203325
  0
LINE
  8
型材断面
  6
CONTINUOUS
 10
-128.429825
 20
64.369993
 11
-111.448495
 21
64.369993
  0
LINE
  8
型材断面
  6
CONTINUOUS
 10
-73.982498
 20
64.369993
 11
-73.982498
 21
65.203325
  0
LINE
  8
型材断面
  6
CONTINUOUS
 10
-74.815833
 20
64.369993
 11
-74.815833
 21
65.203325
  0
LINE
  8
型材断面
  6
CONTINUOUS
 10
-110.61516
 20
64.369993
 11
-74.815833
 21
64.369993
  0
LINE
  8
型材断面
  6
CONTINUOUS
 10
-73.982498
 20
64.369993
 11
-38.013165
 21
64.369993
  0
LINE
  8
型材断面
  6
CONTINUOUS
 10
35.422165
 20
64.369993
 11
35.422165
 21
65.203325
  0
LINE
  8
型材断面
  6
CONTINUOUS
 10
36.2555
 20
64.369993
 11
36.2555
 21
65.203325
  0
LINE
  8
型材断面
  6
CONTINUOUS
 10
53.23683
 20
64.369993
 11
36.2555
 21
64.369993
  0
LINE
  8
型材断面
  6
CONTINUOUS
 10
-1.210498
 20
64.369993
 11
-1.210498
 21
65.203325
  0
LINE
  8
型材断面
  6
CONTINUOUS
 10
-0.377163
 20
64.369993
 11
-0.377163
 21
65.203325
  0
LINE
  8
型材断面
  6
CONTINUOUS
 10
-38.013165
 20
64.369993
 11
-38.013165
 21
65.203325
  0
LINE
  8
型材断面
  6
CONTINUOUS
 10
-37.17983
 20
64.369993
 11
-37.17983
 21
65.203325
  0
LINE
  8
型材断面
  6
CONTINUOUS
 10
35.422165
 20
64.369993
 11
-0.377163
 21
64.369993
  0
LINE
  8
型材断面
  6
CONTINUOUS
 10
-1.210498
 20
64.369993
 11
-37.17983
 21
64.369993
  0
POLYLINE
  8
型材断面
  6
CONTINUOUS
 66
     1
 70
     1
  0
VERTEX
  8
型材断面
 10
-28.144085
 20
25.427403
  0
VERTEX
  8
型材断面
 10
-46.916015
 20
25.427403
  0
VERTEX
  8
型材断面
 10
-46.916015
 20
20.69056
  0
VERTEX
  8
型材断面
 10
-28.144085
 20
20.69056
  0
SEQEND
  0
POLYLINE
  8
型材断面
  6
CONTINUOUS
 66
     1
 70
     1
  0
VERTEX
  8
型材断面
 10
-28.144085
 20
74.979248
  0
VERTEX
  8
型材断面
 10
-46.916015
 20
74.979248
  0
VERTEX
  8
型材断面
 10
-46.916015
 20
79.71609
  0
VERTEX
  8
型材断面
 10
-28.144085
 20
79.71609
  0
SEQEND
  0
LINE
  8
型材断面
  6
CONTINUOUS
 10
-112.596495
 20
67.833455
 11
-114.092125
 21
70.423963
  0
LINE
  8
型材断面
  6
CONTINUOUS
 10
-112.596495
 20
67.833455
 11
-111.100865
 21
70.423963
  0
LINE
  8
型材断面
  6
CONTINUOUS
 10
-111.100865
 20
70.423963
 11
-114.092125
 21
70.423963
  0
LINE
  8
型材断面
  6
CONTINUOUS
 10
-170.11537
 20
103.180797
 11
-169.519315
 21
100.59029
  0
LINE
  8
型材断面
  6
CONTINUOUS
 10
-170.11537
 20
103.180797
 11
-170.711427
 21
100.59029
  0
LINE
  8
型材断面
  6
CONTINUOUS
 10
-170.711427
 20
100.59029
 11
-169.519315
 21
100.59029
  0
LINE
  8
型材断面
  6
CONTINUOUS
 10
-176.137958
 20
97.311398
 11
-129.89618
 21
97.311398
  0
LINE
  8
型材断面
  6
CONTINUOUS
 10
-170.11537
 20
109.710672
 11
-171.611
 21
107.120165
  0
LINE
  8
型材断面
  6
CONTINUOUS
 10
-170.11537
 20
109.710672
 11
-168.61974
 21
107.120165
  0
LINE
  8
型材断面
  6
CONTINUOUS
 10
-168.61974
 20
107.120165
 11
-171.611
 21
107.120165
  0
LINE
  8
型材断面
  6
CONTINUOUS
 10
-176.137958
 20
106.18157
 11
-129.89618
 21
106.18157
  0
LINE
  8
型材断面
  6
CONTINUOUS
 10
-176.137958
 20
91.523365
 11
-129.89618
 21
91.523365
  0
LINE
  8
型材断面
  6
CONTINUOUS
 10
-131.893293
 20
50.203325
 11
-134.4838
 21
51.698955
  0
LINE
  8
型材断面
  6
CONTINUOUS
 10
-131.893293
 20
50.203325
 11
-134.4838
 21
48.707695
  0
LINE
  8
型材断面
  6
CONTINUOUS
 10
-134.4838
 20
48.707695
 11
-134.4838
 21
51.698955
  0
LINE
  8
型材断面
  6
CONTINUOUS
 10
-112.596495
 20
32.573195
 11
-114.092125
 21
29.982688
  0
LINE
  8
型材断面
  6
CONTINUOUS
 10
-112.596495
 20
32.573195
 11
-111.100865
 21
29.982688
  0
LINE
  8
型材断面
  6
CONTINUOUS
 10
-111.100865
 20
29.982688
 11
-114.092125
 21
29.982688
  0
LINE
  8
型材断面
  6
CONTINUOUS
 10
37.4035
 20
67.833455
 11
38.89913
 21
70.423963
  0
LINE
  8
型材断面
  6
CONTINUOUS
 10
37.4035
 20
67.833455
 11
35.90787
 21
70.423963
  0
LINE
  8
型材断面
  6
CONTINUOUS
 10
35.90787
 20
70.423963
 11
38.89913
 21
70.423963
  0
LINE
  8
型材断面
  6
CONTINUOUS
 10
56.700297
 20
50.203325
 11
59.290805
 21
51.698955
  0
LINE
  8
型材断面
  6
CONTINUOUS
 10
56.700297
 20
50.203325
 11
59.290805
 21
48.707695
  0
LINE
  8
型材断面
  6
CONTINUOUS
 10
59.290805
 20
48.707695
 11
59.290805
 21
51.698955
  0
LINE
  8
型材断面
  6
CONTINUOUS
 10
37.4035
 20
32.573195
 11
38.89913
 21
29.982688
  0
LINE
  8
型材断面
  6
CONTINUOUS
 10
37.4035
 20
32.573195
 11
35.90787
 21
29.982688
  0
LINE
  8
型材断面
  6
CONTINUOUS
 10
35.90787
 20
29.982688
 11
38.89913
 21
29.982688
  0
LINE
  8
型材断面
  6
CONTINUOUS
 10
-37.596497
 20
67.833453
 11
-39.092127
 21
70.42396
  0
LINE
  8
型材断面
  6
CONTINUOUS
 10
-37.596497
 20
67.833453
 11
-36.100868
 21
70.42396
  0
LINE
  8
型材断面
  6
CONTINUOUS
 10
-36.100868
 20
70.42396
 11
-39.092127
 21
70.42396
  0
LINE
  8
型材断面
  6
CONTINUOUS
 10
-37.596497
 20
32.573193
 11
-39.092127
 21
29.982685
  0
LINE
  8
型材断面
  6
CONTINUOUS
 10
-37.596497
 20
32.573193
 11
-36.100868
 21
29.982685
  0
LINE
  8
型材断面
  6
CONTINUOUS
 10
-36.100868
 20
29.982685
 11
-39.092127
 21
29.982685
  0
LINE
  8
型材断面
  6
CONTINUOUS
 10
56.700297
 20
61.303325
 11
59.290805
 21
60.707267
  0
LINE
  8
型材断面
  6
CONTINUOUS
 10
56.700297
 20
61.303325
 11
59.290805
 21
61.899382
  0
LINE
  8
型材断面
  6
CONTINUOUS
 10
59.290805
 20
61.899382
 11
59.290805
 21
60.707267
  0
LINE
  8
型材断面
  6
CONTINUOUS
 10
56.700297
 20
39.103325
 11
59.290805
 21
39.699382
  0
LINE
  8
型材断面
  6
CONTINUOUS
 10
56.700297
 20
39.103325
 11
59.290805
 21
38.507267
  0
LINE
  8
型材断面
  6
CONTINUOUS
 10
59.290805
 20
38.507267
 11
59.290805
 21
39.699382
  0
LINE
  8
型材断面
  6
CONTINUOUS
 10
-131.893293
 20
61.303325
 11
-134.4838
 21
60.707267
  0
LINE
  8
型材断面
  6
CONTINUOUS
 10
-131.893293
 20
61.303325
 11
-134.4838
 21
61.899382
  0
LINE
  8
型材断面
  6
CONTINUOUS
 10
-134.4838
 20
61.899382
 11
-134.4838
 21
60.707267
  0
LINE
  8
型材断面
  6
CONTINUOUS
 10
-131.893293
 20
39.103325
 11
-134.4838
 21
39.699382
  0
LINE
  8
型材断面
  6
CONTINUOUS
 10
-131.893293
 20
39.103325
 11
-134.4838
 21
38.507267
  0
LINE
  8
型材断面
  6
CONTINUOUS
 10
-134.4838
 20
38.507267
 11
-134.4838
 21
39.699382
  0
LINE
  8
型材断面
  6
CONTINUOUS
 10
-176.137958
 20
85.735332
 11
-129.89618
 21
85.735332
  0
INSERT
  2
*GRP_0026
  8
型材断面
  6
DOT
 10
0.0
 20
0.0
  0
INSERT
  2
*GRP_0032
  8
型材断面
  6
CONTINUOUS
 10
0.0
 20
0.0
  0
INSERT
  2
*GRP_0033
  8
型材断面
  6
CONTINUOUS
 10
0.0
 20
0.0
  0
INSERT
  2
*GRP_0034
  8
型材断面
  6
CONTINUOUS
 10
0.0
 20
0.0
  0
INSERT
  2
*GRP_0035
  8
型材断面
  6
CONTINUOUS
 10
0.0
 20
0.0
  0
INSERT
  2
*GRP_0036
  8
型材断面
  6
CONTINUOUS
 10
0.0
 20
0.0
  0
INSERT
  2
*GRP_0037
  8
型材断面
  6
CONTINUOUS
 10
0.0
 20
0.0
  0
LINE
  8
型材断面
  6
CONTINUOUS
 10
141.052102
 20
-21.887503
 11
120.560503
 21
-21.887503
  0
POLYLINE
  8
ガラス
  6
CONTINUOUS
 66
     1
 70
     1
  0
VERTEX
  8
ガラス
 10
158.388537
 20
-43.6033
  0
VERTEX
  8
ガラス
 10
122.931872
 20
-43.6033
  0
VERTEX
  8
ガラス
 10
122.931872
 20
-72.936633
  0
VERTEX
  8
ガラス
 10
158.388537
 20
-72.936633
  0
SEQEND
  0
TEXT
  7
TextStyle03
  8
文字
  6
CONTINUOUS
 10
-15.45
 20
-100.575
  1
※トップライト枠高さ寸法
 40
3.0
 72
     5
 11
24.675
 21
-100.575
  0
TEXT
  7
TextStyle03
  8
文字
  6
CONTINUOUS
 10
-15.45
 20
-103.95
  1
　シングルガラス：214
 40
3.0
 72
     5
 11
19.8
 21
-103.95
  0
TEXT
  7
TextStyle03
  8
文字
  6
CONTINUOUS
 10
-15.45
 20
-107.325
  1
　ペアガラス：224
 40
3.0
 72
     5
 11
13.05
 21
-107.325
  0
TEXT
  7
TextStyle03
  8
文字
  6
CONTINUOUS
 10
78.1
 20
125.25
  1
シリーズ：ＳＴＤＬ
 40
5.0
 72
     5
 11
128.1
 21
125.25
  0
TEXT
  7
TextStyle03
  8
文字
  6
CONTINUOUS
 10
78.1
 20
119.625
  1
　　　　　（上下可動）900×5500タイプ
 40
5.0
 72
     5
 11
181.5375
 21
119.625
  0
TEXT
  7
TextStyle03
  8
文字
  6
CONTINUOUS
 10
78.1
 20
114.0
  1
図面名　：外観姿図
 40
5.0
 72
     5
 11
128.1
 21
114.0
  0
TEXT
  7
TextStyle03
  8
文字
  6
CONTINUOUS
 10
78.1
 20
108.375
  1
　　　　　　
 40
5.0
 72
     5
 11
111.225
 21
108.375
  0
TEXT
  7
TextStyle03
  8
文字
  6
CONTINUOUS
 10
-45.825
 20
21.725
  1
可動装置側
 40
3.0
 72
     5
 11
-29.325
 21
21.725
  0
TEXT
  7
TextStyle03
  8
文字
  6
CONTINUOUS
 10
-45.825
 20
75.675
  1
可動装置側
 40
3.0
 72
     5
 11
-29.325
 21
75.675
  0
TEXT
  7
TextStyle03
  8
文字
  6
CONTINUOUS
 10
-167.3
 20
101.8
  1
はケーシング位置を示す
 40
3.0
 72
     5
 11
-130.55
 21
101.8
  0
TEXT
  7
TextStyle03
  8
文字
  6
CONTINUOUS
 10
-167.3
 20
98.425
  1
４ヶ所中1ヶ所に設定
 40
3.0
 72
     5
 11
-135.6125
 21
98.425
  0
TEXT
  7
TextStyle03
  8
文字
  6
CONTINUOUS
 10
-167.3
 20
107.325
  1
は排水穴位置を示す
 40
3.0
 72
     5
 11
-137.3
 21
107.325
  0
TEXT
  7
TextStyle03
  8
文字
  6
CONTINUOUS
 10
-150.225
 20
28.675
  1
アンカーピッチ
 40
3.0
 50
90.0
 72
     5
 11
-150.225
 21
51.925
  0
TEXT
  7
TextStyle03
  8
文字
  6
CONTINUOUS
 10
-115.2
 20
101.6
  1
アンカーピッチ
 40
3.0
 72
     5
 11
-91.95
 21
101.6
  0
TEXT
  7
TextStyle03
  8
文字
  6
CONTINUOUS
 10
-171.025
 20
92.45
  1
アンカー数量　１８ヶ所
 40
3.0
 72
     5
 11
-134.275
 21
92.45
  0
TEXT
  7
TextStyle03
  8
文字
  6
CONTINUOUS
 10
-171.075
 20
86.675
  1
アームユニット数　４～６ヶ所
 40
3.0
 72
     5
 11
-124.2
 21
86.675
  0
TEXT
  7
TextStyle03
  8
文字
  6
CONTINUOUS
 10
-176.0
 20
81.725
  1
※重量に依るのでご相談ください
 40
3.0
 72
     5
 11
-125.75
 21
81.725
  0
TEXT
  7
TextStyle03
  8
文字
  6
CONTINUOUS
 10
122.3
 20
-20.625
  1
ガラス寸法
 40
3.0
 72
     5
 11
138.8
 21
-20.625
  0
TEXT
  7
TextStyle03
  8
文字
  6
CONTINUOUS
 10
144.85
 20
-70.025
  1
×５枚
 40
3.0
 72
     5
 11
154.6
 21
-70.025
  0
INSERT
  2
*DIM_0006
  8
寸法
  6
CONTINUOUS
 10
0.0
 20
0.0
  0
INSERT
  2
*DIM_0007
  8
寸法
  6
CONTINUOUS
 10
0.0
 20
0.0
  0
INSERT
  2
*DIM_0008
  8
寸法
  6
CONTINUOUS
 10
0.0
 20
0.0
  0
INSERT
  2
*DIM_0009
  8
寸法
  6
CONTINUOUS
 10
0.0
 20
0.0
  0
INSERT
  2
*DIM_0012
  8
寸法
  6
CONTINUOUS
 10
0.0
 20
0.0
  0
INSERT
  2
*DIM_0015
  8
寸法
  6
CONTINUOUS
 10
0.0
 20
0.0
  0
INSERT
  2
*DIM_0016
  8
寸法
  6
CONTINUOUS
 10
0.0
 20
0.0
  0
INSERT
  2
*DIM_0017
  8
寸法
  6
CONTINUOUS
 10
0.0
 20
0.0
  0
INSERT
  2
*DIM_0018
  8
寸法
  6
CONTINUOUS
 10
0.0
 20
0.0
  0
INSERT
  2
*DIM_0019
  8
寸法
  6
CONTINUOUS
 10
0.0
 20
0.0
  0
INSERT
  2
*DIM_0020
  8
寸法
  6
CONTINUOUS
 10
0.0
 20
0.0
  0
INSERT
  2
*DIM_0021
  8
寸法
  6
CONTINUOUS
 10
0.0
 20
0.0
  0
INSERT
  2
*DIM_0022
  8
寸法
  6
CONTINUOUS
 10
0.0
 20
0.0
  0
INSERT
  2
*DIM_0023
  8
寸法
  6
CONTINUOUS
 10
0.0
 20
0.0
  0
INSERT
  2
*DIM_0024
  8
寸法
  6
CONTINUOUS
 10
0.0
 20
0.0
  0
INSERT
  2
*DIM_0025
  8
寸法
  6
CONTINUOUS
 10
0.0
 20
0.0
  0
INSERT
  2
*DIM_0031
  8
寸法
  6
CONTINUOUS
 10
0.0
 20
0.0
  0
INSERT
  2
*DIM_0038
  8
寸法
  6
CONTINUOUS
 10
0.0
 20
0.0
  0
INSERT
  2
*DIM_0039
  8
寸法
  6
CONTINUOUS
 10
0.0
 20
0.0
  0
INSERT
  2
*DIM_0040
  8
寸法
  6
CONTINUOUS
 10
0.0
 20
0.0
  0
INSERT
  2
*DIM_0041
  8
寸法
  6
CONTINUOUS
 10
0.0
 20
0.0
  0
INSERT
  2
*DIM_0042
  8
寸法
  6
CONTINUOUS
 10
0.0
 20
0.0
  0
LINE
  8
曲げ物
  6
CONTINUOUS
 10
38.7959
 20
52.082655
 11
35.100588
 21
48.387342
  0
LINE
  8
曲げ物
  6
CONTINUOUS
 10
38.09243
 20
50.546545
 11
36.6367
 21
49.090815
  0
LINE
  8
曲げ物
  6
CONTINUOUS
 10
37.25979
 20
51.379185
 11
35.80406
 21
49.923455
  0
LINE
  8
曲げ物
  6
CONTINUOUS
 10
0.418303
 20
52.082655
 11
-3.27701
 21
48.387342
  0
LINE
  8
曲げ物
  6
CONTINUOUS
 10
-0.285167
 20
50.546545
 11
-1.740898
 21
49.090815
  0
LINE
  8
曲げ物
  6
CONTINUOUS
 10
-1.117807
 20
51.379185
 11
-2.573538
 21
49.923455
  0
LINE
  8
曲げ物
  6
CONTINUOUS
 10
-36.008955
 20
52.082655
 11
-39.704267
 21
48.387342
  0
LINE
  8
曲げ物
  6
CONTINUOUS
 10
-36.712425
 20
50.546545
 11
-38.168155
 21
49.090815
  0
LINE
  8
曲げ物
  6
CONTINUOUS
 10
-37.545065
 20
51.379185
 11
-39.000795
 21
49.923455
  0
LINE
  8
曲げ物
  6
CONTINUOUS
 10
-72.283558
 20
52.082655
 11
-75.97887
 21
48.387342
  0
LINE
  8
曲げ物
  6
CONTINUOUS
 10
-72.987028
 20
50.546545
 11
-74.442757
 21
49.090815
  0
LINE
  8
曲げ物
  6
CONTINUOUS
 10
-73.819668
 20
51.379185
 11
-75.275397
 21
49.923455
  0
LINE
  8
曲げ物
  6
CONTINUOUS
 10
-108.392158
 20
52.082655
 11
-112.08747
 21
48.387342
  0
LINE
  8
曲げ物
  6
CONTINUOUS
 10
-109.095627
 20
50.546545
 11
-110.551357
 21
49.090815
  0
LINE
  8
曲げ物
  6
CONTINUOUS
 10
-109.928268
 20
51.379185
 11
-111.383997
 21
49.923455
  0
ENDSEC
  0
EOF
