  0
SECTION
  2
HEADER
  9
$EXTMIN
 10
-210.0
 20
-148.5
  9
$EXTMAX
 10
210.0
 20
148.5
  9
$PDMODE
 70
    32
  9
$PDSIZE
 40
1.5
  9
$LTSCALE
 40
10.0
  0
ENDSEC
  0
SECTION
  2
TABLES
  0
TABLE
  2
LTYPE
 70
    15
  0
LTYPE
  2
CONTINUOUS
 70
    64
  3
実線
 72
    65
 73
     0
 40
0.0
  0
LTYPE
  2
DASHED
 70
    64
  3
破線A
 72
    65
 73
     2
 40
0.6
 49
0.4
 49
-0.2
  0
LTYPE
  2
DASHEDX2
 70
    64
  3
破線B
 72
    65
 73
     2
 40
1.3
 49
0.9
 49
-0.4
  0
LTYPE
  2
DASHDOT
 70
    64
  3
１点鎖線A
 72
    65
 73
     4
 40
0.5375
 49
0.375
 49
-0.05
 49
0.0625
 49
-0.05
  0
LTYPE
  2
DASHDOTX2
 70
    64
  3
１点鎖線B
 72
    65
 73
     4
 40
1.075
 49
0.75
 49
-0.1
 49
0.125
 49
-0.1
  0
LTYPE
  2
DIVIDE2
 70
    64
  3
２点鎖線A
 72
    65
 73
     6
 40
0.5125
 49
0.3
 49
-0.0375
 49
0.05
 49
-0.0375
 49
0.05
 49
-0.0375
  0
LTYPE
  2
DIVIDE
 70
    64
  3
２点鎖線B
 72
    65
 73
     6
 40
1.05
 49
0.55
 49
-0.1
 49
0.1
 49
-0.1
 49
0.1
 49
-0.1
  0
LTYPE
  2
DOT
 70
    64
  3
点線A
 72
    65
 73
     2
 40
0.1125
 49
0.0625
 49
-0.05
  0
LTYPE
  2
DOTX2
 70
    64
  3
点線B
 72
    65
 73
     2
 40
0.275
 49
0.15
 49
-0.125
  0
LTYPE
  2
CONTINUOUS
 70
    64
  3
実線
 72
    65
 73
     0
 40
0.0
  0
LTYPE
  2
CONTINUOUS
 70
    64
  3
実線
 72
    65
 73
     0
 40
0.0
  0
LTYPE
  2
CONTINUOUS
 70
    64
  3
実線
 72
    65
 73
     0
 40
0.0
  0
LTYPE
  2
CONTINUOUS
 70
    64
  3
実線
 72
    65
 73
     0
 40
0.0
  0
LTYPE
  2
CONTINUOUS
 70
    64
  3
実線
 72
    65
 73
     0
 40
0.0
  0
LTYPE
  2
CONTINUOUS
 70
    64
  3
実線
 72
    65
 73
     0
 40
0.0
  0
ENDTAB
  0
TABLE
  2
LAYER
 70
    34
  0
LAYER
  2
通り芯
 70
     0
 62
    15
  6
CONTINUOUS
  0
LAYER
  2
補助線
 70
     0
 62
    16
  6
DOT
  0
LAYER
  2
躯体
 70
     0
 62
    31
  6
CONTINUOUS
  0
LAYER
  2
型材
 70
     0
 62
    32
  6
CONTINUOUS
  0
LAYER
  2
型材断面
 70
     0
 62
    47
  6
CONTINUOUS
  0
LAYER
  2
ガラス
 70
     0
 62
    48
  6
CONTINUOUS
  0
LAYER
  2
ゴム等
 70
     0
 62
    63
  6
CONTINUOUS
  0
LAYER
  2
ボルト／ビス
 70
     0
 62
    64
  6
CONTINUOUS
  0
LAYER
  2
文字
 70
     0
 62
    79
  6
CONTINUOUS
  0
LAYER
  2
寸法
 70
     0
 62
    80
  6
CONTINUOUS
  0
LAYER
  2
ﾊｯﾁﾝｸﾞ
 70
     0
 62
    95
  6
CONTINUOUS
  0
LAYER
  2
別途部材
 70
     0
 62
    96
  6
CONTINUOUS
  0
LAYER
  2
曲げ物
 70
     0
 62
   111
  6
CONTINUOUS
  0
LAYER
  2
鉄骨等
 70
     0
 62
   112
  6
CONTINUOUS
  0
LAYER
  2
St
 70
     0
 62
   127
  6
CONTINUOUS
  0
LAYER
  2
その他部品等
 70
     0
 62
   128
  6
CONTINUOUS
  0
LAYER
  2
ｶﾞｽｹｯﾄ
 70
     0
 62
   143
  6
CONTINUOUS
  0
LAYER
  2
ｽｹｯﾁ
 70
     0
 62
    14
  6
CONTINUOUS
  0
LAYER
  2
0
 70
     0
 62
    17
  6
CONTINUOUS
  0
LAYER
  2
1
 70
     0
 62
    30
  6
CONTINUOUS
  0
LAYER
  2
4
 70
     0
 62
    33
  6
CONTINUOUS
  0
LAYER
  2
ﾚｲﾔ3
 70
     0
 62
    46
  6
CONTINUOUS
  0
LAYER
  2
外形線
 70
     0
 62
    49
  6
CONTINUOUS
  0
LAYER
  2
部品
 70
     0
 62
    14
  6
CONTINUOUS
  0
LAYER
  2
サッシ芯
 70
     0
 62
    17
  6
DASHDOTX2
  0
LAYER
  2
寸法線
 70
     0
 62
    62
  6
CONTINUOUS
  0
LAYER
  2
姿図外形線
 70
     0
 62
    65
  6
CONTINUOUS
  0
LAYER
  2
姿補助線
 70
     0
 62
    30
  6
CONTINUOUS
  0
LAYER
  2
透視線
 70
     0
 62
    78
  6
DOT
  0
LAYER
  2
用紙
 70
     0
 62
    81
  6
CONTINUOUS
  0
LAYER
  2
実線図枠
 70
     0
 62
    94
  6
CONTINUOUS
  0
LAYER
  2
補助図枠
 70
     0
 62
    97
  6
CONTINUOUS
  0
LAYER
  2
建具記号
 70
     0
 62
   110
  6
CONTINUOUS
  0
LAYER
  2
補助文字
 70
     0
 62
   113
  6
CONTINUOUS
  0
ENDTAB
  0
TABLE
  2
STYLE
 70
    10
  0
STYLE
  2
STANDARD
 70
     0
 40
1.0
 41
1.0
 42
1.0
 50
0.0
 71
     0
  3
TXT
  4
BIGFONT
  0
STYLE
  2
TATE
 70
     4
 40
1.0
 41
1.0
 42
1.0
 50
0.0
 71
     0
  3
TXT
  4
BIGFONT
  0
STYLE
  2
TextStyle03
 70
     0
 40
1.0
 41
1.0
 42
1.0
 50
0.0
 71
     0
  3
MONOTXT
  4
BIGFONT
  0
STYLE
  2
TextStyle04
 70
     0
 40
1.0
 41
1.0
 42
1.0
 50
0.0
 71
     0
  3
MONOTXT
  4
BIGFONT
  0
STYLE
  2
TextStyle05
 70
     0
 40
1.0
 41
1.0
 42
1.0
 50
0.0
 71
     0
  3
MONOTXT
  4
BIGFONT
  0
STYLE
  2
TextStyle06
 70
     0
 40
1.0
 41
1.0
 42
1.0
 50
0.0
 71
     0
  3
MONOTXT
  4
BIGFONT
  0
STYLE
  2
TextStyle07
 70
     0
 40
1.0
 41
1.0
 42
1.0
 50
0.0
 71
     0
  3
MONOTXT
  4
BIGFONT
  0
STYLE
  2
TextStyle08
 70
     0
 40
1.0
 41
1.0
 42
1.0
 50
0.0
 71
     0
  3
MONOTXT
  4
BIGFONT
  0
STYLE
  2
TextStyle09
 70
     0
 40
1.0
 41
1.0
 42
1.0
 50
0.0
 71
     0
  3
MONOTXT
  4
BIGFONT
  0
STYLE
  2
TextStyle10
 70
     0
 40
1.0
 41
1.0
 42
1.0
 50
0.0
 71
     0
  3
MONOTXT
  4
BIGFONT
  0
ENDTAB
  0
ENDSEC
  0
SECTION
  2
BLOCKS
  0
BLOCK
  2
*GRP_0001
 70
    65
 10
0.0
 20
0.0
  0
LINE
  8
型材断面
  6
CONTINUOUS
 10
195.0
 20
133.5
 11
195.0
 21
-133.5
  0
LINE
  8
型材断面
  6
CONTINUOUS
 10
195.0
 20
-133.5
 11
-185.0
 21
-133.5
  0
LINE
  8
型材断面
  6
CONTINUOUS
 10
-185.0
 20
-133.5
 11
-185.0
 21
133.5
  0
LINE
  8
型材断面
  6
CONTINUOUS
 10
195.0
 20
133.5
 11
-185.0
 21
133.5
  0
LINE
  8
型材断面
  6
CONTINUOUS
 10
145.0
 20
-133.5
 11
145.0
 21
-118.5
  0
LINE
  8
型材断面
  6
CONTINUOUS
 10
195.0
 20
-118.5
 11
145.0
 21
-118.5
  0
ENDBLK
  0
BLOCK
  2
*DIM_0002
 70
    65
 10
0.0
 20
0.0
  0
LINE
  8
寸法
  6
BYBLOCK
 62
     0
 10
-29.755937
 20
59.370385
 11
-9.20651
 21
59.370385
  0
LINE
  8
寸法
  6
BYBLOCK
 62
     0
 10
-21.732063
 20
53.820385
 11
-9.20651
 21
53.820385
  0
LINE
  8
寸法
  6
BYBLOCK
 62
     0
 10
-9.20651
 20
59.370385
 11
-9.20651
 21
53.820385
  0
POINT
  8
寸法
 62
     0
 10
-9.20651
 20
59.370385
  0
POINT
  8
寸法
 62
     0
 10
-9.20651
 20
53.820385
  0
TEXT
  7
TextStyle03
  8
寸法
  6
CONTINUOUS
 62
     0
 10
-9.6
 20
54.1375
  1
111
 40
3.0
 50
90.0
 72
     5
 11
-9.6
 21
59.0125
  0
ENDBLK
  0
BLOCK
  2
*DIM_0003
 70
    65
 10
0.0
 20
0.0
  0
LINE
  8
寸法
  6
BYBLOCK
 62
     0
 10
-29.755937
 20
-5.62962
 11
-9.20651
 21
-5.62962
  0
LINE
  8
寸法
  6
BYBLOCK
 62
     0
 10
-21.732063
 20
-0.07962
 11
-9.20651
 21
-0.07962
  0
LINE
  8
寸法
  6
BYBLOCK
 62
     0
 10
-9.20651
 20
-5.62962
 11
-9.20651
 21
-0.07962
  0
POINT
  8
寸法
 62
     0
 10
-9.20651
 20
-5.62962
  0
POINT
  8
寸法
 62
     0
 10
-9.20651
 20
-0.07962
  0
TEXT
  7
TextStyle03
  8
寸法
  6
CONTINUOUS
 62
     0
 10
-9.6
 20
-5.3125
  1
111
 40
3.0
 50
90.0
 72
     5
 11
-9.6
 21
-0.4375
  0
ENDBLK
  0
BLOCK
  2
*GRP_0004
 70
    65
 10
0.0
 20
0.0
  0
POLYLINE
  8
寸法
  6
BYBLOCK
 62
     0
 66
     1
  0
VERTEX
  8
寸法
 10
-34.969535
 20
20.654355
  0
VERTEX
  8
寸法
 10
-28.553032
 20
14.237853
  0
VERTEX
  8
寸法
 10
-22.645905
 20
14.237853
  0
SEQEND
  0
ENDBLK
  0
BLOCK
  2
*GRP_0005
 70
    65
 10
0.0
 20
0.0
  0
INSERT
  2
*GRP_0006
  8
補助線
  6
CONTINUOUS
 10
0.0
 20
0.0
  0
LINE
  8
ボルト／ビス
  6
CONTINUOUS
 10
-55.755937
 20
60.659058
 11
-56.005937
 21
60.51472
  0
LINE
  8
ボルト／ビス
  6
CONTINUOUS
 10
-55.755937
 20
60.659058
 11
-55.505937
 21
60.51472
  0
LINE
  8
ボルト／ビス
  6
CONTINUOUS
 10
-56.005937
 20
60.226045
 11
-55.755937
 21
60.081708
  0
LINE
  8
ボルト／ビス
  6
CONTINUOUS
 10
-55.505937
 20
60.226045
 11
-55.755937
 21
60.081708
  0
CIRCLE
  8
ボルト／ビス
  6
CONTINUOUS
 10
-55.755937
 20
60.370383
 40
0.25
  0
LINE
  8
ボルト／ビス
  6
CONTINUOUS
 10
-55.505937
 20
60.51472
 11
-55.505937
 21
60.226045
  0
LINE
  8
ボルト／ビス
  6
CONTINUOUS
 10
-56.005937
 20
60.226045
 11
-56.005937
 21
60.51472
  0
ENDBLK
  0
BLOCK
  2
*GRP_0006
 70
    65
 10
0.0
 20
0.0
  0
LINE
  8
補助線
  6
BYBLOCK
 62
     0
 10
-55.630937
 20
60.370383
 11
-55.880937
 21
60.370383
  0
LINE
  8
補助線
  6
BYBLOCK
 62
     0
 10
-55.755937
 20
60.495383
 11
-55.755937
 21
60.245383
  0
ENDBLK
  0
BLOCK
  2
*GRP_0007
 70
    65
 10
0.0
 20
0.0
  0
INSERT
  2
*GRP_0008
  8
補助線
  6
CONTINUOUS
 10
0.0
 20
0.0
  0
LINE
  8
ボルト／ビス
  6
CONTINUOUS
 10
-40.755937
 20
60.659058
 11
-41.005937
 21
60.51472
  0
LINE
  8
ボルト／ビス
  6
CONTINUOUS
 10
-40.755937
 20
60.659058
 11
-40.505937
 21
60.51472
  0
LINE
  8
ボルト／ビス
  6
CONTINUOUS
 10
-41.005937
 20
60.226045
 11
-40.755937
 21
60.081708
  0
LINE
  8
ボルト／ビス
  6
CONTINUOUS
 10
-40.505937
 20
60.226045
 11
-40.755937
 21
60.081708
  0
CIRCLE
  8
ボルト／ビス
  6
CONTINUOUS
 10
-40.755937
 20
60.370383
 40
0.25
  0
LINE
  8
ボルト／ビス
  6
CONTINUOUS
 10
-40.505937
 20
60.51472
 11
-40.505937
 21
60.226045
  0
LINE
  8
ボルト／ビス
  6
CONTINUOUS
 10
-41.005937
 20
60.226045
 11
-41.005937
 21
60.51472
  0
ENDBLK
  0
BLOCK
  2
*GRP_0008
 70
    65
 10
0.0
 20
0.0
  0
LINE
  8
補助線
  6
BYBLOCK
 62
     0
 10
-40.630937
 20
60.370383
 11
-40.880937
 21
60.370383
  0
LINE
  8
補助線
  6
BYBLOCK
 62
     0
 10
-40.755937
 20
60.495383
 11
-40.755937
 21
60.245383
  0
ENDBLK
  0
BLOCK
  2
*GRP_0009
 70
    65
 10
0.0
 20
0.0
  0
INSERT
  2
*GRP_0011
  8
補助線
  6
CONTINUOUS
 10
0.0
 20
0.0
  0
LINE
  8
ボルト／ビス
  6
CONTINUOUS
 10
-70.755937
 20
60.659058
 11
-70.505937
 21
60.51472
  0
LINE
  8
ボルト／ビス
  6
CONTINUOUS
 10
-70.755937
 20
60.659058
 11
-71.005937
 21
60.51472
  0
LINE
  8
ボルト／ビス
  6
CONTINUOUS
 10
-70.505937
 20
60.226045
 11
-70.755937
 21
60.081708
  0
LINE
  8
ボルト／ビス
  6
CONTINUOUS
 10
-71.005937
 20
60.226045
 11
-70.755937
 21
60.081708
  0
CIRCLE
  8
ボルト／ビス
  6
CONTINUOUS
 10
-70.755937
 20
60.370383
 40
0.25
  0
LINE
  8
ボルト／ビス
  6
CONTINUOUS
 10
-71.005937
 20
60.51472
 11
-71.005937
 21
60.226045
  0
LINE
  8
ボルト／ビス
  6
CONTINUOUS
 10
-70.505937
 20
60.226045
 11
-70.505937
 21
60.51472
  0
ENDBLK
  0
BLOCK
  2
*GRP_0010
 70
    65
 10
0.0
 20
0.0
  0
INSERT
  2
*GRP_0012
  8
補助線
  6
CONTINUOUS
 10
0.0
 20
0.0
  0
LINE
  8
ボルト／ビス
  6
CONTINUOUS
 10
-85.755937
 20
60.659058
 11
-85.505937
 21
60.51472
  0
LINE
  8
ボルト／ビス
  6
CONTINUOUS
 10
-85.755937
 20
60.659058
 11
-86.005937
 21
60.51472
  0
LINE
  8
ボルト／ビス
  6
CONTINUOUS
 10
-85.505937
 20
60.226045
 11
-85.755937
 21
60.081708
  0
LINE
  8
ボルト／ビス
  6
CONTINUOUS
 10
-86.005937
 20
60.226045
 11
-85.755937
 21
60.081708
  0
CIRCLE
  8
ボルト／ビス
  6
CONTINUOUS
 10
-85.755937
 20
60.370383
 40
0.25
  0
LINE
  8
ボルト／ビス
  6
CONTINUOUS
 10
-86.005937
 20
60.51472
 11
-86.005937
 21
60.226045
  0
LINE
  8
ボルト／ビス
  6
CONTINUOUS
 10
-85.505937
 20
60.226045
 11
-85.505937
 21
60.51472
  0
ENDBLK
  0
BLOCK
  2
*GRP_0011
 70
    65
 10
0.0
 20
0.0
  0
LINE
  8
補助線
  6
BYBLOCK
 62
     0
 10
-70.880937
 20
60.370383
 11
-70.630937
 21
60.370383
  0
LINE
  8
補助線
  6
BYBLOCK
 62
     0
 10
-70.755937
 20
60.495383
 11
-70.755937
 21
60.245383
  0
ENDBLK
  0
BLOCK
  2
*GRP_0012
 70
    65
 10
0.0
 20
0.0
  0
LINE
  8
補助線
  6
BYBLOCK
 62
     0
 10
-85.880937
 20
60.370383
 11
-85.630937
 21
60.370383
  0
LINE
  8
補助線
  6
BYBLOCK
 62
     0
 10
-85.755937
 20
60.495383
 11
-85.755937
 21
60.245383
  0
ENDBLK
  0
BLOCK
  2
*GRP_0013
 70
    65
 10
0.0
 20
0.0
  0
INSERT
  2
*GRP_0015
  8
補助線
  6
CONTINUOUS
 10
0.0
 20
0.0
  0
LINE
  8
ボルト／ビス
  6
CONTINUOUS
 10
-97.04461
 20
34.370385
 11
-96.900273
 21
34.120385
  0
LINE
  8
ボルト／ビス
  6
CONTINUOUS
 10
-97.04461
 20
34.370385
 11
-96.900273
 21
34.620385
  0
LINE
  8
ボルト／ビス
  6
CONTINUOUS
 10
-96.611597
 20
34.120385
 11
-96.46726
 21
34.370385
  0
LINE
  8
ボルト／ビス
  6
CONTINUOUS
 10
-96.611597
 20
34.620385
 11
-96.46726
 21
34.370385
  0
CIRCLE
  8
ボルト／ビス
  6
CONTINUOUS
 10
-96.755935
 20
34.370385
 40
0.25
  0
LINE
  8
ボルト／ビス
  6
CONTINUOUS
 10
-96.900273
 20
34.620385
 11
-96.611597
 21
34.620385
  0
LINE
  8
ボルト／ビス
  6
CONTINUOUS
 10
-96.611597
 20
34.120385
 11
-96.900273
 21
34.120385
  0
ENDBLK
  0
BLOCK
  2
*GRP_0014
 70
    65
 10
0.0
 20
0.0
  0
INSERT
  2
*GRP_0016
  8
補助線
  6
CONTINUOUS
 10
0.0
 20
0.0
  0
LINE
  8
ボルト／ビス
  6
CONTINUOUS
 10
-97.04461
 20
49.370385
 11
-96.900273
 21
49.120385
  0
LINE
  8
ボルト／ビス
  6
CONTINUOUS
 10
-97.04461
 20
49.370385
 11
-96.900273
 21
49.620385
  0
LINE
  8
ボルト／ビス
  6
CONTINUOUS
 10
-96.611597
 20
49.120385
 11
-96.46726
 21
49.370385
  0
LINE
  8
ボルト／ビス
  6
CONTINUOUS
 10
-96.611597
 20
49.620385
 11
-96.46726
 21
49.370385
  0
CIRCLE
  8
ボルト／ビス
  6
CONTINUOUS
 10
-96.755935
 20
49.370385
 40
0.25
  0
LINE
  8
ボルト／ビス
  6
CONTINUOUS
 10
-96.900273
 20
49.620385
 11
-96.611597
 21
49.620385
  0
LINE
  8
ボルト／ビス
  6
CONTINUOUS
 10
-96.611597
 20
49.120385
 11
-96.900273
 21
49.120385
  0
ENDBLK
  0
BLOCK
  2
*GRP_0015
 70
    65
 10
0.0
 20
0.0
  0
LINE
  8
補助線
  6
BYBLOCK
 62
     0
 10
-96.755935
 20
34.495385
 11
-96.755935
 21
34.245385
  0
LINE
  8
補助線
  6
BYBLOCK
 62
     0
 10
-96.880935
 20
34.370385
 11
-96.630935
 21
34.370385
  0
ENDBLK
  0
BLOCK
  2
*GRP_0016
 70
    65
 10
0.0
 20
0.0
  0
LINE
  8
補助線
  6
BYBLOCK
 62
     0
 10
-96.755935
 20
49.495385
 11
-96.755935
 21
49.245385
  0
LINE
  8
補助線
  6
BYBLOCK
 62
     0
 10
-96.880935
 20
49.370385
 11
-96.630935
 21
49.370385
  0
ENDBLK
  0
BLOCK
  2
*GRP_0017
 70
    65
 10
0.0
 20
0.0
  0
INSERT
  2
*GRP_0019
  8
補助線
  6
CONTINUOUS
 10
0.0
 20
0.0
  0
LINE
  8
ボルト／ビス
  6
CONTINUOUS
 10
-97.04461
 20
19.37038
 11
-96.900273
 21
19.62038
  0
LINE
  8
ボルト／ビス
  6
CONTINUOUS
 10
-97.04461
 20
19.37038
 11
-96.900273
 21
19.12038
  0
LINE
  8
ボルト／ビス
  6
CONTINUOUS
 10
-96.611597
 20
19.62038
 11
-96.46726
 21
19.37038
  0
LINE
  8
ボルト／ビス
  6
CONTINUOUS
 10
-96.611597
 20
19.12038
 11
-96.46726
 21
19.37038
  0
CIRCLE
  8
ボルト／ビス
  6
CONTINUOUS
 10
-96.755935
 20
19.37038
 40
0.25
  0
LINE
  8
ボルト／ビス
  6
CONTINUOUS
 10
-96.900273
 20
19.12038
 11
-96.611597
 21
19.12038
  0
LINE
  8
ボルト／ビス
  6
CONTINUOUS
 10
-96.611597
 20
19.62038
 11
-96.900273
 21
19.62038
  0
ENDBLK
  0
BLOCK
  2
*GRP_0018
 70
    65
 10
0.0
 20
0.0
  0
INSERT
  2
*GRP_0020
  8
補助線
  6
CONTINUOUS
 10
0.0
 20
0.0
  0
LINE
  8
ボルト／ビス
  6
CONTINUOUS
 10
-97.04461
 20
4.37038
 11
-96.900273
 21
4.62038
  0
LINE
  8
ボルト／ビス
  6
CONTINUOUS
 10
-97.04461
 20
4.37038
 11
-96.900273
 21
4.12038
  0
LINE
  8
ボルト／ビス
  6
CONTINUOUS
 10
-96.611597
 20
4.62038
 11
-96.46726
 21
4.37038
  0
LINE
  8
ボルト／ビス
  6
CONTINUOUS
 10
-96.611597
 20
4.12038
 11
-96.46726
 21
4.37038
  0
CIRCLE
  8
ボルト／ビス
  6
CONTINUOUS
 10
-96.755935
 20
4.37038
 40
0.25
  0
LINE
  8
ボルト／ビス
  6
CONTINUOUS
 10
-96.900273
 20
4.12038
 11
-96.611597
 21
4.12038
  0
LINE
  8
ボルト／ビス
  6
CONTINUOUS
 10
-96.611597
 20
4.62038
 11
-96.900273
 21
4.62038
  0
ENDBLK
  0
BLOCK
  2
*GRP_0019
 70
    65
 10
0.0
 20
0.0
  0
LINE
  8
補助線
  6
BYBLOCK
 62
     0
 10
-96.755935
 20
19.24538
 11
-96.755935
 21
19.49538
  0
LINE
  8
補助線
  6
BYBLOCK
 62
     0
 10
-96.880935
 20
19.37038
 11
-96.630935
 21
19.37038
  0
ENDBLK
  0
BLOCK
  2
*GRP_0020
 70
    65
 10
0.0
 20
0.0
  0
LINE
  8
補助線
  6
BYBLOCK
 62
     0
 10
-96.755935
 20
4.24538
 11
-96.755935
 21
4.49538
  0
LINE
  8
補助線
  6
BYBLOCK
 62
     0
 10
-96.880935
 20
4.37038
 11
-96.630935
 21
4.37038
  0
ENDBLK
  0
BLOCK
  2
*GRP_0021
 70
    65
 10
0.0
 20
0.0
  0
INSERT
  2
*GRP_0023
  8
補助線
  6
CONTINUOUS
 10
0.0
 20
0.0
  0
LINE
  8
ボルト／ビス
  6
CONTINUOUS
 10
-70.75594
 20
-6.91829
 11
-70.50594
 21
-6.773952
  0
LINE
  8
ボルト／ビス
  6
CONTINUOUS
 10
-70.75594
 20
-6.91829
 11
-71.00594
 21
-6.773952
  0
LINE
  8
ボルト／ビス
  6
CONTINUOUS
 10
-70.50594
 20
-6.485278
 11
-70.75594
 21
-6.34094
  0
LINE
  8
ボルト／ビス
  6
CONTINUOUS
 10
-71.00594
 20
-6.485278
 11
-70.75594
 21
-6.34094
  0
CIRCLE
  8
ボルト／ビス
  6
CONTINUOUS
 10
-70.75594
 20
-6.629615
 40
0.25
  0
LINE
  8
ボルト／ビス
  6
CONTINUOUS
 10
-71.00594
 20
-6.773952
 11
-71.00594
 21
-6.485278
  0
LINE
  8
ボルト／ビス
  6
CONTINUOUS
 10
-70.50594
 20
-6.485278
 11
-70.50594
 21
-6.773952
  0
ENDBLK
  0
BLOCK
  2
*GRP_0022
 70
    65
 10
0.0
 20
0.0
  0
INSERT
  2
*GRP_0024
  8
補助線
  6
CONTINUOUS
 10
0.0
 20
0.0
  0
LINE
  8
ボルト／ビス
  6
CONTINUOUS
 10
-85.75594
 20
-6.91829
 11
-85.50594
 21
-6.773952
  0
LINE
  8
ボルト／ビス
  6
CONTINUOUS
 10
-85.75594
 20
-6.91829
 11
-86.00594
 21
-6.773952
  0
LINE
  8
ボルト／ビス
  6
CONTINUOUS
 10
-85.50594
 20
-6.485278
 11
-85.75594
 21
-6.34094
  0
LINE
  8
ボルト／ビス
  6
CONTINUOUS
 10
-86.00594
 20
-6.485278
 11
-85.75594
 21
-6.34094
  0
CIRCLE
  8
ボルト／ビス
  6
CONTINUOUS
 10
-85.75594
 20
-6.629615
 40
0.25
  0
LINE
  8
ボルト／ビス
  6
CONTINUOUS
 10
-86.00594
 20
-6.773952
 11
-86.00594
 21
-6.485278
  0
LINE
  8
ボルト／ビス
  6
CONTINUOUS
 10
-85.50594
 20
-6.485278
 11
-85.50594
 21
-6.773952
  0
ENDBLK
  0
BLOCK
  2
*GRP_0023
 70
    65
 10
0.0
 20
0.0
  0
LINE
  8
補助線
  6
BYBLOCK
 62
     0
 10
-70.88094
 20
-6.629615
 11
-70.63094
 21
-6.629615
  0
LINE
  8
補助線
  6
BYBLOCK
 62
     0
 10
-70.75594
 20
-6.754615
 11
-70.75594
 21
-6.504615
  0
ENDBLK
  0
BLOCK
  2
*GRP_0024
 70
    65
 10
0.0
 20
0.0
  0
LINE
  8
補助線
  6
BYBLOCK
 62
     0
 10
-85.88094
 20
-6.629615
 11
-85.63094
 21
-6.629615
  0
LINE
  8
補助線
  6
BYBLOCK
 62
     0
 10
-85.75594
 20
-6.754615
 11
-85.75594
 21
-6.504615
  0
ENDBLK
  0
BLOCK
  2
*GRP_0025
 70
    65
 10
0.0
 20
0.0
  0
INSERT
  2
*GRP_0027
  8
補助線
  6
CONTINUOUS
 10
0.0
 20
0.0
  0
LINE
  8
ボルト／ビス
  6
CONTINUOUS
 10
-55.755935
 20
-6.91829
 11
-56.005935
 21
-6.773952
  0
LINE
  8
ボルト／ビス
  6
CONTINUOUS
 10
-55.755935
 20
-6.91829
 11
-55.505935
 21
-6.773952
  0
LINE
  8
ボルト／ビス
  6
CONTINUOUS
 10
-56.005935
 20
-6.485278
 11
-55.755935
 21
-6.34094
  0
LINE
  8
ボルト／ビス
  6
CONTINUOUS
 10
-55.505935
 20
-6.485278
 11
-55.755935
 21
-6.34094
  0
CIRCLE
  8
ボルト／ビス
  6
CONTINUOUS
 10
-55.755935
 20
-6.629615
 40
0.25
  0
LINE
  8
ボルト／ビス
  6
CONTINUOUS
 10
-55.505935
 20
-6.773952
 11
-55.505935
 21
-6.485278
  0
LINE
  8
ボルト／ビス
  6
CONTINUOUS
 10
-56.005935
 20
-6.485278
 11
-56.005935
 21
-6.773952
  0
ENDBLK
  0
BLOCK
  2
*GRP_0026
 70
    65
 10
0.0
 20
0.0
  0
INSERT
  2
*GRP_0028
  8
補助線
  6
CONTINUOUS
 10
0.0
 20
0.0
  0
LINE
  8
ボルト／ビス
  6
CONTINUOUS
 10
-40.755935
 20
-6.91829
 11
-41.005935
 21
-6.773952
  0
LINE
  8
ボルト／ビス
  6
CONTINUOUS
 10
-40.755935
 20
-6.91829
 11
-40.505935
 21
-6.773952
  0
LINE
  8
ボルト／ビス
  6
CONTINUOUS
 10
-41.005935
 20
-6.485278
 11
-40.755935
 21
-6.34094
  0
LINE
  8
ボルト／ビス
  6
CONTINUOUS
 10
-40.505935
 20
-6.485278
 11
-40.755935
 21
-6.34094
  0
CIRCLE
  8
ボルト／ビス
  6
CONTINUOUS
 10
-40.755935
 20
-6.629615
 40
0.25
  0
LINE
  8
ボルト／ビス
  6
CONTINUOUS
 10
-40.505935
 20
-6.773952
 11
-40.505935
 21
-6.485278
  0
LINE
  8
ボルト／ビス
  6
CONTINUOUS
 10
-41.005935
 20
-6.485278
 11
-41.005935
 21
-6.773952
  0
ENDBLK
  0
BLOCK
  2
*GRP_0027
 70
    65
 10
0.0
 20
0.0
  0
LINE
  8
補助線
  6
BYBLOCK
 62
     0
 10
-55.630935
 20
-6.629615
 11
-55.880935
 21
-6.629615
  0
LINE
  8
補助線
  6
BYBLOCK
 62
     0
 10
-55.755935
 20
-6.754615
 11
-55.755935
 21
-6.504615
  0
ENDBLK
  0
BLOCK
  2
*GRP_0028
 70
    65
 10
0.0
 20
0.0
  0
LINE
  8
補助線
  6
BYBLOCK
 62
     0
 10
-40.630935
 20
-6.629615
 11
-40.880935
 21
-6.629615
  0
LINE
  8
補助線
  6
BYBLOCK
 62
     0
 10
-40.755935
 20
-6.754615
 11
-40.755935
 21
-6.504615
  0
ENDBLK
  0
BLOCK
  2
*GRP_0029
 70
    65
 10
0.0
 20
0.0
  0
INSERT
  2
*GRP_0031
  8
補助線
  6
CONTINUOUS
 10
0.0
 20
0.0
  0
LINE
  8
ボルト／ビス
  6
CONTINUOUS
 10
-29.467263
 20
19.370383
 11
-29.6116
 21
19.620383
  0
LINE
  8
ボルト／ビス
  6
CONTINUOUS
 10
-29.467263
 20
19.370383
 11
-29.6116
 21
19.120383
  0
LINE
  8
ボルト／ビス
  6
CONTINUOUS
 10
-29.900275
 20
19.620383
 11
-30.044613
 21
19.370383
  0
LINE
  8
ボルト／ビス
  6
CONTINUOUS
 10
-29.900275
 20
19.120383
 11
-30.044613
 21
19.370383
  0
CIRCLE
  8
ボルト／ビス
  6
CONTINUOUS
 10
-29.755937
 20
19.370383
 40
0.25
  0
LINE
  8
ボルト／ビス
  6
CONTINUOUS
 10
-29.6116
 20
19.120383
 11
-29.900275
 21
19.120383
  0
LINE
  8
ボルト／ビス
  6
CONTINUOUS
 10
-29.900275
 20
19.620383
 11
-29.6116
 21
19.620383
  0
ENDBLK
  0
BLOCK
  2
*GRP_0030
 70
    65
 10
0.0
 20
0.0
  0
INSERT
  2
*GRP_0032
  8
補助線
  6
CONTINUOUS
 10
0.0
 20
0.0
  0
LINE
  8
ボルト／ビス
  6
CONTINUOUS
 10
-29.467263
 20
4.370383
 11
-29.6116
 21
4.620383
  0
LINE
  8
ボルト／ビス
  6
CONTINUOUS
 10
-29.467263
 20
4.370383
 11
-29.6116
 21
4.120383
  0
LINE
  8
ボルト／ビス
  6
CONTINUOUS
 10
-29.900275
 20
4.620383
 11
-30.044613
 21
4.370383
  0
LINE
  8
ボルト／ビス
  6
CONTINUOUS
 10
-29.900275
 20
4.120383
 11
-30.044613
 21
4.370383
  0
CIRCLE
  8
ボルト／ビス
  6
CONTINUOUS
 10
-29.755937
 20
4.370383
 40
0.25
  0
LINE
  8
ボルト／ビス
  6
CONTINUOUS
 10
-29.6116
 20
4.120383
 11
-29.900275
 21
4.120383
  0
LINE
  8
ボルト／ビス
  6
CONTINUOUS
 10
-29.900275
 20
4.620383
 11
-29.6116
 21
4.620383
  0
ENDBLK
  0
BLOCK
  2
*GRP_0031
 70
    65
 10
0.0
 20
0.0
  0
LINE
  8
補助線
  6
BYBLOCK
 62
     0
 10
-29.755937
 20
19.245383
 11
-29.755937
 21
19.495383
  0
LINE
  8
補助線
  6
BYBLOCK
 62
     0
 10
-29.630937
 20
19.370383
 11
-29.880937
 21
19.370383
  0
ENDBLK
  0
BLOCK
  2
*GRP_0032
 70
    65
 10
0.0
 20
0.0
  0
LINE
  8
補助線
  6
BYBLOCK
 62
     0
 10
-29.755937
 20
4.245383
 11
-29.755937
 21
4.495383
  0
LINE
  8
補助線
  6
BYBLOCK
 62
     0
 10
-29.630937
 20
4.370383
 11
-29.880937
 21
4.370383
  0
ENDBLK
  0
BLOCK
  2
*GRP_0033
 70
    65
 10
0.0
 20
0.0
  0
INSERT
  2
*GRP_0035
  8
補助線
  6
CONTINUOUS
 10
0.0
 20
0.0
  0
LINE
  8
ボルト／ビス
  6
CONTINUOUS
 10
-29.467263
 20
34.370383
 11
-29.6116
 21
34.120383
  0
LINE
  8
ボルト／ビス
  6
CONTINUOUS
 10
-29.467263
 20
34.370383
 11
-29.6116
 21
34.620383
  0
LINE
  8
ボルト／ビス
  6
CONTINUOUS
 10
-29.900275
 20
34.120383
 11
-30.044613
 21
34.370383
  0
LINE
  8
ボルト／ビス
  6
CONTINUOUS
 10
-29.900275
 20
34.620383
 11
-30.044613
 21
34.370383
  0
CIRCLE
  8
ボルト／ビス
  6
CONTINUOUS
 10
-29.755937
 20
34.370383
 40
0.25
  0
LINE
  8
ボルト／ビス
  6
CONTINUOUS
 10
-29.6116
 20
34.620383
 11
-29.900275
 21
34.620383
  0
LINE
  8
ボルト／ビス
  6
CONTINUOUS
 10
-29.900275
 20
34.120383
 11
-29.6116
 21
34.120383
  0
ENDBLK
  0
BLOCK
  2
*GRP_0034
 70
    65
 10
0.0
 20
0.0
  0
INSERT
  2
*GRP_0036
  8
補助線
  6
CONTINUOUS
 10
0.0
 20
0.0
  0
LINE
  8
ボルト／ビス
  6
CONTINUOUS
 10
-29.467263
 20
49.370383
 11
-29.6116
 21
49.120383
  0
LINE
  8
ボルト／ビス
  6
CONTINUOUS
 10
-29.467263
 20
49.370383
 11
-29.6116
 21
49.620383
  0
LINE
  8
ボルト／ビス
  6
CONTINUOUS
 10
-29.900275
 20
49.120383
 11
-30.044613
 21
49.370383
  0
LINE
  8
ボルト／ビス
  6
CONTINUOUS
 10
-29.900275
 20
49.620383
 11
-30.044613
 21
49.370383
  0
CIRCLE
  8
ボルト／ビス
  6
CONTINUOUS
 10
-29.755937
 20
49.370383
 40
0.25
  0
LINE
  8
ボルト／ビス
  6
CONTINUOUS
 10
-29.6116
 20
49.620383
 11
-29.900275
 21
49.620383
  0
LINE
  8
ボルト／ビス
  6
CONTINUOUS
 10
-29.900275
 20
49.120383
 11
-29.6116
 21
49.120383
  0
ENDBLK
  0
BLOCK
  2
*GRP_0035
 70
    65
 10
0.0
 20
0.0
  0
LINE
  8
補助線
  6
BYBLOCK
 62
     0
 10
-29.755937
 20
34.495383
 11
-29.755937
 21
34.245383
  0
LINE
  8
補助線
  6
BYBLOCK
 62
     0
 10
-29.630937
 20
34.370383
 11
-29.880937
 21
34.370383
  0
ENDBLK
  0
BLOCK
  2
*GRP_0036
 70
    65
 10
0.0
 20
0.0
  0
LINE
  8
補助線
  6
BYBLOCK
 62
     0
 10
-29.755937
 20
49.495383
 11
-29.755937
 21
49.245383
  0
LINE
  8
補助線
  6
BYBLOCK
 62
     0
 10
-29.630937
 20
49.370383
 11
-29.880937
 21
49.370383
  0
ENDBLK
  0
BLOCK
  2
*DIM_0037
 70
    65
 10
0.0
 20
0.0
  0
LINE
  8
寸法
  6
BYBLOCK
 62
     0
 10
-80.755937
 20
82.238818
 11
-80.755937
 21
92.594355
  0
LINE
  8
寸法
  6
BYBLOCK
 62
     0
 10
-45.755937
 20
82.238818
 11
-45.755937
 21
92.594355
  0
LINE
  8
寸法
  6
BYBLOCK
 62
     0
 10
-80.755937
 20
92.594355
 11
-45.755937
 21
92.594355
  0
POINT
  8
寸法
 62
     0
 10
-80.755937
 20
92.594355
  0
POINT
  8
寸法
 62
     0
 10
-45.755937
 20
92.594355
  0
TEXT
  7
TextStyle03
  8
寸法
  6
CONTINUOUS
 62
     0
 10
-65.7125
 20
92.975
  1
700
 40
3.0
 72
     5
 11
-60.8375
 21
92.975
  0
ENDBLK
  0
BLOCK
  2
*DIM_0038
 70
    65
 10
0.0
 20
0.0
  0
LINE
  8
寸法
  6
BYBLOCK
 62
     0
 10
-123.904373
 20
44.370385
 11
-134.25991
 21
44.370385
  0
LINE
  8
寸法
  6
BYBLOCK
 62
     0
 10
-123.904375
 20
9.370385
 11
-134.259912
 21
9.370385
  0
LINE
  8
寸法
  6
BYBLOCK
 62
     0
 10
-134.25991
 20
44.370385
 11
-134.259912
 21
9.370385
  0
POINT
  8
寸法
 62
     0
 10
-134.25991
 20
44.370385
  0
POINT
  8
寸法
 62
     0
 10
-134.259912
 20
9.370385
  0
TEXT
  7
TextStyle03
  8
寸法
  6
CONTINUOUS
 62
     0
 10
-134.65
 20
24.4375
  1
700
 40
3.0
 50
90.0
 72
     5
 11
-134.65
 21
29.3125
  0
ENDBLK
  0
BLOCK
  2
*DIM_0039
 70
    65
 10
0.0
 20
0.0
  0
LINE
  8
寸法
  6
CONTINUOUS
 10
-95.75594
 20
-39.333667
 11
-30.75594
 21
-39.333667
  0
POINT
  8
寸法
 10
-95.75594
 20
-39.333667
 50
-270.0
  0
POINT
  8
寸法
 10
-30.75594
 20
-39.333667
 50
-270.0
  0
TEXT
  7
TextStyle03
  8
寸法
  6
CONTINUOUS
 10
-74.94375
 20
-38.875
  1
呼称寸法　1300
 40
3.0
 72
     5
 11
-51.50625
 21
-38.875
  0
ENDBLK
  0
BLOCK
  2
*GRP_0040
 70
    65
 10
0.0
 20
0.0
  0
LINE
  8
型材断面
  6
CONTINUOUS
 10
111.21173
 20
-76.085713
 11
111.577372
 21
-77.081355
  0
LINE
  8
型材断面
  6
CONTINUOUS
 10
111.577372
 20
-77.081355
 11
111.157373
 21
-77.98888
  0
LINE
  8
型材断面
  6
CONTINUOUS
 10
111.157373
 20
-77.98888
 11
110.16173
 21
-78.354522
  0
LINE
  8
型材断面
  6
CONTINUOUS
 10
67.196812
 20
-55.71571
 11
111.21173
 21
-76.085713
  0
LINE
  8
型材断面
  6
CONTINUOUS
 10
66.201167
 20
-56.081352
 11
67.196812
 21
-55.71571
  0
LINE
  8
型材断面
  6
CONTINUOUS
 10
66.201167
 20
-56.081352
 11
65.781168
 21
-56.988878
  0
LINE
  8
型材断面
  6
CONTINUOUS
 10
66.146812
 20
-57.98452
 11
110.16173
 21
-78.354522
  0
LINE
  8
型材断面
  6
CONTINUOUS
 10
65.781168
 20
-56.988878
 11
66.146812
 21
-57.98452
  0
INSERT
  2
*GRP_0042
  8
ボルト／ビス
  6
CONTINUOUS
 62
    64
 10
0.0
 20
0.0
  0
INSERT
  2
*GRP_0043
  8
ボルト／ビス
  6
CONTINUOUS
 62
    64
 10
0.0
 20
0.0
  0
INSERT
  2
*GRP_0044
  8
ボルト／ビス
  6
CONTINUOUS
 62
    64
 10
0.0
 20
0.0
  0
ENDBLK
  0
BLOCK
  2
*GRP_0041
 70
    65
 10
0.0
 20
0.0
  0
LINE
  8
型材断面
  6
CONTINUOUS
 10
66.14681
 20
-76.085713
 11
65.781168
 21
-77.081355
  0
LINE
  8
型材断面
  6
CONTINUOUS
 10
65.781168
 20
-77.081355
 11
66.201167
 21
-77.98888
  0
LINE
  8
型材断面
  6
CONTINUOUS
 10
66.201167
 20
-77.98888
 11
67.19681
 21
-78.354522
  0
LINE
  8
型材断面
  6
CONTINUOUS
 10
110.161728
 20
-55.71571
 11
66.14681
 21
-76.085713
  0
LINE
  8
型材断面
  6
CONTINUOUS
 10
111.157373
 20
-56.081352
 11
110.161728
 21
-55.71571
  0
LINE
  8
型材断面
  6
CONTINUOUS
 10
111.157373
 20
-56.081352
 11
111.577372
 21
-56.988878
  0
LINE
  8
型材断面
  6
CONTINUOUS
 10
111.211728
 20
-57.98452
 11
67.19681
 21
-78.354522
  0
LINE
  8
型材断面
  6
CONTINUOUS
 10
111.577372
 20
-56.988878
 11
111.211728
 21
-57.98452
  0
INSERT
  2
*GRP_0045
  8
ボルト／ビス
  6
CONTINUOUS
 62
    64
 10
0.0
 20
0.0
  0
INSERT
  2
*GRP_0046
  8
ボルト／ビス
  6
CONTINUOUS
 62
    64
 10
0.0
 20
0.0
  0
INSERT
  2
*GRP_0047
  8
ボルト／ビス
  6
CONTINUOUS
 62
    64
 10
0.0
 20
0.0
  0
ENDBLK
  0
BLOCK
  2
*GRP_0042
 70
    65
 10
0.0
 20
0.0
  0
INSERT
  2
*GRP_0048
  8
補助線
  6
CONTINUOUS
 62
    64
 10
0.0
 20
0.0
  0
LINE
  8
ボルト／ビス
  6
CONTINUOUS
 62
    64
 10
67.319563
 20
-56.640948
 11
66.859557
 21
-56.682532
  0
LINE
  8
ボルト／ビス
  6
CONTINUOUS
 62
    64
 10
67.319563
 20
-56.640948
 11
67.585577
 21
-57.018533
  0
LINE
  8
ボルト／ビス
  6
CONTINUOUS
 62
    64
 10
66.931585
 20
-57.479283
 11
66.66557
 21
-57.1017
  0
LINE
  8
ボルト／ビス
  6
CONTINUOUS
 62
    64
 10
66.931585
 20
-57.479283
 11
67.391588
 21
-57.4377
  0
CIRCLE
  8
ボルト／ビス
  6
CONTINUOUS
 62
    64
 10
67.125573
 20
-57.060115
 40
0.4
  0
LINE
  8
ボルト／ビス
  6
CONTINUOUS
 62
    64
 10
67.585577
 20
-57.018533
 11
67.391588
 21
-57.4377
  0
LINE
  8
ボルト／ビス
  6
CONTINUOUS
 62
    64
 10
66.859557
 20
-56.682532
 11
66.66557
 21
-57.1017
  0
ENDBLK
  0
BLOCK
  2
*GRP_0043
 70
    65
 10
0.0
 20
0.0
  0
INSERT
  2
*GRP_0049
  8
補助線
  6
CONTINUOUS
 62
    64
 10
0.0
 20
0.0
  0
LINE
  8
ボルト／ビス
  6
CONTINUOUS
 62
    64
 10
110.426958
 20
-76.59095
 11
110.692973
 21
-76.968535
  0
LINE
  8
ボルト／ビス
  6
CONTINUOUS
 62
    64
 10
110.426958
 20
-76.59095
 11
109.966952
 21
-76.632535
  0
LINE
  8
ボルト／ビス
  6
CONTINUOUS
 62
    64
 10
110.038977
 20
-77.429285
 11
110.498983
 21
-77.3877
  0
LINE
  8
ボルト／ビス
  6
CONTINUOUS
 62
    64
 10
110.038977
 20
-77.429285
 11
109.772962
 21
-77.0517
  0
CIRCLE
  8
ボルト／ビス
  6
CONTINUOUS
 62
    64
 10
110.232968
 20
-77.010117
 40
0.4
  0
LINE
  8
ボルト／ビス
  6
CONTINUOUS
 62
    64
 10
109.966952
 20
-76.632535
 11
109.772962
 21
-77.0517
  0
LINE
  8
ボルト／ビス
  6
CONTINUOUS
 62
    64
 10
110.692973
 20
-76.968535
 11
110.498983
 21
-77.3877
  0
ENDBLK
  0
BLOCK
  2
*GRP_0044
 70
    65
 10
0.0
 20
0.0
  0
INSERT
  2
*GRP_0050
  8
補助線
  6
CONTINUOUS
 62
    64
 10
0.0
 20
0.0
  0
LINE
  8
ボルト／ビス
  6
CONTINUOUS
 62
    64
 10
88.87326
 20
-66.61595
 11
88.413255
 21
-66.657532
  0
LINE
  8
ボルト／ビス
  6
CONTINUOUS
 62
    64
 10
88.87326
 20
-66.61595
 11
89.139275
 21
-66.993533
  0
LINE
  8
ボルト／ビス
  6
CONTINUOUS
 62
    64
 10
88.48528
 20
-67.454283
 11
88.219265
 21
-67.0767
  0
LINE
  8
ボルト／ビス
  6
CONTINUOUS
 62
    64
 10
88.48528
 20
-67.454283
 11
88.945285
 21
-67.4127
  0
CIRCLE
  8
ボルト／ビス
  6
CONTINUOUS
 62
    64
 10
88.67927
 20
-67.035117
 40
0.4
  0
LINE
  8
ボルト／ビス
  6
CONTINUOUS
 62
    64
 10
89.139275
 20
-66.993533
 11
88.945285
 21
-67.4127
  0
LINE
  8
ボルト／ビス
  6
CONTINUOUS
 62
    64
 10
88.413255
 20
-66.657532
 11
88.219265
 21
-67.0767
  0
ENDBLK
  0
BLOCK
  2
*GRP_0045
 70
    65
 10
0.0
 20
0.0
  0
INSERT
  2
*GRP_0051
  8
補助線
  6
CONTINUOUS
 62
    64
 10
0.0
 20
0.0
  0
LINE
  8
ボルト／ビス
  6
CONTINUOUS
 62
    64
 10
110.038977
 20
-56.640948
 11
110.498983
 21
-56.682532
  0
LINE
  8
ボルト／ビス
  6
CONTINUOUS
 62
    64
 10
110.038977
 20
-56.640948
 11
109.772962
 21
-57.018533
  0
LINE
  8
ボルト／ビス
  6
CONTINUOUS
 62
    64
 10
110.426955
 20
-57.479283
 11
110.69297
 21
-57.1017
  0
LINE
  8
ボルト／ビス
  6
CONTINUOUS
 62
    64
 10
110.426955
 20
-57.479283
 11
109.966952
 21
-57.4377
  0
CIRCLE
  8
ボルト／ビス
  6
CONTINUOUS
 62
    64
 10
110.232968
 20
-57.060115
 40
0.4
  0
LINE
  8
ボルト／ビス
  6
CONTINUOUS
 62
    64
 10
109.772962
 20
-57.018533
 11
109.966952
 21
-57.4377
  0
LINE
  8
ボルト／ビス
  6
CONTINUOUS
 62
    64
 10
110.498983
 20
-56.682532
 11
110.69297
 21
-57.1017
  0
ENDBLK
  0
BLOCK
  2
*GRP_0046
 70
    65
 10
0.0
 20
0.0
  0
INSERT
  2
*GRP_0052
  8
補助線
  6
CONTINUOUS
 62
    64
 10
0.0
 20
0.0
  0
LINE
  8
ボルト／ビス
  6
CONTINUOUS
 62
    64
 10
66.931582
 20
-76.59095
 11
66.665567
 21
-76.968535
  0
LINE
  8
ボルト／ビス
  6
CONTINUOUS
 62
    64
 10
66.931582
 20
-76.59095
 11
67.391588
 21
-76.632535
  0
LINE
  8
ボルト／ビス
  6
CONTINUOUS
 62
    64
 10
67.319563
 20
-77.429285
 11
66.859557
 21
-77.3877
  0
LINE
  8
ボルト／ビス
  6
CONTINUOUS
 62
    64
 10
67.319563
 20
-77.429285
 11
67.585577
 21
-77.0517
  0
CIRCLE
  8
ボルト／ビス
  6
CONTINUOUS
 62
    64
 10
67.125573
 20
-77.010117
 40
0.4
  0
LINE
  8
ボルト／ビス
  6
CONTINUOUS
 62
    64
 10
67.391588
 20
-76.632535
 11
67.585577
 21
-77.0517
  0
LINE
  8
ボルト／ビス
  6
CONTINUOUS
 62
    64
 10
66.665567
 20
-76.968535
 11
66.859557
 21
-77.3877
  0
ENDBLK
  0
BLOCK
  2
*GRP_0047
 70
    65
 10
0.0
 20
0.0
  0
INSERT
  2
*GRP_0053
  8
補助線
  6
CONTINUOUS
 62
    64
 10
0.0
 20
0.0
  0
LINE
  8
ボルト／ビス
  6
CONTINUOUS
 62
    64
 10
88.48528
 20
-66.61595
 11
88.945285
 21
-66.657532
  0
LINE
  8
ボルト／ビス
  6
CONTINUOUS
 62
    64
 10
88.48528
 20
-66.61595
 11
88.219265
 21
-66.993533
  0
LINE
  8
ボルト／ビス
  6
CONTINUOUS
 62
    64
 10
88.87326
 20
-67.454283
 11
89.139275
 21
-67.0767
  0
LINE
  8
ボルト／ビス
  6
CONTINUOUS
 62
    64
 10
88.87326
 20
-67.454283
 11
88.413255
 21
-67.4127
  0
CIRCLE
  8
ボルト／ビス
  6
CONTINUOUS
 62
    64
 10
88.67927
 20
-67.035117
 40
0.4
  0
LINE
  8
ボルト／ビス
  6
CONTINUOUS
 62
    64
 10
88.219265
 20
-66.993533
 11
88.413255
 21
-67.4127
  0
LINE
  8
ボルト／ビス
  6
CONTINUOUS
 62
    64
 10
88.945285
 20
-66.657532
 11
89.139275
 21
-67.0767
  0
ENDBLK
  0
BLOCK
  2
*GRP_0048
 70
    65
 10
0.0
 20
0.0
  0
LINE
  8
補助線
  6
BYBLOCK
 62
    64
 10
67.239015
 20
-57.112615
 11
67.012133
 21
-57.007615
  0
LINE
  8
補助線
  6
BYBLOCK
 62
    64
 10
67.178073
 20
-56.946675
 11
67.073072
 21
-57.173555
  0
ENDBLK
  0
BLOCK
  2
*GRP_0049
 70
    65
 10
0.0
 20
0.0
  0
LINE
  8
補助線
  6
BYBLOCK
 62
    64
 10
110.119528
 20
-76.957618
 11
110.346407
 21
-77.062618
  0
LINE
  8
補助線
  6
BYBLOCK
 62
    64
 10
110.285468
 20
-76.896677
 11
110.180467
 21
-77.123557
  0
ENDBLK
  0
BLOCK
  2
*GRP_0050
 70
    65
 10
0.0
 20
0.0
  0
LINE
  8
補助線
  6
BYBLOCK
 62
    64
 10
88.79271
 20
-67.087618
 11
88.56583
 21
-66.982618
  0
LINE
  8
補助線
  6
BYBLOCK
 62
    64
 10
88.73177
 20
-66.921675
 11
88.62677
 21
-67.148557
  0
ENDBLK
  0
BLOCK
  2
*GRP_0051
 70
    65
 10
0.0
 20
0.0
  0
LINE
  8
補助線
  6
BYBLOCK
 62
    64
 10
110.119525
 20
-57.112615
 11
110.346407
 21
-57.007615
  0
LINE
  8
補助線
  6
BYBLOCK
 62
    64
 10
110.180467
 20
-56.946675
 11
110.285468
 21
-57.173555
  0
ENDBLK
  0
BLOCK
  2
*GRP_0052
 70
    65
 10
0.0
 20
0.0
  0
LINE
  8
補助線
  6
BYBLOCK
 62
    64
 10
67.239012
 20
-76.957618
 11
67.012133
 21
-77.062618
  0
LINE
  8
補助線
  6
BYBLOCK
 62
    64
 10
67.073072
 20
-76.896677
 11
67.178073
 21
-77.123557
  0
ENDBLK
  0
BLOCK
  2
*GRP_0053
 70
    65
 10
0.0
 20
0.0
  0
LINE
  8
補助線
  6
BYBLOCK
 62
    64
 10
88.56583
 20
-67.087618
 11
88.79271
 21
-66.982618
  0
LINE
  8
補助線
  6
BYBLOCK
 62
    64
 10
88.62677
 20
-66.921675
 11
88.73177
 21
-67.148557
  0
ENDBLK
  0
BLOCK
  2
*DIM_0054
 70
    65
 10
0.0
 20
0.0
  0
LINE
  8
寸法
  6
CONTINUOUS
 10
-30.75594
 20
-39.333667
 11
-26.610937
 21
-39.333667
  0
POINT
  8
寸法
 10
-30.75594
 20
-39.333667
  0
POINT
  8
寸法
 10
-26.610937
 20
-39.333667
  0
TEXT
  7
TextStyle03
  8
寸法
  6
CONTINUOUS
 10
-29.08125
 20
-37.575
  1
82.9
 40
3.0
 72
     5
 11
-22.51875
 21
-37.575
  0
ENDBLK
  0
BLOCK
  2
*DIM_0055
 70
    65
 10
0.0
 20
0.0
  0
LINE
  8
寸法
  6
CONTINUOUS
 10
-95.75594
 20
-39.333667
 11
-99.900937
 21
-39.333667
  0
POINT
  8
寸法
 10
-95.75594
 20
-39.333667
  0
POINT
  8
寸法
 10
-99.900937
 20
-39.333667
  0
TEXT
  7
TextStyle03
  8
寸法
  6
CONTINUOUS
 10
-103.93125
 20
-38.175
  1
82.9
 40
3.0
 72
     5
 11
-97.36875
 21
-38.175
  0
ENDBLK
  0
BLOCK
  2
*DIM_0057
 70
    65
 10
0.0
 20
0.0
  0
LINE
  8
寸法
  6
CONTINUOUS
 10
90.390762
 20
70.112428
 11
90.390762
 21
76.266245
  0
LINE
  8
寸法
  6
CONTINUOUS
 10
155.390762
 20
70.112428
 11
155.390762
 21
76.266245
  0
LINE
  8
寸法
  6
CONTINUOUS
 10
90.390762
 20
76.266245
 11
155.390762
 21
76.266245
  0
POINT
  8
寸法
 10
90.390762
 20
76.266245
  0
POINT
  8
寸法
 10
155.390762
 20
76.266245
  0
TEXT
  7
TextStyle03
  8
寸法
  6
CONTINUOUS
 10
119.61875
 20
76.65
  1
1300
 40
3.0
 72
     5
 11
126.18125
 21
76.65
  0
ENDBLK
  0
BLOCK
  2
*DIM_0058
 70
    65
 10
0.0
 20
0.0
  0
LINE
  8
寸法
  6
CONTINUOUS
 10
160.390762
 20
65.112428
 11
167.501102
 21
65.112428
  0
LINE
  8
寸法
  6
CONTINUOUS
 10
160.390762
 20
0.112428
 11
167.501102
 21
0.112428
  0
LINE
  8
寸法
  6
CONTINUOUS
 10
167.501102
 20
65.112428
 11
167.501102
 21
0.112428
  0
POINT
  8
寸法
 10
167.501102
 20
65.112428
  0
POINT
  8
寸法
 10
167.501102
 20
0.112428
  0
TEXT
  7
TextStyle03
  8
寸法
  6
CONTINUOUS
 10
167.125
 20
29.34375
  1
1300
 40
3.0
 50
90.0
 72
     5
 11
167.125
 21
35.90625
  0
ENDBLK
  0
BLOCK
  2
*GRP_0059
 70
    65
 10
0.0
 20
0.0
  0
LINE
  8
ボルト／ビス
  6
CONTINUOUS
 10
-96.75594
 20
-69.569873
 11
-96.75594
 21
-68.869873
  0
LINE
  8
ボルト／ビス
  6
CONTINUOUS
 10
-97.30594
 20
-69.569873
 11
-97.30594
 21
-69.469873
  0
LINE
  8
ボルト／ビス
  6
CONTINUOUS
 10
-97.30594
 20
-69.469873
 11
-96.20594
 21
-69.469873
  0
LINE
  8
ボルト／ビス
  6
CONTINUOUS
 10
-96.20594
 20
-69.469873
 11
-96.20594
 21
-69.569873
  0
LINE
  8
ボルト／ビス
  6
CONTINUOUS
 10
-97.30594
 20
-69.569873
 11
-96.20594
 21
-69.569873
  0
LINE
  8
ボルト／ビス
  6
CONTINUOUS
 10
-97.20594
 20
-69.419873
 11
-97.20594
 21
-69.469873
  0
LINE
  8
ボルト／ビス
  6
CONTINUOUS
 10
-97.20594
 20
-69.419873
 11
-96.30594
 21
-69.419873
  0
LINE
  8
ボルト／ビス
  6
CONTINUOUS
 10
-96.30594
 20
-69.419873
 11
-96.30594
 21
-69.469873
  0
LINE
  8
ボルト／ビス
  6
CONTINUOUS
 62
    64
 10
-96.996503
 20
-69.119873
 11
-97.044615
 21
-69.137385
  0
ARC
  8
ボルト／ビス
  6
CONTINUOUS
 62
    64
 10
-96.972447
 20
-69.277341
 40
0.157468
 50
62.721967
 51
90.0
  0
ARC
  8
ボルト／ビス
  6
CONTINUOUS
 62
    64
 10
-96.755941
 20
-69.723477
 40
0.603603
 50
76.165002
 51
103.834985
  0
LINE
  8
ボルト／ビス
  6
CONTINUOUS
 62
    64
 10
-96.515377
 20
-69.119873
 11
-96.467265
 21
-69.137385
  0
ARC
  8
ボルト／ビス
  6
CONTINUOUS
 62
    64
 10
-96.539434
 20
-69.277341
 40
0.157468
 50
90.0
 51
117.278033
  0
LINE
  8
ボルト／ビス
  6
CONTINUOUS
 62
    64
 10
-96.996503
 20
-69.119873
 11
-96.515377
 21
-69.119873
  0
LINE
  8
ボルト／ビス
  6
CONTINUOUS
 62
    64
 10
-96.467265
 20
-69.137385
 11
-96.467265
 21
-69.319873
  0
LINE
  8
ボルト／ビス
  6
CONTINUOUS
 62
    64
 10
-96.611603
 20
-69.137385
 11
-96.611603
 21
-69.319873
  0
LINE
  8
ボルト／ビス
  6
CONTINUOUS
 62
    64
 10
-97.044615
 20
-69.137385
 11
-97.044615
 21
-69.319873
  0
LINE
  8
ボルト／ビス
  6
CONTINUOUS
 62
    64
 10
-96.900277
 20
-69.137385
 11
-96.900277
 21
-69.319873
  0
LINE
  8
ボルト／ビス
  6
CONTINUOUS
 10
-97.044615
 20
-69.319873
 11
-96.467265
 21
-69.319873
  0
LINE
  8
ボルト／ビス
  6
CONTINUOUS
 10
-97.05594
 20
-69.319873
 11
-97.05594
 21
-69.419873
  0
LINE
  8
ボルト／ビス
  6
CONTINUOUS
 10
-97.05594
 20
-69.319873
 11
-96.45594
 21
-69.319873
  0
LINE
  8
ボルト／ビス
  6
CONTINUOUS
 10
-96.45594
 20
-69.319873
 11
-96.45594
 21
-69.419873
  0
ENDBLK
  0
BLOCK
  2
*GRP_0060
 70
    65
 10
0.0
 20
0.0
  0
LINE
  8
ボルト／ビス
  6
CONTINUOUS
 10
-29.755935
 20
-69.569873
 11
-29.755935
 21
-68.869873
  0
LINE
  8
ボルト／ビス
  6
CONTINUOUS
 10
-30.305935
 20
-69.569873
 11
-30.305935
 21
-69.469873
  0
LINE
  8
ボルト／ビス
  6
CONTINUOUS
 10
-30.305935
 20
-69.469873
 11
-29.205935
 21
-69.469873
  0
LINE
  8
ボルト／ビス
  6
CONTINUOUS
 10
-29.205935
 20
-69.469873
 11
-29.205935
 21
-69.569873
  0
LINE
  8
ボルト／ビス
  6
CONTINUOUS
 10
-30.305935
 20
-69.569873
 11
-29.205935
 21
-69.569873
  0
LINE
  8
ボルト／ビス
  6
CONTINUOUS
 10
-30.205935
 20
-69.419873
 11
-30.205935
 21
-69.469873
  0
LINE
  8
ボルト／ビス
  6
CONTINUOUS
 10
-30.205935
 20
-69.419873
 11
-29.305935
 21
-69.419873
  0
LINE
  8
ボルト／ビス
  6
CONTINUOUS
 10
-29.305935
 20
-69.419873
 11
-29.305935
 21
-69.469873
  0
LINE
  8
ボルト／ビス
  6
CONTINUOUS
 62
    64
 10
-29.996497
 20
-69.119873
 11
-30.04461
 21
-69.137385
  0
ARC
  8
ボルト／ビス
  6
CONTINUOUS
 62
    64
 10
-29.972442
 20
-69.277341
 40
0.157468
 50
62.721967
 51
90.0
  0
ARC
  8
ボルト／ビス
  6
CONTINUOUS
 62
    64
 10
-29.755936
 20
-69.723477
 40
0.603603
 50
76.165002
 51
103.834985
  0
LINE
  8
ボルト／ビス
  6
CONTINUOUS
 62
    64
 10
-29.515373
 20
-69.119873
 11
-29.46726
 21
-69.137385
  0
ARC
  8
ボルト／ビス
  6
CONTINUOUS
 62
    64
 10
-29.539429
 20
-69.277341
 40
0.157468
 50
90.0
 51
117.278033
  0
LINE
  8
ボルト／ビス
  6
CONTINUOUS
 62
    64
 10
-29.996497
 20
-69.119873
 11
-29.515373
 21
-69.119873
  0
LINE
  8
ボルト／ビス
  6
CONTINUOUS
 62
    64
 10
-29.46726
 20
-69.137385
 11
-29.46726
 21
-69.319873
  0
LINE
  8
ボルト／ビス
  6
CONTINUOUS
 62
    64
 10
-29.611597
 20
-69.137385
 11
-29.611597
 21
-69.319873
  0
LINE
  8
ボルト／ビス
  6
CONTINUOUS
 62
    64
 10
-30.04461
 20
-69.137385
 11
-30.04461
 21
-69.319873
  0
LINE
  8
ボルト／ビス
  6
CONTINUOUS
 62
    64
 10
-29.900273
 20
-69.137385
 11
-29.900273
 21
-69.319873
  0
LINE
  8
ボルト／ビス
  6
CONTINUOUS
 10
-30.04461
 20
-69.319873
 11
-29.46726
 21
-69.319873
  0
LINE
  8
ボルト／ビス
  6
CONTINUOUS
 10
-30.055935
 20
-69.319873
 11
-30.055935
 21
-69.419873
  0
LINE
  8
ボルト／ビス
  6
CONTINUOUS
 10
-30.055935
 20
-69.319873
 11
-29.455935
 21
-69.319873
  0
LINE
  8
ボルト／ビス
  6
CONTINUOUS
 10
-29.455935
 20
-69.319873
 11
-29.455935
 21
-69.419873
  0
ENDBLK
  0
BLOCK
  2
*DIM_0061
 70
    65
 10
0.0
 20
0.0
  0
LINE
  8
寸法
  6
CONTINUOUS
 10
-23.255935
 20
-69.569873
 11
-6.851862
 21
-69.569873
  0
LINE
  8
寸法
  6
CONTINUOUS
 10
-58.255937
 20
-52.069873
 11
-6.851862
 21
-52.069873
  0
LINE
  8
寸法
  6
CONTINUOUS
 10
-6.851862
 20
-69.569873
 11
-6.851862
 21
-52.069873
  0
POINT
  8
寸法
 10
-6.851862
 20
-69.569873
  0
POINT
  8
寸法
 10
-6.851862
 20
-52.069873
  0
TEXT
  7
TextStyle03
  8
寸法
  6
CONTINUOUS
 10
-7.25
 20
-63.2625
  1
350
 40
3.0
 50
90.0
 72
     5
 11
-7.25
 21
-58.3875
  0
ENDBLK
  0
BLOCK
  2
*GRP_0062
 70
    65
 10
0.0
 20
0.0
  0
LINE
  8
ボルト／ビス
  6
CONTINUOUS
 10
49.23296
 20
-69.569873
 11
49.23296
 21
-68.869873
  0
LINE
  8
ボルト／ビス
  6
CONTINUOUS
 10
48.68296
 20
-69.569873
 11
48.68296
 21
-69.469873
  0
LINE
  8
ボルト／ビス
  6
CONTINUOUS
 10
48.68296
 20
-69.469873
 11
49.78296
 21
-69.469873
  0
LINE
  8
ボルト／ビス
  6
CONTINUOUS
 10
49.78296
 20
-69.469873
 11
49.78296
 21
-69.569873
  0
LINE
  8
ボルト／ビス
  6
CONTINUOUS
 10
48.68296
 20
-69.569873
 11
49.78296
 21
-69.569873
  0
LINE
  8
ボルト／ビス
  6
CONTINUOUS
 10
48.78296
 20
-69.419873
 11
48.78296
 21
-69.469873
  0
LINE
  8
ボルト／ビス
  6
CONTINUOUS
 10
48.78296
 20
-69.419873
 11
49.68296
 21
-69.419873
  0
LINE
  8
ボルト／ビス
  6
CONTINUOUS
 10
49.68296
 20
-69.419873
 11
49.68296
 21
-69.469873
  0
LINE
  8
ボルト／ビス
  6
CONTINUOUS
 62
    64
 10
48.992397
 20
-69.119873
 11
48.944285
 21
-69.137385
  0
ARC
  8
ボルト／ビス
  6
CONTINUOUS
 62
    64
 10
49.016453
 20
-69.277341
 40
0.157468
 50
62.721967
 51
90.0
  0
ARC
  8
ボルト／ビス
  6
CONTINUOUS
 62
    64
 10
49.232959
 20
-69.723477
 40
0.603603
 50
76.165002
 51
103.834985
  0
LINE
  8
ボルト／ビス
  6
CONTINUOUS
 62
    64
 10
49.473523
 20
-69.119873
 11
49.521635
 21
-69.137385
  0
ARC
  8
ボルト／ビス
  6
CONTINUOUS
 62
    64
 10
49.449465
 20
-69.277341
 40
0.157468
 50
90.0
 51
117.278033
  0
LINE
  8
ボルト／ビス
  6
CONTINUOUS
 62
    64
 10
48.992397
 20
-69.119873
 11
49.473523
 21
-69.119873
  0
LINE
  8
ボルト／ビス
  6
CONTINUOUS
 62
    64
 10
49.521635
 20
-69.137385
 11
49.521635
 21
-69.319873
  0
LINE
  8
ボルト／ビス
  6
CONTINUOUS
 62
    64
 10
49.377297
 20
-69.137385
 11
49.377297
 21
-69.319873
  0
LINE
  8
ボルト／ビス
  6
CONTINUOUS
 62
    64
 10
48.944285
 20
-69.137385
 11
48.944285
 21
-69.319873
  0
LINE
  8
ボルト／ビス
  6
CONTINUOUS
 62
    64
 10
49.088623
 20
-69.137385
 11
49.088623
 21
-69.319873
  0
LINE
  8
ボルト／ビス
  6
CONTINUOUS
 10
48.944285
 20
-69.319873
 11
49.521635
 21
-69.319873
  0
LINE
  8
ボルト／ビス
  6
CONTINUOUS
 10
48.93296
 20
-69.319873
 11
48.93296
 21
-69.419873
  0
LINE
  8
ボルト／ビス
  6
CONTINUOUS
 10
48.93296
 20
-69.319873
 11
49.53296
 21
-69.319873
  0
LINE
  8
ボルト／ビス
  6
CONTINUOUS
 10
49.53296
 20
-69.319873
 11
49.53296
 21
-69.419873
  0
ENDBLK
  0
BLOCK
  2
*GRP_0063
 70
    65
 10
0.0
 20
0.0
  0
LINE
  8
ボルト／ビス
  6
CONTINUOUS
 10
116.232965
 20
-69.569873
 11
116.232965
 21
-68.869873
  0
LINE
  8
ボルト／ビス
  6
CONTINUOUS
 10
115.682965
 20
-69.569873
 11
115.682965
 21
-69.469873
  0
LINE
  8
ボルト／ビス
  6
CONTINUOUS
 10
115.682965
 20
-69.469873
 11
116.782965
 21
-69.469873
  0
LINE
  8
ボルト／ビス
  6
CONTINUOUS
 10
116.782965
 20
-69.469873
 11
116.782965
 21
-69.569873
  0
LINE
  8
ボルト／ビス
  6
CONTINUOUS
 10
115.682965
 20
-69.569873
 11
116.782965
 21
-69.569873
  0
LINE
  8
ボルト／ビス
  6
CONTINUOUS
 10
115.782965
 20
-69.419873
 11
115.782965
 21
-69.469873
  0
LINE
  8
ボルト／ビス
  6
CONTINUOUS
 10
115.782965
 20
-69.419873
 11
116.682965
 21
-69.419873
  0
LINE
  8
ボルト／ビス
  6
CONTINUOUS
 10
116.682965
 20
-69.419873
 11
116.682965
 21
-69.469873
  0
LINE
  8
ボルト／ビス
  6
CONTINUOUS
 62
    64
 10
115.992403
 20
-69.119873
 11
115.94429
 21
-69.137385
  0
ARC
  8
ボルト／ビス
  6
CONTINUOUS
 62
    64
 10
116.016458
 20
-69.277341
 40
0.157468
 50
62.721967
 51
90.0
  0
ARC
  8
ボルト／ビス
  6
CONTINUOUS
 62
    64
 10
116.232964
 20
-69.723477
 40
0.603603
 50
76.165002
 51
103.834985
  0
LINE
  8
ボルト／ビス
  6
CONTINUOUS
 62
    64
 10
116.473527
 20
-69.119873
 11
116.52164
 21
-69.137385
  0
ARC
  8
ボルト／ビス
  6
CONTINUOUS
 62
    64
 10
116.44947
 20
-69.277341
 40
0.157468
 50
90.0
 51
117.278033
  0
LINE
  8
ボルト／ビス
  6
CONTINUOUS
 62
    64
 10
115.992403
 20
-69.119873
 11
116.473527
 21
-69.119873
  0
LINE
  8
ボルト／ビス
  6
CONTINUOUS
 62
    64
 10
116.52164
 20
-69.137385
 11
116.52164
 21
-69.319873
  0
LINE
  8
ボルト／ビス
  6
CONTINUOUS
 62
    64
 10
116.377303
 20
-69.137385
 11
116.377303
 21
-69.319873
  0
LINE
  8
ボルト／ビス
  6
CONTINUOUS
 62
    64
 10
115.94429
 20
-69.137385
 11
115.94429
 21
-69.319873
  0
LINE
  8
ボルト／ビス
  6
CONTINUOUS
 62
    64
 10
116.088628
 20
-69.137385
 11
116.088628
 21
-69.319873
  0
LINE
  8
ボルト／ビス
  6
CONTINUOUS
 10
115.94429
 20
-69.319873
 11
116.52164
 21
-69.319873
  0
LINE
  8
ボルト／ビス
  6
CONTINUOUS
 10
115.932965
 20
-69.319873
 11
115.932965
 21
-69.419873
  0
LINE
  8
ボルト／ビス
  6
CONTINUOUS
 10
115.932965
 20
-69.319873
 11
116.532965
 21
-69.319873
  0
LINE
  8
ボルト／ビス
  6
CONTINUOUS
 10
116.532965
 20
-69.319873
 11
116.532965
 21
-69.419873
  0
ENDBLK
  0
BLOCK
  2
*GRP_0064
 70
    65
 10
0.0
 20
0.0
  0
LINE
  8
型材断面
  6
DOT
 10
46.087962
 20
-58.620055
 11
82.732963
 21
-58.620055
  0
LINE
  8
型材断面
  6
DOT
 10
48.19274
 20
-55.145053
 11
82.732963
 21
-55.145053
  0
LINE
  8
型材断面
  6
DOT
 10
82.732963
 20
-56.870053
 11
46.087962
 21
-56.870053
  0
LINE
  8
型材断面
  6
DOT
 10
119.377962
 20
-58.620055
 11
82.732963
 21
-58.620055
  0
LINE
  8
型材断面
  6
DOT
 10
117.273185
 20
-55.145053
 11
82.732963
 21
-55.145053
  0
LINE
  8
型材断面
  6
DOT
 10
82.732963
 20
-56.870053
 11
119.377962
 21
-56.870053
  0
LINE
  8
別途部材
  6
DOT
 62
    96
 10
47.73296
 20
-53.569873
 11
47.13296
 21
-55.069873
  0
LINE
  8
別途部材
  6
DOT
 10
47.13296
 20
-55.069873
 11
82.732963
 21
-55.069873
  0
LINE
  8
別途部材
  6
DOT
 62
    96
 10
47.73296
 20
-53.569873
 11
82.732963
 21
-53.569873
  0
LINE
  8
別途部材
  6
DOT
 62
    96
 10
117.732965
 20
-53.569873
 11
118.332965
 21
-55.069873
  0
LINE
  8
別途部材
  6
DOT
 10
118.332965
 20
-55.069873
 11
82.732963
 21
-55.069873
  0
LINE
  8
別途部材
  6
DOT
 62
    96
 10
117.732965
 20
-53.569873
 11
82.732963
 21
-53.569873
  0
ARC
  8
別途部材
  6
DOT
 10
82.732963
 20
-74.998442
 40
38.92857
 50
33.398485
 51
146.601515
  0
INSERT
  2
*GRP_0065
  8
別途部材
  6
DOT
 10
0.0
 20
0.0
  0
INSERT
  2
*GRP_0066
  8
別途部材
  6
DOT
 10
0.0
 20
0.0
  0
LINE
  8
鉄骨等
  6
DOT
 62
    47
 10
46.087962
 20
-58.620055
 11
46.087962
 21
-56.870053
  0
LINE
  8
鉄骨等
  6
DOT
 62
    47
 10
46.087962
 20
-56.870053
 11
48.19274
 21
-55.145053
  0
LINE
  8
鉄骨等
  6
DOT
 62
    47
 10
48.19274
 20
-55.145053
 11
48.19274
 21
-55.069873
  0
LINE
  8
鉄骨等
  6
DOT
 62
    47
 10
119.377962
 20
-58.620055
 11
119.377962
 21
-56.870053
  0
LINE
  8
鉄骨等
  6
DOT
 62
    47
 10
119.377962
 20
-56.870053
 11
117.273185
 21
-55.145053
  0
LINE
  8
鉄骨等
  6
DOT
 62
    47
 10
117.273185
 20
-55.145053
 11
117.273185
 21
-55.069873
  0
ENDBLK
  0
BLOCK
  2
*GRP_0065
 70
    65
 10
0.0
 20
0.0
  0
LINE
  8
ボルト／ビス
  6
DOT
 10
49.23296
 20
-53.569873
 11
49.23296
 21
-52.869873
  0
LINE
  8
ボルト／ビス
  6
DOT
 10
48.68296
 20
-53.569873
 11
48.68296
 21
-53.469873
  0
LINE
  8
ボルト／ビス
  6
DOT
 10
48.68296
 20
-53.469873
 11
49.78296
 21
-53.469873
  0
LINE
  8
ボルト／ビス
  6
DOT
 10
49.78296
 20
-53.469873
 11
49.78296
 21
-53.569873
  0
LINE
  8
ボルト／ビス
  6
DOT
 10
48.68296
 20
-53.569873
 11
49.78296
 21
-53.569873
  0
LINE
  8
ボルト／ビス
  6
DOT
 10
48.78296
 20
-53.419873
 11
48.78296
 21
-53.469873
  0
LINE
  8
ボルト／ビス
  6
DOT
 10
48.78296
 20
-53.419873
 11
49.68296
 21
-53.419873
  0
LINE
  8
ボルト／ビス
  6
DOT
 10
49.68296
 20
-53.419873
 11
49.68296
 21
-53.469873
  0
LINE
  8
ボルト／ビス
  6
DOT
 62
    64
 10
48.992397
 20
-53.119873
 11
48.944285
 21
-53.137385
  0
ARC
  8
ボルト／ビス
  6
DOT
 62
    64
 10
49.016453
 20
-53.27734
 40
0.157468
 50
62.721967
 51
90.0
  0
ARC
  8
ボルト／ビス
  6
DOT
 62
    64
 10
49.232959
 20
-53.723476
 40
0.603603
 50
76.165002
 51
103.834985
  0
LINE
  8
ボルト／ビス
  6
DOT
 62
    64
 10
49.473523
 20
-53.119873
 11
49.521635
 21
-53.137385
  0
ARC
  8
ボルト／ビス
  6
DOT
 62
    64
 10
49.449465
 20
-53.27734
 40
0.157468
 50
90.0
 51
117.278033
  0
LINE
  8
ボルト／ビス
  6
DOT
 62
    64
 10
48.992397
 20
-53.119873
 11
49.473523
 21
-53.119873
  0
LINE
  8
ボルト／ビス
  6
DOT
 62
    64
 10
49.521635
 20
-53.137385
 11
49.521635
 21
-53.319873
  0
LINE
  8
ボルト／ビス
  6
DOT
 62
    64
 10
49.377297
 20
-53.137385
 11
49.377297
 21
-53.319873
  0
LINE
  8
ボルト／ビス
  6
DOT
 62
    64
 10
48.944285
 20
-53.137385
 11
48.944285
 21
-53.319873
  0
LINE
  8
ボルト／ビス
  6
DOT
 62
    64
 10
49.088623
 20
-53.137385
 11
49.088623
 21
-53.319873
  0
LINE
  8
ボルト／ビス
  6
DOT
 10
48.944285
 20
-53.319873
 11
49.521635
 21
-53.319873
  0
LINE
  8
ボルト／ビス
  6
DOT
 10
48.93296
 20
-53.319873
 11
48.93296
 21
-53.419873
  0
LINE
  8
ボルト／ビス
  6
DOT
 10
48.93296
 20
-53.319873
 11
49.53296
 21
-53.319873
  0
LINE
  8
ボルト／ビス
  6
DOT
 10
49.53296
 20
-53.319873
 11
49.53296
 21
-53.419873
  0
ENDBLK
  0
BLOCK
  2
*GRP_0066
 70
    65
 10
0.0
 20
0.0
  0
LINE
  8
ボルト／ビス
  6
DOT
 10
116.232965
 20
-53.569873
 11
116.232965
 21
-52.869873
  0
LINE
  8
ボルト／ビス
  6
DOT
 10
115.682965
 20
-53.569873
 11
115.682965
 21
-53.469873
  0
LINE
  8
ボルト／ビス
  6
DOT
 10
115.682965
 20
-53.469873
 11
116.782965
 21
-53.469873
  0
LINE
  8
ボルト／ビス
  6
DOT
 10
116.782965
 20
-53.469873
 11
116.782965
 21
-53.569873
  0
LINE
  8
ボルト／ビス
  6
DOT
 10
115.682965
 20
-53.569873
 11
116.782965
 21
-53.569873
  0
LINE
  8
ボルト／ビス
  6
DOT
 10
115.782965
 20
-53.419873
 11
115.782965
 21
-53.469873
  0
LINE
  8
ボルト／ビス
  6
DOT
 10
115.782965
 20
-53.419873
 11
116.682965
 21
-53.419873
  0
LINE
  8
ボルト／ビス
  6
DOT
 10
116.682965
 20
-53.419873
 11
116.682965
 21
-53.469873
  0
LINE
  8
ボルト／ビス
  6
DOT
 62
    64
 10
115.992403
 20
-53.119873
 11
115.94429
 21
-53.137385
  0
ARC
  8
ボルト／ビス
  6
DOT
 62
    64
 10
116.016458
 20
-53.27734
 40
0.157468
 50
62.721967
 51
90.0
  0
ARC
  8
ボルト／ビス
  6
DOT
 62
    64
 10
116.232964
 20
-53.723476
 40
0.603603
 50
76.165002
 51
103.834985
  0
LINE
  8
ボルト／ビス
  6
DOT
 62
    64
 10
116.473527
 20
-53.119873
 11
116.52164
 21
-53.137385
  0
ARC
  8
ボルト／ビス
  6
DOT
 62
    64
 10
116.44947
 20
-53.27734
 40
0.157468
 50
90.0
 51
117.278033
  0
LINE
  8
ボルト／ビス
  6
DOT
 62
    64
 10
115.992403
 20
-53.119873
 11
116.473527
 21
-53.119873
  0
LINE
  8
ボルト／ビス
  6
DOT
 62
    64
 10
116.52164
 20
-53.137385
 11
116.52164
 21
-53.319873
  0
LINE
  8
ボルト／ビス
  6
DOT
 62
    64
 10
116.377303
 20
-53.137385
 11
116.377303
 21
-53.319873
  0
LINE
  8
ボルト／ビス
  6
DOT
 62
    64
 10
115.94429
 20
-53.137385
 11
115.94429
 21
-53.319873
  0
LINE
  8
ボルト／ビス
  6
DOT
 62
    64
 10
116.088628
 20
-53.137385
 11
116.088628
 21
-53.319873
  0
LINE
  8
ボルト／ビス
  6
DOT
 10
115.94429
 20
-53.319873
 11
116.52164
 21
-53.319873
  0
LINE
  8
ボルト／ビス
  6
DOT
 10
115.932965
 20
-53.319873
 11
115.932965
 21
-53.419873
  0
LINE
  8
ボルト／ビス
  6
DOT
 10
115.932965
 20
-53.319873
 11
116.532965
 21
-53.319873
  0
LINE
  8
ボルト／ビス
  6
DOT
 10
116.532965
 20
-53.319873
 11
116.532965
 21
-53.419873
  0
ENDBLK
  0
BLOCK
  2
*DIM_0067
 70
    65
 10
0.0
 20
0.0
  0
LINE
  8
寸法
  6
CONTINUOUS
 10
-23.255935
 20
-69.569873
 11
-6.851862
 21
-69.569873
  0
LINE
  8
寸法
  6
CONTINUOUS
 10
-21.610935
 20
-80.81988
 11
-6.851862
 21
-80.81988
  0
LINE
  8
寸法
  6
CONTINUOUS
 10
-6.851862
 20
-69.569873
 11
-6.851862
 21
-80.81988
  0
POINT
  8
寸法
 10
-6.851862
 20
-69.569873
  0
POINT
  8
寸法
 10
-6.851862
 20
-80.81988
  0
TEXT
  7
TextStyle03
  8
寸法
  6
CONTINUOUS
 10
-7.25
 20
-77.6375
  1
225
 40
3.0
 50
90.0
 72
     5
 11
-7.25
 21
-72.7625
  0
ENDBLK
  0
BLOCK
  2
*DIM_0068
 70
    65
 10
0.0
 20
0.0
  0
LINE
  8
寸法
  6
BYBLOCK
 62
     0
 10
124.09011
 20
-74.240048
 11
133.673148
 21
-74.240048
  0
LINE
  8
寸法
  6
BYBLOCK
 62
     0
 10
124.09011
 20
-58.240048
 11
133.673148
 21
-58.240048
  0
LINE
  8
寸法
  6
BYBLOCK
 62
     0
 10
133.673148
 20
-74.240048
 11
133.673148
 21
-58.240048
  0
POINT
  8
寸法
 62
     0
 10
133.673148
 20
-74.240048
  0
POINT
  8
寸法
 62
     0
 10
133.673148
 20
-58.240048
  0
TEXT
  7
TextStyle03
  8
寸法
  6
CONTINUOUS
 62
     0
 10
138.55
 20
-75.5625
  1
上昇高さ320
 40
3.0
 50
90.0
 72
     5
 11
138.55
 21
-57.1875
  0
ENDBLK
  0
ENDSEC
  0
SECTION
  2
ENTITIES
  0
POLYLINE
  8
通り芯
  6
CONTINUOUS
 66
     1
 70
     1
  0
VERTEX
  8
通り芯
 10
-210.0
 20
-148.5
  0
VERTEX
  8
通り芯
 10
210.0
 20
-148.5
  0
VERTEX
  8
通り芯
 10
210.0
 20
148.5
  0
VERTEX
  8
通り芯
 10
-210.0
 20
148.5
  0
SEQEND
  0
INSERT
  2
*GRP_0001
  8
型材断面
  6
CONTINUOUS
 10
0.0
 20
0.0
  0
LINE
  8
型材断面
  6
DOT
 10
-35.865297
 20
59.370383
 11
-35.865297
 21
-5.629618
  0
LINE
  8
型材断面
  6
DOT
 10
-33.865297
 20
59.370383
 11
-33.865297
 21
-5.629618
  0
LINE
  8
型材断面
  6
CONTINUOUS
 10
-22.732063
 20
53.820385
 11
-18.846303
 21
52.9263
  0
LINE
  8
型材断面
  6
CONTINUOUS
 10
-22.732063
 20
53.820385
 11
-18.846303
 21
54.71447
  0
LINE
  8
型材断面
  6
CONTINUOUS
 10
-18.846303
 20
54.71447
 11
-18.846303
 21
52.9263
  0
LINE
  8
型材断面
  6
CONTINUOUS
 10
-22.732063
 20
-0.07962
 11
-18.846303
 21
0.814465
  0
LINE
  8
型材断面
  6
CONTINUOUS
 10
-22.732063
 20
-0.07962
 11
-18.846303
 21
-0.973705
  0
LINE
  8
型材断面
  6
CONTINUOUS
 10
-18.846303
 20
-0.973705
 11
-18.846303
 21
0.814465
  0
LINE
  8
型材断面
  6
CONTINUOUS
 10
-103.779813
 20
-0.07962
 11
-107.665572
 21
0.814465
  0
LINE
  8
型材断面
  6
CONTINUOUS
 10
-103.779813
 20
-0.07962
 11
-107.665572
 21
-0.973705
  0
LINE
  8
型材断面
  6
CONTINUOUS
 10
-107.665572
 20
-0.973705
 11
-107.665572
 21
0.814465
  0
LINE
  8
型材断面
  6
CONTINUOUS
 10
-103.779813
 20
53.820385
 11
-107.665572
 21
52.9263
  0
LINE
  8
型材断面
  6
CONTINUOUS
 10
-103.779813
 20
53.820385
 11
-107.665572
 21
54.71447
  0
LINE
  8
型材断面
  6
CONTINUOUS
 10
-107.665572
 20
54.71447
 11
-107.665572
 21
52.9263
  0
LINE
  8
型材断面
  6
CONTINUOUS
 10
-22.732063
 20
26.870383
 11
-18.846303
 21
24.626937
  0
LINE
  8
型材断面
  6
CONTINUOUS
 10
-22.732063
 20
26.870383
 11
-18.846303
 21
29.113827
  0
LINE
  8
型材断面
  6
CONTINUOUS
 10
-18.846303
 20
29.113827
 11
-18.846303
 21
24.626937
  0
LINE
  8
型材断面
  6
CONTINUOUS
 10
-63.255937
 20
67.394257
 11
-65.499382
 21
71.280018
  0
LINE
  8
型材断面
  6
CONTINUOUS
 10
-63.255937
 20
67.394257
 11
-61.012493
 21
71.280018
  0
LINE
  8
型材断面
  6
CONTINUOUS
 10
-61.012493
 20
71.280018
 11
-65.499382
 21
71.280018
  0
LINE
  8
型材断面
  6
CONTINUOUS
 10
-63.255937
 20
-13.653492
 11
-65.499382
 21
-17.539253
  0
LINE
  8
型材断面
  6
CONTINUOUS
 10
-63.255937
 20
-13.653492
 11
-61.012493
 21
-17.539253
  0
LINE
  8
型材断面
  6
CONTINUOUS
 10
-61.012493
 20
-17.539253
 11
-65.499382
 21
-17.539253
  0
LINE
  8
型材断面
  6
CONTINUOUS
 10
-103.779813
 20
26.870383
 11
-107.665572
 21
24.626937
  0
LINE
  8
型材断面
  6
CONTINUOUS
 10
-103.779813
 20
26.870383
 11
-107.665572
 21
29.113827
  0
LINE
  8
型材断面
  6
CONTINUOUS
 10
-107.665572
 20
29.113827
 11
-107.665572
 21
24.626937
  0
LINE
  8
型材断面
  6
CONTINUOUS
 10
4.930422
 20
-11.415415
 11
2.686977
 21
-15.301175
  0
LINE
  8
型材断面
  6
CONTINUOUS
 10
4.930422
 20
-11.415415
 11
7.173868
 21
-15.301175
  0
LINE
  8
型材断面
  6
CONTINUOUS
 10
7.173868
 20
-15.301175
 11
2.686977
 21
-15.301175
  0
LINE
  8
型材断面
  6
CONTINUOUS
 10
4.930422
 20
-19.104962
 11
5.824508
 21
-22.990722
  0
LINE
  8
型材断面
  6
CONTINUOUS
 10
4.930422
 20
-19.104962
 11
4.036338
 21
-22.990722
  0
LINE
  8
型材断面
  6
CONTINUOUS
 10
4.036338
 20
-22.990722
 11
5.824508
 21
-22.990722
  0
LINE
  8
型材断面
  6
CONTINUOUS
 10
-4.103457
 20
-16.709068
 11
48.553223
 21
-16.709068
  0
LINE
  8
型材断面
  6
CONTINUOUS
 10
-4.103457
 20
-27.90906
 11
48.553223
 21
-27.90906
  0
LINE
  8
型材断面
  6
CONTINUOUS
 10
-4.103457
 20
-34.749005
 11
48.553223
 21
-34.749005
  0
LINE
  8
型材断面
  6
DASHDOT
 10
-63.255937
 20
-85.083888
 11
-63.255937
 21
59.370383
  0
LINE
  8
型材断面
  6
DASHDOT
 10
-95.755937
 20
26.870383
 11
-30.755937
 21
26.870383
  0
LINE
  8
型材断面
  6
DASHDOT
 10
-95.755937
 20
59.370383
 11
-30.755937
 21
59.370383
  0
LINE
  8
型材断面
  6
DASHDOT
 10
-95.755937
 20
-5.629618
 11
-30.755937
 21
-5.629618
  0
POLYLINE
  8
型材断面
  6
CONTINUOUS
 66
     1
 70
     1
  0
VERTEX
  8
型材断面
 10
-53.966143
 20
76.9481
  0
VERTEX
  8
型材断面
 10
-72.521355
 20
76.9481
  0
VERTEX
  8
型材断面
 10
-72.521355
 20
72.156065
  0
VERTEX
  8
型材断面
 10
-53.966143
 20
72.156065
  0
SEQEND
  0
POLYLINE
  8
型材断面
  6
CONTINUOUS
 66
     1
 70
     1
  0
VERTEX
  8
型材断面
 10
-53.966143
 20
-18.772732
  0
VERTEX
  8
型材断面
 10
-72.521355
 20
-18.772732
  0
VERTEX
  8
型材断面
 10
-72.521355
 20
-23.564768
  0
VERTEX
  8
型材断面
 10
-53.966143
 20
-23.564768
  0
SEQEND
  0
LINE
  8
型材断面
  6
CONTINUOUS
 10
-4.103457
 20
-41.58895
 11
48.553223
 21
-41.58895
  0
LINE
  8
型材断面
  6
CONTINUOUS
 10
-27.655935
 20
62.470385
 11
-26.610935
 21
63.515385
  0
LINE
  8
型材断面
  6
CONTINUOUS
 10
-27.655935
 20
-8.729618
 11
-26.610937
 21
-9.774615
  0
LINE
  8
型材断面
  6
CONTINUOUS
 10
-26.610935
 20
63.515385
 11
-26.610935
 21
-9.774615
  0
LINE
  8
型材断面
  6
CONTINUOUS
 10
-26.610935
 20
-9.774615
 11
-99.900935
 21
-9.774615
  0
LINE
  8
型材断面
  6
CONTINUOUS
 10
-98.855937
 20
-8.729618
 11
-99.900935
 21
-9.774615
  0
LINE
  8
型材断面
  6
CONTINUOUS
 10
-98.855937
 20
62.470385
 11
-99.900935
 21
63.515382
  0
LINE
  8
型材断面
  6
CONTINUOUS
 10
-99.900935
 20
-9.774615
 11
-99.900935
 21
63.515385
  0
LINE
  8
型材断面
  6
CONTINUOUS
 10
-26.610935
 20
63.515385
 11
-99.900935
 21
63.515385
  0
LINE
  8
型材断面
  6
DASHDOT
 10
-95.755937
 20
59.370383
 11
-95.755937
 21
-85.083888
  0
LINE
  8
型材断面
  6
DASHDOT
 10
-30.755937
 20
59.370383
 11
-30.755937
 21
-85.083888
  0
LINE
  8
型材断面
  6
CONTINUOUS
 10
-99.900937
 20
-74.620055
 11
-63.255937
 21
-74.620055
  0
LINE
  8
型材断面
  6
CONTINUOUS
 10
-97.79616
 20
-71.145053
 11
-63.255937
 21
-71.145053
  0
LINE
  8
型材断面
  6
CONTINUOUS
 10
-63.255937
 20
-72.870053
 11
-99.900937
 21
-72.870053
  0
LINE
  8
型材断面
  6
CONTINUOUS
 10
-26.610937
 20
-74.620055
 11
-63.255937
 21
-74.620055
  0
LINE
  8
型材断面
  6
CONTINUOUS
 10
-28.715715
 20
-71.145053
 11
-63.255937
 21
-71.145053
  0
LINE
  8
型材断面
  6
CONTINUOUS
 10
-63.255937
 20
-72.870053
 11
-26.610937
 21
-72.870053
  0
LINE
  8
型材断面
  6
CONTINUOUS
 10
46.087962
 20
-74.620055
 11
82.732963
 21
-74.620055
  0
LINE
  8
型材断面
  6
CONTINUOUS
 10
48.19274
 20
-71.145053
 11
82.732963
 21
-71.145053
  0
LINE
  8
型材断面
  6
CONTINUOUS
 10
82.732963
 20
-72.870053
 11
46.087962
 21
-72.870053
  0
LINE
  8
型材断面
  6
CONTINUOUS
 10
119.377962
 20
-74.620055
 11
82.732963
 21
-74.620055
  0
LINE
  8
型材断面
  6
CONTINUOUS
 10
117.273185
 20
-71.145053
 11
82.732963
 21
-71.145053
  0
LINE
  8
型材断面
  6
CONTINUOUS
 10
82.732963
 20
-72.870053
 11
119.377962
 21
-72.870053
  0
INSERT
  2
*GRP_0040
  8
型材断面
  6
CONTINUOUS
 10
0.0
 20
0.0
  0
INSERT
  2
*GRP_0041
  8
型材断面
  6
CONTINUOUS
 10
0.0
 20
0.0
  0
LINE
  8
型材断面
  6
CONTINUOUS
 10
-99.15094
 20
-80.81988
 11
-99.15094
 21
-81.324877
  0
LINE
  8
型材断面
  6
CONTINUOUS
 10
-99.90094
 20
-80.81988
 11
-99.15094
 21
-80.81988
  0
LINE
  8
型材断面
  6
CONTINUOUS
 10
-99.900937
 20
-74.970057
 11
-99.606002
 21
-74.675123
  0
LINE
  8
型材断面
  6
CONTINUOUS
 10
-99.900937
 20
-74.970057
 11
-99.90094
 21
-80.81988
  0
LINE
  8
型材断面
  6
CONTINUOUS
 10
-99.15094
 20
-81.324877
 11
-63.255937
 21
-81.324877
  0
LINE
  8
型材断面
  6
CONTINUOUS
 10
-99.90094
 20
-80.81988
 11
-63.255937
 21
-80.81988
  0
LINE
  8
型材断面
  6
CONTINUOUS
 10
-99.900937
 20
-74.970057
 11
-63.255937
 21
-74.970057
  0
LINE
  8
型材断面
  6
CONTINUOUS
 62
    47
 10
-99.606002
 20
-74.675123
 11
-63.255937
 21
-74.675123
  0
LINE
  8
型材断面
  6
CONTINUOUS
 10
-27.360935
 20
-80.81988
 11
-27.360935
 21
-81.324877
  0
LINE
  8
型材断面
  6
CONTINUOUS
 10
-26.610935
 20
-80.81988
 11
-27.360935
 21
-80.81988
  0
LINE
  8
型材断面
  6
CONTINUOUS
 10
-26.610937
 20
-74.970057
 11
-26.905872
 21
-74.675123
  0
LINE
  8
型材断面
  6
CONTINUOUS
 10
-26.610937
 20
-74.970057
 11
-26.610935
 21
-80.81988
  0
LINE
  8
型材断面
  6
CONTINUOUS
 10
-27.360935
 20
-81.324877
 11
-63.255937
 21
-81.324877
  0
LINE
  8
型材断面
  6
CONTINUOUS
 10
-26.610935
 20
-80.81988
 11
-63.255937
 21
-80.81988
  0
LINE
  8
型材断面
  6
CONTINUOUS
 10
-26.610937
 20
-74.970057
 11
-63.255937
 21
-74.970057
  0
LINE
  8
型材断面
  6
CONTINUOUS
 62
    47
 10
-26.905872
 20
-74.675123
 11
-63.255937
 21
-74.675123
  0
LINE
  8
型材断面
  6
CONTINUOUS
 10
46.83796
 20
-80.81988
 11
46.83796
 21
-81.324877
  0
LINE
  8
型材断面
  6
CONTINUOUS
 10
46.08796
 20
-80.81988
 11
46.83796
 21
-80.81988
  0
LINE
  8
型材断面
  6
CONTINUOUS
 10
46.087962
 20
-74.970057
 11
46.382898
 21
-74.675123
  0
LINE
  8
型材断面
  6
CONTINUOUS
 10
46.087962
 20
-74.970057
 11
46.08796
 21
-80.81988
  0
LINE
  8
型材断面
  6
CONTINUOUS
 10
46.83796
 20
-81.324877
 11
82.732963
 21
-81.324877
  0
LINE
  8
型材断面
  6
CONTINUOUS
 10
46.08796
 20
-80.81988
 11
82.732963
 21
-80.81988
  0
LINE
  8
型材断面
  6
CONTINUOUS
 10
46.087962
 20
-74.970057
 11
82.732963
 21
-74.970057
  0
LINE
  8
型材断面
  6
CONTINUOUS
 62
    47
 10
46.382898
 20
-74.675123
 11
82.732963
 21
-74.675123
  0
LINE
  8
型材断面
  6
CONTINUOUS
 10
118.627965
 20
-80.81988
 11
118.627965
 21
-81.324877
  0
LINE
  8
型材断面
  6
CONTINUOUS
 10
119.377965
 20
-80.81988
 11
118.627965
 21
-80.81988
  0
LINE
  8
型材断面
  6
CONTINUOUS
 10
119.377962
 20
-74.970057
 11
119.083028
 21
-74.675123
  0
LINE
  8
型材断面
  6
CONTINUOUS
 10
119.377962
 20
-74.970057
 11
119.377965
 21
-80.81988
  0
LINE
  8
型材断面
  6
CONTINUOUS
 10
118.627965
 20
-81.324877
 11
82.732963
 21
-81.324877
  0
LINE
  8
型材断面
  6
CONTINUOUS
 10
119.377965
 20
-80.81988
 11
82.732963
 21
-80.81988
  0
LINE
  8
型材断面
  6
CONTINUOUS
 10
119.377962
 20
-74.970057
 11
82.732963
 21
-74.970057
  0
LINE
  8
型材断面
  6
CONTINUOUS
 62
    47
 10
119.083028
 20
-74.675123
 11
82.732963
 21
-74.675123
  0
CIRCLE
  8
ボルト／ビス
  6
CONTINUOUS
 10
-55.755937
 20
60.370383
 40
0.288675
  0
CIRCLE
  8
ボルト／ビス
  6
CONTINUOUS
 10
-55.755937
 20
60.370383
 40
0.455885
  0
CIRCLE
  8
ボルト／ビス
  6
CONTINUOUS
 10
-40.755937
 20
60.370383
 40
0.288675
  0
CIRCLE
  8
ボルト／ビス
  6
CONTINUOUS
 10
-40.755937
 20
60.370383
 40
0.455885
  0
CIRCLE
  8
ボルト／ビス
  6
CONTINUOUS
 10
-70.755937
 20
60.370383
 40
0.288675
  0
CIRCLE
  8
ボルト／ビス
  6
CONTINUOUS
 10
-70.755937
 20
60.370383
 40
0.455885
  0
CIRCLE
  8
ボルト／ビス
  6
CONTINUOUS
 10
-85.755937
 20
60.370383
 40
0.288675
  0
CIRCLE
  8
ボルト／ビス
  6
CONTINUOUS
 10
-85.755937
 20
60.370383
 40
0.455885
  0
CIRCLE
  8
ボルト／ビス
  6
CONTINUOUS
 10
-96.755935
 20
34.370385
 40
0.288675
  0
CIRCLE
  8
ボルト／ビス
  6
CONTINUOUS
 10
-96.755935
 20
34.370385
 40
0.455885
  0
CIRCLE
  8
ボルト／ビス
  6
CONTINUOUS
 10
-96.755935
 20
49.370385
 40
0.288675
  0
CIRCLE
  8
ボルト／ビス
  6
CONTINUOUS
 10
-96.755935
 20
49.370385
 40
0.455885
  0
CIRCLE
  8
ボルト／ビス
  6
CONTINUOUS
 10
-96.755935
 20
19.37038
 40
0.288675
  0
CIRCLE
  8
ボルト／ビス
  6
CONTINUOUS
 10
-96.755935
 20
19.37038
 40
0.455885
  0
CIRCLE
  8
ボルト／ビス
  6
CONTINUOUS
 10
-96.755935
 20
4.37038
 40
0.288675
  0
CIRCLE
  8
ボルト／ビス
  6
CONTINUOUS
 10
-96.755935
 20
4.37038
 40
0.455885
  0
CIRCLE
  8
ボルト／ビス
  6
CONTINUOUS
 10
-70.75594
 20
-6.629615
 40
0.288675
  0
CIRCLE
  8
ボルト／ビス
  6
CONTINUOUS
 10
-70.75594
 20
-6.629615
 40
0.455885
  0
CIRCLE
  8
ボルト／ビス
  6
CONTINUOUS
 10
-85.75594
 20
-6.629615
 40
0.288675
  0
CIRCLE
  8
ボルト／ビス
  6
CONTINUOUS
 10
-85.75594
 20
-6.629615
 40
0.455885
  0
CIRCLE
  8
ボルト／ビス
  6
CONTINUOUS
 10
-55.755935
 20
-6.629615
 40
0.288675
  0
CIRCLE
  8
ボルト／ビス
  6
CONTINUOUS
 10
-55.755935
 20
-6.629615
 40
0.455885
  0
CIRCLE
  8
ボルト／ビス
  6
CONTINUOUS
 10
-40.755935
 20
-6.629615
 40
0.288675
  0
CIRCLE
  8
ボルト／ビス
  6
CONTINUOUS
 10
-40.755935
 20
-6.629615
 40
0.455885
  0
CIRCLE
  8
ボルト／ビス
  6
CONTINUOUS
 10
-29.755937
 20
19.370383
 40
0.288675
  0
CIRCLE
  8
ボルト／ビス
  6
CONTINUOUS
 10
-29.755937
 20
19.370383
 40
0.455885
  0
CIRCLE
  8
ボルト／ビス
  6
CONTINUOUS
 10
-29.755937
 20
4.370383
 40
0.288675
  0
CIRCLE
  8
ボルト／ビス
  6
CONTINUOUS
 10
-29.755937
 20
4.370383
 40
0.455885
  0
CIRCLE
  8
ボルト／ビス
  6
CONTINUOUS
 10
-29.755937
 20
34.370383
 40
0.288675
  0
CIRCLE
  8
ボルト／ビス
  6
CONTINUOUS
 10
-29.755937
 20
34.370383
 40
0.455885
  0
CIRCLE
  8
ボルト／ビス
  6
CONTINUOUS
 10
-29.755937
 20
49.370383
 40
0.288675
  0
CIRCLE
  8
ボルト／ビス
  6
CONTINUOUS
 10
-29.755937
 20
49.370383
 40
0.455885
  0
TEXT
  7
TextStyle03
  8
文字
  6
CONTINUOUS
 10
-22.075
 20
13.075
  1
ﾊﾞﾗﾝｽｽﾃｰ
 40
3.0
 72
     5
 11
-8.7625
 21
13.075
  0
TEXT
  7
TextStyle03
  8
文字
  6
CONTINUOUS
 10
9.175
 20
-14.975
  1
は排水穴位置を示す
 40
3.0
 72
     5
 11
39.175
 21
-14.975
  0
TEXT
  7
TextStyle03
  8
文字
  6
CONTINUOUS
 10
9.175
 20
-22.825
  1
はケーシング位置を示す
 40
3.0
 72
     5
 11
45.925
 21
-22.825
  0
TEXT
  7
TextStyle03
  8
文字
  6
CONTINUOUS
 10
9.175
 20
-26.2
  1
４ヶ所中1ヶ所に設定
 40
3.0
 72
     5
 11
40.8625
 21
-26.2
  0
INSERT
  2
*GRP_0005
  8
文字
  6
CONTINUOUS
 10
0.0
 20
0.0
  0
INSERT
  2
*GRP_0007
  8
文字
  6
CONTINUOUS
 10
0.0
 20
0.0
  0
INSERT
  2
*GRP_0009
  8
文字
  6
CONTINUOUS
 10
0.0
 20
0.0
  0
INSERT
  2
*GRP_0010
  8
文字
  6
CONTINUOUS
 10
0.0
 20
0.0
  0
INSERT
  2
*GRP_0013
  8
文字
  6
CONTINUOUS
 10
0.0
 20
0.0
  0
INSERT
  2
*GRP_0014
  8
文字
  6
CONTINUOUS
 10
0.0
 20
0.0
  0
INSERT
  2
*GRP_0017
  8
文字
  6
CONTINUOUS
 10
0.0
 20
0.0
  0
INSERT
  2
*GRP_0018
  8
文字
  6
CONTINUOUS
 10
0.0
 20
0.0
  0
INSERT
  2
*GRP_0021
  8
文字
  6
CONTINUOUS
 10
0.0
 20
0.0
  0
INSERT
  2
*GRP_0022
  8
文字
  6
CONTINUOUS
 10
0.0
 20
0.0
  0
INSERT
  2
*GRP_0025
  8
文字
  6
CONTINUOUS
 10
0.0
 20
0.0
  0
INSERT
  2
*GRP_0026
  8
文字
  6
CONTINUOUS
 10
0.0
 20
0.0
  0
INSERT
  2
*GRP_0029
  8
文字
  6
CONTINUOUS
 10
0.0
 20
0.0
  0
INSERT
  2
*GRP_0030
  8
文字
  6
CONTINUOUS
 10
0.0
 20
0.0
  0
INSERT
  2
*GRP_0033
  8
文字
  6
CONTINUOUS
 10
0.0
 20
0.0
  0
INSERT
  2
*GRP_0034
  8
文字
  6
CONTINUOUS
 10
0.0
 20
0.0
  0
TEXT
  7
TextStyle03
  8
文字
  6
CONTINUOUS
 10
-71.55
 20
73.125
  1
可動装置側
 40
3.0
 72
     5
 11
-55.05
 21
73.125
  0
TEXT
  7
TextStyle03
  8
文字
  6
CONTINUOUS
 10
-71.55
 20
-22.575
  1
可動装置側
 40
3.0
 72
     5
 11
-55.05
 21
-22.575
  0
TEXT
  7
TextStyle03
  8
文字
  6
CONTINUOUS
 10
85.05
 20
97.55
  1
ＮＳコード：ＮＳＤ
 40
5.0
 72
     5
 11
135.05
 21
97.55
  0
TEXT
  7
TextStyle03
  8
文字
  6
CONTINUOUS
 10
-110.25
 20
86.3
  1
アンカーピッチ
 40
3.0
 72
     5
 11
-87.0
 21
86.3
  0
TEXT
  7
TextStyle03
  8
文字
  6
CONTINUOUS
 10
-127.25
 20
-16.5
  1
アンカーピッチ
 40
3.0
 50
90.0
 72
     5
 11
-127.25
 21
6.75
  0
TEXT
  7
TextStyle03
  8
文字
  6
CONTINUOUS
 10
3.575
 20
-33.35
  1
アンカー数量　８ヶ所
 40
3.0
 72
     5
 11
36.95
 21
-33.35
  0
TEXT
  7
TextStyle03
  8
文字
  6
CONTINUOUS
 10
3.55
 20
-40.175
  1
アームユニット数　２ヶ所
 40
3.0
 72
     5
 11
43.675
 21
-40.175
  0
LINE
  8
文字
  6
CONTINUOUS
 10
-99.900937
 20
-72.038937
 11
-99.900937
 21
-39.333667
  0
LINE
  8
文字
  6
CONTINUOUS
 10
-26.610937
 20
-72.038937
 11
-26.610937
 21
-39.333667
  0
TEXT
  7
TextStyle03
  8
文字
  6
CONTINUOUS
 10
135.55
 20
7.3
  1
網入り6.8t
 40
3.0
 72
     5
 11
152.2375
 21
7.3
  0
TEXT
  7
TextStyle03
  8
文字
  6
CONTINUOUS
 10
142.175
 20
2.05
  1
×１枚
 40
3.0
 72
     5
 11
151.925
 21
2.05
  0
TEXT
  7
TextStyle03
  8
文字
  6
CONTINUOUS
 10
85.25
 20
117.65
  1
シリーズ：ＴＤ１
 40
5.0
 72
     5
 11
129.625
 21
117.65
  0
TEXT
  7
TextStyle03
  8
文字
  6
CONTINUOUS
 10
85.25
 20
112.025
  1
　　　　　（上下可動）1300×1300タイプ
 40
5.0
 72
     5
 11
191.5
 21
112.025
  0
TEXT
  7
TextStyle03
  8
文字
  6
CONTINUOUS
 10
85.25
 20
106.4
  1
図面名　：外観姿図
 40
5.0
 72
     5
 11
135.25
 21
106.4
  0
TEXT
  7
TextStyle03
  8
文字
  6
CONTINUOUS
 10
85.25
 20
100.775
  1
　　　　　　
 40
5.0
 72
     5
 11
118.375
 21
100.775
  0
INSERT
  2
*DIM_0002
  8
寸法
  6
CONTINUOUS
 10
0.0
 20
0.0
  0
INSERT
  2
*DIM_0003
  8
寸法
  6
CONTINUOUS
 10
0.0
 20
0.0
  0
INSERT
  2
*GRP_0004
  8
寸法
  6
CONTINUOUS
 10
0.0
 20
0.0
  0
INSERT
  2
*DIM_0037
  8
寸法
  6
CONTINUOUS
 10
0.0
 20
0.0
  0
INSERT
  2
*DIM_0038
  8
寸法
  6
CONTINUOUS
 10
0.0
 20
0.0
  0
INSERT
  2
*DIM_0039
  8
寸法
  6
CONTINUOUS
 10
0.0
 20
0.0
  0
INSERT
  2
*DIM_0054
  8
寸法
  6
CONTINUOUS
 10
0.0
 20
0.0
  0
INSERT
  2
*DIM_0055
  8
寸法
  6
CONTINUOUS
 10
0.0
 20
0.0
  0
INSERT
  2
*DIM_0057
  8
寸法
  6
CONTINUOUS
 10
0.0
 20
0.0
  0
INSERT
  2
*DIM_0058
  8
寸法
  6
CONTINUOUS
 10
0.0
 20
0.0
  0
INSERT
  2
*DIM_0061
  8
寸法
  6
CONTINUOUS
 10
0.0
 20
0.0
  0
INSERT
  2
*DIM_0067
  8
寸法
  6
CONTINUOUS
 10
0.0
 20
0.0
  0
INSERT
  2
*DIM_0068
  8
寸法
  6
CONTINUOUS
 10
0.0
 20
0.0
  0
LINE
  8
別途部材
  6
CONTINUOUS
 10
-98.255937
 20
26.870383
 11
-98.255937
 21
-8.129618
  0
LINE
  8
別途部材
  6
CONTINUOUS
 10
-63.255935
 20
-8.129618
 11
-98.255937
 21
-8.129618
  0
LINE
  8
別途部材
  6
CONTINUOUS
 10
-98.855937
 20
26.870383
 11
-98.855937
 21
-8.729618
  0
LINE
  8
別途部材
  6
CONTINUOUS
 10
-63.255935
 20
-8.729618
 11
-98.855937
 21
-8.729618
  0
LINE
  8
別途部材
  6
CONTINUOUS
 10
-98.855937
 20
-8.729618
 11
-98.255937
 21
-8.129618
  0
LINE
  8
別途部材
  6
CONTINUOUS
 10
-95.755937
 20
-5.629618
 11
-83.667053
 21
6.459267
  0
LINE
  8
別途部材
  6
CONTINUOUS
 10
-98.255937
 20
26.870383
 11
-98.255937
 21
61.870385
  0
LINE
  8
別途部材
  6
CONTINUOUS
 10
-63.255935
 20
61.870385
 11
-98.255937
 21
61.870385
  0
LINE
  8
別途部材
  6
CONTINUOUS
 10
-98.855937
 20
26.870383
 11
-98.855937
 21
62.470385
  0
LINE
  8
別途部材
  6
CONTINUOUS
 10
-63.255935
 20
62.470385
 11
-98.855937
 21
62.470385
  0
LINE
  8
別途部材
  6
CONTINUOUS
 10
-98.855937
 20
62.470385
 11
-98.255937
 21
61.870385
  0
LINE
  8
別途部材
  6
CONTINUOUS
 10
-95.755937
 20
59.370385
 11
-83.667053
 21
47.2815
  0
LINE
  8
別途部材
  6
CONTINUOUS
 10
-28.255935
 20
26.870383
 11
-28.255935
 21
61.870385
  0
LINE
  8
別途部材
  6
CONTINUOUS
 10
-63.255935
 20
61.870385
 11
-28.255935
 21
61.870385
  0
LINE
  8
別途部材
  6
CONTINUOUS
 10
-27.655935
 20
26.870383
 11
-27.655935
 21
62.470385
  0
LINE
  8
別途部材
  6
CONTINUOUS
 10
-63.255935
 20
62.470385
 11
-27.655935
 21
62.470385
  0
LINE
  8
別途部材
  6
CONTINUOUS
 10
-27.655935
 20
62.470385
 11
-28.255935
 21
61.870385
  0
LINE
  8
別途部材
  6
CONTINUOUS
 10
-30.755935
 20
59.370385
 11
-42.84482
 21
47.2815
  0
LINE
  8
別途部材
  6
CONTINUOUS
 10
-28.255935
 20
26.870383
 11
-28.255935
 21
-8.129618
  0
LINE
  8
別途部材
  6
CONTINUOUS
 10
-63.255935
 20
-8.129618
 11
-28.255935
 21
-8.129618
  0
LINE
  8
別途部材
  6
CONTINUOUS
 10
-27.655935
 20
26.870383
 11
-27.655935
 21
-8.729618
  0
LINE
  8
別途部材
  6
CONTINUOUS
 10
-63.255935
 20
-8.729618
 11
-27.655935
 21
-8.729618
  0
LINE
  8
別途部材
  6
CONTINUOUS
 10
-27.655935
 20
-8.729618
 11
-28.255935
 21
-8.129618
  0
LINE
  8
別途部材
  6
CONTINUOUS
 10
-30.755935
 20
-5.629618
 11
-42.84482
 21
6.459267
  0
LINE
  8
別途部材
  6
CONTINUOUS
 62
    96
 10
-98.25594
 20
-69.569873
 11
-98.85594
 21
-71.069873
  0
LINE
  8
別途部材
  6
CONTINUOUS
 10
-98.85594
 20
-71.069873
 11
-63.255937
 21
-71.069873
  0
LINE
  8
別途部材
  6
CONTINUOUS
 62
    96
 10
-98.25594
 20
-69.569873
 11
-63.255937
 21
-69.569873
  0
LINE
  8
別途部材
  6
CONTINUOUS
 62
    96
 10
-28.255935
 20
-69.569873
 11
-27.655935
 21
-71.069873
  0
LINE
  8
別途部材
  6
CONTINUOUS
 10
-27.655935
 20
-71.069873
 11
-63.255937
 21
-71.069873
  0
LINE
  8
別途部材
  6
CONTINUOUS
 62
    96
 10
-28.255935
 20
-69.569873
 11
-63.255937
 21
-69.569873
  0
ARC
  8
別途部材
  6
CONTINUOUS
 10
-63.255937
 20
-90.998443
 40
38.92857
 50
33.398485
 51
146.601515
  0
LINE
  8
別途部材
  6
CONTINUOUS
 62
    96
 10
47.73296
 20
-69.569873
 11
47.13296
 21
-71.069873
  0
LINE
  8
別途部材
  6
CONTINUOUS
 10
47.13296
 20
-71.069873
 11
82.732963
 21
-71.069873
  0
LINE
  8
別途部材
  6
CONTINUOUS
 62
    96
 10
47.73296
 20
-69.569873
 11
82.732963
 21
-69.569873
  0
LINE
  8
別途部材
  6
CONTINUOUS
 62
    96
 10
117.732965
 20
-69.569873
 11
118.332965
 21
-71.069873
  0
LINE
  8
別途部材
  6
CONTINUOUS
 10
118.332965
 20
-71.069873
 11
82.732963
 21
-71.069873
  0
LINE
  8
別途部材
  6
CONTINUOUS
 62
    96
 10
117.732965
 20
-69.569873
 11
82.732963
 21
-69.569873
  0
ARC
  8
別途部材
  6
CONTINUOUS
 10
82.732963
 20
-90.998443
 40
38.92857
 50
33.398485
 51
146.601515
  0
INSERT
  2
*GRP_0059
  8
別途部材
  6
DOT
 10
0.0
 20
0.0
  0
INSERT
  2
*GRP_0060
  8
別途部材
  6
DOT
 10
0.0
 20
0.0
  0
INSERT
  2
*GRP_0062
  8
別途部材
  6
DOT
 10
0.0
 20
0.0
  0
INSERT
  2
*GRP_0063
  8
別途部材
  6
DOT
 10
0.0
 20
0.0
  0
POLYLINE
  8
曲げ物
  6
CONTINUOUS
 66
     1
 70
     1
  0
VERTEX
  8
曲げ物
 10
155.390762
 20
65.112428
  0
VERTEX
  8
曲げ物
 10
90.390762
 20
65.112428
  0
VERTEX
  8
曲げ物
 10
90.390762
 20
0.112428
  0
VERTEX
  8
曲げ物
 10
155.390762
 20
0.112428
  0
SEQEND
  0
INSERT
  2
*GRP_0064
  8
曲げ物
  6
DOT
 10
0.0
 20
0.0
  0
LINE
  8
鉄骨等
  6
CONTINUOUS
 62
    47
 10
-99.900937
 20
-74.620055
 11
-99.900937
 21
-72.870053
  0
LINE
  8
鉄骨等
  6
CONTINUOUS
 62
    47
 10
-99.900937
 20
-72.870053
 11
-97.79616
 21
-71.145053
  0
LINE
  8
鉄骨等
  6
CONTINUOUS
 62
    47
 10
-97.79616
 20
-71.145053
 11
-97.79616
 21
-71.069873
  0
LINE
  8
鉄骨等
  6
CONTINUOUS
 62
    47
 10
-26.610937
 20
-74.620055
 11
-26.610937
 21
-72.870053
  0
LINE
  8
鉄骨等
  6
CONTINUOUS
 62
    47
 10
-26.610937
 20
-72.870053
 11
-28.715715
 21
-71.145053
  0
LINE
  8
鉄骨等
  6
CONTINUOUS
 62
    47
 10
-28.715715
 20
-71.145053
 11
-28.715715
 21
-71.069873
  0
LINE
  8
鉄骨等
  6
CONTINUOUS
 62
    47
 10
46.087962
 20
-74.620055
 11
46.087962
 21
-72.870053
  0
LINE
  8
鉄骨等
  6
CONTINUOUS
 62
    47
 10
46.087962
 20
-72.870053
 11
48.19274
 21
-71.145053
  0
LINE
  8
鉄骨等
  6
CONTINUOUS
 62
    47
 10
48.19274
 20
-71.145053
 11
48.19274
 21
-71.069873
  0
LINE
  8
鉄骨等
  6
CONTINUOUS
 62
    47
 10
119.377962
 20
-74.620055
 11
119.377962
 21
-72.870053
  0
LINE
  8
鉄骨等
  6
CONTINUOUS
 62
    47
 10
119.377962
 20
-72.870053
 11
117.273185
 21
-71.145053
  0
LINE
  8
鉄骨等
  6
CONTINUOUS
 62
    47
 10
117.273185
 20
-71.145053
 11
117.273185
 21
-71.069873
  0
ENDSEC
  0
EOF
