  0
SECTION
  2
HEADER
  9
$EXTMIN
 10
-210.0
 20
-148.5
  9
$EXTMAX
 10
210.0
 20
148.5
  9
$PDMODE
 70
    32
  9
$PDSIZE
 40
1.5
  9
$LTSCALE
 40
10.0
  0
ENDSEC
  0
SECTION
  2
TABLES
  0
TABLE
  2
LTYPE
 70
    15
  0
LTYPE
  2
CONTINUOUS
 70
    64
  3
実線
 72
    65
 73
     0
 40
0.0
  0
LTYPE
  2
DASHED
 70
    64
  3
破線A
 72
    65
 73
     2
 40
0.6
 49
0.4
 49
-0.2
  0
LTYPE
  2
DASHEDX2
 70
    64
  3
破線B
 72
    65
 73
     2
 40
1.3
 49
0.9
 49
-0.4
  0
LTYPE
  2
DASHDOT
 70
    64
  3
１点鎖線A
 72
    65
 73
     4
 40
0.5375
 49
0.375
 49
-0.05
 49
0.0625
 49
-0.05
  0
LTYPE
  2
DASHDOTX2
 70
    64
  3
１点鎖線B
 72
    65
 73
     4
 40
1.075
 49
0.75
 49
-0.1
 49
0.125
 49
-0.1
  0
LTYPE
  2
DIVIDE2
 70
    64
  3
２点鎖線A
 72
    65
 73
     6
 40
0.5125
 49
0.3
 49
-0.0375
 49
0.05
 49
-0.0375
 49
0.05
 49
-0.0375
  0
LTYPE
  2
DIVIDE
 70
    64
  3
２点鎖線B
 72
    65
 73
     6
 40
1.05
 49
0.55
 49
-0.1
 49
0.1
 49
-0.1
 49
0.1
 49
-0.1
  0
LTYPE
  2
DOT
 70
    64
  3
点線A
 72
    65
 73
     2
 40
0.1125
 49
0.0625
 49
-0.05
  0
LTYPE
  2
DOTX2
 70
    64
  3
点線B
 72
    65
 73
     2
 40
0.275
 49
0.15
 49
-0.125
  0
LTYPE
  2
CONTINUOUS
 70
    64
  3
実線
 72
    65
 73
     0
 40
0.0
  0
LTYPE
  2
CONTINUOUS
 70
    64
  3
実線
 72
    65
 73
     0
 40
0.0
  0
LTYPE
  2
CONTINUOUS
 70
    64
  3
実線
 72
    65
 73
     0
 40
0.0
  0
LTYPE
  2
CONTINUOUS
 70
    64
  3
実線
 72
    65
 73
     0
 40
0.0
  0
LTYPE
  2
CONTINUOUS
 70
    64
  3
実線
 72
    65
 73
     0
 40
0.0
  0
LTYPE
  2
CONTINUOUS
 70
    64
  3
実線
 72
    65
 73
     0
 40
0.0
  0
ENDTAB
  0
TABLE
  2
LAYER
 70
    34
  0
LAYER
  2
通り芯
 70
     0
 62
    15
  6
CONTINUOUS
  0
LAYER
  2
補助線
 70
     0
 62
    16
  6
DOT
  0
LAYER
  2
躯体
 70
     0
 62
    31
  6
CONTINUOUS
  0
LAYER
  2
型材
 70
     0
 62
    32
  6
CONTINUOUS
  0
LAYER
  2
型材断面
 70
     0
 62
    47
  6
CONTINUOUS
  0
LAYER
  2
ガラス
 70
     0
 62
    48
  6
CONTINUOUS
  0
LAYER
  2
ゴム等
 70
     0
 62
    63
  6
CONTINUOUS
  0
LAYER
  2
ボルト／ビス
 70
     0
 62
    64
  6
CONTINUOUS
  0
LAYER
  2
文字
 70
     0
 62
    79
  6
CONTINUOUS
  0
LAYER
  2
寸法
 70
     0
 62
    80
  6
CONTINUOUS
  0
LAYER
  2
ﾊｯﾁﾝｸﾞ
 70
     0
 62
    95
  6
CONTINUOUS
  0
LAYER
  2
別途部材
 70
     0
 62
    96
  6
CONTINUOUS
  0
LAYER
  2
曲げ物
 70
     0
 62
   111
  6
CONTINUOUS
  0
LAYER
  2
鉄骨等
 70
     0
 62
   112
  6
CONTINUOUS
  0
LAYER
  2
St
 70
     0
 62
   127
  6
CONTINUOUS
  0
LAYER
  2
その他部品等
 70
     0
 62
   128
  6
CONTINUOUS
  0
LAYER
  2
ｶﾞｽｹｯﾄ
 70
     0
 62
   143
  6
CONTINUOUS
  0
LAYER
  2
ｽｹｯﾁ
 70
     0
 62
    14
  6
CONTINUOUS
  0
LAYER
  2
0
 70
     0
 62
    17
  6
CONTINUOUS
  0
LAYER
  2
1
 70
     0
 62
    30
  6
CONTINUOUS
  0
LAYER
  2
4
 70
     0
 62
    33
  6
CONTINUOUS
  0
LAYER
  2
ﾚｲﾔ3
 70
     0
 62
    46
  6
CONTINUOUS
  0
LAYER
  2
外形線
 70
     0
 62
    49
  6
CONTINUOUS
  0
LAYER
  2
部品
 70
     0
 62
    14
  6
CONTINUOUS
  0
LAYER
  2
サッシ芯
 70
     0
 62
    17
  6
DASHDOTX2
  0
LAYER
  2
寸法線
 70
     0
 62
    62
  6
CONTINUOUS
  0
LAYER
  2
姿図外形線
 70
     0
 62
    65
  6
CONTINUOUS
  0
LAYER
  2
姿補助線
 70
     0
 62
    30
  6
CONTINUOUS
  0
LAYER
  2
透視線
 70
     0
 62
    78
  6
DOT
  0
LAYER
  2
用紙
 70
     0
 62
    81
  6
CONTINUOUS
  0
LAYER
  2
実線図枠
 70
     0
 62
    94
  6
CONTINUOUS
  0
LAYER
  2
補助図枠
 70
     0
 62
    97
  6
CONTINUOUS
  0
LAYER
  2
建具記号
 70
     0
 62
   110
  6
CONTINUOUS
  0
LAYER
  2
補助文字
 70
     0
 62
   113
  6
CONTINUOUS
  0
ENDTAB
  0
TABLE
  2
STYLE
 70
    10
  0
STYLE
  2
STANDARD
 70
     0
 40
1.0
 41
1.0
 42
1.0
 50
0.0
 71
     0
  3
TXT
  4
BIGFONT
  0
STYLE
  2
TATE
 70
     4
 40
1.0
 41
1.0
 42
1.0
 50
0.0
 71
     0
  3
TXT
  4
BIGFONT
  0
STYLE
  2
TextStyle03
 70
     0
 40
1.0
 41
1.0
 42
1.0
 50
0.0
 71
     0
  3
MONOTXT
  4
BIGFONT
  0
STYLE
  2
TextStyle04
 70
     0
 40
1.0
 41
1.0
 42
1.0
 50
0.0
 71
     0
  3
MONOTXT
  4
BIGFONT
  0
STYLE
  2
TextStyle05
 70
     0
 40
1.0
 41
1.0
 42
1.0
 50
0.0
 71
     0
  3
MONOTXT
  4
BIGFONT
  0
STYLE
  2
TextStyle06
 70
     0
 40
1.0
 41
1.0
 42
1.0
 50
0.0
 71
     0
  3
MONOTXT
  4
BIGFONT
  0
STYLE
  2
TextStyle07
 70
     0
 40
1.0
 41
1.0
 42
1.0
 50
0.0
 71
     0
  3
MONOTXT
  4
BIGFONT
  0
STYLE
  2
TextStyle08
 70
     0
 40
1.0
 41
1.0
 42
1.0
 50
0.0
 71
     0
  3
MONOTXT
  4
BIGFONT
  0
STYLE
  2
TextStyle09
 70
     0
 40
1.0
 41
1.0
 42
1.0
 50
0.0
 71
     0
  3
MONOTXT
  4
BIGFONT
  0
STYLE
  2
TextStyle10
 70
     0
 40
1.0
 41
1.0
 42
1.0
 50
0.0
 71
     0
  3
MONOTXT
  4
BIGFONT
  0
ENDTAB
  0
ENDSEC
  0
SECTION
  2
BLOCKS
  0
BLOCK
  2
*HAT_0001
 70
    65
 10
0.0
 20
0.0
  0
LINE
  8
ゴム等
  6
DOT
 10
-82.4
 20
15.075
 11
-84.65
 21
12.9
  0
LINE
  8
ゴム等
  6
DOT
 10
-82.4
 20
17.625
 11
-87.2
 21
12.9
  0
LINE
  8
ゴム等
  6
DOT
 10
-82.4
 20
20.175
 11
-88.625
 21
13.95
  0
LINE
  8
ゴム等
  6
DOT
 10
-82.4
 20
22.725
 11
-88.625
 21
16.5
  0
LINE
  8
ゴム等
  6
DOT
 10
-84.8
 20
22.875
 11
-88.625
 21
19.05
  0
LINE
  8
ゴム等
  6
DOT
 10
-87.35
 20
22.875
 11
-88.625
 21
21.6
  0
ENDBLK
  0
BLOCK
  2
*HAT_0002
 70
    65
 10
0.0
 20
0.0
  0
LINE
  8
ゴム等
  6
DOT
 10
17.95
 20
-62.825
 11
19.525
 21
-61.25
  0
LINE
  8
ゴム等
  6
DOT
 10
20.5
 20
-60.35
 11
21.85
 21
-59.0
  0
LINE
  8
ゴム等
  6
DOT
 10
16.6
 20
-62.825
 11
21.85
 21
-57.575
  0
LINE
  8
ゴム等
  6
DOT
 10
15.175
 20
-62.825
 11
21.85
 21
-56.15
  0
LINE
  8
ゴム等
  6
DOT
 10
14.35
 20
-62.225
 11
21.25
 21
-55.325
  0
LINE
  8
ゴム等
  6
DOT
 10
14.05
 20
-61.1
 11
19.825
 21
-55.325
  0
LINE
  8
ゴム等
  6
DOT
 10
13.45
 20
-60.35
 11
18.4
 21
-55.325
  0
LINE
  8
ゴム等
  6
DOT
 10
12.025
 20
-60.35
 11
16.675
 21
-55.625
  0
LINE
  8
ゴム等
  6
DOT
 10
11.8
 20
-59.075
 11
15.625
 21
-55.325
  0
LINE
  8
ゴム等
  6
DOT
 10
11.8
 20
-57.65
 11
14.2
 21
-55.325
  0
LINE
  8
ゴム等
  6
DOT
 10
11.8
 20
-56.225
 11
12.775
 21
-55.325
  0
ENDBLK
  0
BLOCK
  2
*HAT_0003
 70
    65
 10
0.0
 20
0.0
  0
LINE
  8
ゴム等
  6
DOT
 10
114.325
 20
-41.45
 11
112.75
 21
-43.025
  0
LINE
  8
ゴム等
  6
DOT
 10
111.775
 20
-44.0
 11
110.425
 21
-45.35
  0
LINE
  8
ゴム等
  6
DOT
 10
114.325
 20
-40.1
 11
109.0
 21
-45.35
  0
LINE
  8
ゴム等
  6
DOT
 10
114.325
 20
-38.675
 11
107.65
 21
-45.35
  0
LINE
  8
ゴム等
  6
DOT
 10
113.725
 20
-37.85
 11
106.825
 21
-44.75
  0
LINE
  8
ゴム等
  6
DOT
 10
112.525
 20
-37.55
 11
106.825
 21
-43.325
  0
LINE
  8
ゴム等
  6
DOT
 10
111.775
 20
-36.95
 11
106.825
 21
-41.9
  0
LINE
  8
ゴム等
  6
DOT
 10
111.775
 20
-35.525
 11
107.125
 21
-40.175
  0
LINE
  8
ゴム等
  6
DOT
 10
110.575
 20
-35.3
 11
106.825
 21
-39.125
  0
LINE
  8
ゴム等
  6
DOT
 10
109.15
 20
-35.3
 11
106.825
 21
-37.7
  0
LINE
  8
ゴム等
  6
DOT
 10
107.725
 20
-35.3
 11
106.825
 21
-36.275
  0
ENDBLK
  0
BLOCK
  2
*HAT_0004
 70
    65
 10
0.0
 20
0.0
  0
LINE
  8
ゴム等
 10
8.8
 20
-45.05
 11
7.825
 21
-44.15
  0
LINE
  8
ゴム等
 10
8.8
 20
-46.925
 11
5.425
 21
-43.55
  0
LINE
  8
ゴム等
 10
2.8
 20
-40.925
 11
2.2
 21
-40.325
  0
LINE
  8
ゴム等
 10
8.8
 20
-48.8
 11
4.3
 21
-44.3
  0
LINE
  8
ゴム等
 10
2.8
 20
-42.8
 11
0.325
 21
-40.325
  0
LINE
  8
ゴム等
 10
8.8
 20
-50.675
 11
7.225
 21
-49.1
  0
LINE
  8
ゴム等
 10
4.975
 20
-46.85
 11
-0.875
 21
-41.0
  0
LINE
  8
ゴム等
 10
8.575
 20
-52.4
 11
6.025
 21
-49.85
  0
LINE
  8
ゴム等
 10
3.25
 20
-47.0
 11
-1.4
 21
-42.35
  0
LINE
  8
ゴム等
 10
7.075
 20
-52.7
 11
4.15
 21
-49.85
  0
LINE
  8
ゴム等
 10
2.8
 20
-48.5
 11
-1.4
 21
-44.3
  0
LINE
  8
ゴム等
 10
5.575
 20
-53.075
 11
4.975
 21
-52.55
  0
LINE
  8
ゴム等
 10
4.825
 20
-52.325
 11
-1.4
 21
-46.1
  0
LINE
  8
ゴム等
 10
2.875
 20
-52.325
 11
-1.4
 21
-48.05
  0
LINE
  8
ゴム等
 10
2.8
 20
-54.125
 11
-1.4
 21
-49.925
  0
LINE
  8
ゴム等
 10
1.075
 20
-54.35
 11
-1.4
 21
-51.8
  0
LINE
  8
ゴム等
 10
0.1
 20
-55.175
 11
-1.4
 21
-53.675
  0
LINE
  8
ゴム等
 10
-0.125
 20
-56.825
 11
-1.4
 21
-55.55
  0
ENDBLK
  0
BLOCK
  2
*HAT_0005
 70
    65
 10
0.0
 20
0.0
  0
LINE
  8
ゴム等
 10
5.65
 20
-57.725
 11
4.6
 21
-56.75
  0
LINE
  8
ゴム等
 10
2.65
 20
-54.725
 11
2.575
 21
-54.725
  0
LINE
  8
ゴム等
 10
9.1
 20
-63.125
 11
7.75
 21
-61.775
  0
LINE
  8
ゴム等
 10
5.65
 20
-59.675
 11
2.725
 21
-56.75
  0
LINE
  8
ゴム等
 10
2.65
 20
-56.675
 11
0.7
 21
-54.725
  0
LINE
  8
ゴム等
 10
9.1
 20
-65.075
 11
6.85
 21
-62.75
  0
LINE
  8
ゴム等
 10
5.65
 20
-61.55
 11
0.1
 21
-56.075
  0
LINE
  8
ゴム等
 10
9.1
 20
-66.875
 11
0.1
 21
-57.875
  0
LINE
  8
ゴム等
 10
8.5
 20
-68.225
 11
0.1
 21
-59.825
  0
LINE
  8
ゴム等
 10
6.175
 20
-67.775
 11
-0.5
 21
-61.025
  0
LINE
  8
ゴム等
 10
5.65
 20
-69.05
 11
-0.95
 21
-62.525
  0
LINE
  8
ゴム等
 10
5.65
 20
-70.925
 11
-1.25
 21
-64.025
  0
LINE
  8
ゴム等
 10
4.525
 20
-71.75
 11
-1.4
 21
-65.825
  0
LINE
  8
ゴム等
 10
2.65
 20
-71.75
 11
-1.175
 21
-67.925
  0
LINE
  8
ゴム等
 10
0.7
 20
-71.75
 11
-0.425
 21
-70.55
  0
ENDBLK
  0
BLOCK
  2
*HAT_0006
 70
    65
 10
0.0
 20
0.0
  0
LINE
  8
別途部材
  6
DOT
 10
127.3
 20
-76.775
 11
127.075
 21
-77.0
  0
LINE
  8
別途部材
  6
DOT
 10
127.3
 20
-74.3
 11
124.525
 21
-77.0
  0
LINE
  8
別途部材
  6
DOT
 10
127.3
 20
-71.75
 11
121.975
 21
-77.0
  0
LINE
  8
別途部材
  6
DOT
 10
127.3
 20
-69.2
 11
119.425
 21
-77.0
  0
LINE
  8
別途部材
  6
DOT
 10
126.925
 20
-67.025
 11
117.25
 21
-76.625
  0
LINE
  8
別途部材
  6
DOT
 10
124.375
 20
-67.025
 11
117.25
 21
-74.075
  0
LINE
  8
別途部材
  6
DOT
 10
121.825
 20
-67.025
 11
117.25
 21
-71.6
  0
LINE
  8
別途部材
  6
DOT
 10
119.275
 20
-67.025
 11
117.25
 21
-69.05
  0
ENDBLK
  0
BLOCK
  2
*GRP_0001
 70
    65
 10
0.0
 20
0.0
  0
LINE
  8
通り芯
  6
CONTINUOUS
 10
-70.551278
 20
-15.4083
 11
-60.451238
 21
-15.4083
  0
LINE
  8
通り芯
  6
CONTINUOUS
 10
-70.551278
 20
2.4873
 11
-72.85128
 21
2.4873
  0
LINE
  8
通り芯
  6
CONTINUOUS
 10
-88.051282
 20
-2.512702
 11
-86.551282
 21
-2.512702
  0
LINE
  8
通り芯
  6
CONTINUOUS
 10
-86.551282
 20
-4.7127
 11
-86.551282
 21
-2.512702
  0
LINE
  8
通り芯
  6
CONTINUOUS
 10
-70.551278
 20
2.4873
 11
-70.551278
 21
-4.7127
  0
LINE
  8
通り芯
  6
CONTINUOUS
 10
-88.051282
 20
-2.512702
 11
-88.051282
 21
-4.7127
  0
LINE
  8
通り芯
  6
CONTINUOUS
 10
-70.551278
 20
-4.7127
 11
-86.551282
 21
-4.7127
  0
LINE
  8
通り芯
  6
CONTINUOUS
 10
-88.051282
 20
-4.7127
 11
-90.3513
 21
-4.7127
  0
LINE
  8
通り芯
  6
CONTINUOUS
 10
-90.3513
 20
-6.2127
 11
-90.3513
 21
-4.7127
  0
LINE
  8
通り芯
  6
CONTINUOUS
 10
-70.551278
 20
-15.4083
 11
-70.551278
 21
-6.2127
  0
LINE
  8
通り芯
  6
CONTINUOUS
 10
-68.551238
 20
-13.9083
 11
-68.551305
 21
24.287295
  0
LINE
  8
通り芯
  6
CONTINUOUS
 10
-70.551263
 20
3.9873
 11
-70.551315
 21
23.087287
  0
LINE
  8
通り芯
  6
CONTINUOUS
 10
-68.551305
 20
24.287295
 11
-72.551318
 21
24.28728
  0
LINE
  8
通り芯
  6
CONTINUOUS
 10
-72.551318
 20
24.28728
 11
-72.551318
 21
23.087287
  0
LINE
  8
通り芯
  6
CONTINUOUS
 10
-70.551315
 20
23.087287
 11
-72.551318
 21
23.087287
  0
LINE
  8
通り芯
  6
CONTINUOUS
 10
-70.551278
 20
3.9873
 11
-74.35128
 21
3.9873
  0
LINE
  8
通り芯
  6
CONTINUOUS
 10
-74.35128
 20
3.9873
 11
-74.35128
 21
-0.012698
  0
LINE
  8
通り芯
  6
CONTINUOUS
 10
-74.35128
 20
-0.012698
 11
-72.85128
 21
-0.012698
  0
LINE
  8
通り芯
  6
CONTINUOUS
 10
-72.85128
 20
2.4873
 11
-72.85128
 21
-0.012698
  0
LINE
  8
通り芯
  6
CONTINUOUS
 10
-63.451238
 20
-14.2083
 11
-63.751238
 21
-13.9083
  0
LINE
  8
通り芯
  6
CONTINUOUS
 10
-63.451238
 20
-14.2083
 11
-63.151238
 21
-13.9083
  0
LINE
  8
通り芯
  6
CONTINUOUS
 10
-65.75124
 20
-13.9083
 11
-65.75124
 21
-12.7083
  0
LINE
  8
通り芯
  6
CONTINUOUS
 10
-61.151235
 20
-12.7083
 11
-60.451238
 21
-12.7083
  0
LINE
  8
通り芯
  6
CONTINUOUS
 10
-63.151238
 20
-13.9083
 11
-61.151235
 21
-13.9083
  0
LINE
  8
通り芯
  6
CONTINUOUS
 10
-61.151235
 20
-12.7083
 11
-61.151235
 21
-13.9083
  0
LINE
  8
通り芯
  6
CONTINUOUS
 10
-65.75124
 20
-13.9083
 11
-63.751238
 21
-13.9083
  0
LINE
  8
通り芯
  6
CONTINUOUS
 10
-65.75124
 20
-12.7083
 11
-66.451238
 21
-12.7083
  0
LINE
  8
通り芯
  6
CONTINUOUS
 10
-66.451238
 20
-12.7083
 11
-66.451238
 21
-13.9083
  0
LINE
  8
通り芯
  6
CONTINUOUS
 10
-68.551238
 20
-13.9083
 11
-66.451238
 21
-13.9083
  0
LINE
  8
通り芯
  6
CONTINUOUS
 10
-60.451238
 20
-15.4083
 11
-60.451238
 21
-12.7083
  0
LINE
  8
通り芯
  6
CONTINUOUS
 10
-83.351303
 20
-9.5127
 11
-83.351303
 21
-6.2127
  0
LINE
  8
通り芯
  6
CONTINUOUS
 10
-70.551278
 20
-6.2127
 11
-83.351303
 21
-6.2127
  0
LINE
  8
通り芯
  6
CONTINUOUS
 10
-84.851303
 20
-8.0127
 11
-84.851303
 21
-6.2127
  0
LINE
  8
通り芯
  6
CONTINUOUS
 10
-90.3513
 20
-6.2127
 11
-84.851303
 21
-6.2127
  0
LINE
  8
通り芯
  6
CONTINUOUS
 10
-83.351303
 20
-9.5127
 11
-87.851303
 21
-9.5127
  0
LINE
  8
通り芯
  6
CONTINUOUS
 10
-87.851303
 20
-9.5127
 11
-87.851303
 21
-8.0127
  0
LINE
  8
通り芯
  6
CONTINUOUS
 10
-84.851303
 20
-8.0127
 11
-87.851303
 21
-8.0127
  0
ENDBLK
  0
BLOCK
  2
*GRP_0002
 70
    65
 10
0.0
 20
0.0
  0
LINE
  8
通り芯
  6
CONTINUOUS
 10
-37.590023
 20
-67.109485
 11
-36.043155
 21
-65.84173
  0
LINE
  8
通り芯
  6
CONTINUOUS
 10
-39.808593
 20
-64.402473
 11
-38.261722
 21
-63.134717
  0
LINE
  8
通り芯
  6
CONTINUOUS
 10
-39.421872
 20
-64.085533
 11
-37.203305
 21
-66.792545
  0
LINE
  8
通り芯
  6
CONTINUOUS
 10
-39.035155
 20
-63.768592
 11
-36.816585
 21
-66.475605
  0
LINE
  8
通り芯
  6
CONTINUOUS
 10
-38.648442
 20
-63.451657
 11
-36.429872
 21
-66.15867
  0
INSERT
  2
*GRP_0036
  8
通り芯
  6
CONTINUOUS
 10
0.0
 20
0.0
  0
LINE
  8
型材断面
  6
CONTINUOUS
 10
-40.582028
 20
-65.036355
 11
-38.363455
 21
-67.743372
  0
LINE
  8
型材断面
  6
CONTINUOUS
 10
-40.19531
 20
-64.719413
 11
-37.976738
 21
-67.426433
  0
LINE
  8
型材断面
  6
CONTINUOUS
 10
-39.808593
 20
-64.402473
 11
-40.96875
 21
-65.353295
  0
LINE
  8
型材断面
  6
CONTINUOUS
 10
-37.590017
 20
-67.109493
 11
-38.750175
 21
-68.060315
  0
LINE
  8
型材断面
  6
CONTINUOUS
 10
-34.500453
 20
-62.314753
 11
-42.559093
 21
-68.919318
  0
ENDBLK
  0
BLOCK
  2
*GRP_0003
 70
    65
 10
0.0
 20
0.0
  0
LINE
  8
通り芯
  6
CONTINUOUS
 10
-56.243092
 20
-44.349718
 11
-54.696225
 21
-43.081963
  0
LINE
  8
通り芯
  6
CONTINUOUS
 10
-58.461662
 20
-41.642705
 11
-56.914793
 21
-40.37495
  0
LINE
  8
通り芯
  6
CONTINUOUS
 10
-58.074942
 20
-41.325765
 11
-55.856375
 21
-44.032777
  0
LINE
  8
通り芯
  6
CONTINUOUS
 10
-57.688225
 20
-41.008825
 11
-55.469655
 21
-43.715837
  0
LINE
  8
通り芯
  6
CONTINUOUS
 10
-57.301512
 20
-40.69189
 11
-55.082942
 21
-43.398902
  0
INSERT
  2
*GRP_0037
  8
通り芯
  6
CONTINUOUS
 10
0.0
 20
0.0
  0
LINE
  8
型材断面
  6
CONTINUOUS
 10
-59.235098
 20
-42.276588
 11
-57.016525
 21
-44.983605
  0
LINE
  8
型材断面
  6
CONTINUOUS
 10
-58.84838
 20
-41.959645
 11
-56.629807
 21
-44.666665
  0
LINE
  8
型材断面
  6
CONTINUOUS
 10
-58.461662
 20
-41.642705
 11
-59.62182
 21
-42.593527
  0
LINE
  8
型材断面
  6
CONTINUOUS
 10
-56.243088
 20
-44.349725
 11
-57.403245
 21
-45.300547
  0
LINE
  8
型材断面
  6
CONTINUOUS
 10
-53.153522
 20
-39.554985
 11
-61.212162
 21
-46.15955
  0
ENDBLK
  0
BLOCK
  2
*GRP_0004
 70
    65
 10
0.0
 20
0.0
  0
LINE
  8
通り芯
  6
CONTINUOUS
 10
-15.504522
 20
-76.808292
 11
-15.504522
 21
-74.80829
  0
LINE
  8
通り芯
  6
CONTINUOUS
 10
-19.004518
 20
-76.808292
 11
-19.004518
 21
-74.80829
  0
LINE
  8
通り芯
  6
CONTINUOUS
 10
-19.004518
 20
-76.30829
 11
-15.504522
 21
-76.30829
  0
LINE
  8
通り芯
  6
CONTINUOUS
 10
-19.004518
 20
-75.808288
 11
-15.504522
 21
-75.808288
  0
LINE
  8
通り芯
  6
CONTINUOUS
 10
-19.004518
 20
-75.308292
 11
-15.504522
 21
-75.308292
  0
INSERT
  2
*GRP_0038
  8
通り芯
  6
CONTINUOUS
 10
0.0
 20
0.0
  0
LINE
  8
型材断面
  6
CONTINUOUS
 10
-19.004518
 20
-77.808298
 11
-15.504515
 21
-77.808298
  0
LINE
  8
型材断面
  6
CONTINUOUS
 10
-19.004518
 20
-77.308295
 11
-15.504515
 21
-77.308295
  0
LINE
  8
型材断面
  6
CONTINUOUS
 10
-19.004518
 20
-76.808292
 11
-19.004518
 21
-78.308302
  0
LINE
  8
型材断面
  6
CONTINUOUS
 10
-15.504515
 20
-76.808292
 11
-15.504515
 21
-78.308302
  0
LINE
  8
型材断面
  6
CONTINUOUS
 10
-17.25452
 20
-71.37944
 11
-17.25452
 21
-81.798747
  0
ENDBLK
  0
BLOCK
  2
*GRP_0005
 70
    65
 10
0.0
 20
0.0
  0
LINE
  8
型材断面
  6
CONTINUOUS
 10
195.0
 20
133.5
 11
195.0
 21
-133.5
  0
LINE
  8
型材断面
  6
CONTINUOUS
 10
195.0
 20
-133.5
 11
-185.0
 21
-133.5
  0
LINE
  8
型材断面
  6
CONTINUOUS
 10
-185.0
 20
-133.5
 11
-185.0
 21
133.5
  0
LINE
  8
型材断面
  6
CONTINUOUS
 10
195.0
 20
133.5
 11
-185.0
 21
133.5
  0
LINE
  8
型材断面
  6
CONTINUOUS
 10
145.0
 20
-133.5
 11
145.0
 21
-118.5
  0
LINE
  8
型材断面
  6
CONTINUOUS
 10
195.0
 20
-118.5
 11
145.0
 21
-118.5
  0
ENDBLK
  0
BLOCK
  2
*GRP_0006
 70
    65
 10
0.0
 20
0.0
  0
LINE
  8
型材断面
  6
DOT
 10
-88.551278
 20
-0.5127
 11
-72.551272
 21
-0.5127
  0
LINE
  8
型材断面
  6
DOT
 10
-88.551278
 20
23.087295
 11
-88.551278
 21
-0.5127
  0
ARC
  8
型材断面
  6
DOT
 10
-90.251277
 20
23.987309
 40
0.3
 50
90.0
 51
180.0
  0
LINE
  8
型材断面
  6
DOT
 10
-88.551278
 20
23.087295
 11
-87.851272
 21
23.087295
  0
ARC
  8
型材断面
  6
DOT
 10
-87.851277
 20
23.387309
 40
0.3
 50
270.0
 51
360.0
  0
LINE
  8
型材断面
  6
DOT
 10
-87.551272
 20
23.987295
 11
-87.551272
 21
23.387295
  0
LINE
  8
型材断面
  6
DOT
 10
-87.851272
 20
24.287295
 11
-90.251272
 21
24.287295
  0
ARC
  8
型材断面
  6
DOT
 10
-87.851277
 20
23.987309
 40
0.3
 50
0.0
 51
90.0
  0
LINE
  8
型材断面
  6
DOT
 10
-90.551272
 20
23.987295
 11
-90.551272
 21
-2.212702
  0
LINE
  8
型材断面
  6
DOT
 10
-90.251272
 20
-2.512702
 11
-86.051272
 21
-2.512702
  0
ARC
  8
型材断面
  6
DOT
 10
-90.251277
 20
-2.212691
 40
0.3
 50
180.0
 51
270.0
  0
LINE
  8
型材断面
  6
DOT
 10
-84.551272
 20
-2.512702
 11
-70.851278
 21
-2.512702
  0
ARC
  8
型材断面
  6
DOT
 10
-70.851277
 20
-2.212691
 40
0.3
 50
270.0
 51
360.0
  0
LINE
  8
型材断面
  6
DOT
 10
-70.551278
 20
1.8873
 11
-70.551278
 21
-2.212702
  0
ARC
  8
型材断面
  6
DOT
 10
-70.851277
 20
1.887309
 40
0.3
 50
0.0
 51
90.0
  0
LINE
  8
型材断面
  6
DOT
 10
-72.251272
 20
2.1873
 11
-70.851278
 21
2.1873
  0
LINE
  8
型材断面
  6
DOT
 10
-72.551272
 20
1.8873
 11
-72.551272
 21
-0.5127
  0
ARC
  8
型材断面
  6
DOT
 10
-72.251277
 20
1.887309
 40
0.3
 50
90.0
 51
180.0
  0
LINE
  8
型材断面
  6
DOT
 10
-86.051272
 20
-4.012702
 11
-86.051272
 21
-2.512702
  0
ARC
  8
型材断面
  6
DOT
 10
-85.751277
 20
-4.012691
 40
0.3
 50
180.0
 51
270.0
  0
LINE
  8
型材断面
  6
DOT
 10
-85.751272
 20
-4.312702
 11
-84.851272
 21
-4.312702
  0
LINE
  8
型材断面
  6
DOT
 10
-84.551272
 20
-4.012702
 11
-84.551272
 21
-2.512702
  0
ARC
  8
型材断面
  6
DOT
 10
-84.851277
 20
-4.012691
 40
0.3
 50
270.0
 51
360.0
  0
ENDBLK
  0
BLOCK
  2
*GRP_0007
 70
    65
 10
0.0
 20
0.0
  0
LINE
  8
ゴム等
  6
CONTINUOUS
 10
-75.551318
 20
23.087287
 11
-70.551315
 21
23.087287
  0
LINE
  8
ゴム等
  6
CONTINUOUS
 10
-75.551318
 20
23.087287
 11
-75.551318
 21
13.08729
  0
LINE
  8
ゴム等
  6
CONTINUOUS
 10
-75.551318
 20
13.08729
 11
-70.551315
 21
13.08729
  0
LINE
  8
ゴム等
  6
CONTINUOUS
 10
-70.551315
 20
23.087287
 11
-70.551315
 21
13.08729
  0
LINE
  8
ゴム等
  6
CONTINUOUS
 10
-71.88144
 20
13.08729
 11
-70.551315
 21
14.417415
  0
LINE
  8
ゴム等
  6
CONTINUOUS
 10
-73.295655
 20
13.08729
 11
-70.551315
 21
15.83163
  0
LINE
  8
ゴム等
  6
CONTINUOUS
 10
-74.709862
 20
13.08729
 11
-70.551315
 21
17.245838
  0
LINE
  8
ゴム等
  6
CONTINUOUS
 10
-75.551318
 20
16.48848
 11
-70.551315
 21
21.488482
  0
LINE
  8
ゴム等
  6
CONTINUOUS
 10
-75.551318
 20
15.074265
 11
-70.551315
 21
20.074267
  0
LINE
  8
ゴム等
  6
CONTINUOUS
 10
-75.551318
 20
13.660058
 11
-70.551315
 21
18.660052
  0
LINE
  8
ゴム等
  6
CONTINUOUS
 10
-75.551318
 20
17.902695
 11
-70.551315
 21
22.902698
  0
LINE
  8
ゴム等
  6
CONTINUOUS
 10
-75.551318
 20
19.31691
 11
-71.780933
 21
23.087287
  0
LINE
  8
ゴム等
  6
CONTINUOUS
 10
-75.551318
 20
20.731118
 11
-73.195147
 21
23.087287
  0
LINE
  8
ゴム等
  6
CONTINUOUS
 10
-75.551318
 20
22.145333
 11
-74.609363
 21
23.087287
  0
ENDBLK
  0
BLOCK
  2
*GRP_0008
 70
    65
 10
0.0
 20
0.0
  0
LINE
  8
ゴム等
  6
CONTINUOUS
 10
-73.351305
 20
-34.7127
 11
-73.351305
 21
-29.712698
  0
LINE
  8
ゴム等
  6
CONTINUOUS
 10
-73.351305
 20
-34.7127
 11
-83.351303
 21
-34.7127
  0
LINE
  8
ゴム等
  6
CONTINUOUS
 10
-83.351303
 20
-34.7127
 11
-83.351303
 21
-29.712698
  0
LINE
  8
ゴム等
  6
CONTINUOUS
 10
-73.351305
 20
-29.712698
 11
-83.351303
 21
-29.712698
  0
LINE
  8
ゴム等
  6
CONTINUOUS
 10
-83.351303
 20
-31.042822
 11
-82.021177
 21
-29.712698
  0
LINE
  8
ゴム等
  6
CONTINUOUS
 10
-83.351303
 20
-32.457038
 11
-80.606963
 21
-29.712698
  0
LINE
  8
ゴム等
  6
CONTINUOUS
 10
-83.351303
 20
-33.871245
 11
-79.192755
 21
-29.712698
  0
LINE
  8
ゴム等
  6
CONTINUOUS
 10
-79.950112
 20
-34.7127
 11
-74.95011
 21
-29.712698
  0
LINE
  8
ゴム等
  6
CONTINUOUS
 10
-81.364328
 20
-34.7127
 11
-76.364325
 21
-29.712698
  0
LINE
  8
ゴム等
  6
CONTINUOUS
 10
-82.778535
 20
-34.7127
 11
-77.77854
 21
-29.712698
  0
LINE
  8
ゴム等
  6
CONTINUOUS
 10
-78.535898
 20
-34.7127
 11
-73.535895
 21
-29.712698
  0
LINE
  8
ゴム等
  6
CONTINUOUS
 10
-77.121683
 20
-34.7127
 11
-73.351305
 21
-30.942315
  0
LINE
  8
ゴム等
  6
CONTINUOUS
 10
-75.707475
 20
-34.7127
 11
-73.351305
 21
-32.35653
  0
LINE
  8
ゴム等
  6
CONTINUOUS
 10
-74.29326
 20
-34.7127
 11
-73.351305
 21
-33.770745
  0
ENDBLK
  0
BLOCK
  2
*GRP_0009
 70
    65
 10
0.0
 20
0.0
  0
LINE
  8
ゴム等
  6
DOT
 10
-88.551278
 20
23.087295
 11
-82.351275
 21
23.087295
  0
LINE
  8
ゴム等
  6
DOT
 10
-82.351275
 20
23.087295
 11
-82.351275
 21
13.087298
  0
LINE
  8
ゴム等
  6
DOT
 10
-82.351275
 20
13.087298
 11
-88.551278
 21
13.087298
  0
LINE
  8
ゴム等
  6
DOT
 10
-88.551278
 20
23.087295
 11
-88.551278
 21
13.087298
  0
INSERT
  2
*HAT_0001
  8
ゴム等
 10
0.0
 20
0.0
  0
ENDBLK
  0
BLOCK
  2
*GRP_0010
 70
    65
 10
0.0
 20
0.0
  0
LINE
  8
ゴム等
  6
CONTINUOUS
 10
-8.651303
 20
-58.008292
 11
-11.1513
 21
-57.508298
  0
LINE
  8
ゴム等
  6
CONTINUOUS
 10
-11.1513
 20
-63.308295
 11
-8.651303
 21
-62.808292
  0
LINE
  8
ゴム等
  6
CONTINUOUS
 10
-16.151303
 20
-65.408295
 11
-11.1513
 21
-65.408295
  0
LINE
  8
ゴム等
  6
CONTINUOUS
 10
-16.151303
 20
-55.408298
 11
-11.1513
 21
-55.408298
  0
LINE
  8
ゴム等
  6
CONTINUOUS
 10
-8.651303
 20
-58.008292
 11
-8.651303
 21
-62.808292
  0
LINE
  8
ゴム等
  6
CONTINUOUS
 10
-11.1513
 20
-65.408295
 11
-11.1513
 21
-63.308295
  0
LINE
  8
ゴム等
  6
CONTINUOUS
 10
-11.1513
 20
-57.508298
 11
-11.1513
 21
-55.408298
  0
LINE
  8
ゴム等
  6
CONTINUOUS
 10
-15.6513
 20
-60.408292
 11
-16.151303
 21
-60.908295
  0
LINE
  8
ゴム等
  6
CONTINUOUS
 10
-15.6513
 20
-60.408292
 11
-16.151303
 21
-59.908298
  0
LINE
  8
ゴム等
  6
CONTINUOUS
 10
-16.151303
 20
-55.408298
 11
-16.151303
 21
-59.908298
  0
LINE
  8
ゴム等
  6
CONTINUOUS
 10
-16.151303
 20
-60.908295
 11
-16.151303
 21
-65.408295
  0
LINE
  8
ゴム等
  6
CONTINUOUS
 10
-8.651303
 20
-60.180375
 11
-13.42338
 21
-55.408298
  0
LINE
  8
ゴム等
  6
CONTINUOUS
 10
-8.651303
 20
-62.30169
 11
-15.544695
 21
-55.408298
  0
LINE
  8
ゴム等
  6
CONTINUOUS
 10
-9.996907
 20
-63.077415
 11
-16.151303
 21
-56.92302
  0
LINE
  8
ゴム等
  6
CONTINUOUS
 10
-11.1513
 20
-64.044337
 11
-16.151303
 21
-59.044335
  0
LINE
  8
ゴム等
  6
CONTINUOUS
 10
-14.029987
 20
-65.408295
 11
-16.151303
 21
-63.28698
  0
LINE
  8
ゴム等
  6
CONTINUOUS
 10
-11.908658
 20
-65.408295
 11
-16.151303
 21
-61.16565
  0
ENDBLK
  0
BLOCK
  2
*GRP_0011
 70
    65
 10
0.0
 20
0.0
  0
LINE
  8
ボルト／ビス
  6
CONTINUOUS
 10
-96.354922
 20
-26.408332
 11
-98.354925
 21
-26.408332
  0
LINE
  8
ボルト／ビス
  6
CONTINUOUS
 10
-98.354925
 20
-26.408332
 11
-98.354925
 21
-4.408327
  0
LINE
  8
ボルト／ビス
  6
CONTINUOUS
 10
-98.354925
 20
-4.408327
 11
-96.354922
 21
-4.408327
  0
LINE
  8
ボルト／ビス
  6
CONTINUOUS
 10
-96.354922
 20
-26.408332
 11
-96.354922
 21
-4.408327
  0
LINE
  8
ボルト／ビス
  6
CONTINUOUS
 10
-99.354922
 20
-24.40833
 11
-98.354925
 21
-24.40833
  0
LINE
  8
ボルト／ビス
  6
CONTINUOUS
 10
-99.354922
 20
-24.40833
 11
-99.354922
 21
-6.40833
  0
LINE
  8
ボルト／ビス
  6
CONTINUOUS
 10
-99.354922
 20
-6.40833
 11
-98.354925
 21
-6.40833
  0
LINE
  8
ボルト／ビス
  6
CONTINUOUS
 62
    64
 10
-105.354922
 20
-20.21958
 11
-105.004695
 21
-21.18183
  0
ARC
  8
ボルト／ビス
  6
CONTINUOUS
 62
    64
 10
-102.205572
 20
-19.738452
 40
3.149352
 50
152.721967
 51
180.0
  0
ARC
  8
ボルト／ビス
  6
CONTINUOUS
 62
    64
 10
-93.282857
 20
-15.408325
 40
12.072067
 50
166.165002
 51
193.834985
  0
LINE
  8
ボルト／ビス
  6
CONTINUOUS
 62
    64
 10
-105.354922
 20
-10.59708
 11
-105.004695
 21
-9.63483
  0
ARC
  8
ボルト／ビス
  6
CONTINUOUS
 62
    64
 10
-102.205572
 20
-11.078197
 40
3.149352
 50
180.0
 51
207.278033
  0
LINE
  8
ボルト／ビス
  6
CONTINUOUS
 62
    64
 10
-105.354922
 20
-20.21958
 11
-105.354922
 21
-10.59708
  0
LINE
  8
ボルト／ビス
  6
CONTINUOUS
 62
    64
 10
-105.004695
 20
-9.63483
 11
-101.354925
 21
-9.63483
  0
LINE
  8
ボルト／ビス
  6
CONTINUOUS
 62
    64
 10
-105.004695
 20
-12.52158
 11
-101.354925
 21
-12.52158
  0
LINE
  8
ボルト／ビス
  6
CONTINUOUS
 62
    64
 10
-105.004695
 20
-21.18183
 11
-101.354925
 21
-21.18183
  0
LINE
  8
ボルト／ビス
  6
CONTINUOUS
 62
    64
 10
-105.004695
 20
-18.29508
 11
-101.354925
 21
-18.29508
  0
LINE
  8
ボルト／ビス
  6
CONTINUOUS
 62
    64
 10
-71.354925
 20
-17.708332
 11
-71.354925
 21
-13.108327
  0
LINE
  8
ボルト／ビス
  6
CONTINUOUS
 62
    64
 10
-72.354922
 20
-12.40833
 11
-71.354925
 21
-13.108327
  0
LINE
  8
ボルト／ビス
  6
CONTINUOUS
 62
    64
 10
-72.354922
 20
-18.40833
 11
-71.354925
 21
-17.708332
  0
LINE
  8
ボルト／ビス
  6
CONTINUOUS
 62
    64
 10
-72.354922
 20
-18.40833
 11
-72.354922
 21
-12.40833
  0
LINE
  8
ボルト／ビス
  6
CONTINUOUS
 62
    64
 10
-71.354925
 20
-17.708332
 11
-71.354925
 21
-13.108327
  0
LINE
  8
ボルト／ビス
  6
CONTINUOUS
 10
-101.354925
 20
-21.18183
 11
-101.354925
 21
-9.63483
  0
LINE
  8
ボルト／ビス
  6
CONTINUOUS
 10
-101.354925
 20
-21.40833
 11
-99.354922
 21
-21.40833
  0
LINE
  8
ボルト／ビス
  6
CONTINUOUS
 10
-101.354925
 20
-21.40833
 11
-101.354925
 21
-9.40833
  0
LINE
  8
ボルト／ビス
  6
CONTINUOUS
 10
-101.354925
 20
-9.40833
 11
-99.354922
 21
-9.40833
  0
LINE
  8
ボルト／ビス
  6
CONTINUOUS
 62
    64
 10
-96.354922
 20
-13.108327
 11
-71.354925
 21
-13.108327
  0
LINE
  8
ボルト／ビス
  6
CONTINUOUS
 62
    64
 10
-96.354922
 20
-17.708332
 11
-71.354925
 21
-17.708332
  0
LINE
  8
ボルト／ビス
  6
CONTINUOUS
 62
    64
 10
-96.354922
 20
-18.40833
 11
-72.354922
 21
-18.40833
  0
LINE
  8
ボルト／ビス
  6
CONTINUOUS
 62
    64
 10
-96.354922
 20
-12.40833
 11
-72.354922
 21
-12.40833
  0
ENDBLK
  0
BLOCK
  2
*GRP_0012
 70
    65
 10
0.0
 20
0.0
  0
LINE
  8
ボルト／ビス
  6
CONTINUOUS
 62
    64
 10
-81.851303
 20
-36.712702
 11
-81.7596
 21
-37.760865
  0
ARC
  8
ボルト／ビス
  6
CONTINUOUS
 62
    64
 10
-80.066068
 20
-37.612698
 40
1.7
 50
184.999989
 51
270.0
  0
LINE
  8
ボルト／ビス
  6
CONTINUOUS
 62
    64
 10
-80.06607
 20
-39.312698
 11
-78.3513
 21
-39.312698
  0
LINE
  8
ボルト／ビス
  6
CONTINUOUS
 62
    64
 10
-74.851305
 20
-36.712702
 11
-74.943008
 21
-37.760865
  0
ARC
  8
ボルト／ビス
  6
CONTINUOUS
 62
    64
 10
-76.636535
 20
-37.612698
 40
1.7
 50
270.0
 51
355.000011
  0
LINE
  8
ボルト／ビス
  6
CONTINUOUS
 62
    64
 10
-76.636538
 20
-39.312698
 11
-78.3513
 21
-39.312698
  0
LINE
  8
ボルト／ビス
  6
CONTINUOUS
 62
    64
 10
-80.74794
 20
-38.927797
 11
-80.74794
 21
-39.169957
  0
LINE
  8
ボルト／ビス
  6
CONTINUOUS
 62
    64
 10
-79.051305
 20
-38.277712
 11
-78.3513
 21
-38.277712
  0
LINE
  8
ボルト／ビス
  6
CONTINUOUS
 62
    64
 10
-79.451303
 20
-38.927797
 11
-80.74794
 21
-38.927797
  0
LINE
  8
ボルト／ビス
  6
CONTINUOUS
 62
    64
 10
-79.051305
 20
-38.277712
 11
-79.051305
 21
-38.527793
  0
ARC
  8
ボルト／ビス
  6
CONTINUOUS
 62
    64
 10
-79.451302
 20
-38.527793
 40
0.4
 50
270.0
 51
360.0
  0
LINE
  8
ボルト／ビス
  6
CONTINUOUS
 62
    64
 10
-75.95466
 20
-38.927797
 11
-75.95466
 21
-39.169957
  0
LINE
  8
ボルト／ビス
  6
CONTINUOUS
 62
    64
 10
-77.651303
 20
-38.277712
 11
-78.3513
 21
-38.277712
  0
LINE
  8
ボルト／ビス
  6
CONTINUOUS
 62
    64
 10
-77.251305
 20
-38.927797
 11
-75.95466
 21
-38.927797
  0
LINE
  8
ボルト／ビス
  6
CONTINUOUS
 62
    64
 10
-77.651303
 20
-38.277712
 11
-77.651303
 21
-38.527793
  0
ARC
  8
ボルト／ビス
  6
CONTINUOUS
 62
    64
 10
-77.251302
 20
-38.527793
 40
0.4
 50
180.0
 51
270.0
  0
LINE
  8
ボルト／ビス
  6
CONTINUOUS
 62
    64
 10
-81.851303
 20
-36.712702
 11
-74.851305
 21
-36.712702
  0
LINE
  8
ボルト／ビス
  6
CONTINUOUS
 62
    64
 10
-80.351303
 20
-25.212698
 11
-79.8513
 21
-24.712702
  0
LINE
  8
ボルト／ビス
  6
CONTINUOUS
 62
    64
 10
-76.351305
 20
-25.212698
 11
-76.8513
 21
-24.712702
  0
LINE
  8
ボルト／ビス
  6
CONTINUOUS
 62
    64
 10
-80.351303
 20
-25.212698
 11
-76.351305
 21
-25.212698
  0
LINE
  8
ボルト／ビス
  6
CONTINUOUS
 62
    64
 10
-79.8513
 20
-24.712702
 11
-76.8513
 21
-24.712702
  0
LINE
  8
ボルト／ビス
  6
CONTINUOUS
 62
    64
 10
-79.8513
 20
-36.712702
 11
-79.8513
 21
-24.712702
  0
LINE
  8
ボルト／ビス
  6
CONTINUOUS
 62
    64
 10
-76.8513
 20
-36.712702
 11
-76.8513
 21
-24.712702
  0
LINE
  8
ボルト／ビス
  6
CONTINUOUS
 62
    64
 10
-76.351305
 20
-36.712702
 11
-76.351305
 21
-25.212698
  0
LINE
  8
ボルト／ビス
  6
CONTINUOUS
 62
    64
 10
-80.351303
 20
-36.712702
 11
-80.351303
 21
-25.212698
  0
LINE
  8
ボルト／ビス
  6
DASHDOT
 62
    64
 10
-78.3513
 20
-42.312698
 11
-78.3513
 21
-21.712702
  0
ENDBLK
  0
BLOCK
  2
*GRP_0013
 70
    65
 10
0.0
 20
0.0
  0
LINE
  8
ボルト／ビス
  6
CONTINUOUS
 62
    64
 10
-4.552762
 20
-63.908302
 11
-3.5046
 21
-63.8166
  0
ARC
  8
ボルト／ビス
  6
CONTINUOUS
 62
    64
 10
-3.652757
 20
-62.123072
 40
1.7
 50
274.999989
 51
360.0
  0
LINE
  8
ボルト／ビス
  6
CONTINUOUS
 62
    64
 10
-1.95276
 20
-62.12307
 11
-1.95276
 21
-60.4083
  0
LINE
  8
ボルト／ビス
  6
CONTINUOUS
 62
    64
 10
-4.552762
 20
-56.908298
 11
-3.5046
 21
-57.0
  0
ARC
  8
ボルト／ビス
  6
CONTINUOUS
 62
    64
 10
-3.652757
 20
-58.693539
 40
1.7
 50
0.0
 51
85.000011
  0
LINE
  8
ボルト／ビス
  6
CONTINUOUS
 62
    64
 10
-1.95276
 20
-58.69353
 11
-1.95276
 21
-60.4083
  0
LINE
  8
ボルト／ビス
  6
CONTINUOUS
 62
    64
 10
-2.337668
 20
-62.80494
 11
-2.095507
 21
-62.80494
  0
LINE
  8
ボルト／ビス
  6
CONTINUOUS
 62
    64
 10
-2.987752
 20
-61.108298
 11
-2.987752
 21
-60.4083
  0
LINE
  8
ボルト／ビス
  6
CONTINUOUS
 62
    64
 10
-2.337668
 20
-61.508302
 11
-2.337668
 21
-62.80494
  0
LINE
  8
ボルト／ビス
  6
CONTINUOUS
 62
    64
 10
-2.987752
 20
-61.108298
 11
-2.737665
 21
-61.108298
  0
ARC
  8
ボルト／ビス
  6
CONTINUOUS
 62
    64
 10
-2.737662
 20
-61.508306
 40
0.4
 50
0.0
 51
90.0
  0
LINE
  8
ボルト／ビス
  6
CONTINUOUS
 62
    64
 10
-2.337668
 20
-58.01166
 11
-2.095507
 21
-58.01166
  0
LINE
  8
ボルト／ビス
  6
CONTINUOUS
 62
    64
 10
-2.987752
 20
-59.708302
 11
-2.987752
 21
-60.4083
  0
LINE
  8
ボルト／ビス
  6
CONTINUOUS
 62
    64
 10
-2.337668
 20
-59.308298
 11
-2.337668
 21
-58.01166
  0
LINE
  8
ボルト／ビス
  6
CONTINUOUS
 62
    64
 10
-2.987752
 20
-59.708302
 11
-2.737665
 21
-59.708302
  0
ARC
  8
ボルト／ビス
  6
CONTINUOUS
 62
    64
 10
-2.737662
 20
-59.308306
 40
0.4
 50
270.0
 51
360.0
  0
LINE
  8
ボルト／ビス
  6
CONTINUOUS
 62
    64
 10
-4.552762
 20
-63.908302
 11
-4.552762
 21
-56.908298
  0
LINE
  8
ボルト／ビス
  6
CONTINUOUS
 62
    64
 10
-20.052765
 20
-62.408302
 11
-20.55276
 21
-61.9083
  0
LINE
  8
ボルト／ビス
  6
CONTINUOUS
 62
    64
 10
-20.052765
 20
-58.408298
 11
-20.55276
 21
-58.9083
  0
LINE
  8
ボルト／ビス
  6
CONTINUOUS
 62
    64
 10
-20.052765
 20
-62.408302
 11
-20.052765
 21
-58.408298
  0
LINE
  8
ボルト／ビス
  6
CONTINUOUS
 62
    64
 10
-20.55276
 20
-61.9083
 11
-20.55276
 21
-58.9083
  0
LINE
  8
ボルト／ビス
  6
CONTINUOUS
 62
    64
 10
-4.552762
 20
-58.408298
 11
-20.052765
 21
-58.408298
  0
LINE
  8
ボルト／ビス
  6
CONTINUOUS
 62
    64
 10
-4.552762
 20
-62.408302
 11
-20.052765
 21
-62.408302
  0
LINE
  8
ボルト／ビス
  6
CONTINUOUS
 62
    64
 10
-4.552762
 20
-61.9083
 11
-20.55276
 21
-61.9083
  0
LINE
  8
ボルト／ビス
  6
CONTINUOUS
 62
    64
 10
-4.552762
 20
-58.9083
 11
-20.55276
 21
-58.9083
  0
LINE
  8
ボルト／ビス
  6
DASHDOT
 62
    64
 10
1.04724
 20
-60.4083
 11
-23.55276
 21
-60.4083
  0
ENDBLK
  0
BLOCK
  2
*GRP_0014
 70
    65
 10
0.0
 20
0.0
  0
LINE
  8
ボルト／ビス
  6
CONTINUOUS
 62
    64
 10
-66.95124
 20
-10.9083
 11
-66.859537
 21
-9.860138
  0
ARC
  8
ボルト／ビス
  6
CONTINUOUS
 62
    64
 10
-65.166007
 20
-10.008303
 40
1.7
 50
90.0
 51
175.000011
  0
LINE
  8
ボルト／ビス
  6
CONTINUOUS
 62
    64
 10
-65.166007
 20
-8.308305
 11
-63.451238
 21
-8.308305
  0
LINE
  8
ボルト／ビス
  6
CONTINUOUS
 62
    64
 10
-59.951242
 20
-10.9083
 11
-60.042945
 21
-9.860138
  0
ARC
  8
ボルト／ビス
  6
CONTINUOUS
 62
    64
 10
-61.736474
 20
-10.008303
 40
1.7
 50
4.999989
 51
90.0
  0
LINE
  8
ボルト／ビス
  6
CONTINUOUS
 62
    64
 10
-61.736475
 20
-8.308305
 11
-63.451238
 21
-8.308305
  0
LINE
  8
ボルト／ビス
  6
CONTINUOUS
 62
    64
 10
-65.847877
 20
-8.693205
 11
-65.847877
 21
-8.451045
  0
LINE
  8
ボルト／ビス
  6
CONTINUOUS
 62
    64
 10
-64.151242
 20
-9.34329
 11
-63.451238
 21
-9.34329
  0
LINE
  8
ボルト／ビス
  6
CONTINUOUS
 62
    64
 10
-64.55124
 20
-8.693205
 11
-65.847877
 21
-8.693205
  0
LINE
  8
ボルト／ビス
  6
CONTINUOUS
 62
    64
 10
-64.151242
 20
-9.34329
 11
-64.151242
 21
-9.09321
  0
ARC
  8
ボルト／ビス
  6
CONTINUOUS
 62
    64
 10
-64.551241
 20
-9.093208
 40
0.4
 50
0.0
 51
90.0
  0
LINE
  8
ボルト／ビス
  6
CONTINUOUS
 62
    64
 10
-61.054598
 20
-8.693205
 11
-61.054598
 21
-8.451045
  0
LINE
  8
ボルト／ビス
  6
CONTINUOUS
 62
    64
 10
-62.75124
 20
-9.34329
 11
-63.451238
 21
-9.34329
  0
LINE
  8
ボルト／ビス
  6
CONTINUOUS
 62
    64
 10
-62.351242
 20
-8.693205
 11
-61.054598
 21
-8.693205
  0
LINE
  8
ボルト／ビス
  6
CONTINUOUS
 62
    64
 10
-62.75124
 20
-9.34329
 11
-62.75124
 21
-9.09321
  0
ARC
  8
ボルト／ビス
  6
CONTINUOUS
 62
    64
 10
-62.351241
 20
-9.093208
 40
0.4
 50
90.0
 51
180.0
  0
LINE
  8
ボルト／ビス
  6
CONTINUOUS
 62
    64
 10
-66.95124
 20
-10.9083
 11
-59.951242
 21
-10.9083
  0
LINE
  8
ボルト／ビス
  6
CONTINUOUS
 62
    64
 10
-65.45124
 20
-22.408305
 11
-64.951238
 21
-22.9083
  0
LINE
  8
ボルト／ビス
  6
CONTINUOUS
 62
    64
 10
-61.451242
 20
-22.408305
 11
-61.951238
 21
-22.9083
  0
LINE
  8
ボルト／ビス
  6
CONTINUOUS
 62
    64
 10
-65.45124
 20
-22.408305
 11
-61.451242
 21
-22.408305
  0
LINE
  8
ボルト／ビス
  6
CONTINUOUS
 62
    64
 10
-64.951238
 20
-22.9083
 11
-61.951238
 21
-22.9083
  0
LINE
  8
ボルト／ビス
  6
CONTINUOUS
 62
    64
 10
-64.951238
 20
-10.9083
 11
-64.951238
 21
-22.9083
  0
LINE
  8
ボルト／ビス
  6
CONTINUOUS
 62
    64
 10
-61.951238
 20
-10.9083
 11
-61.951238
 21
-22.9083
  0
LINE
  8
ボルト／ビス
  6
CONTINUOUS
 62
    64
 10
-61.451242
 20
-10.9083
 11
-61.451242
 21
-22.408305
  0
LINE
  8
ボルト／ビス
  6
CONTINUOUS
 62
    64
 10
-65.45124
 20
-10.9083
 11
-65.45124
 21
-22.408305
  0
LINE
  8
ボルト／ビス
  6
DASHDOT
 62
    64
 10
-63.451238
 20
-5.308305
 11
-63.451238
 21
-25.9083
  0
ENDBLK
  0
BLOCK
  2
*DIM_0015
 70
    65
 10
0.0
 20
0.0
  0
LINE
  8
寸法
  6
BYBLOCK
 62
     0
 10
-68.551368
 20
35.291703
 11
-68.551368
 21
84.947248
  0
LINE
  8
寸法
  6
BYBLOCK
 62
     0
 10
-90.55136
 20
84.947248
 11
-68.551368
 21
84.947248
  0
POINT
  8
寸法
 62
     0
 10
-90.55136
 20
84.947248
 50
-90.0
  0
POINT
  8
寸法
 62
     0
 10
-68.551368
 20
84.947248
 50
-90.0
  0
TEXT
  7
TextStyle03
  8
寸法
  6
CONTINUOUS
 62
     0
 10
-77.6875
 20
84.5
  1
22
 40
3.5
 50
180.0
 72
     5
 11
-81.4125
 21
84.5
  0
ENDBLK
  0
BLOCK
  2
*DIM_0016
 70
    65
 10
0.0
 20
0.0
  0
LINE
  8
寸法
  6
BYBLOCK
 62
     0
 10
-136.80162
 20
4.591672
 11
-135.239675
 21
4.591672
  0
LINE
  8
寸法
  6
BYBLOCK
 62
     0
 10
-136.80162
 20
62.091703
 11
-135.239675
 21
62.091703
  0
LINE
  8
寸法
  6
BYBLOCK
 62
     0
 10
-135.239675
 20
4.591672
 11
-135.239675
 21
62.091703
  0
POINT
  8
寸法
 62
     0
 10
-135.239675
 20
4.591672
 50
-90.0
  0
POINT
  8
寸法
 62
     0
 10
-135.239675
 20
62.091703
 50
-90.0
  0
TEXT
  7
TextStyle03
  8
寸法
  6
CONTINUOUS
 62
     0
 10
-135.6
 20
29.4375
  1
57.5
 40
3.5
 50
90.0
 72
     5
 11
-135.6
 21
37.1125
  0
ENDBLK
  0
BLOCK
  2
*DIM_0017
 70
    65
 10
0.0
 20
0.0
  0
LINE
  8
寸法
  6
BYBLOCK
 62
     0
 10
-98.354885
 20
-45.408323
 11
-135.239675
 21
-45.408323
  0
LINE
  8
寸法
  6
BYBLOCK
 62
     0
 10
-135.239675
 20
4.591672
 11
-135.239675
 21
-45.408323
  0
POINT
  8
寸法
 62
     0
 10
-135.239675
 20
4.591672
 50
-90.0
  0
POINT
  8
寸法
 62
     0
 10
-135.239675
 20
-45.408323
 50
-90.0
  0
TEXT
  7
TextStyle03
  8
寸法
  6
CONTINUOUS
 62
     0
 10
-135.6
 20
-22.3375
  1
50
 40
3.5
 50
90.0
 72
     5
 11
-135.6
 21
-18.6125
  0
ENDBLK
  0
BLOCK
  2
*GRP_0018
 70
    65
 10
0.0
 20
0.0
  0
POLYLINE
  8
寸法
  6
BYBLOCK
 62
     0
 66
     1
  0
VERTEX
  8
寸法
 10
-70.76423
 20
-33.857473
  0
VERTEX
  8
寸法
 10
-73.362305
 20
-32.357473
  0
VERTEX
  8
寸法
 10
-71.862305
 20
-34.955548
  0
SEQEND
  0
POLYLINE
  8
寸法
  6
BYBLOCK
 62
     0
 66
     1
  0
VERTEX
  8
寸法
 10
-73.362305
 20
-32.357473
  0
VERTEX
  8
寸法
 10
-58.049308
 20
-47.67047
  0
VERTEX
  8
寸法
 10
-58.049308
 20
-49.67215
  0
SEQEND
  0
ENDBLK
  0
BLOCK
  2
*GRP_0019
 70
    65
 10
0.0
 20
0.0
  0
POLYLINE
  8
寸法
  6
BYBLOCK
 62
     0
 66
     1
  0
VERTEX
  8
寸法
 10
-47.96754
 20
-60.673278
  0
VERTEX
  8
寸法
 10
-46.46754
 20
-58.075202
  0
VERTEX
  8
寸法
 10
-49.065618
 20
-59.575202
  0
SEQEND
  0
POLYLINE
  8
寸法
  6
BYBLOCK
 62
     0
 66
     1
  0
VERTEX
  8
寸法
 10
-46.46754
 20
-58.075202
  0
VERTEX
  8
寸法
 10
-50.73482
 20
-62.342483
  0
VERTEX
  8
寸法
 10
-50.73482
 20
-66.327275
  0
SEQEND
  0
ENDBLK
  0
BLOCK
  2
*GRP_0020
 70
    65
 10
0.0
 20
0.0
  0
POLYLINE
  8
寸法
  6
BYBLOCK
 62
     0
 66
     1
  0
VERTEX
  8
寸法
 10
-93.149435
 20
16.53267
  0
VERTEX
  8
寸法
 10
-90.55136
 20
15.03267
  0
VERTEX
  8
寸法
 10
-92.05136
 20
17.630745
  0
SEQEND
  0
POLYLINE
  8
寸法
  6
BYBLOCK
 62
     0
 66
     1
  0
VERTEX
  8
寸法
 10
-90.55136
 20
15.03267
  0
VERTEX
  8
寸法
 10
-106.401665
 20
30.882972
  0
VERTEX
  8
寸法
 10
-106.401665
 20
32.72544
  0
SEQEND
  0
ENDBLK
  0
BLOCK
  2
*DIM_0021
 70
    65
 10
0.0
 20
0.0
  0
LINE
  8
寸法
  6
BYBLOCK
 62
     0
 10
-26.55137
 20
16.248707
 11
-26.55137
 21
84.947248
  0
LINE
  8
寸法
  6
BYBLOCK
 62
     0
 10
-68.551368
 20
84.947248
 11
-26.55137
 21
84.947248
  0
POINT
  8
寸法
 62
     0
 10
-68.551368
 20
84.947248
 50
-90.0
  0
POINT
  8
寸法
 62
     0
 10
-26.55137
 20
84.947248
 50
-90.0
  0
TEXT
  7
TextStyle03
  8
寸法
  6
CONTINUOUS
 62
     0
 10
-45.7125
 20
84.525
  1
42
 40
3.5
 50
180.0
 72
     5
 11
-49.4375
 21
84.525
  0
ENDBLK
  0
BLOCK
  2
*GRP_0022
 70
    65
 10
0.0
 20
0.0
  0
POLYLINE
  8
寸法
  6
BYBLOCK
 62
     0
 66
     1
  0
VERTEX
  8
寸法
 10
-94.8513
 20
-24.599248
  0
VERTEX
  8
寸法
 10
-93.3513
 20
-22.00117
  0
VERTEX
  8
寸法
 10
-95.949375
 20
-23.50117
  0
SEQEND
  0
POLYLINE
  8
寸法
  6
BYBLOCK
 62
     0
 66
     1
  0
VERTEX
  8
寸法
 10
-93.3513
 20
-22.00117
  0
VERTEX
  8
寸法
 10
-111.115425
 20
-39.765297
  0
VERTEX
  8
寸法
 10
-111.115425
 20
-49.987447
  0
SEQEND
  0
ENDBLK
  0
BLOCK
  2
*DIM_0023
 70
    65
 10
0.0
 20
0.0
  0
LINE
  8
寸法
  6
BYBLOCK
 62
     0
 10
-110.054885
 20
-15.408327
 11
-127.90771
 21
-15.408327
  0
LINE
  8
寸法
  6
BYBLOCK
 62
     0
 10
-127.90771
 20
4.591672
 11
-127.90771
 21
-15.408327
  0
POINT
  8
寸法
 62
     0
 10
-127.90771
 20
4.591672
  0
POINT
  8
寸法
 62
     0
 10
-127.90771
 20
-15.408327
  0
TEXT
  7
TextStyle03
  8
寸法
  6
CONTINUOUS
 62
     0
 10
-128.325
 20
-7.01875
  1
20
 40
3.0
 50
90.0
 72
     5
 11
-128.325
 21
-3.83125
  0
ENDBLK
  0
BLOCK
  2
*DIM_0024
 70
    65
 10
0.0
 20
0.0
  0
LINE
  8
寸法
  6
BYBLOCK
 62
     0
 10
-110.054885
 20
-45.408323
 11
-127.90771
 21
-45.408323
  0
LINE
  8
寸法
  6
BYBLOCK
 62
     0
 10
-127.90771
 20
-15.408327
 11
-127.90771
 21
-45.408323
  0
POINT
  8
寸法
 62
     0
 10
-127.90771
 20
-45.408323
  0
TEXT
  7
TextStyle03
  8
寸法
  6
CONTINUOUS
 62
     0
 10
-128.325
 20
-32.01875
  1
30
 40
3.0
 50
90.0
 72
     5
 11
-128.325
 21
-28.83125
  0
ENDBLK
  0
BLOCK
  2
*GRP_0025
 70
    65
 10
0.0
 20
0.0
  0
POLYLINE
  8
寸法
  6
BYBLOCK
 62
     0
 66
     1
  0
VERTEX
  8
寸法
 10
-11.867977
 20
-66.47223
  0
VERTEX
  8
寸法
 10
-14.466053
 20
-64.97223
  0
VERTEX
  8
寸法
 10
-12.966053
 20
-67.570305
  0
SEQEND
  0
POLYLINE
  8
寸法
  6
BYBLOCK
 62
     0
 66
     1
  0
VERTEX
  8
寸法
 10
-14.466053
 20
-64.97223
  0
VERTEX
  8
寸法
 10
-2.134075
 20
-77.304208
  0
VERTEX
  8
寸法
 10
-2.134075
 20
-99.248393
  0
SEQEND
  0
ENDBLK
  0
BLOCK
  2
*GRP_0026
 70
    65
 10
0.0
 20
0.0
  0
POLYLINE
  8
寸法
  6
BYBLOCK
 62
     0
 66
     1
  0
VERTEX
  8
寸法
 10
-51.442702
 20
-13.84477
  0
VERTEX
  8
寸法
 10
-49.942702
 20
-16.442845
  0
VERTEX
  8
寸法
 10
-52.540777
 20
-14.942845
  0
SEQEND
  0
POLYLINE
  8
寸法
  6
BYBLOCK
 62
     0
 66
     1
  0
VERTEX
  8
寸法
 10
-49.942702
 20
-16.442845
  0
VERTEX
  8
寸法
 10
-56.769672
 20
-9.615875
  0
VERTEX
  8
寸法
 10
-56.769672
 20
-2.61416
  0
SEQEND
  0
ENDBLK
  0
BLOCK
  2
*GRP_0027
 70
    65
 10
0.0
 20
0.0
  0
POLYLINE
  8
寸法
  6
BYBLOCK
 62
     0
 66
     1
  0
VERTEX
  8
寸法
 10
-87.744337
 20
22.673375
  0
VERTEX
  8
寸法
 10
-85.146263
 20
21.173375
  0
VERTEX
  8
寸法
 10
-86.646263
 20
23.77145
  0
SEQEND
  0
POLYLINE
  8
寸法
  6
BYBLOCK
 62
     0
 66
     1
  0
VERTEX
  8
寸法
 10
-85.146263
 20
21.173375
  0
VERTEX
  8
寸法
 10
-93.83623
 20
29.86334
  0
VERTEX
  8
寸法
 10
-93.83623
 20
34.095598
  0
SEQEND
  0
ENDBLK
  0
BLOCK
  2
*GRP_0028
 70
    65
 10
0.0
 20
0.0
  0
POLYLINE
  8
寸法
  6
BYBLOCK
 62
     0
 66
     1
  0
VERTEX
  8
寸法
 10
-71.551318
 20
21.586557
  0
VERTEX
  8
寸法
 10
-73.051318
 20
18.988482
  0
VERTEX
  8
寸法
 10
-70.453243
 20
20.488482
  0
SEQEND
  0
POLYLINE
  8
寸法
  6
BYBLOCK
 62
     0
 66
     1
  0
VERTEX
  8
寸法
 10
-73.051318
 20
18.988482
  0
VERTEX
  8
寸法
 10
-63.884297
 20
28.1555
  0
VERTEX
  8
寸法
 10
-63.884297
 20
30.577338
  0
SEQEND
  0
ENDBLK
  0
BLOCK
  2
*GRP_0029
 70
    65
 10
0.0
 20
0.0
  0
POLYLINE
  8
寸法
  6
BYBLOCK
 62
     0
 66
     1
  0
VERTEX
  8
寸法
 10
-67.48133
 20
17.56643
  0
VERTEX
  8
寸法
 10
-68.98133
 20
14.968355
  0
VERTEX
  8
寸法
 10
-66.383255
 20
16.468355
  0
SEQEND
  0
POLYLINE
  8
寸法
  6
BYBLOCK
 62
     0
 66
     1
  0
VERTEX
  8
寸法
 10
-68.98133
 20
14.968355
  0
VERTEX
  8
寸法
 10
-59.81431
 20
24.135373
  0
VERTEX
  8
寸法
 10
-59.81431
 20
26.55721
  0
SEQEND
  0
ENDBLK
  0
BLOCK
  2
*DIM_0030
 70
    65
 10
0.0
 20
0.0
  0
LINE
  8
寸法
  6
CONTINUOUS
 10
-101.354885
 20
4.591672
 11
-142.309365
 21
4.591672
  0
LINE
  8
寸法
  6
CONTINUOUS
 10
-35.3513
 20
-78.308302
 11
-142.309365
 21
-78.308302
  0
LINE
  8
寸法
  6
CONTINUOUS
 10
-142.309365
 20
4.591672
 11
-142.309365
 21
-78.308302
  0
POINT
  8
寸法
 10
-142.309365
 20
4.591672
 50
-90.0
  0
POINT
  8
寸法
 10
-142.309365
 20
-78.308302
 50
-90.0
  0
TEXT
  7
TextStyle03
  8
寸法
  6
CONTINUOUS
 10
-142.7
 20
-41.225
  1
82.9
 40
4.0
 50
90.0
 72
     5
 11
-142.7
 21
-32.475
  0
ENDBLK
  0
BLOCK
  2
*DIM_0031
 70
    65
 10
0.0
 20
0.0
  0
LINE
  8
寸法
  6
CONTINUOUS
 10
-35.3513
 20
-78.308302
 11
-150.362892
 21
-78.308302
  0
LINE
  8
寸法
  6
CONTINUOUS
 10
82.00604
 20
62.091703
 11
-150.362892
 21
62.091703
  0
LINE
  8
寸法
  6
CONTINUOUS
 10
-150.362892
 20
-78.308302
 11
-150.362892
 21
62.091703
  0
POINT
  8
寸法
 10
-150.362892
 20
-78.308302
 50
-90.0
  0
POINT
  8
寸法
 10
-150.362892
 20
62.091703
 50
-90.0
  0
TEXT
  7
TextStyle03
  8
寸法
  6
CONTINUOUS
 10
-150.75
 20
-13.6
  1
140.4
 40
4.0
 50
90.0
 72
     5
 11
-150.75
 21
-2.6
  0
ENDBLK
  0
BLOCK
  2
*GRP_0032
 70
    65
 10
0.0
 20
0.0
  0
LINE
  8
鉄骨等
  6
CONTINUOUS
 10
4.648703
 20
-78.308302
 11
4.648703
 21
-76.808302
  0
LINE
  8
鉄骨等
  6
CONTINUOUS
 10
4.648703
 20
-76.808302
 11
-4.552762
 21
-76.808302
  0
LINE
  8
鉄骨等
  6
CONTINUOUS
 10
-6.052762
 20
-74.308305
 11
-6.052762
 21
-76.808302
  0
LINE
  8
鉄骨等
  6
CONTINUOUS
 10
-6.052762
 20
-74.308305
 11
-8.052765
 21
-74.308305
  0
LINE
  8
鉄骨等
  6
CONTINUOUS
 10
-6.052762
 20
-73.308307
 11
-8.052765
 21
-73.308307
  0
LINE
  8
鉄骨等
  6
CONTINUOUS
 10
-8.052765
 20
-74.308305
 11
-8.052765
 21
-73.308307
  0
LINE
  8
鉄骨等
  6
CONTINUOUS
 10
-11.1513
 20
-57.4083
 11
-11.1513
 21
-55.408298
  0
LINE
  8
鉄骨等
  6
CONTINUOUS
 10
-11.1513
 20
-63.4083
 11
-11.1513
 21
-65.408302
  0
LINE
  8
鉄骨等
  6
CONTINUOUS
 10
-11.1513
 20
-63.4083
 11
-6.052762
 21
-62.388592
  0
LINE
  8
鉄骨等
  6
CONTINUOUS
 10
-6.052762
 20
-62.388592
 11
-6.052762
 21
-58.428007
  0
LINE
  8
鉄骨等
  6
CONTINUOUS
 10
-11.1513
 20
-57.4083
 11
-6.052762
 21
-58.428007
  0
LINE
  8
鉄骨等
  6
CONTINUOUS
 10
-9.6513
 20
-65.408302
 11
-9.6513
 21
-64.408298
  0
LINE
  8
鉄骨等
  6
CONTINUOUS
 10
-11.1513
 20
-65.408302
 11
-9.6513
 21
-65.408302
  0
LINE
  8
鉄骨等
  6
CONTINUOUS
 10
-11.1513
 20
-55.408298
 11
-9.6513
 21
-55.408298
  0
LINE
  8
鉄骨等
  6
CONTINUOUS
 10
-9.6513
 20
-56.408302
 11
-9.6513
 21
-55.408298
  0
LINE
  8
鉄骨等
  6
CONTINUOUS
 10
-9.6513
 20
-56.408302
 11
-4.552762
 21
-56.408302
  0
LINE
  8
鉄骨等
  6
CONTINUOUS
 10
-9.6513
 20
-64.408298
 11
-6.052762
 21
-64.408298
  0
LINE
  8
鉄骨等
  6
CONTINUOUS
 10
-6.052762
 20
-73.308307
 11
-6.052762
 21
-64.408298
  0
LINE
  8
鉄骨等
  6
CONTINUOUS
 10
-63.321683
 20
-35.712698
 11
-60.08934
 21
-35.712698
  0
LINE
  8
鉄骨等
  6
CONTINUOUS
 10
-60.08934
 20
-35.712698
 11
-58.821585
 21
-37.259565
  0
LINE
  8
鉄骨等
  6
CONTINUOUS
 10
-58.821585
 20
-37.259565
 11
-58.048155
 21
-36.625688
  0
LINE
  8
鉄骨等
  6
CONTINUOUS
 10
4.648703
 20
-78.308302
 11
-30.3513
 21
-78.308302
  0
LINE
  8
鉄骨等
  6
CONTINUOUS
 10
-63.321683
 20
-35.712698
 11
-30.16722
 21
-76.16652
  0
LINE
  8
鉄骨等
  6
CONTINUOUS
 10
-6.052762
 20
-76.808302
 11
-28.811445
 21
-76.808302
  0
LINE
  8
鉄骨等
  6
CONTINUOUS
 10
-30.16722
 20
-76.16652
 11
-28.983788
 21
-73.666522
  0
LINE
  8
鉄骨等
  6
CONTINUOUS
 10
-28.811445
 20
-76.808302
 11
-27.628013
 21
-74.308305
  0
LINE
  8
鉄骨等
  6
CONTINUOUS
 10
-28.983788
 20
-73.666522
 11
-30.251542
 21
-72.119655
  0
LINE
  8
鉄骨等
  6
CONTINUOUS
 10
-30.251542
 20
-72.119655
 11
-29.478105
 21
-71.485778
  0
LINE
  8
鉄骨等
  6
CONTINUOUS
 10
-27.984428
 20
-73.308307
 11
-29.478105
 21
-71.485778
  0
LINE
  8
鉄骨等
  6
CONTINUOUS
 10
-27.628013
 20
-74.308305
 11
-25.62801
 21
-74.308305
  0
LINE
  8
鉄骨等
  6
CONTINUOUS
 10
-25.62801
 20
-74.308305
 11
-25.62801
 21
-73.308307
  0
LINE
  8
鉄骨等
  6
CONTINUOUS
 10
-27.984428
 20
-73.308307
 11
-25.62801
 21
-73.308307
  0
LINE
  8
鉄骨等
  6
CONTINUOUS
 10
-4.852762
 20
-60.4083
 11
-4.552762
 21
-60.1083
  0
LINE
  8
鉄骨等
  6
CONTINUOUS
 10
-4.852762
 20
-60.4083
 11
-4.552762
 21
-60.7083
  0
LINE
  8
鉄骨等
  6
CONTINUOUS
 10
-4.552762
 20
-60.1083
 11
-4.552762
 21
-56.408302
  0
ARC
  8
鉄骨等
  6
CONTINUOUS
 10
0.147246
 20
-65.408295
 40
0.5
 50
270.0
 51
360.0
  0
LINE
  8
鉄骨等
  6
CONTINUOUS
 10
0.647242
 20
-65.408295
 11
0.647242
 21
-64.9083
  0
ARC
  8
鉄骨等
  6
CONTINUOUS
 10
0.147246
 20
-64.908295
 40
0.5
 50
0.0
 51
90.0
  0
LINE
  8
鉄骨等
  6
CONTINUOUS
 10
-4.552762
 20
-76.808302
 11
-4.552762
 21
-65.908298
  0
LINE
  8
鉄骨等
  6
CONTINUOUS
 10
0.14724
 20
-65.908298
 11
-4.552762
 21
-65.908298
  0
LINE
  8
鉄骨等
  6
CONTINUOUS
 10
0.14724
 20
-64.408298
 11
-4.552762
 21
-64.408298
  0
LINE
  8
鉄骨等
  6
CONTINUOUS
 10
-4.552762
 20
-60.7083
 11
-4.552762
 21
-64.408298
  0
LINE
  8
鉄骨等
  6
CONTINUOUS
 10
-90.3513
 20
-34.7127
 11
-59.61597
 21
-34.7127
  0
LINE
  8
鉄骨等
  6
CONTINUOUS
 10
-58.048155
 20
-36.625688
 11
-59.61597
 21
-34.7127
  0
LINE
  8
鉄骨等
  6
CONTINUOUS
 10
-30.3513
 20
-78.308302
 11
-64.851307
 21
-36.2127
  0
LINE
  8
鉄骨等
  6
CONTINUOUS
 10
-90.3513
 20
-34.7127
 11
-90.3513
 21
-36.712702
  0
LINE
  8
鉄骨等
  6
CONTINUOUS
 10
-90.3513
 20
-36.712702
 11
-88.351297
 21
-36.712702
  0
LINE
  8
鉄骨等
  6
CONTINUOUS
 10
-88.351297
 20
-36.712702
 11
-88.351297
 21
-36.2127
  0
LINE
  8
鉄骨等
  6
CONTINUOUS
 10
-78.3513
 20
-36.412702
 11
-78.6513
 21
-36.712702
  0
LINE
  8
鉄骨等
  6
CONTINUOUS
 10
-78.3513
 20
-36.412702
 11
-78.0513
 21
-36.712702
  0
LINE
  8
鉄骨等
  6
CONTINUOUS
 10
-78.0513
 20
-36.712702
 11
-74.351303
 21
-36.712702
  0
LINE
  8
鉄骨等
  6
CONTINUOUS
 10
-78.6513
 20
-36.712702
 11
-82.351297
 21
-36.712702
  0
LINE
  8
鉄骨等
  6
CONTINUOUS
 10
-88.351297
 20
-36.2127
 11
-82.8513
 21
-36.2127
  0
LINE
  8
鉄骨等
  6
CONTINUOUS
 10
-82.351297
 20
-36.712702
 11
-82.8513
 21
-36.2127
  0
LINE
  8
鉄骨等
  6
CONTINUOUS
 10
-74.351303
 20
-36.712702
 11
-73.8513
 21
-36.2127
  0
LINE
  8
鉄骨等
  6
CONTINUOUS
 10
-64.851307
 20
-36.2127
 11
-73.8513
 21
-36.2127
  0
ENDBLK
  0
BLOCK
  2
*GRP_0033
 70
    65
 10
0.0
 20
0.0
  0
ARC
  8
別途部材
  6
CONTINUOUS
 62
    96
 10
-88.345365
 20
-39.985566
 40
5.005952
 50
180.001373
 51
248.200992
  0
LINE
  8
別途部材
  6
CONTINUOUS
 62
    96
 10
-96.354885
 20
-45.408323
 11
-96.354885
 21
4.591672
  0
LINE
  8
別途部材
  6
CONTINUOUS
 62
    96
 10
-93.3513
 20
-39.985567
 11
-93.3513
 21
6.256237
  0
LINE
  8
別途部材
  6
CONTINUOUS
 10
-66.354885
 20
-57.4083
 11
-66.354885
 21
-54.173355
  0
LINE
  8
別途部材
  6
CONTINUOUS
 62
    96
 10
-96.354885
 20
-45.408323
 11
-66.354885
 21
-57.4083
  0
LINE
  8
別途部材
  6
CONTINUOUS
 62
    96
 10
-90.204503
 20
-44.633512
 11
-66.354885
 21
-54.173355
  0
ARC
  8
別途部材
  6
CONTINUOUS
 10
-12.789963
 20
136.681548
 40
156.303653
 50
230.688004
 51
237.681046
  0
ARC
  8
別途部材
  6
CONTINUOUS
 10
-12.789963
 20
136.681548
 40
153.3
 50
229.762604
 51
238.297129
  0
ENDBLK
  0
BLOCK
  2
*GRP_0034
 70
    65
 10
0.0
 20
0.0
  0
ARC
  8
St
  6
CONTINUOUS
 10
-92.3513
 20
0.045266
 40
1.0
 50
90.0
 51
180.0
  0
LINE
  8
St
  6
CONTINUOUS
 10
-92.351303
 20
1.045268
 11
-91.351297
 21
1.045268
  0
ARC
  8
St
  6
CONTINUOUS
 10
-91.3513
 20
0.045266
 40
1.0
 50
0.0
 51
90.0
  0
LINE
  8
St
  6
CONTINUOUS
 10
-90.3513
 20
-37.954732
 11
-90.3513
 21
0.04527
  0
ARC
  8
St
  6
CONTINUOUS
 10
-91.3513
 20
-37.954732
 40
1.0
 50
-90.0
 51
0.0
  0
LINE
  8
St
  6
CONTINUOUS
 10
-92.351303
 20
-38.95473
 11
-91.351297
 21
-38.95473
  0
LINE
  8
St
  6
CONTINUOUS
 10
-93.3513
 20
-37.954732
 11
-93.3513
 21
0.04527
  0
ARC
  8
St
  6
CONTINUOUS
 10
-92.3513
 20
-37.954732
 40
1.0
 50
180.0
 51
270.0
  0
LINE
  8
St
  6
CONTINUOUS
 10
-91.454378
 20
1.045268
 11
-90.3513
 21
-0.05781
  0
LINE
  8
St
  6
CONTINUOUS
 10
-93.161655
 20
0.631215
 11
-90.3513
 21
-2.17914
  0
LINE
  8
St
  6
CONTINUOUS
 10
-93.3513
 20
-5.5431
 11
-90.3513
 21
-8.5431
  0
LINE
  8
St
  6
CONTINUOUS
 10
-93.3513
 20
-3.42177
 11
-90.3513
 21
-6.42177
  0
LINE
  8
St
  6
CONTINUOUS
 10
-93.3513
 20
-1.300455
 11
-90.3513
 21
-4.300455
  0
LINE
  8
St
  6
CONTINUOUS
 10
-93.3513
 20
-16.14969
 11
-90.3513
 21
-19.14969
  0
LINE
  8
St
  6
CONTINUOUS
 10
-93.3513
 20
-14.028375
 11
-90.3513
 21
-17.028375
  0
LINE
  8
St
  6
CONTINUOUS
 10
-93.3513
 20
-11.90706
 11
-90.3513
 21
-14.90706
  0
LINE
  8
St
  6
CONTINUOUS
 10
-93.3513
 20
-9.78573
 11
-90.3513
 21
-12.78573
  0
LINE
  8
St
  6
CONTINUOUS
 10
-93.3513
 20
-7.664415
 11
-90.3513
 21
-10.664415
  0
LINE
  8
St
  6
CONTINUOUS
 10
-93.3513
 20
-22.513665
 11
-90.3513
 21
-25.513665
  0
LINE
  8
St
  6
CONTINUOUS
 10
-93.3513
 20
-20.392335
 11
-90.3513
 21
-23.392335
  0
LINE
  8
St
  6
CONTINUOUS
 10
-93.3513
 20
-18.27102
 11
-90.3513
 21
-21.27102
  0
LINE
  8
St
  6
CONTINUOUS
 10
-93.3513
 20
-33.120255
 11
-90.3513
 21
-36.120255
  0
LINE
  8
St
  6
CONTINUOUS
 10
-93.3513
 20
-30.99894
 11
-90.3513
 21
-33.99894
  0
LINE
  8
St
  6
CONTINUOUS
 10
-93.3513
 20
-28.877625
 11
-90.3513
 21
-31.877625
  0
LINE
  8
St
  6
CONTINUOUS
 10
-93.3513
 20
-26.756295
 11
-90.3513
 21
-29.756295
  0
LINE
  8
St
  6
CONTINUOUS
 10
-93.3513
 20
-24.63498
 11
-90.3513
 21
-27.63498
  0
LINE
  8
St
  6
CONTINUOUS
 10
-93.3513
 20
-35.241585
 11
-90.384105
 21
-38.20878
  0
LINE
  8
St
  6
CONTINUOUS
 10
-93.3513
 20
-37.3629
 11
-91.75947
 21
-38.95473
  0
ENDBLK
  0
BLOCK
  2
*GRP_0035
 70
    65
 10
0.0
 20
0.0
  0
LINE
  8
St
  6
CONTINUOUS
 10
-6.052762
 20
-47.908283
 11
-6.052777
 21
-30.90828
  0
LINE
  8
St
  6
CONTINUOUS
 10
-6.052762
 20
-47.908283
 11
-16.151303
 21
-47.908283
  0
LINE
  8
St
  6
CONTINUOUS
 10
-9.051292
 20
-30.90828
 11
-6.052777
 21
-30.90828
  0
LINE
  8
St
  6
CONTINUOUS
 10
-17.651303
 20
-65.408295
 11
-16.151303
 21
-65.408295
  0
LINE
  8
St
  6
CONTINUOUS
 10
-72.851303
 20
-29.712698
 11
-72.851303
 21
-30.012698
  0
LINE
  8
St
  6
CONTINUOUS
 10
-72.851303
 20
-30.012698
 11
-73.351305
 21
-30.012698
  0
LINE
  8
St
  6
CONTINUOUS
 10
-73.351305
 20
-30.012698
 11
-73.351305
 21
-29.712698
  0
LINE
  8
St
  6
CONTINUOUS
 10
-34.551338
 20
-15.408405
 11
-39.551347
 21
-15.408405
  0
LINE
  8
St
  6
CONTINUOUS
 10
-39.551347
 20
-15.408405
 11
-43.051245
 21
-11.908327
  0
LINE
  8
St
  6
CONTINUOUS
 10
-44.551357
 20
-11.908327
 11
-43.051245
 21
-11.908327
  0
LINE
  8
St
  6
CONTINUOUS
 10
-18.551295
 20
-15.412695
 11
-13.5513
 21
-15.412695
  0
LINE
  8
St
  6
CONTINUOUS
 10
-18.551295
 20
-15.412695
 11
-18.551295
 21
-17.632358
  0
LINE
  8
St
  6
CONTINUOUS
 10
-34.551338
 20
-17.632388
 11
-34.551338
 21
-15.408405
  0
ARC
  8
St
  6
CONTINUOUS
 10
-8.551294
 20
-2.912685
 40
2.2
 50
90.0
 51
270.0
  0
LINE
  8
St
  6
CONTINUOUS
 10
-47.404463
 20
-1.912695
 11
-48.551295
 21
-1.912695
  0
LINE
  8
St
  6
CONTINUOUS
 10
-47.404463
 20
-1.912695
 11
-48.551295
 21
-3.412695
  0
LINE
  8
St
  6
CONTINUOUS
 10
-4.551292
 20
-1.912695
 11
-5.698132
 21
-1.912695
  0
LINE
  8
St
  6
CONTINUOUS
 10
-5.698132
 20
-1.912695
 11
-4.551292
 21
-3.412695
  0
LINE
  8
St
  6
CONTINUOUS
 10
-4.551292
 20
-1.912695
 11
-4.551292
 21
4.587307
  0
LINE
  8
St
  6
CONTINUOUS
 10
-4.551292
 20
4.587307
 11
-8.551297
 21
4.587307
  0
LINE
  8
St
  6
CONTINUOUS
 10
-8.551297
 20
-0.712695
 11
-8.551297
 21
4.587307
  0
LINE
  8
St
  6
CONTINUOUS
 10
-44.551297
 20
4.587307
 11
-48.551295
 21
4.587307
  0
LINE
  8
St
  6
CONTINUOUS
 10
-48.551295
 20
-1.912695
 11
-48.551295
 21
4.587307
  0
ARC
  8
St
  6
CONTINUOUS
 10
-44.551286
 20
-2.908276
 40
2.5
 50
300.705753
 51
419.293349
  0
LINE
  8
St
  6
CONTINUOUS
 10
-48.551295
 20
-15.408405
 11
-48.551295
 21
-3.412695
  0
LINE
  8
St
  6
CONTINUOUS
 10
-87.3513
 20
-18.908332
 11
-88.351297
 21
-19.90833
  0
LINE
  8
St
  6
CONTINUOUS
 10
-70.551278
 20
-27.712695
 11
-70.551278
 21
-15.4083
  0
LINE
  8
St
  6
CONTINUOUS
 10
-88.351297
 20
-10.908315
 11
-87.3513
 21
-11.908313
  0
LINE
  8
St
  6
CONTINUOUS
 10
-87.3513
 20
-18.908332
 11
-87.3513
 21
-11.908313
  0
LINE
  8
St
  6
CONTINUOUS
 10
-72.851303
 20
-29.712698
 11
-46.05129
 21
-29.712698
  0
LINE
  8
St
  6
CONTINUOUS
 10
-46.05129
 20
-30.90828
 11
-46.05129
 21
-29.712698
  0
LINE
  8
St
  6
CONTINUOUS
 10
-90.3513
 20
-15.708323
 11
-90.0513
 21
-15.408323
  0
LINE
  8
St
  6
CONTINUOUS
 10
-90.0513
 20
-15.408323
 11
-90.3513
 21
-15.108323
  0
LINE
  8
St
  6
CONTINUOUS
 10
-88.351297
 20
-10.908315
 11
-88.351297
 21
-7.7127
  0
LINE
  8
St
  6
CONTINUOUS
 10
-48.551295
 20
-15.4083
 11
-58.951238
 21
-15.4083
  0
POLYLINE
  8
St
  6
CONTINUOUS
 66
     1
  0
VERTEX
  8
St
 10
-16.151303
 20
-60.708292
  0
VERTEX
  8
St
 10
-16.451303
 20
-60.408292
  0
VERTEX
  8
St
 10
-16.151303
 20
-60.108292
  0
SEQEND
  0
POLYLINE
  8
St
  6
CONTINUOUS
 66
     1
  0
VERTEX
  8
St
 10
-17.651303
 20
-63.408292
  0
VERTEX
  8
St
 10
-18.151305
 20
-62.90829
  0
VERTEX
  8
St
 10
-18.151305
 20
-57.908295
  0
VERTEX
  8
St
 10
-17.651303
 20
-57.408292
  0
SEQEND
  0
LINE
  8
St
  6
CONTINUOUS
 10
-17.651303
 20
-65.408295
 11
-17.651303
 21
-63.408292
  0
LINE
  8
St
  6
CONTINUOUS
 10
-16.151303
 20
-65.408295
 11
-16.151303
 21
-60.708292
  0
LINE
  8
St
  6
CONTINUOUS
 10
-16.151303
 20
-60.108292
 11
-16.151303
 21
-49.408283
  0
ARC
  8
St
  6
CONTINUOUS
 10
-1.752792
 20
-48.908279
 40
0.5
 50
270.0
 51
360.0
  0
LINE
  8
St
  6
CONTINUOUS
 10
-1.252793
 20
-48.90828
 11
-1.252793
 21
-48.408277
  0
ARC
  8
St
  6
CONTINUOUS
 10
-1.752792
 20
-48.408279
 40
0.5
 50
0.0
 51
90.0
  0
LINE
  8
St
  6
CONTINUOUS
 10
-90.3513
 20
-29.712698
 11
-90.3513
 21
-15.708323
  0
LINE
  8
St
  6
CONTINUOUS
 10
-90.3513
 20
-15.108323
 11
-90.3513
 21
-6.2127
  0
LINE
  8
St
  6
CONTINUOUS
 10
-88.351297
 20
-19.90833
 11
-88.351297
 21
-22.275757
  0
LINE
  8
St
  6
CONTINUOUS
 10
-70.551278
 20
-27.712695
 11
-82.914368
 21
-27.712695
  0
LINE
  8
St
  6
CONTINUOUS
 10
-1.752795
 20
-49.408283
 11
-7.752758
 21
-49.408283
  0
LINE
  8
St
  6
CONTINUOUS
 10
-8.352758
 20
-49.408283
 11
-16.151303
 21
-49.408283
  0
ARC
  8
St
  6
CONTINUOUS
 10
-86.458503
 20
-23.214993
 40
0.75
 50
272.457576
 51
452.457232
  0
ARC
  8
St
  6
CONTINUOUS
 10
-83.853602
 20
-25.819894
 40
0.75
 50
357.542364
 51
537.542397
  0
ARC
  8
St
  6
CONTINUOUS
 10
-86.351302
 20
-25.712694
 40
1.75
 50
92.457615
 51
357.542407
  0
ARC
  8
St
  6
CONTINUOUS
 10
-86.351302
 20
-25.712694
 40
3.25
 50
92.457518
 51
113.578083
  0
ARC
  8
St
  6
CONTINUOUS
 10
-87.851297
 20
-22.275759
 40
0.5
 50
180.0
 51
293.578083
  0
ARC
  8
St
  6
CONTINUOUS
 10
-86.351302
 20
-25.712694
 40
3.25
 50
336.421841
 51
357.542389
  0
ARC
  8
St
  6
CONTINUOUS
 10
-82.91437
 20
-27.212692
 40
0.5
 50
156.421841
 51
270.0
  0
LINE
  8
St
  6
CONTINUOUS
 10
-8.052758
 20
-49.108283
 11
-8.352758
 21
-49.408283
  0
LINE
  8
St
  6
CONTINUOUS
 10
-8.052758
 20
-49.108283
 11
-7.752758
 21
-49.408283
  0
LINE
  8
St
  6
CONTINUOUS
 10
-44.551357
 20
-11.908327
 11
-44.551357
 21
-5.05779
  0
LINE
  8
St
  6
CONTINUOUS
 10
-43.274715
 20
-5.05779
 11
-44.551357
 21
-5.05779
  0
LINE
  8
St
  6
CONTINUOUS
 10
-43.274685
 20
-0.758805
 11
-44.551297
 21
-0.758805
  0
LINE
  8
St
  6
CONTINUOUS
 10
-44.551297
 20
4.587307
 11
-44.551297
 21
-0.758805
  0
LINE
  8
St
  6
CONTINUOUS
 10
-69.051278
 20
-27.712695
 11
-69.051278
 21
-16.9083
  0
LINE
  8
St
  6
CONTINUOUS
 10
-13.5513
 20
-15.412695
 11
-10.046933
 21
-11.908327
  0
LINE
  8
St
  6
CONTINUOUS
 10
-8.551297
 20
-5.11269
 11
-8.551297
 21
-11.908327
  0
LINE
  8
St
  6
CONTINUOUS
 10
-10.046933
 20
-11.908327
 11
-8.551297
 21
-11.908327
  0
LINE
  8
St
  6
CONTINUOUS
 10
-44.55129
 20
-17.912692
 11
-44.551297
 21
-26.085188
  0
LINE
  8
St
  6
CONTINUOUS
 10
-42.459772
 20
-26.64561
 11
-44.551297
 21
-26.085188
  0
ARC
  8
St
  6
CONTINUOUS
 10
-42.718591
 20
-27.611535
 40
1.0
 50
348.4746
 51
434.999996
  0
ARC
  8
St
  6
CONTINUOUS
 10
-10.383991
 20
-27.611535
 40
1.0
 50
105.000004
 51
191.5254
  0
ARC
  8
St
  6
CONTINUOUS
 10
-26.55129
 20
-30.908274
 40
15.500003
 50
168.4746
 51
371.5254
  0
LINE
  8
St
  6
CONTINUOUS
 10
-10.642815
 20
-26.64561
 11
-8.551282
 21
-26.085188
  0
ARC
  8
St
  6
CONTINUOUS
 10
-26.55129
 20
-30.908276
 40
19.5
 50
180.0
 51
221.955436
  0
LINE
  8
St
  6
CONTINUOUS
 10
-41.052758
 20
-43.94505
 11
-41.052758
 21
-47.908283
  0
LINE
  8
St
  6
CONTINUOUS
 10
-39.351307
 20
-50.10828
 11
-39.651307
 21
-50.40828
  0
LINE
  8
St
  6
CONTINUOUS
 10
-39.351307
 20
-50.10828
 11
-39.051307
 21
-50.40828
  0
LINE
  8
St
  6
CONTINUOUS
 10
-17.651303
 20
-57.408292
 11
-17.651303
 21
-50.40828
  0
LINE
  8
St
  6
CONTINUOUS
 10
-41.052758
 20
-47.908283
 11
-42.352762
 21
-47.908283
  0
LINE
  8
St
  6
CONTINUOUS
 10
-43.35276
 20
-48.90828
 11
-43.35276
 21
-50.40828
  0
LINE
  8
St
  6
CONTINUOUS
 10
-70.551278
 20
-15.4083
 11
-60.451238
 21
-15.4083
  0
LINE
  8
St
  6
CONTINUOUS
 10
-68.251238
 20
-10.9083
 11
-68.251238
 21
-12.4083
  0
LINE
  8
St
  6
CONTINUOUS
 10
-68.251238
 20
-12.4083
 11
-60.451238
 21
-12.4083
  0
LINE
  8
St
  6
CONTINUOUS
 10
-63.451238
 20
-11.2083
 11
-63.751238
 21
-10.9083
  0
LINE
  8
St
  6
CONTINUOUS
 10
-63.451238
 20
-11.2083
 11
-63.151238
 21
-10.9083
  0
LINE
  8
St
  6
CONTINUOUS
 10
-68.251238
 20
-10.9083
 11
-63.751238
 21
-10.9083
  0
LINE
  8
St
  6
CONTINUOUS
 10
-63.151238
 20
-10.9083
 11
-58.951238
 21
-10.9083
  0
LINE
  8
St
  6
CONTINUOUS
 10
-60.451238
 20
-15.4083
 11
-60.451238
 21
-12.4083
  0
LINE
  8
St
  6
CONTINUOUS
 10
-58.951238
 20
-15.4083
 11
-58.951238
 21
-10.9083
  0
LINE
  8
St
  6
CONTINUOUS
 10
-90.3513
 20
-6.2127
 11
-85.351297
 21
-6.2127
  0
LINE
  8
St
  6
CONTINUOUS
 10
-88.351297
 20
-7.7127
 11
-85.351297
 21
-7.7127
  0
LINE
  8
St
  6
CONTINUOUS
 10
-85.351297
 20
-7.7127
 11
-85.351297
 21
-6.2127
  0
LINE
  8
St
  6
CONTINUOUS
 10
-39.651307
 20
-50.40828
 11
-43.35276
 21
-50.40828
  0
LINE
  8
St
  6
CONTINUOUS
 10
-39.051307
 20
-50.40828
 11
-17.651303
 21
-50.40828
  0
LINE
  8
St
  6
CONTINUOUS
 10
-42.352762
 20
-47.908283
 11
-43.35276
 21
-48.90828
  0
ARC
  8
St
  6
CONTINUOUS
 10
-10.444095
 20
-22.410395
 40
0.75
 50
92.457576
 51
272.457232
  0
ARC
  8
St
  6
CONTINUOUS
 10
-13.048995
 20
-19.805494
 40
0.75
 50
177.542364
 51
357.542397
  0
ARC
  8
St
  6
CONTINUOUS
 10
-10.551295
 20
-19.912695
 40
1.75
 50
272.457615
 51
537.542407
  0
LINE
  8
St
  6
CONTINUOUS
 10
-4.551292
 20
-3.412695
 11
-4.55127
 21
-47.908283
  0
LINE
  8
St
  6
CONTINUOUS
 10
-1.752795
 20
-47.908283
 11
-4.55127
 21
-47.908283
  0
LINE
  8
St
  6
CONTINUOUS
 10
-8.551282
 20
-23.349622
 11
-8.551282
 21
-26.085188
  0
ARC
  8
St
  6
CONTINUOUS
 10
-10.551295
 20
-19.912695
 40
3.25
 50
272.457518
 51
293.578437
  0
ARC
  8
St
  6
CONTINUOUS
 10
-9.051279
 20
-23.34962
 40
0.5
 50
0.000053
 51
113.578437
  0
ARC
  8
St
  6
CONTINUOUS
 10
-10.551295
 20
-19.912695
 40
3.25
 50
156.421789
 51
177.542389
  0
ARC
  8
St
  6
CONTINUOUS
 10
-13.988226
 20
-18.412693
 40
0.5
 50
-23.578211
 51
90.0
  0
LINE
  8
St
  6
CONTINUOUS
 10
-16.151303
 20
-44.98272
 11
-16.151303
 21
-47.908283
  0
ARC
  8
St
  6
CONTINUOUS
 10
-26.551284
 20
-30.908273
 40
17.499997
 50
306.461684
 51
359.999975
  0
LINE
  8
St
  6
CONTINUOUS
 10
-69.051278
 20
-16.9083
 11
-46.551293
 21
-16.9083
  0
ARC
  8
St
  6
CONTINUOUS
 10
-48.444095
 20
-23.214993
 40
0.75
 50
87.542768
 51
267.542424
  0
ARC
  8
St
  6
CONTINUOUS
 10
-51.048996
 20
-25.819894
 40
0.75
 50
2.457603
 51
182.457636
  0
ARC
  8
St
  6
CONTINUOUS
 10
-48.551296
 20
-25.712694
 40
1.75
 50
182.457593
 51
447.542385
  0
LINE
  8
St
  6
CONTINUOUS
 10
-69.051278
 20
-27.712695
 11
-51.98823
 21
-27.712695
  0
ARC
  8
St
  6
CONTINUOUS
 10
-48.551296
 20
-25.712694
 40
3.25
 50
182.457611
 51
203.578172
  0
ARC
  8
St
  6
CONTINUOUS
 10
-51.988228
 20
-27.212693
 40
0.5
 50
270.0
 51
383.578172
  0
LINE
  8
St
  6
CONTINUOUS
 10
-46.551293
 20
-16.9083
 11
-46.551293
 21
-22.275765
  0
ARC
  8
St
  6
CONTINUOUS
 10
-48.551296
 20
-25.712694
 40
3.25
 50
66.421802
 51
87.542482
  0
ARC
  8
St
  6
CONTINUOUS
 10
-47.051294
 20
-22.275762
 40
0.5
 50
246.421802
 51
359.99996
  0
LINE
  8
St
  6
CONTINUOUS
 10
-44.55129
 20
-17.912692
 11
-38.883637
 21
-17.912692
  0
LINE
  8
St
  6
CONTINUOUS
 10
-37.88826
 20
-18.961597
 11
-38.883637
 21
-17.912692
  0
ARC
  8
St
  6
CONTINUOUS
 10
-26.55129
 20
-30.908274
 40
15.500003
 50
121.072924
 51
130.025403
  0
ARC
  8
St
  6
CONTINUOUS
 10
-37.162891
 20
-18.273242
 40
1.0
 50
223.500014
 51
310.025403
  0
ARC
  8
St
  6
CONTINUOUS
 10
-15.939692
 20
-18.273242
 40
1.0
 50
229.974597
 51
316.499986
  0
ARC
  8
St
  6
CONTINUOUS
 10
-26.55129
 20
-30.908274
 40
15.500003
 50
49.974601
 51
58.927076
  0
LINE
  8
St
  6
CONTINUOUS
 10
-15.214312
 20
-18.961597
 11
-14.218942
 21
-17.912692
  0
LINE
  8
St
  6
CONTINUOUS
 10
-13.988235
 20
-17.912692
 11
-14.218942
 21
-17.912692
  0
LINE
  8
St
  6
DOT
 10
-26.55129
 20
-30.908273
 11
-44.551297
 21
-26.085188
  0
LINE
  8
St
  6
DOT
 10
-26.55129
 20
-30.908273
 11
-38.883637
 21
-17.912692
  0
LINE
  8
St
  6
DOT
 10
-26.55129
 20
-30.908273
 11
-8.551282
 21
-26.085188
  0
LINE
  8
St
  6
DOT
 10
-26.55129
 20
-30.908273
 11
-14.218942
 21
-17.912692
  0
LINE
  8
St
  6
CONTINUOUS
 10
-78.3513
 20
-29.412698
 11
-78.6513
 21
-29.712698
  0
LINE
  8
St
  6
CONTINUOUS
 10
-78.3513
 20
-29.412698
 11
-78.0513
 21
-29.712698
  0
LINE
  8
St
  6
CONTINUOUS
 10
-73.351305
 20
-29.712698
 11
-78.0513
 21
-29.712698
  0
LINE
  8
St
  6
CONTINUOUS
 10
-78.6513
 20
-29.712698
 11
-90.3513
 21
-29.712698
  0
ENDBLK
  0
BLOCK
  2
*GRP_0036
 70
    65
 10
0.0
 20
0.0
  0
LINE
  8
ボルト／ビス
  6
CONTINUOUS
 10
-38.280645
 20
-61.534052
 11
-34.47738
 21
-66.174652
  0
LINE
  8
ボルト／ビス
  6
CONTINUOUS
 10
-38.280645
 20
-61.534052
 11
-39.054083
 21
-62.167933
  0
LINE
  8
ボルト／ビス
  6
CONTINUOUS
 10
-34.47738
 20
-66.174652
 11
-35.250813
 21
-66.808528
  0
LINE
  8
ボルト／ビス
  6
CONTINUOUS
 10
-39.054083
 20
-62.167933
 11
-35.250813
 21
-66.808528
  0
LINE
  8
ボルト／ビス
  6
CONTINUOUS
 10
-37.646765
 20
-62.307488
 11
-37.646765
 21
-62.307488
  0
ARC
  8
ボルト／ビス
  6
CONTINUOUS
 10
-37.329826
 20
-62.694199
 40
0.5
 50
39.336826
 51
129.33679
  0
LINE
  8
ボルト／ビス
  6
CONTINUOUS
 10
-36.943117
 20
-62.377265
 11
-35.041478
 21
-64.69756
  0
LINE
  8
ボルト／ビス
  6
CONTINUOUS
 10
-35.111255
 20
-65.40122
 11
-35.111255
 21
-65.40122
  0
ARC
  8
ボルト／ビス
  6
CONTINUOUS
 10
-35.428192
 20
-65.014498
 40
0.5
 50
-50.66321
 51
39.336831
  0
LINE
  8
ボルト／ビス
  6
CONTINUOUS
 10
-41.761097
 20
-64.386503
 11
-37.957833
 21
-69.027102
  0
LINE
  8
ボルト／ビス
  6
CONTINUOUS
 10
-41.761097
 20
-64.386503
 11
-41.830875
 21
-65.090163
  0
LINE
  8
ボルト／ビス
  6
CONTINUOUS
 10
-37.957833
 20
-69.027102
 11
-38.66148
 21
-68.957325
  0
LINE
  8
ボルト／ビス
  6
CONTINUOUS
 10
-41.830875
 20
-65.090163
 11
-38.66148
 21
-68.957325
  0
LINE
  8
ボルト／ビス
  6
CONTINUOUS
 10
-38.420202
 20
-62.94137
 11
-41.127218
 21
-65.15994
  0
LINE
  8
ボルト／ビス
  6
CONTINUOUS
 10
-35.884688
 20
-66.035098
 11
-38.591708
 21
-68.25367
  0
ENDBLK
  0
BLOCK
  2
*GRP_0037
 70
    65
 10
0.0
 20
0.0
  0
LINE
  8
ボルト／ビス
  6
CONTINUOUS
 10
-56.933715
 20
-38.774285
 11
-53.13045
 21
-43.414885
  0
LINE
  8
ボルト／ビス
  6
CONTINUOUS
 10
-56.933715
 20
-38.774285
 11
-57.707153
 21
-39.408165
  0
LINE
  8
ボルト／ビス
  6
CONTINUOUS
 10
-53.13045
 20
-43.414885
 11
-53.903882
 21
-44.04876
  0
LINE
  8
ボルト／ビス
  6
CONTINUOUS
 10
-57.707153
 20
-39.408165
 11
-53.903882
 21
-44.04876
  0
LINE
  8
ボルト／ビス
  6
CONTINUOUS
 10
-56.299835
 20
-39.54772
 11
-56.299835
 21
-39.54772
  0
ARC
  8
ボルト／ビス
  6
CONTINUOUS
 10
-55.982896
 20
-39.934432
 40
0.5
 50
39.336826
 51
129.33679
  0
LINE
  8
ボルト／ビス
  6
CONTINUOUS
 10
-55.596187
 20
-39.617497
 11
-53.694548
 21
-41.937792
  0
LINE
  8
ボルト／ビス
  6
CONTINUOUS
 10
-53.764325
 20
-42.641453
 11
-53.764325
 21
-42.641453
  0
ARC
  8
ボルト／ビス
  6
CONTINUOUS
 10
-54.081262
 20
-42.25473
 40
0.5
 50
-50.66321
 51
39.336831
  0
LINE
  8
ボルト／ビス
  6
CONTINUOUS
 10
-60.414167
 20
-41.626735
 11
-56.610902
 21
-46.267335
  0
LINE
  8
ボルト／ビス
  6
CONTINUOUS
 10
-60.414167
 20
-41.626735
 11
-60.483945
 21
-42.330395
  0
LINE
  8
ボルト／ビス
  6
CONTINUOUS
 10
-56.610902
 20
-46.267335
 11
-57.31455
 21
-46.197558
  0
LINE
  8
ボルト／ビス
  6
CONTINUOUS
 10
-60.483945
 20
-42.330395
 11
-57.31455
 21
-46.197558
  0
LINE
  8
ボルト／ビス
  6
CONTINUOUS
 10
-57.073272
 20
-40.181603
 11
-59.780288
 21
-42.400173
  0
LINE
  8
ボルト／ビス
  6
CONTINUOUS
 10
-54.537758
 20
-43.27533
 11
-57.244777
 21
-45.493902
  0
ENDBLK
  0
BLOCK
  2
*GRP_0038
 70
    65
 10
0.0
 20
0.0
  0
LINE
  8
ボルト／ビス
  6
CONTINUOUS
 10
-20.25452
 20
-73.8083
 11
-14.25452
 21
-73.8083
  0
LINE
  8
ボルト／ビス
  6
CONTINUOUS
 10
-20.25452
 20
-73.8083
 11
-20.25452
 21
-74.808305
  0
LINE
  8
ボルト／ビス
  6
CONTINUOUS
 10
-14.25452
 20
-73.8083
 11
-14.25452
 21
-74.808298
  0
LINE
  8
ボルト／ビス
  6
CONTINUOUS
 10
-20.25452
 20
-74.808305
 11
-14.25452
 21
-74.808298
  0
LINE
  8
ボルト／ビス
  6
CONTINUOUS
 10
-19.254515
 20
-73.8083
 11
-19.254515
 21
-73.8083
  0
ARC
  8
ボルト／ビス
  6
CONTINUOUS
 10
-18.754518
 20
-73.808297
 40
0.5
 50
90.000036
 51
180.0
  0
LINE
  8
ボルト／ビス
  6
CONTINUOUS
 10
-18.75452
 20
-73.308305
 11
-15.75452
 21
-73.308298
  0
LINE
  8
ボルト／ビス
  6
CONTINUOUS
 10
-15.254518
 20
-73.8083
 11
-15.254518
 21
-73.8083
  0
ARC
  8
ボルト／ビス
  6
CONTINUOUS
 10
-15.754518
 20
-73.808295
 40
0.5
 50
0.0
 51
90.000041
  0
LINE
  8
ボルト／ビス
  6
CONTINUOUS
 10
-20.25452
 20
-78.308302
 11
-14.25452
 21
-78.308302
  0
LINE
  8
ボルト／ビス
  6
CONTINUOUS
 10
-20.25452
 20
-78.308302
 11
-19.754518
 21
-78.808305
  0
LINE
  8
ボルト／ビス
  6
CONTINUOUS
 10
-14.25452
 20
-78.308302
 11
-14.754515
 21
-78.808298
  0
LINE
  8
ボルト／ビス
  6
CONTINUOUS
 10
-19.754518
 20
-78.808305
 11
-14.754515
 21
-78.808298
  0
LINE
  8
ボルト／ビス
  6
CONTINUOUS
 10
-19.254515
 20
-74.808305
 11
-19.254515
 21
-78.308302
  0
LINE
  8
ボルト／ビス
  6
CONTINUOUS
 10
-15.254518
 20
-74.808298
 11
-15.254518
 21
-78.308302
  0
ENDBLK
  0
BLOCK
  2
*GRP_0039
 70
    65
 10
0.0
 20
0.0
  0
LINE
  8
ボルト／ビス
  6
CONTINUOUS
 62
    64
 10
110.148707
 20
27.59172
 11
111.19687
 21
27.500017
  0
ARC
  8
ボルト／ビス
  6
CONTINUOUS
 62
    64
 10
111.048708
 20
25.806495
 40
1.7
 50
0.0
 51
85.000011
  0
LINE
  8
ボルト／ビス
  6
CONTINUOUS
 62
    64
 10
112.74871
 20
25.806488
 11
112.74871
 21
24.091718
  0
LINE
  8
ボルト／ビス
  6
CONTINUOUS
 62
    64
 10
110.148707
 20
20.591722
 11
111.19687
 21
20.683425
  0
ARC
  8
ボルト／ビス
  6
CONTINUOUS
 62
    64
 10
111.048708
 20
22.376962
 40
1.7
 50
274.999989
 51
360.0
  0
LINE
  8
ボルト／ビス
  6
CONTINUOUS
 62
    64
 10
112.74871
 20
22.376955
 11
112.74871
 21
24.091718
  0
LINE
  8
ボルト／ビス
  6
CONTINUOUS
 62
    64
 10
112.363803
 20
26.488357
 11
112.605962
 21
26.488357
  0
LINE
  8
ボルト／ビス
  6
CONTINUOUS
 62
    64
 10
111.713717
 20
24.791722
 11
111.713717
 21
24.091718
  0
LINE
  8
ボルト／ビス
  6
CONTINUOUS
 62
    64
 10
112.363803
 20
25.19172
 11
112.363803
 21
26.488357
  0
LINE
  8
ボルト／ビス
  6
CONTINUOUS
 62
    64
 10
111.713717
 20
24.791722
 11
111.963805
 21
24.791722
  0
ARC
  8
ボルト／ビス
  6
CONTINUOUS
 62
    64
 10
111.963803
 20
25.191728
 40
0.4
 50
270.0
 51
360.0
  0
LINE
  8
ボルト／ビス
  6
CONTINUOUS
 62
    64
 10
112.363803
 20
21.695077
 11
112.605962
 21
21.695077
  0
LINE
  8
ボルト／ビス
  6
CONTINUOUS
 62
    64
 10
111.713717
 20
23.39172
 11
111.713717
 21
24.091718
  0
LINE
  8
ボルト／ビス
  6
CONTINUOUS
 62
    64
 10
112.363803
 20
22.991722
 11
112.363803
 21
21.695077
  0
LINE
  8
ボルト／ビス
  6
CONTINUOUS
 62
    64
 10
111.713717
 20
23.39172
 11
111.963805
 21
23.39172
  0
ARC
  8
ボルト／ビス
  6
CONTINUOUS
 62
    64
 10
111.963803
 20
22.991728
 40
0.4
 50
0.0
 51
90.0
  0
LINE
  8
ボルト／ビス
  6
CONTINUOUS
 62
    64
 10
110.148707
 20
27.59172
 11
110.148707
 21
20.591722
  0
LINE
  8
ボルト／ビス
  6
CONTINUOUS
 62
    64
 10
102.648707
 20
26.09172
 11
102.148705
 21
25.591718
  0
LINE
  8
ボルト／ビス
  6
CONTINUOUS
 62
    64
 10
102.648707
 20
22.091722
 11
102.148705
 21
22.591718
  0
LINE
  8
ボルト／ビス
  6
CONTINUOUS
 62
    64
 10
110.148707
 20
25.591718
 11
102.148705
 21
25.591718
  0
LINE
  8
ボルト／ビス
  6
CONTINUOUS
 62
    64
 10
110.148707
 20
26.09172
 11
102.648707
 21
26.09172
  0
LINE
  8
ボルト／ビス
  6
CONTINUOUS
 62
    64
 10
110.148707
 20
22.591718
 11
102.148705
 21
22.591718
  0
LINE
  8
ボルト／ビス
  6
CONTINUOUS
 62
    64
 10
110.148707
 20
22.091722
 11
102.648707
 21
22.091722
  0
LINE
  8
ボルト／ビス
  6
CONTINUOUS
 62
    64
 10
102.648707
 20
26.09172
 11
102.648707
 21
22.091722
  0
LINE
  8
ボルト／ビス
  6
CONTINUOUS
 62
    64
 10
102.148705
 20
25.591718
 11
102.148705
 21
22.591718
  0
LINE
  8
ボルト／ビス
  6
CONTINUOUS
 62
    64
 10
114.720092
 20
24.091718
 11
99.89821
 21
24.091718
  0
ENDBLK
  0
BLOCK
  2
*GRP_0040
 70
    65
 10
0.0
 20
0.0
  0
LINE
  8
ボルト／ビス
  6
CONTINUOUS
 62
    64
 10
110.148707
 20
-25.358273
 11
111.19687
 21
-25.449975
  0
ARC
  8
ボルト／ビス
  6
CONTINUOUS
 62
    64
 10
111.048713
 20
-27.143498
 40
1.7
 50
0.0
 51
85.000011
  0
LINE
  8
ボルト／ビス
  6
CONTINUOUS
 62
    64
 10
112.74871
 20
-27.143505
 11
112.74871
 21
-28.858275
  0
LINE
  8
ボルト／ビス
  6
CONTINUOUS
 62
    64
 10
110.148707
 20
-32.35827
 11
111.19687
 21
-32.266568
  0
ARC
  8
ボルト／ビス
  6
CONTINUOUS
 62
    64
 10
111.048713
 20
-30.573031
 40
1.7
 50
274.999989
 51
360.0
  0
LINE
  8
ボルト／ビス
  6
CONTINUOUS
 62
    64
 10
112.74871
 20
-30.573038
 11
112.74871
 21
-28.858275
  0
LINE
  8
ボルト／ビス
  6
CONTINUOUS
 62
    64
 10
112.363803
 20
-26.461635
 11
112.605962
 21
-26.461635
  0
LINE
  8
ボルト／ビス
  6
CONTINUOUS
 62
    64
 10
111.713717
 20
-28.15827
 11
111.713717
 21
-28.858275
  0
LINE
  8
ボルト／ビス
  6
CONTINUOUS
 62
    64
 10
112.363803
 20
-27.758273
 11
112.363803
 21
-26.461635
  0
LINE
  8
ボルト／ビス
  6
CONTINUOUS
 62
    64
 10
111.713717
 20
-28.15827
 11
111.963805
 21
-28.15827
  0
ARC
  8
ボルト／ビス
  6
CONTINUOUS
 62
    64
 10
111.963808
 20
-27.758264
 40
0.4
 50
270.0
 51
360.0
  0
LINE
  8
ボルト／ビス
  6
CONTINUOUS
 62
    64
 10
112.363803
 20
-31.254915
 11
112.605962
 21
-31.254915
  0
LINE
  8
ボルト／ビス
  6
CONTINUOUS
 62
    64
 10
111.713717
 20
-29.558273
 11
111.713717
 21
-28.858275
  0
LINE
  8
ボルト／ビス
  6
CONTINUOUS
 62
    64
 10
112.363803
 20
-29.95827
 11
112.363803
 21
-31.254915
  0
LINE
  8
ボルト／ビス
  6
CONTINUOUS
 62
    64
 10
111.713717
 20
-29.558273
 11
111.963805
 21
-29.558273
  0
ARC
  8
ボルト／ビス
  6
CONTINUOUS
 62
    64
 10
111.963808
 20
-29.958264
 40
0.4
 50
0.0
 51
90.0
  0
LINE
  8
ボルト／ビス
  6
CONTINUOUS
 62
    64
 10
110.148707
 20
-25.358273
 11
110.148707
 21
-32.35827
  0
LINE
  8
ボルト／ビス
  6
CONTINUOUS
 62
    64
 10
102.648707
 20
-26.858273
 11
102.148705
 21
-27.358275
  0
LINE
  8
ボルト／ビス
  6
CONTINUOUS
 62
    64
 10
102.648707
 20
-30.85827
 11
102.148705
 21
-30.358275
  0
LINE
  8
ボルト／ビス
  6
CONTINUOUS
 62
    64
 10
110.148707
 20
-27.358275
 11
102.148705
 21
-27.358275
  0
LINE
  8
ボルト／ビス
  6
CONTINUOUS
 62
    64
 10
110.148707
 20
-26.858273
 11
102.648707
 21
-26.858273
  0
LINE
  8
ボルト／ビス
  6
CONTINUOUS
 62
    64
 10
110.148707
 20
-30.358275
 11
102.148705
 21
-30.358275
  0
LINE
  8
ボルト／ビス
  6
CONTINUOUS
 62
    64
 10
110.148707
 20
-30.85827
 11
102.648707
 21
-30.85827
  0
LINE
  8
ボルト／ビス
  6
CONTINUOUS
 62
    64
 10
102.648707
 20
-26.858273
 11
102.648707
 21
-30.85827
  0
LINE
  8
ボルト／ビス
  6
CONTINUOUS
 62
    64
 10
102.148705
 20
-27.358275
 11
102.148705
 21
-30.358275
  0
LINE
  8
ボルト／ビス
  6
CONTINUOUS
 62
    64
 10
114.720092
 20
-28.858275
 11
99.89821
 21
-28.858275
  0
ENDBLK
  0
BLOCK
  2
*DIM_0041
 70
    65
 10
0.0
 20
0.0
  0
LINE
  8
寸法
  6
CONTINUOUS
 10
100.448642
 20
67.09172
 11
100.448642
 21
97.765393
  0
LINE
  8
寸法
  6
CONTINUOUS
 10
106.948705
 20
97.765393
 11
100.448642
 21
97.765393
  0
POINT
  8
寸法
 10
100.448642
 20
97.765393
  0
TEXT
  7
TextStyle03
  8
寸法
  6
CONTINUOUS
 10
101.2625
 20
98.15
  1
6.5
 40
3.0
 72
     5
 11
106.1375
 21
98.15
  0
ENDBLK
  0
BLOCK
  2
*DIM_0042
 70
    65
 10
0.0
 20
0.0
  0
LINE
  8
寸法
  6
CONTINUOUS
 10
86.448647
 20
67.09172
 11
86.448647
 21
97.765393
  0
LINE
  8
寸法
  6
CONTINUOUS
 10
100.448642
 20
97.765393
 11
86.448647
 21
97.765393
  0
POINT
  8
寸法
 10
86.448647
 20
97.765393
  0
TEXT
  7
TextStyle03
  8
寸法
  6
CONTINUOUS
 10
91.85625
 20
98.15
  1
14
 40
3.0
 72
     5
 11
95.04375
 21
98.15
  0
ENDBLK
  0
BLOCK
  2
*DIM_0043
 70
    65
 10
0.0
 20
0.0
  0
LINE
  8
寸法
  6
CONTINUOUS
 10
-90.551272
 20
28.598615
 11
-90.551272
 21
97.765393
  0
LINE
  8
寸法
  6
CONTINUOUS
 10
86.448647
 20
97.765393
 11
-90.551272
 21
97.765393
  0
POINT
  8
寸法
 10
-90.551272
 20
97.765393
  0
TEXT
  7
TextStyle03
  8
寸法
  6
CONTINUOUS
 10
-4.4875
 20
98.15
  1
177
 40
3.0
 72
     5
 11
0.3875
 21
98.15
  0
ENDBLK
  0
BLOCK
  2
*DIM_0044
 70
    65
 10
0.0
 20
0.0
  0
LINE
  8
寸法
  6
CONTINUOUS
 10
86.450078
 20
66.791705
 11
86.450078
 21
84.947248
  0
LINE
  8
寸法
  6
CONTINUOUS
 10
52.450078
 20
84.947248
 11
86.450078
 21
84.947248
  0
POINT
  8
寸法
 10
86.450078
 20
84.947248
  0
TEXT
  7
TextStyle03
  8
寸法
  6
CONTINUOUS
 10
67.85625
 20
85.325
  1
34
 40
3.0
 72
     5
 11
71.04375
 21
85.325
  0
ENDBLK
  0
BLOCK
  2
*DIM_0045
 70
    65
 10
0.0
 20
0.0
  0
LINE
  8
寸法
  6
CONTINUOUS
 10
52.450078
 20
39.891712
 11
52.450078
 21
84.947248
  0
LINE
  8
寸法
  6
CONTINUOUS
 10
-26.551368
 20
84.947248
 11
52.450078
 21
84.947248
  0
POINT
  8
寸法
 10
52.450078
 20
84.947248
  0
TEXT
  7
TextStyle03
  8
寸法
  6
CONTINUOUS
 10
11.35625
 20
85.325
  1
79
 40
3.0
 72
     5
 11
14.54375
 21
85.325
  0
ENDBLK
  0
BLOCK
  2
*DIM_0046
 70
    65
 10
0.0
 20
0.0
  0
LINE
  8
寸法
  6
CONTINUOUS
 10
4.648703
 20
-83.308302
 11
4.648703
 21
-85.841835
  0
LINE
  8
寸法
  6
CONTINUOUS
 10
11.648703
 20
-83.308302
 11
11.648703
 21
-85.841835
  0
LINE
  8
寸法
  6
CONTINUOUS
 10
4.648703
 20
-85.841835
 11
11.648703
 21
-85.841835
  0
POINT
  8
寸法
 10
4.648703
 20
-85.841835
  0
POINT
  8
寸法
 10
11.648703
 20
-85.841835
  0
TEXT
  7
TextStyle03
  8
寸法
  6
CONTINUOUS
 10
7.4
 20
-85.475
  1
7
 40
3.0
 72
     5
 11
8.9
 21
-85.475
  0
ENDBLK
  0
BLOCK
  2
*GRP_0047
 70
    65
 10
0.0
 20
0.0
  0
LINE
  8
St
  6
CONTINUOUS
 10
120.241742
 20
-19.708298
 11
123.441753
 21
-22.9083
  0
LINE
  8
St
  6
CONTINUOUS
 10
119.534627
 20
-19.708298
 11
122.734637
 21
-22.9083
  0
ARC
  8
St
  6
CONTINUOUS
 62
   127
 10
110.148717
 20
-19.70829
 40
3.2
 50
180.0
 51
270.0
  0
LINE
  8
St
  6
CONTINUOUS
 10
106.948705
 20
17.526188
 11
110.148707
 21
14.326193
  0
LINE
  8
St
  6
CONTINUOUS
 10
106.948705
 20
16.81908
 11
110.148707
 21
13.619085
  0
LINE
  8
St
  6
CONTINUOUS
 10
106.948705
 20
-11.115285
 11
110.148707
 21
-14.31528
  0
LINE
  8
St
  6
CONTINUOUS
 10
106.948705
 20
-11.822393
 11
110.148707
 21
-15.022387
  0
LINE
  8
St
  6
CONTINUOUS
 10
106.948705
 20
-27.108277
 11
110.148707
 21
-27.108277
  0
LINE
  8
St
  6
CONTINUOUS
 10
106.948705
 20
-30.608273
 11
110.148707
 21
-30.608273
  0
LINE
  8
St
  6
CONTINUOUS
 10
106.948705
 20
22.34172
 11
110.148707
 21
22.34172
  0
LINE
  8
St
  6
CONTINUOUS
 10
106.948705
 20
25.841715
 11
110.148707
 21
25.841715
  0
LINE
  8
St
  6
CONTINUOUS
 10
111.975798
 20
-28.858275
 11
105.318737
 21
-28.858275
  0
LINE
  8
St
  6
CONTINUOUS
 10
111.975798
 20
24.091718
 11
105.318737
 21
24.091718
  0
LINE
  8
St
  6
CONTINUOUS
 10
107.748707
 20
25.841715
 11
107.748707
 21
22.34172
  0
LINE
  8
St
  6
CONTINUOUS
 10
108.548703
 20
25.841715
 11
108.548703
 21
22.34172
  0
LINE
  8
St
  6
CONTINUOUS
 10
109.348705
 20
25.841715
 11
109.348705
 21
22.34172
  0
LINE
  8
St
  6
CONTINUOUS
 10
107.748707
 20
-27.108277
 11
107.748707
 21
-30.608273
  0
LINE
  8
St
  6
CONTINUOUS
 10
108.548703
 20
-27.108277
 11
108.548703
 21
-30.608273
  0
LINE
  8
St
  6
CONTINUOUS
 10
109.348705
 20
-27.108277
 11
109.348705
 21
-30.608273
  0
LINE
  8
St
  6
CONTINUOUS
 10
106.948705
 20
-32.714722
 11
110.148707
 21
-32.714722
  0
LINE
  8
St
  6
CONTINUOUS
 62
   127
 10
106.948705
 20
-32.714722
 11
106.948705
 21
29.091727
  0
LINE
  8
St
  6
CONTINUOUS
 62
   127
 10
110.148707
 20
-32.714722
 11
110.148707
 21
29.091727
  0
LINE
  8
St
  6
CONTINUOUS
 10
106.948705
 20
29.091727
 11
110.148707
 21
29.091727
  0
LINE
  8
St
  6
CONTINUOUS
 10
156.948692
 20
-19.708298
 11
156.948692
 21
-22.9083
  0
LINE
  8
St
  6
CONTINUOUS
 10
146.948688
 20
-19.708298
 11
146.948688
 21
-22.9083
  0
LINE
  8
St
  6
CONTINUOUS
 62
   127
 10
146.948688
 20
-20.5083
 11
156.948692
 21
-20.5083
  0
LINE
  8
St
  6
CONTINUOUS
 62
   127
 10
146.948688
 20
-21.308295
 11
156.948692
 21
-21.308295
  0
LINE
  8
St
  6
CONTINUOUS
 62
   127
 10
146.948688
 20
-22.108298
 11
156.948692
 21
-22.108298
  0
LINE
  8
St
  6
CONTINUOUS
 10
151.94869
 20
-16.580055
 11
151.94869
 21
-26.327887
  0
LINE
  8
St
  6
CONTINUOUS
 10
167.248705
 20
-19.708298
 11
167.248705
 21
-22.9083
  0
LINE
  8
St
  6
CONTINUOUS
 62
   127
 10
110.148707
 20
-19.708298
 11
167.248705
 21
-19.708298
  0
LINE
  8
St
  6
CONTINUOUS
 62
   127
 10
110.148707
 20
-22.9083
 11
167.248705
 21
-22.9083
  0
ENDBLK
  0
BLOCK
  2
*DIM_0048
 70
    65
 10
0.0
 20
0.0
  0
LINE
  8
寸法
  6
CONTINUOUS
 10
-30.3513
 20
-83.308302
 11
-30.3513
 21
-85.841835
  0
LINE
  8
寸法
  6
CONTINUOUS
 10
4.648703
 20
-85.841835
 11
-30.3513
 21
-85.841835
  0
POINT
  8
寸法
 10
-30.3513
 20
-85.841835
  0
TEXT
  7
TextStyle03
  8
寸法
  6
CONTINUOUS
 10
-14.46875
 20
-85.475
  1
35
 40
3.0
 72
     5
 11
-11.28125
 21
-85.475
  0
ENDBLK
  0
BLOCK
  2
*DIM_0049
 70
    65
 10
0.0
 20
0.0
  0
LINE
  8
寸法
  6
CONTINUOUS
 10
-66.354885
 20
-62.4083
 11
-66.354885
 21
-85.841835
  0
LINE
  8
寸法
  6
CONTINUOUS
 10
-30.3513
 20
-85.841835
 11
-66.354885
 21
-85.841835
  0
POINT
  8
寸法
 10
-66.354885
 20
-85.841835
  0
TEXT
  7
TextStyle03
  8
寸法
  6
CONTINUOUS
 10
-50.06875
 20
-89.775
  1
36
 40
3.0
 72
     5
 11
-46.88125
 21
-89.775
  0
ENDBLK
  0
BLOCK
  2
*DIM_0050
 70
    65
 10
0.0
 20
0.0
  0
LINE
  8
寸法
  6
CONTINUOUS
 10
-66.354885
 20
-85.841835
 11
-96.354885
 21
-85.841835
  0
POINT
  8
寸法
 10
-96.354885
 20
-85.841835
  0
TEXT
  7
TextStyle03
  8
寸法
  6
CONTINUOUS
 10
-82.96875
 20
-85.475
  1
30
 40
3.0
 72
     5
 11
-79.78125
 21
-85.475
  0
ENDBLK
  0
BLOCK
  2
*GRP_0051
 70
    65
 10
0.0
 20
0.0
  0
POLYLINE
  8
寸法
  6
BYBLOCK
 62
     0
 66
     1
  0
VERTEX
  8
寸法
 10
100.645127
 20
-80.906385
  0
VERTEX
  8
寸法
 10
102.145127
 20
-78.30831
  0
VERTEX
  8
寸法
 10
99.547053
 20
-79.80831
  0
SEQEND
  0
POLYLINE
  8
寸法
  6
BYBLOCK
 62
     0
 66
     1
  0
VERTEX
  8
寸法
 10
102.145127
 20
-78.30831
  0
VERTEX
  8
寸法
 10
94.304172
 20
-86.149265
  0
VERTEX
  8
寸法
 10
94.304172
 20
-105.575755
  0
SEQEND
  0
ENDBLK
  0
BLOCK
  2
*GRP_0052
 70
    65
 10
0.0
 20
0.0
  0
POLYLINE
  8
寸法
  6
BYBLOCK
 62
     0
 66
     1
  0
VERTEX
  8
寸法
 10
3.222495
 20
-41.539165
  0
VERTEX
  8
寸法
 10
1.722495
 20
-44.13724
  0
VERTEX
  8
寸法
 10
4.32057
 20
-42.63724
  0
SEQEND
  0
POLYLINE
  8
寸法
  6
BYBLOCK
 62
     0
 66
     1
  0
VERTEX
  8
寸法
 10
1.722495
 20
-44.13724
  0
VERTEX
  8
寸法
 10
11.082167
 20
-34.777567
  0
VERTEX
  8
寸法
 10
11.082167
 20
-33.331052
  0
SEQEND
  0
ENDBLK
  0
BLOCK
  2
*GRP_0053
 70
    65
 10
0.0
 20
0.0
  0
POLYLINE
  8
寸法
  6
BYBLOCK
 62
     0
 66
     1
  0
VERTEX
  8
寸法
 10
6.079502
 20
-62.143628
  0
VERTEX
  8
寸法
 10
3.91414
 20
-64.21997
  0
VERTEX
  8
寸法
 10
6.82757
 20
-63.504487
  0
SEQEND
  0
POLYLINE
  8
寸法
  6
BYBLOCK
 62
     0
 66
     1
  0
VERTEX
  8
寸法
 10
3.91414
 20
-64.21997
  0
VERTEX
  8
寸法
 10
25.950565
 20
-52.106492
  0
VERTEX
  8
寸法
 10
25.950565
 20
-54.474913
  0
SEQEND
  0
ENDBLK
  0
BLOCK
  2
*GRP_0054
 70
    65
 10
0.0
 20
0.0
  0
POLYLINE
  8
寸法
  6
BYBLOCK
 62
     0
 66
     1
  0
VERTEX
  8
寸法
 10
110.848202
 20
3.05528
  0
VERTEX
  8
寸法
 10
109.348202
 20
0.457205
  0
VERTEX
  8
寸法
 10
111.946277
 20
1.957205
  0
SEQEND
  0
POLYLINE
  8
寸法
  6
BYBLOCK
 62
     0
 66
     1
  0
VERTEX
  8
寸法
 10
109.348202
 20
0.457205
  0
VERTEX
  8
寸法
 10
121.71103
 20
12.820032
  0
VERTEX
  8
寸法
 10
121.71103
 20
19.817525
  0
SEQEND
  0
ENDBLK
  0
BLOCK
  2
*GRP_0055
 70
    65
 10
0.0
 20
0.0
  0
ARC
  8
型材断面
  6
CONTINUOUS
 62
    47
 10
-4.001296
 20
-11.36263
 40
0.3
 50
180.0
 51
270.0
  0
LINE
  8
型材断面
  6
CONTINUOUS
 62
    47
 10
-4.001295
 20
-11.662627
 11
-2.601292
 21
-11.662627
  0
LINE
  8
型材断面
  6
CONTINUOUS
 62
    47
 10
-2.301292
 20
-11.362627
 11
-2.301292
 21
5.83737
  0
ARC
  8
型材断面
  6
CONTINUOUS
 62
    47
 10
-2.601296
 20
-11.36263
 40
0.3
 50
270.0
 51
360.0
  0
ARC
  8
型材断面
  6
CONTINUOUS
 62
    47
 10
-49.801296
 20
5.83737
 40
1.0
 50
90.0
 51
180.0
  0
ARC
  8
型材断面
  6
CONTINUOUS
 62
    47
 10
-49.101296
 20
-11.36263
 40
0.3
 50
270.0
 51
360.0
  0
LINE
  8
型材断面
  6
CONTINUOUS
 62
    47
 10
-49.101293
 20
-11.662627
 11
-50.501295
 21
-11.662627
  0
LINE
  8
型材断面
  6
CONTINUOUS
 62
    47
 10
-50.801295
 20
-11.362627
 11
-50.801295
 21
5.83737
  0
ARC
  8
型材断面
  6
CONTINUOUS
 62
    47
 10
-50.501296
 20
-11.36263
 40
0.3
 50
180.0
 51
270.0
  0
LINE
  8
型材断面
  6
CONTINUOUS
 62
    47
 10
-4.301295
 20
4.837372
 11
-48.801293
 21
4.837372
  0
LINE
  8
型材断面
  6
CONTINUOUS
 62
    47
 10
-3.301297
 20
6.837368
 11
-49.801297
 21
6.837368
  0
ARC
  8
型材断面
  6
CONTINUOUS
 62
    47
 10
-3.301296
 20
5.83737
 40
1.0
 50
0.0
 51
90.0
  0
LINE
  8
型材断面
  6
CONTINUOUS
 62
    47
 10
-4.301295
 20
-2.162633
 11
-4.301295
 21
4.837372
  0
LINE
  8
型材断面
  6
CONTINUOUS
 62
    47
 10
-5.001292
 20
-2.162633
 11
-4.301295
 21
-2.162633
  0
ARC
  8
型材断面
  6
CONTINUOUS
 62
    47
 10
-5.001296
 20
-2.36263
 40
0.2
 50
90.0
 51
216.085808
  0
LINE
  8
型材断面
  6
CONTINUOUS
 62
    47
 10
-5.162918
 20
-2.48043
 11
-4.301295
 21
-3.662633
  0
LINE
  8
型材断面
  6
CONTINUOUS
 62
    47
 10
-4.301295
 20
-11.362627
 11
-4.301295
 21
-3.662633
  0
ARC
  8
型材断面
  6
CONTINUOUS
 62
    47
 10
-48.101296
 20
-2.36263
 40
0.2
 50
323.914192
 51
450.0
  0
LINE
  8
型材断面
  6
CONTINUOUS
 62
    47
 10
-48.801293
 20
-2.162633
 11
-48.801293
 21
4.837372
  0
LINE
  8
型材断面
  6
CONTINUOUS
 62
    47
 10
-48.101295
 20
-2.162633
 11
-48.801293
 21
-2.162633
  0
LINE
  8
型材断面
  6
CONTINUOUS
 62
    47
 10
-47.93967
 20
-2.48043
 11
-48.801293
 21
-3.662633
  0
LINE
  8
型材断面
  6
CONTINUOUS
 62
    47
 10
-48.801293
 20
-11.362627
 11
-48.801293
 21
-3.662633
  0
ENDBLK
  0
BLOCK
  2
*GRP_0056
 70
    65
 10
0.0
 20
0.0
  0
ARC
  8
型材断面
  6
CONTINUOUS
 62
    47
 10
74.998647
 20
-11.35827
 40
0.3
 50
180.0
 51
270.0
  0
LINE
  8
型材断面
  6
CONTINUOUS
 62
    47
 10
74.998647
 20
-11.658275
 11
76.398647
 21
-11.658275
  0
LINE
  8
型材断面
  6
CONTINUOUS
 62
    47
 10
76.698647
 20
-11.358275
 11
76.698647
 21
5.841725
  0
ARC
  8
型材断面
  6
CONTINUOUS
 62
    47
 10
76.398647
 20
-11.35827
 40
0.3
 50
270.0
 51
360.0
  0
ARC
  8
型材断面
  6
CONTINUOUS
 62
    47
 10
29.198647
 20
5.84173
 40
1.0
 50
90.0
 51
180.0
  0
ARC
  8
型材断面
  6
CONTINUOUS
 62
    47
 10
29.898647
 20
-11.35827
 40
0.3
 50
270.0
 51
360.0
  0
LINE
  8
型材断面
  6
CONTINUOUS
 62
    47
 10
29.898647
 20
-11.658275
 11
28.498647
 21
-11.658275
  0
LINE
  8
型材断面
  6
CONTINUOUS
 62
    47
 10
28.198647
 20
-11.358275
 11
28.198647
 21
5.841725
  0
ARC
  8
型材断面
  6
CONTINUOUS
 62
    47
 10
28.498647
 20
-11.35827
 40
0.3
 50
180.0
 51
270.0
  0
LINE
  8
型材断面
  6
CONTINUOUS
 62
    47
 10
74.698647
 20
4.841725
 11
30.198647
 21
4.841725
  0
LINE
  8
型材断面
  6
CONTINUOUS
 62
    47
 10
75.698647
 20
6.841725
 11
29.198647
 21
6.841725
  0
ARC
  8
型材断面
  6
CONTINUOUS
 62
    47
 10
75.698647
 20
5.84173
 40
1.0
 50
0.0
 51
90.0
  0
LINE
  8
型材断面
  6
CONTINUOUS
 62
    47
 10
74.698647
 20
-2.158275
 11
74.698647
 21
4.841725
  0
LINE
  8
型材断面
  6
CONTINUOUS
 62
    47
 10
73.998647
 20
-2.158275
 11
74.698647
 21
-2.158275
  0
ARC
  8
型材断面
  6
CONTINUOUS
 62
    47
 10
73.998647
 20
-2.35827
 40
0.2
 50
90.0
 51
216.085808
  0
LINE
  8
型材断面
  6
CONTINUOUS
 62
    47
 10
73.837023
 20
-2.476075
 11
74.698647
 21
-3.658275
  0
LINE
  8
型材断面
  6
CONTINUOUS
 62
    47
 10
74.698647
 20
-11.358275
 11
74.698647
 21
-3.658275
  0
ARC
  8
型材断面
  6
CONTINUOUS
 62
    47
 10
30.898647
 20
-2.35827
 40
0.2
 50
323.914192
 51
450.0
  0
LINE
  8
型材断面
  6
CONTINUOUS
 62
    47
 10
30.198647
 20
-2.158275
 11
30.198647
 21
4.841725
  0
LINE
  8
型材断面
  6
CONTINUOUS
 62
    47
 10
30.898647
 20
-2.158275
 11
30.198647
 21
-2.158275
  0
LINE
  8
型材断面
  6
CONTINUOUS
 62
    47
 10
31.060275
 20
-2.476075
 11
30.198647
 21
-3.658275
  0
LINE
  8
型材断面
  6
CONTINUOUS
 62
    47
 10
30.198647
 20
-11.358275
 11
30.198647
 21
-3.658275
  0
ENDBLK
  0
BLOCK
  2
*GRP_0057
 70
    65
 10
0.0
 20
0.0
  0
POLYLINE
  8
寸法
  6
CONTINUOUS
 66
     1
  0
VERTEX
  8
寸法
 10
-13.252373
 20
79.693245
  0
VERTEX
  8
寸法
 10
11.47035
 20
93.118245
  0
VERTEX
  8
寸法
 10
11.47035
 20
107.845522
  0
SEQEND
  0
ENDBLK
  0
BLOCK
  2
*GRP_0058
 70
    65
 10
0.0
 20
0.0
  0
LINE
  8
寸法
  6
CONTINUOUS
 10
11.47035
 20
93.118245
 11
38.633985
 21
75.609158
  0
ENDBLK
  0
BLOCK
  2
*GRP_0059
 70
    65
 10
0.0
 20
0.0
  0
INSERT
  2
*GRP_0060
  8
補助線
  6
DOT
 10
0.0
 20
0.0
  0
INSERT
  2
*GRP_0061
  8
補助線
  6
DOT
 10
0.0
 20
0.0
  0
LINE
  8
St
  6
CONTINUOUS
 62
   127
 10
-35.80128
 20
10.59174
 11
-17.301292
 21
10.59174
  0
LINE
  8
St
  6
CONTINUOUS
 62
   127
 10
-39.0513
 20
-7.408275
 11
-39.0513
 21
-13.208265
  0
LINE
  8
St
  6
CONTINUOUS
 62
   127
 10
-39.0513
 20
-13.208265
 11
-14.051295
 21
-13.208265
  0
LINE
  8
St
  6
CONTINUOUS
 62
   127
 10
-14.051295
 20
-7.408275
 11
-14.051295
 21
-13.208265
  0
LINE
  8
St
  6
CONTINUOUS
 62
   127
 10
-39.0513
 20
-7.408275
 11
-14.051295
 21
-7.408275
  0
LINE
  8
St
  6
CONTINUOUS
 62
   127
 10
-18.77787
 20
2.089432
 11
-34.324867
 21
2.089432
  0
LINE
  8
St
  6
CONTINUOUS
 62
   127
 10
-18.77787
 20
3.089482
 11
-34.324867
 21
3.089482
  0
LINE
  8
St
  6
CONTINUOUS
 62
   127
 10
-34.324867
 20
3.089482
 11
-34.324867
 21
2.089432
  0
LINE
  8
St
  6
CONTINUOUS
 62
   127
 10
-18.77787
 20
3.089482
 11
-18.77787
 21
2.089432
  0
LINE
  8
St
  6
CONTINUOUS
 62
   127
 10
-31.362562
 20
7.089473
 11
-32.324752
 21
6.739245
  0
LINE
  8
St
  6
CONTINUOUS
 62
   127
 10
-21.740017
 20
7.089473
 11
-20.777827
 21
6.739245
  0
LINE
  8
St
  6
CONTINUOUS
 62
   127
 10
-31.362562
 20
7.089473
 11
-21.740017
 21
7.089473
  0
LINE
  8
St
  6
CONTINUOUS
 62
   127
 10
-20.777827
 20
6.739245
 11
-20.777827
 21
3.089482
  0
LINE
  8
St
  6
CONTINUOUS
 62
   127
 10
-23.664555
 20
6.739245
 11
-23.664555
 21
3.089482
  0
LINE
  8
St
  6
CONTINUOUS
 62
   127
 10
-32.324752
 20
6.739245
 11
-32.324752
 21
3.089482
  0
LINE
  8
St
  6
CONTINUOUS
 62
   127
 10
-29.438025
 20
6.739245
 11
-29.438025
 21
3.089482
  0
LINE
  8
St
  6
CONTINUOUS
 62
   127
 10
-20.777827
 20
3.089482
 11
-32.324752
 21
3.089482
  0
LINE
  8
St
  6
CONTINUOUS
 62
   127
 10
-26.55129
 20
-6.910523
 11
-21.801338
 21
-6.910523
  0
LINE
  8
St
  6
CONTINUOUS
 62
   127
 10
-21.801338
 20
-6.910523
 11
-22.301213
 21
-7.410473
  0
LINE
  8
St
  6
CONTINUOUS
 62
   127
 10
-26.55129
 20
-7.410473
 11
-22.301213
 21
-7.410473
  0
LINE
  8
St
  6
CONTINUOUS
 62
   127
 10
-21.801338
 20
-6.410573
 11
-21.801338
 21
-6.910523
  0
LINE
  8
St
  6
CONTINUOUS
 62
   127
 10
-9.051405
 20
-0.461025
 11
-26.55129
 21
-0.461025
  0
LINE
  8
St
  6
CONTINUOUS
 62
   127
 10
-9.051405
 20
-5.36004
 11
-26.55129
 21
-5.36004
  0
LINE
  8
St
  6
CONTINUOUS
 62
   127
 10
-26.55129
 20
1.089458
 11
-21.801338
 21
1.089458
  0
LINE
  8
St
  6
CONTINUOUS
 62
   127
 10
-21.801338
 20
1.089458
 11
-22.301213
 21
1.589482
  0
LINE
  8
St
  6
CONTINUOUS
 62
   127
 10
-26.55129
 20
1.589482
 11
-22.301213
 21
1.589482
  0
LINE
  8
St
  6
CONTINUOUS
 62
   127
 10
-21.801338
 20
0.5895
 11
-21.801338
 21
1.089458
  0
LINE
  8
St
  6
CONTINUOUS
 62
   127
 10
-9.051405
 20
-5.36004
 11
-9.051405
 21
-5.910548
  0
LINE
  8
St
  6
CONTINUOUS
 62
   127
 10
-9.55128
 20
-6.410573
 11
-26.55129
 21
-6.410573
  0
LINE
  8
St
  6
CONTINUOUS
 62
   127
 10
-9.051405
 20
-0.461025
 11
-9.051405
 21
0.089475
  0
LINE
  8
St
  6
CONTINUOUS
 62
   127
 10
-9.55128
 20
0.5895
 11
-26.55129
 21
0.5895
  0
LINE
  8
St
  6
CONTINUOUS
 62
   127
 10
-26.55129
 20
-6.910523
 11
-31.301242
 21
-6.910523
  0
LINE
  8
St
  6
CONTINUOUS
 62
   127
 10
-31.301242
 20
-6.910523
 11
-30.801368
 21
-7.410473
  0
LINE
  8
St
  6
CONTINUOUS
 62
   127
 10
-26.55129
 20
-7.410473
 11
-30.801368
 21
-7.410473
  0
LINE
  8
St
  6
CONTINUOUS
 62
   127
 10
-31.301242
 20
-6.410573
 11
-31.301242
 21
-6.910523
  0
LINE
  8
St
  6
CONTINUOUS
 62
   127
 10
-44.051325
 20
-0.461025
 11
-26.55129
 21
-0.461025
  0
LINE
  8
St
  6
CONTINUOUS
 62
   127
 10
-44.051325
 20
-5.36004
 11
-26.55129
 21
-5.36004
  0
LINE
  8
St
  6
CONTINUOUS
 62
   127
 10
-26.55129
 20
1.089458
 11
-31.301242
 21
1.089458
  0
LINE
  8
St
  6
CONTINUOUS
 62
   127
 10
-31.301242
 20
1.089458
 11
-30.801368
 21
1.589482
  0
LINE
  8
St
  6
CONTINUOUS
 62
   127
 10
-26.55129
 20
1.589482
 11
-30.801368
 21
1.589482
  0
LINE
  8
St
  6
CONTINUOUS
 62
   127
 10
-31.301242
 20
0.5895
 11
-31.301242
 21
1.089458
  0
LINE
  8
St
  6
CONTINUOUS
 62
   127
 10
-44.051325
 20
-5.36004
 11
-44.051325
 21
-5.910548
  0
LINE
  8
St
  6
CONTINUOUS
 62
   127
 10
-43.551293
 20
-6.410573
 11
-26.55129
 21
-6.410573
  0
LINE
  8
St
  6
CONTINUOUS
 62
   127
 10
-44.051325
 20
-0.461025
 11
-44.051325
 21
0.089475
  0
LINE
  8
St
  6
CONTINUOUS
 62
   127
 10
-43.551293
 20
0.5895
 11
-26.55129
 21
0.5895
  0
LINE
  8
St
  6
CONTINUOUS
 62
   127
 10
-35.80128
 20
10.59174
 11
-35.80128
 21
0.5895
  0
LINE
  8
St
  6
CONTINUOUS
 62
   127
 10
-35.80128
 20
-6.410573
 11
-35.80128
 21
-7.408275
  0
LINE
  8
St
  6
CONTINUOUS
 62
   127
 10
-17.301292
 20
10.59174
 11
-17.301292
 21
0.5895
  0
LINE
  8
St
  6
CONTINUOUS
 62
   127
 10
-17.301292
 20
-6.410573
 11
-17.301292
 21
-7.408275
  0
LINE
  8
St
  6
CONTINUOUS
 62
   127
 10
-33.301275
 20
-18.642983
 11
-33.301275
 21
-18.051225
  0
LINE
  8
St
  6
CONTINUOUS
 62
   127
 10
-19.801282
 20
-18.642983
 11
-19.801282
 21
-18.051225
  0
LINE
  8
St
  6
CONTINUOUS
 62
   127
 10
43.19982
 20
10.59174
 11
61.699807
 21
10.59174
  0
LINE
  8
St
  6
CONTINUOUS
 62
   127
 10
47.449792
 20
48.99624
 11
47.449792
 21
38.596245
  0
LINE
  8
St
  6
CONTINUOUS
 62
   127
 10
48.199785
 20
49.746233
 11
48.199785
 21
38.596245
  0
LINE
  8
St
  6
CONTINUOUS
 62
   127
 10
56.4498
 20
49.996268
 11
48.449798
 21
49.996268
  0
LINE
  8
St
  6
CONTINUOUS
 62
   127
 10
57.449805
 20
48.99624
 11
47.449792
 21
48.99624
  0
LINE
  8
St
  6
CONTINUOUS
 62
   127
 10
56.699813
 20
49.746233
 11
56.699813
 21
38.596245
  0
LINE
  8
St
  6
CONTINUOUS
 62
   127
 10
57.449805
 20
48.99624
 11
57.449805
 21
38.596245
  0
LINE
  8
St
  6
CONTINUOUS
 62
   127
 10
57.449805
 20
48.99624
 11
56.4498
 21
49.996268
  0
LINE
  8
St
  6
CONTINUOUS
 62
   127
 10
47.449792
 20
48.99624
 11
48.449798
 21
49.996268
  0
LINE
  8
St
  6
CONTINUOUS
 62
   127
 10
39.949792
 20
-7.408275
 11
39.949792
 21
-13.208265
  0
LINE
  8
St
  6
CONTINUOUS
 62
   127
 10
39.949792
 20
-13.208265
 11
64.949805
 21
-13.208265
  0
LINE
  8
St
  6
CONTINUOUS
 62
   127
 10
64.949805
 20
-7.408275
 11
64.949805
 21
-13.208265
  0
LINE
  8
St
  6
CONTINUOUS
 62
   127
 10
39.949792
 20
-7.408275
 11
64.949805
 21
-7.408275
  0
LINE
  8
St
  6
CONTINUOUS
 62
   127
 10
60.22323
 20
2.089432
 11
44.67624
 21
2.089432
  0
LINE
  8
St
  6
CONTINUOUS
 62
   127
 10
60.22323
 20
3.089482
 11
44.67624
 21
3.089482
  0
LINE
  8
St
  6
CONTINUOUS
 62
   127
 10
44.67624
 20
3.089482
 11
44.67624
 21
2.089432
  0
LINE
  8
St
  6
CONTINUOUS
 62
   127
 10
60.22323
 20
3.089482
 11
60.22323
 21
2.089432
  0
LINE
  8
St
  6
CONTINUOUS
 62
   127
 10
47.638545
 20
7.089473
 11
46.676347
 21
6.739245
  0
LINE
  8
St
  6
CONTINUOUS
 62
   127
 10
57.261082
 20
7.089473
 11
58.22328
 21
6.739245
  0
LINE
  8
St
  6
CONTINUOUS
 62
   127
 10
47.638545
 20
7.089473
 11
57.261082
 21
7.089473
  0
LINE
  8
St
  6
CONTINUOUS
 62
   127
 10
58.22328
 20
6.739245
 11
58.22328
 21
3.089482
  0
LINE
  8
St
  6
CONTINUOUS
 62
   127
 10
55.336545
 20
6.739245
 11
55.336545
 21
3.089482
  0
LINE
  8
St
  6
CONTINUOUS
 62
   127
 10
46.676347
 20
6.739245
 11
46.676347
 21
3.089482
  0
LINE
  8
St
  6
CONTINUOUS
 62
   127
 10
49.563083
 20
6.739245
 11
49.563083
 21
3.089482
  0
LINE
  8
St
  6
CONTINUOUS
 62
   127
 10
58.22328
 20
3.089482
 11
46.676347
 21
3.089482
  0
LINE
  8
St
  6
CONTINUOUS
 62
   127
 10
52.44981
 20
-6.910523
 11
57.19977
 21
-6.910523
  0
LINE
  8
St
  6
CONTINUOUS
 62
   127
 10
57.19977
 20
-6.910523
 11
56.699887
 21
-7.410473
  0
LINE
  8
St
  6
CONTINUOUS
 62
   127
 10
52.44981
 20
-7.410473
 11
56.699887
 21
-7.410473
  0
LINE
  8
St
  6
CONTINUOUS
 62
   127
 10
57.19977
 20
-6.410573
 11
57.19977
 21
-6.910523
  0
LINE
  8
St
  6
CONTINUOUS
 62
   127
 10
69.949695
 20
-0.461025
 11
52.44981
 21
-0.461025
  0
LINE
  8
St
  6
CONTINUOUS
 62
   127
 10
69.949695
 20
-5.36004
 11
52.44981
 21
-5.36004
  0
LINE
  8
St
  6
CONTINUOUS
 62
   127
 10
52.44981
 20
1.089458
 11
57.19977
 21
1.089458
  0
LINE
  8
St
  6
CONTINUOUS
 62
   127
 10
57.19977
 20
1.089458
 11
56.699887
 21
1.589482
  0
LINE
  8
St
  6
CONTINUOUS
 62
   127
 10
52.44981
 20
1.589482
 11
56.699887
 21
1.589482
  0
LINE
  8
St
  6
CONTINUOUS
 62
   127
 10
57.19977
 20
0.5895
 11
57.19977
 21
1.089458
  0
LINE
  8
St
  6
CONTINUOUS
 62
   127
 10
69.949695
 20
-5.36004
 11
69.949695
 21
-5.910548
  0
LINE
  8
St
  6
CONTINUOUS
 62
   127
 10
69.44982
 20
-6.410573
 11
52.44981
 21
-6.410573
  0
LINE
  8
St
  6
CONTINUOUS
 62
   127
 10
69.949695
 20
-0.461025
 11
69.949695
 21
0.089475
  0
LINE
  8
St
  6
CONTINUOUS
 62
   127
 10
69.44982
 20
0.5895
 11
52.44981
 21
0.5895
  0
LINE
  8
St
  6
CONTINUOUS
 62
   127
 10
52.44981
 20
-6.910523
 11
47.699857
 21
-6.910523
  0
LINE
  8
St
  6
CONTINUOUS
 62
   127
 10
47.699857
 20
-6.910523
 11
48.19974
 21
-7.410473
  0
LINE
  8
St
  6
CONTINUOUS
 62
   127
 10
52.44981
 20
-7.410473
 11
48.19974
 21
-7.410473
  0
LINE
  8
St
  6
CONTINUOUS
 62
   127
 10
47.699857
 20
-6.410573
 11
47.699857
 21
-6.910523
  0
LINE
  8
St
  6
CONTINUOUS
 62
   127
 10
34.949783
 20
-0.461025
 11
52.44981
 21
-0.461025
  0
LINE
  8
St
  6
CONTINUOUS
 62
   127
 10
34.949783
 20
-5.36004
 11
52.44981
 21
-5.36004
  0
LINE
  8
St
  6
CONTINUOUS
 62
   127
 10
52.44981
 20
1.089458
 11
47.699857
 21
1.089458
  0
LINE
  8
St
  6
CONTINUOUS
 62
   127
 10
47.699857
 20
1.089458
 11
48.19974
 21
1.589482
  0
LINE
  8
St
  6
CONTINUOUS
 62
   127
 10
52.44981
 20
1.589482
 11
48.19974
 21
1.589482
  0
LINE
  8
St
  6
CONTINUOUS
 62
   127
 10
47.699857
 20
0.5895
 11
47.699857
 21
1.089458
  0
LINE
  8
St
  6
CONTINUOUS
 62
   127
 10
34.949783
 20
-5.36004
 11
34.949783
 21
-5.910548
  0
LINE
  8
St
  6
CONTINUOUS
 62
   127
 10
35.449807
 20
-6.410573
 11
52.44981
 21
-6.410573
  0
LINE
  8
St
  6
CONTINUOUS
 62
   127
 10
34.949783
 20
-0.461025
 11
34.949783
 21
0.089475
  0
LINE
  8
St
  6
CONTINUOUS
 62
   127
 10
35.449807
 20
0.5895
 11
52.44981
 21
0.5895
  0
LINE
  8
St
  6
CONTINUOUS
 62
   127
 10
43.19982
 20
10.59174
 11
43.19982
 21
0.5895
  0
LINE
  8
St
  6
CONTINUOUS
 62
   127
 10
43.19982
 20
-6.410573
 11
43.19982
 21
-7.408275
  0
LINE
  8
St
  6
CONTINUOUS
 62
   127
 10
61.699807
 20
10.59174
 11
61.699807
 21
0.5895
  0
LINE
  8
St
  6
CONTINUOUS
 62
   127
 10
61.699807
 20
-6.410573
 11
61.699807
 21
-7.408275
  0
LINE
  8
St
  6
CONTINUOUS
 62
   127
 10
45.699825
 20
-18.642983
 11
45.699825
 21
-18.051225
  0
LINE
  8
St
  6
CONTINUOUS
 62
   127
 10
59.199825
 20
-18.642983
 11
59.199825
 21
-18.051225
  0
LINE
  8
St
  6
CONTINUOUS
 62
   127
 10
-33.201285
 20
-18.588472
 11
-33.201285
 21
-13.208265
  0
LINE
  8
St
  6
CONTINUOUS
 62
   127
 10
-19.901295
 20
-18.588472
 11
-19.901295
 21
-13.208265
  0
LINE
  8
St
  6
CONTINUOUS
 62
   127
 10
45.799815
 20
-18.588472
 11
45.799815
 21
-13.208265
  0
LINE
  8
St
  6
CONTINUOUS
 62
   127
 10
59.099805
 20
-18.588472
 11
59.099805
 21
-13.208265
  0
LINE
  8
St
  6
CONTINUOUS
 62
   127
 10
-6.551077
 20
16.09173
 11
-6.551077
 21
13.591748
  0
LINE
  8
St
  6
CONTINUOUS
 62
   127
 10
-46.55106
 20
13.591748
 11
-6.551077
 21
13.591748
  0
LINE
  8
St
  6
CONTINUOUS
 62
   127
 10
-46.55106
 20
16.09173
 11
-46.55106
 21
13.591748
  0
LINE
  8
St
  6
CONTINUOUS
 62
   127
 10
-16.55106
 20
16.09173
 11
-16.55106
 21
36.091763
  0
LINE
  8
St
  6
DOT
 62
   127
 10
-19.551068
 20
16.09173
 11
-19.551068
 21
36.091763
  0
LINE
  8
St
  6
CONTINUOUS
 62
   127
 10
-36.551077
 20
16.09173
 11
-36.551077
 21
36.091763
  0
LINE
  8
St
  6
DOT
 62
   127
 10
-33.551092
 20
16.09173
 11
-33.551092
 21
36.091763
  0
LINE
  8
St
  6
CONTINUOUS
 62
   127
 10
-14.051077
 20
14.591887
 11
-9.051083
 21
14.591887
  0
LINE
  8
St
  6
CONTINUOUS
 62
   127
 10
-9.75819
 20
14.591887
 11
-9.75819
 21
23.091892
  0
LINE
  8
St
  6
CONTINUOUS
 62
   127
 10
-13.343933
 20
14.591887
 11
-13.343933
 21
23.091892
  0
LINE
  8
St
  6
CONTINUOUS
 62
   127
 10
-14.051077
 20
22.384778
 11
-9.051083
 21
22.384778
  0
LINE
  8
St
  6
CONTINUOUS
 62
   127
 10
-9.051083
 20
22.384778
 11
-9.75819
 21
23.091892
  0
LINE
  8
St
  6
CONTINUOUS
 62
   127
 10
-9.051083
 20
14.591887
 11
-9.051083
 21
22.384778
  0
LINE
  8
St
  6
CONTINUOUS
 62
   127
 10
-14.051077
 20
14.591887
 11
-14.051077
 21
22.384778
  0
LINE
  8
St
  6
CONTINUOUS
 62
   127
 10
-14.051077
 20
22.384778
 11
-13.343933
 21
23.091892
  0
LINE
  8
St
  6
CONTINUOUS
 62
   127
 10
-13.343933
 20
23.091892
 11
-9.75819
 21
23.091892
  0
LINE
  8
St
  6
CONTINUOUS
 62
   127
 10
-39.051083
 20
14.591887
 11
-44.051077
 21
14.591887
  0
LINE
  8
St
  6
CONTINUOUS
 62
   127
 10
-43.343933
 20
14.591887
 11
-43.343933
 21
23.091892
  0
LINE
  8
St
  6
CONTINUOUS
 62
   127
 10
-39.75819
 20
14.591887
 11
-39.75819
 21
23.091892
  0
LINE
  8
St
  6
CONTINUOUS
 62
   127
 10
-39.051083
 20
22.384778
 11
-44.051077
 21
22.384778
  0
LINE
  8
St
  6
CONTINUOUS
 62
   127
 10
-44.051077
 20
22.384778
 11
-43.343933
 21
23.091892
  0
LINE
  8
St
  6
CONTINUOUS
 62
   127
 10
-44.051077
 20
14.591887
 11
-44.051077
 21
22.384778
  0
LINE
  8
St
  6
CONTINUOUS
 62
   127
 10
-39.051083
 20
14.591887
 11
-39.051083
 21
22.384778
  0
LINE
  8
St
  6
CONTINUOUS
 62
   127
 10
-39.051083
 20
22.384778
 11
-39.75819
 21
23.091892
  0
LINE
  8
St
  6
CONTINUOUS
 62
   127
 10
-39.75819
 20
23.091892
 11
-43.343933
 21
23.091892
  0
LINE
  8
St
  6
CONTINUOUS
 62
   127
 10
72.44979
 20
45.384637
 11
71.742683
 21
46.091745
  0
LINE
  8
St
  6
CONTINUOUS
 62
   127
 10
67.449825
 20
45.384637
 11
68.156933
 21
46.091745
  0
LINE
  8
St
  6
CONTINUOUS
 62
   127
 10
65.949818
 20
26.09175
 11
73.949798
 21
26.09175
  0
LINE
  8
St
  6
CONTINUOUS
 62
   127
 10
65.949818
 20
26.09175
 11
65.949818
 21
31.091745
  0
LINE
  8
St
  6
CONTINUOUS
 62
   127
 10
73.949798
 20
26.09175
 11
73.949798
 21
31.091745
  0
LINE
  8
St
  6
CONTINUOUS
 62
   127
 10
37.449787
 20
45.384637
 11
32.449822
 21
45.384637
  0
LINE
  8
St
  6
CONTINUOUS
 62
   127
 10
32.449822
 20
45.384637
 11
33.15693
 21
46.091745
  0
LINE
  8
St
  6
CONTINUOUS
 62
   127
 10
37.449787
 20
45.384637
 11
36.74268
 21
46.091745
  0
LINE
  8
St
  6
CONTINUOUS
 62
   127
 10
36.74268
 20
46.091745
 11
33.15693
 21
46.091745
  0
LINE
  8
St
  6
CONTINUOUS
 62
   127
 10
38.949795
 20
26.09175
 11
30.949815
 21
26.09175
  0
LINE
  8
St
  6
CONTINUOUS
 62
   127
 10
38.949795
 20
26.09175
 11
38.949795
 21
31.091745
  0
LINE
  8
St
  6
CONTINUOUS
 62
   127
 10
30.949815
 20
26.09175
 11
30.949815
 21
31.091745
  0
LINE
  8
St
  6
DOT
 62
   127
 10
64.95003
 20
58.391753
 11
64.95003
 21
61.091745
  0
LINE
  8
St
  6
DOT
 62
   127
 10
39.95004
 20
58.391753
 11
39.95004
 21
61.091745
  0
LINE
  8
St
  6
CONTINUOUS
 62
   127
 10
45.54978
 20
38.591745
 11
59.349795
 21
38.591745
  0
LINE
  8
St
  6
DOT
 62
   127
 10
63.950048
 20
41.09175
 11
63.950048
 21
43.791742
  0
LINE
  8
St
  6
DOT
 62
   127
 10
40.950022
 20
41.09175
 11
40.950022
 21
43.791742
  0
LINE
  8
St
  6
DOT
 62
   127
 10
-16.55106
 20
16.091715
 11
-16.55106
 21
18.79173
  0
LINE
  8
St
  6
DOT
 62
   127
 10
-16.55106
 20
33.391748
 11
-16.55106
 21
36.091733
  0
LINE
  8
St
  6
DOT
 62
   127
 10
-36.551077
 20
16.091715
 11
-36.551077
 21
18.79173
  0
LINE
  8
St
  6
DOT
 62
   127
 10
-36.551077
 20
33.391748
 11
-36.551077
 21
36.091733
  0
LINE
  8
St
  6
CONTINUOUS
 62
   127
 10
-6.551077
 20
16.09173
 11
-46.55106
 21
16.09173
  0
LINE
  8
St
  6
CONTINUOUS
 62
   127
 10
-36.551077
 20
36.091763
 11
-16.55106
 21
36.091763
  0
LINE
  8
St
  6
CONTINUOUS
 62
   127
 10
40.44981
 20
11.091742
 11
40.44981
 21
13.591748
  0
LINE
  8
St
  6
CONTINUOUS
 62
   127
 10
64.449818
 20
13.591748
 11
40.44981
 21
13.591748
  0
LINE
  8
St
  6
CONTINUOUS
 62
   127
 10
64.449818
 20
11.091742
 11
64.449818
 21
13.591748
  0
LINE
  8
St
  6
CONTINUOUS
 62
   127
 10
64.449818
 20
11.091742
 11
40.44981
 21
11.091742
  0
LINE
  8
St
  6
DOT
 62
   127
 10
59.94981
 20
11.091742
 11
59.94981
 21
13.591748
  0
LINE
  8
St
  6
DOT
 62
   127
 10
44.94981
 20
11.091742
 11
44.94981
 21
13.591748
  0
LINE
  8
St
  6
CONTINUOUS
 62
   127
 10
-38.55129
 20
11.091742
 11
-38.55129
 21
13.591748
  0
LINE
  8
St
  6
CONTINUOUS
 62
   127
 10
-14.55129
 20
13.591748
 11
-38.55129
 21
13.591748
  0
LINE
  8
St
  6
CONTINUOUS
 62
   127
 10
-14.55129
 20
11.091742
 11
-14.55129
 21
13.591748
  0
LINE
  8
St
  6
CONTINUOUS
 62
   127
 10
-14.55129
 20
11.091742
 11
-38.55129
 21
11.091742
  0
LINE
  8
St
  6
DOT
 62
   127
 10
-19.05129
 20
11.091742
 11
-19.05129
 21
13.591748
  0
LINE
  8
St
  6
DOT
 62
   127
 10
-34.05129
 20
11.091742
 11
-34.05129
 21
13.591748
  0
LINE
  8
St
  6
CONTINUOUS
 62
   127
 10
-38.55129
 20
36.091733
 11
-38.55129
 21
38.591745
  0
LINE
  8
St
  6
CONTINUOUS
 62
   127
 10
-14.55129
 20
38.591745
 11
-38.55129
 21
38.591745
  0
LINE
  8
St
  6
CONTINUOUS
 62
   127
 10
-14.55129
 20
36.091733
 11
-14.55129
 21
38.591745
  0
LINE
  8
St
  6
CONTINUOUS
 62
   127
 10
-14.55129
 20
36.091733
 11
-38.55129
 21
36.091733
  0
LINE
  8
St
  6
DOT
 62
   127
 10
-19.05129
 20
36.091733
 11
-19.05129
 21
38.591745
  0
LINE
  8
St
  6
DOT
 62
   127
 10
-34.05129
 20
36.091733
 11
-34.05129
 21
38.591745
  0
LINE
  8
St
  6
CONTINUOUS
 62
   127
 10
-37.551285
 20
38.596245
 11
-37.551285
 21
40.096253
  0
LINE
  8
St
  6
CONTINUOUS
 62
   127
 10
-15.551288
 20
40.096253
 11
-37.551285
 21
40.096253
  0
LINE
  8
St
  6
CONTINUOUS
 62
   127
 10
-15.551288
 20
38.596245
 11
-15.551288
 21
40.096253
  0
LINE
  8
St
  6
CONTINUOUS
 62
   127
 10
-15.551288
 20
38.596245
 11
-37.551285
 21
38.596245
  0
LINE
  8
St
  6
DOT
 62
   127
 10
-31.80129
 20
38.596245
 11
-31.80129
 21
40.096253
  0
LINE
  8
St
  6
DOT
 62
   127
 10
-21.301297
 20
38.596245
 11
-21.301297
 21
40.096253
  0
LINE
  8
St
  6
DASHDOTX2
 62
   127
 10
-26.55129
 20
-30.908273
 11
-26.55129
 21
49.996268
  0
LINE
  8
St
  6
DASHDOTX2
 62
   127
 10
52.44981
 20
-30.908273
 11
52.44981
 21
49.996268
  0
LINE
  8
St
  6
CONTINUOUS
 62
   127
 10
62.249813
 20
45.88461
 11
61.542705
 21
46.591748
  0
LINE
  8
St
  6
CONTINUOUS
 62
   127
 10
43.356915
 20
46.591748
 11
42.649807
 21
45.88461
  0
LINE
  8
St
  6
CONTINUOUS
 62
   127
 10
48.010455
 20
45.88461
 11
47.30337
 21
46.591748
  0
LINE
  8
St
  6
CONTINUOUS
 62
   127
 10
56.949803
 20
45.88461
 11
56.242703
 21
46.591748
  0
LINE
  8
St
  6
CONTINUOUS
 62
   127
 10
48.010455
 20
45.88461
 11
48.717592
 21
46.591748
  0
LINE
  8
St
  6
CONTINUOUS
 62
   127
 10
56.949803
 20
45.88461
 11
56.242703
 21
46.591748
  0
LINE
  8
St
  6
CONTINUOUS
 62
   127
 10
56.949803
 20
45.88461
 11
57.65691
 21
46.591748
  0
LINE
  8
St
  6
CONTINUOUS
 62
   127
 10
45.199815
 20
47.09175
 11
45.199815
 21
48.512025
  0
LINE
  8
St
  6
CONTINUOUS
 62
   127
 10
44.699813
 20
46.591748
 11
43.356915
 21
46.591748
  0
LINE
  8
St
  6
CONTINUOUS
 62
   127
 10
59.699813
 20
47.09175
 11
59.699813
 21
48.512025
  0
LINE
  8
St
  6
CONTINUOUS
 62
   127
 10
60.199815
 20
46.591748
 11
61.542705
 21
46.591748
  0
LINE
  8
St
  6
CONTINUOUS
 62
   127
 10
60.199815
 20
46.591748
 11
44.699813
 21
46.591748
  0
LINE
  8
St
  6
CONTINUOUS
 62
   127
 10
43.356915
 20
38.591745
 11
42.649807
 21
39.298853
  0
LINE
  8
St
  6
CONTINUOUS
 62
   127
 10
42.649807
 20
45.88461
 11
42.649807
 21
39.298853
  0
LINE
  8
St
  6
CONTINUOUS
 62
   127
 10
62.249813
 20
45.88461
 11
62.249813
 21
39.298853
  0
LINE
  8
St
  6
CONTINUOUS
 62
   127
 10
61.542705
 20
38.591745
 11
62.249813
 21
39.298853
  0
LINE
  8
St
  6
CONTINUOUS
 62
   127
 10
43.356915
 20
38.591745
 11
61.542705
 21
38.591745
  0
LINE
  8
St
  6
CONTINUOUS
 62
   127
 10
48.010455
 20
39.298853
 11
47.30337
 21
38.591715
  0
LINE
  8
St
  6
CONTINUOUS
 62
   127
 10
56.949803
 20
39.298853
 11
56.242703
 21
38.591715
  0
LINE
  8
St
  6
CONTINUOUS
 62
   127
 10
48.010455
 20
39.298853
 11
48.717592
 21
38.591715
  0
LINE
  8
St
  6
CONTINUOUS
 62
   127
 10
56.949803
 20
39.298853
 11
56.242703
 21
38.591715
  0
LINE
  8
St
  6
CONTINUOUS
 62
   127
 10
56.949803
 20
39.298853
 11
57.65691
 21
38.591715
  0
LINE
  8
St
  6
CONTINUOUS
 62
   127
 10
48.010455
 20
45.88461
 11
48.010455
 21
39.298853
  0
LINE
  8
St
  6
CONTINUOUS
 62
   127
 10
56.949803
 20
45.88461
 11
56.949803
 21
39.298853
  0
LINE
  8
St
  6
DASHDOTX2
 62
   127
 10
52.44981
 20
54.091748
 11
52.44981
 21
38.591745
  0
LINE
  8
St
  6
CONTINUOUS
 62
   127
 10
-16.751288
 20
47.384618
 11
-17.458395
 21
48.091748
  0
LINE
  8
St
  6
CONTINUOUS
 62
   127
 10
-35.644185
 20
48.091748
 11
-36.351293
 21
47.384618
  0
LINE
  8
St
  6
CONTINUOUS
 62
   127
 10
-30.990645
 20
47.384618
 11
-31.69773
 21
48.091748
  0
LINE
  8
St
  6
CONTINUOUS
 62
   127
 10
-22.051297
 20
47.384618
 11
-22.758397
 21
48.091748
  0
LINE
  8
St
  6
CONTINUOUS
 62
   127
 10
-30.990645
 20
47.384618
 11
-30.283507
 21
48.091748
  0
LINE
  8
St
  6
CONTINUOUS
 62
   127
 10
-22.051297
 20
47.384618
 11
-22.758397
 21
48.091748
  0
LINE
  8
St
  6
CONTINUOUS
 62
   127
 10
-22.051297
 20
47.384618
 11
-21.34419
 21
48.091748
  0
LINE
  8
St
  6
CONTINUOUS
 62
   127
 10
-33.801285
 20
48.59175
 11
-33.801285
 21
50.012032
  0
LINE
  8
St
  6
CONTINUOUS
 62
   127
 10
-34.301288
 20
48.091748
 11
-35.644185
 21
48.091748
  0
LINE
  8
St
  6
CONTINUOUS
 62
   127
 10
-19.301288
 20
48.59175
 11
-19.301288
 21
50.012032
  0
LINE
  8
St
  6
CONTINUOUS
 62
   127
 10
-18.801285
 20
48.091748
 11
-17.458395
 21
48.091748
  0
LINE
  8
St
  6
CONTINUOUS
 62
   127
 10
-18.801285
 20
48.091748
 11
-34.301288
 21
48.091748
  0
LINE
  8
St
  6
CONTINUOUS
 62
   127
 10
-35.644185
 20
40.091745
 11
-36.351293
 21
40.79886
  0
LINE
  8
St
  6
CONTINUOUS
 62
   127
 10
-36.351293
 20
47.384618
 11
-36.351293
 21
40.79886
  0
LINE
  8
St
  6
CONTINUOUS
 62
   127
 10
-16.751288
 20
47.384618
 11
-16.751288
 21
40.79886
  0
LINE
  8
St
  6
CONTINUOUS
 62
   127
 10
-17.458395
 20
40.091745
 11
-16.751288
 21
40.79886
  0
LINE
  8
St
  6
CONTINUOUS
 62
   127
 10
-35.644185
 20
40.091745
 11
-17.458395
 21
40.091745
  0
LINE
  8
St
  6
CONTINUOUS
 62
   127
 10
-30.990645
 20
40.79886
 11
-31.69773
 21
40.091722
  0
LINE
  8
St
  6
CONTINUOUS
 62
   127
 10
-22.051297
 20
40.79886
 11
-22.758397
 21
40.091722
  0
LINE
  8
St
  6
CONTINUOUS
 62
   127
 10
-30.990645
 20
40.79886
 11
-30.283507
 21
40.091722
  0
LINE
  8
St
  6
CONTINUOUS
 62
   127
 10
-22.051297
 20
40.79886
 11
-22.758397
 21
40.091722
  0
LINE
  8
St
  6
CONTINUOUS
 62
   127
 10
-22.051297
 20
40.79886
 11
-21.34419
 21
40.091722
  0
LINE
  8
St
  6
CONTINUOUS
 62
   127
 10
-30.990645
 20
47.384618
 11
-30.990645
 21
40.79886
  0
LINE
  8
St
  6
CONTINUOUS
 62
   127
 10
-22.051297
 20
47.384618
 11
-22.051297
 21
40.79886
  0
LINE
  8
St
  6
DASHDOTX2
 62
   127
 10
-26.55129
 20
55.591748
 11
-26.55129
 21
40.091745
  0
LINE
  8
St
  6
CONTINUOUS
 62
   127
 10
73.949798
 20
31.091745
 11
65.949818
 21
31.091745
  0
LINE
  8
St
  6
CONTINUOUS
 62
   127
 10
38.949795
 20
31.091745
 11
30.949815
 21
31.091745
  0
LINE
  8
St
  6
CONTINUOUS
 62
   127
 10
-38.050882
 20
13.59171
 11
-39.051083
 21
14.591887
  0
LINE
  8
St
  6
CONTINUOUS
 62
   127
 10
-38.050882
 20
13.59171
 11
-45.051255
 21
13.59171
  0
LINE
  8
St
  6
CONTINUOUS
 62
   127
 10
-45.051255
 20
13.59171
 11
-44.051077
 21
14.591887
  0
LINE
  8
St
  6
CONTINUOUS
 62
   127
 10
-8.050897
 20
13.59171
 11
-9.051083
 21
14.591887
  0
LINE
  8
St
  6
CONTINUOUS
 62
   127
 10
-15.051278
 20
13.59171
 11
-8.050897
 21
13.59171
  0
LINE
  8
St
  6
CONTINUOUS
 62
   127
 10
-15.051278
 20
13.59171
 11
-14.051077
 21
14.591887
  0
LINE
  8
St
  6
DASHDOT
 62
   127
 10
-11.551065
 20
13.59171
 11
-11.551065
 21
23.091892
  0
LINE
  8
St
  6
DASHDOT
 62
   127
 10
-41.55108
 20
13.59171
 11
-41.55108
 21
23.091892
  0
LINE
  8
St
  6
DOT
 62
   127
 10
41.949818
 20
38.591768
 11
62.949833
 21
38.591768
  0
LINE
  8
St
  6
DOT
 62
   127
 10
59.4498
 20
13.591748
 11
59.4498
 21
38.591768
  0
LINE
  8
St
  6
DOT
 62
   127
 10
45.449775
 20
13.591748
 11
45.449775
 21
38.591768
  0
LINE
  8
St
  6
CONTINUOUS
 62
   127
 10
74.94981
 20
31.091745
 11
74.94981
 21
41.09175
  0
LINE
  8
St
  6
CONTINUOUS
 62
   127
 10
74.94981
 20
31.091745
 11
29.94981
 21
31.091745
  0
LINE
  8
St
  6
CONTINUOUS
 62
   127
 10
29.94981
 20
31.091745
 11
29.94981
 21
41.09175
  0
LINE
  8
St
  6
CONTINUOUS
 62
   127
 10
74.94981
 20
41.09175
 11
29.94981
 21
41.09175
  0
LINE
  8
St
  6
CONTINUOUS
 62
   127
 10
34.449818
 20
13.591748
 11
70.44981
 21
13.591748
  0
LINE
  8
St
  6
CONTINUOUS
 62
   127
 10
70.44981
 20
13.591748
 11
70.44981
 21
31.091745
  0
LINE
  8
St
  6
CONTINUOUS
 62
   127
 10
34.449818
 20
13.591748
 11
34.449818
 21
31.091745
  0
LINE
  8
St
  6
DOT
 62
   127
 10
32.19981
 20
31.091745
 11
32.19981
 21
41.09175
  0
LINE
  8
St
  6
DOT
 62
   127
 10
37.699815
 20
31.091745
 11
37.699815
 21
41.09175
  0
LINE
  8
St
  6
DOT
 62
   127
 10
67.199813
 20
31.091745
 11
67.199813
 21
41.09175
  0
LINE
  8
St
  6
DOT
 62
   127
 10
72.699803
 20
31.091745
 11
72.699803
 21
41.09175
  0
LINE
  8
St
  6
DASHDOTX2
 62
   127
 10
34.949805
 20
29.091735
 11
34.949805
 21
43.09176
  0
LINE
  8
St
  6
DASHDOTX2
 62
   127
 10
69.949807
 20
29.091735
 11
69.949807
 21
43.09176
  0
LINE
  8
St
  6
DOTX2
 62
   127
 10
39.949807
 20
13.591748
 11
39.949807
 21
31.091745
  0
LINE
  8
St
  6
DOTX2
 62
   127
 10
64.949805
 20
13.591748
 11
64.949805
 21
31.091745
  0
LINE
  8
St
  6
CONTINUOUS
 62
   127
 10
32.449822
 20
31.091745
 11
32.449822
 21
45.384637
  0
LINE
  8
St
  6
CONTINUOUS
 62
   127
 10
36.74268
 20
31.091745
 11
36.74268
 21
45.384637
  0
LINE
  8
St
  6
CONTINUOUS
 62
   127
 10
37.449787
 20
31.091745
 11
37.449787
 21
45.384637
  0
LINE
  8
St
  6
CONTINUOUS
 62
   127
 10
33.15693
 20
31.091745
 11
33.15693
 21
46.091745
  0
LINE
  8
St
  6
DASHDOT
 62
   127
 10
34.949805
 20
26.09175
 11
34.949805
 21
46.091745
  0
LINE
  8
St
  6
CONTINUOUS
 62
   127
 10
67.449825
 20
31.091745
 11
67.449825
 21
45.384637
  0
LINE
  8
St
  6
CONTINUOUS
 62
   127
 10
72.44979
 20
31.091745
 11
72.44979
 21
45.384637
  0
LINE
  8
St
  6
CONTINUOUS
 62
   127
 10
67.449825
 20
45.384637
 11
72.44979
 21
45.384637
  0
LINE
  8
St
  6
CONTINUOUS
 62
   127
 10
71.742683
 20
31.091745
 11
71.742683
 21
46.091745
  0
LINE
  8
St
  6
CONTINUOUS
 62
   127
 10
68.156933
 20
31.091745
 11
68.156933
 21
46.091745
  0
LINE
  8
St
  6
CONTINUOUS
 62
   127
 10
68.156933
 20
46.091745
 11
71.742683
 21
46.091745
  0
LINE
  8
St
  6
DASHDOT
 62
   127
 10
69.949807
 20
26.09175
 11
69.949807
 21
46.091745
  0
LINE
  8
St
  6
DOT
 62
   127
 10
-33.551288
 20
7.59174
 11
-19.551292
 21
7.59174
  0
LINE
  8
St
  6
DOT
 62
   127
 10
-33.551288
 20
7.59174
 11
-33.551288
 21
10.59174
  0
LINE
  8
St
  6
DOT
 62
   127
 10
-19.551292
 20
7.59174
 11
-19.551292
 21
10.59174
  0
LINE
  8
St
  6
DOT
 62
   127
 10
-31.551285
 20
7.59174
 11
-31.551285
 21
-43.984965
  0
LINE
  8
St
  6
DOT
 62
   127
 10
-21.551295
 20
7.59174
 11
-21.551295
 21
-43.984965
  0
LINE
  8
St
  6
DOT
 62
   127
 10
45.449813
 20
7.59174
 11
59.449807
 21
7.59174
  0
LINE
  8
St
  6
DOT
 62
   127
 10
45.449813
 20
7.59174
 11
45.449813
 21
10.59174
  0
LINE
  8
St
  6
DOT
 62
   127
 10
59.449807
 20
7.59174
 11
59.449807
 21
10.59174
  0
LINE
  8
St
  6
DOT
 62
   127
 10
47.449822
 20
7.59174
 11
47.449822
 21
-43.984965
  0
LINE
  8
St
  6
DOT
 62
   127
 10
57.449805
 20
7.59174
 11
57.449805
 21
-43.984965
  0
LINE
  8
St
  6
CONTINUOUS
 62
   127
 10
45.54978
 20
7.59174
 11
45.54978
 21
38.591745
  0
LINE
  8
St
  6
CONTINUOUS
 62
   127
 10
59.349795
 20
38.591745
 11
59.349795
 21
7.59174
  0
LINE
  8
St
  6
CONTINUOUS
 62
   127
 10
45.54978
 20
7.59174
 11
59.349795
 21
7.59174
  0
LINE
  8
St
  6
CONTINUOUS
 62
   127
 10
56.4498
 20
-40.40826
 11
48.449798
 21
-40.40826
  0
LINE
  8
St
  6
CONTINUOUS
 62
   127
 10
57.449805
 20
-39.408233
 11
47.449792
 21
-39.408233
  0
LINE
  8
St
  6
CONTINUOUS
 62
   127
 10
57.449805
 20
-39.408233
 11
56.4498
 21
-40.40826
  0
LINE
  8
St
  6
CONTINUOUS
 62
   127
 10
47.449792
 20
-39.408233
 11
48.449798
 21
-40.40826
  0
LINE
  8
St
  6
CONTINUOUS
 62
   127
 10
57.44982
 20
-15.408248
 11
47.449807
 21
-15.408248
  0
LINE
  8
St
  6
CONTINUOUS
 62
   127
 10
47.449792
 20
-39.408233
 11
47.449792
 21
7.59174
  0
LINE
  8
St
  6
CONTINUOUS
 62
   127
 10
57.449805
 20
-39.408233
 11
57.449805
 21
7.59174
  0
LINE
  8
St
  6
CONTINUOUS
 62
   127
 10
56.699813
 20
-40.158217
 11
56.699813
 21
-15.408248
  0
LINE
  8
St
  6
CONTINUOUS
 62
   127
 10
48.199785
 20
-40.158217
 11
48.199785
 21
-15.408248
  0
LINE
  8
St
  6
CONTINUOUS
 62
   127
 10
-31.551307
 20
48.99624
 11
-31.551307
 21
38.596245
  0
LINE
  8
St
  6
CONTINUOUS
 62
   127
 10
-30.801315
 20
49.746233
 11
-30.801315
 21
38.596245
  0
LINE
  8
St
  6
CONTINUOUS
 62
   127
 10
-22.5513
 20
49.996268
 11
-30.551303
 21
49.996268
  0
LINE
  8
St
  6
CONTINUOUS
 62
   127
 10
-21.551295
 20
48.99624
 11
-31.551307
 21
48.99624
  0
LINE
  8
St
  6
CONTINUOUS
 62
   127
 10
-22.301288
 20
49.746233
 11
-22.301288
 21
38.596245
  0
LINE
  8
St
  6
CONTINUOUS
 62
   127
 10
-21.551295
 20
48.99624
 11
-21.551295
 21
38.596245
  0
LINE
  8
St
  6
CONTINUOUS
 62
   127
 10
-21.551295
 20
48.99624
 11
-22.5513
 21
49.996268
  0
LINE
  8
St
  6
CONTINUOUS
 62
   127
 10
-31.551307
 20
48.99624
 11
-30.551303
 21
49.996268
  0
LINE
  8
St
  6
CONTINUOUS
 62
   127
 10
-33.45132
 20
38.591745
 11
-19.651305
 21
38.591745
  0
LINE
  8
St
  6
CONTINUOUS
 62
   127
 10
-33.45132
 20
7.59174
 11
-33.45132
 21
38.591745
  0
LINE
  8
St
  6
CONTINUOUS
 62
   127
 10
-19.651305
 20
38.591745
 11
-19.651305
 21
7.59174
  0
LINE
  8
St
  6
CONTINUOUS
 62
   127
 10
-33.45132
 20
7.59174
 11
-19.651305
 21
7.59174
  0
LINE
  8
St
  6
CONTINUOUS
 62
   127
 10
-22.5513
 20
-40.40826
 11
-30.551303
 21
-40.40826
  0
LINE
  8
St
  6
CONTINUOUS
 62
   127
 10
-21.551295
 20
-39.408233
 11
-31.551307
 21
-39.408233
  0
LINE
  8
St
  6
CONTINUOUS
 62
   127
 10
-21.551295
 20
-39.408233
 11
-22.5513
 21
-40.40826
  0
LINE
  8
St
  6
CONTINUOUS
 62
   127
 10
-31.551307
 20
-39.408233
 11
-30.551303
 21
-40.40826
  0
LINE
  8
St
  6
CONTINUOUS
 62
   127
 10
-21.551288
 20
-15.408248
 11
-31.551292
 21
-15.408248
  0
LINE
  8
St
  6
CONTINUOUS
 62
   127
 10
-31.551307
 20
-39.408233
 11
-31.551307
 21
7.59174
  0
LINE
  8
St
  6
CONTINUOUS
 62
   127
 10
-21.551295
 20
-39.408233
 11
-21.551295
 21
7.59174
  0
LINE
  8
St
  6
CONTINUOUS
 62
   127
 10
-22.301288
 20
-40.158217
 11
-22.301288
 21
-15.408248
  0
LINE
  8
St
  6
CONTINUOUS
 62
   127
 10
-30.801315
 20
-40.158217
 11
-30.801315
 21
-15.408248
  0
LINE
  8
St
  6
CONTINUOUS
 62
   127
 10
64.87482
 20
41.09175
 11
64.87482
 21
44.091757
  0
LINE
  8
St
  6
DOT
 62
   127
 10
62.949833
 20
38.591768
 11
62.949833
 21
44.091757
  0
LINE
  8
St
  6
CONTINUOUS
 62
   127
 10
40.024822
 20
41.09175
 11
40.024822
 21
44.091757
  0
LINE
  8
St
  6
CONTINUOUS
 62
   127
 10
64.87482
 20
44.091757
 11
40.024822
 21
44.091757
  0
LINE
  8
St
  6
DOT
 62
   127
 10
41.949818
 20
38.591768
 11
41.949818
 21
44.091757
  0
CIRCLE
  8
St
  6
CONTINUOUS
 62
   127
 10
-26.55129
 20
-30.908273
 40
13.999995
  0
ARC
  8
St
  6
CONTINUOUS
 62
   127
 10
-30.881537
 20
3.94012
 40
3.149353
 50
62.71606
 51
89.994507
  0
ARC
  8
St
  6
CONTINUOUS
 62
   127
 10
-26.551291
 20
-4.98256
 40
12.072068
 50
76.159304
 51
103.829709
  0
ARC
  8
St
  6
CONTINUOUS
 62
   127
 10
-22.221193
 20
3.94012
 40
3.149353
 50
89.994522
 51
117.272969
  0
ARC
  8
St
  6
CONTINUOUS
 62
   127
 10
-8.551231
 20
-2.910523
 40
2.5
 50
101.531655
 51
258.460121
  0
ARC
  8
St
  6
CONTINUOUS
 62
   127
 10
-9.551284
 20
-5.910533
 40
0.5
 50
269.997253
 51
359.998627
  0
ARC
  8
St
  6
CONTINUOUS
 62
   127
 10
-9.551284
 20
0.089486
 40
0.5
 50
359.998627
 51
449.994507
  0
ARC
  8
St
  6
CONTINUOUS
 62
   127
 10
-44.55135
 20
-2.910523
 40
2.5
 50
281.534401
 51
438.457374
  0
ARC
  8
St
  6
CONTINUOUS
 62
   127
 10
-43.551297
 20
-5.910533
 40
0.5
 50
179.99588
 51
269.997253
  0
ARC
  8
St
  6
CONTINUOUS
 62
   127
 10
-43.551297
 20
0.089486
 40
0.5
 50
89.994507
 51
179.99588
  0
ARC
  8
St
  6
CONTINUOUS
 62
   127
 10
-26.551291
 20
-30.896438
 40
15.249999
 50
119.435859
 51
420.558663
  0
ARC
  8
St
  6
CONTINUOUS
 62
   127
 10
-19.301279
 20
-18.051218
 40
0.5
 50
60.558663
 51
179.99588
  0
ARC
  8
St
  6
CONTINUOUS
 62
   127
 10
-33.801284
 20
-18.051218
 40
0.5
 50
359.998642
 51
479.435874
  0
CIRCLE
  8
St
  6
CONTINUOUS
 62
   127
 10
52.44981
 20
-30.908273
 40
13.999995
  0
ARC
  8
St
  6
CONTINUOUS
 62
   127
 10
48.119565
 20
3.94012
 40
3.149353
 50
62.71606
 51
89.994507
  0
ARC
  8
St
  6
CONTINUOUS
 62
   127
 10
52.449811
 20
-4.98256
 40
12.072068
 50
76.159304
 51
103.829709
  0
ARC
  8
St
  6
CONTINUOUS
 62
   127
 10
56.779909
 20
3.94012
 40
3.149353
 50
89.994522
 51
117.272969
  0
ARC
  8
St
  6
CONTINUOUS
 62
   127
 10
70.449871
 20
-2.910523
 40
2.5
 50
101.531655
 51
258.460121
  0
ARC
  8
St
  6
CONTINUOUS
 62
   127
 10
69.449818
 20
-5.910533
 40
0.5
 50
269.997253
 51
359.998627
  0
ARC
  8
St
  6
CONTINUOUS
 62
   127
 10
69.449818
 20
0.089486
 40
0.5
 50
359.998627
 51
449.994507
  0
ARC
  8
St
  6
CONTINUOUS
 62
   127
 10
34.449752
 20
-2.910523
 40
2.5
 50
281.534401
 51
438.457374
  0
ARC
  8
St
  6
CONTINUOUS
 62
   127
 10
35.449805
 20
-5.910533
 40
0.5
 50
179.99588
 51
269.997253
  0
ARC
  8
St
  6
CONTINUOUS
 62
   127
 10
35.449805
 20
0.089486
 40
0.5
 50
89.994507
 51
179.99588
  0
ARC
  8
St
  6
CONTINUOUS
 62
   127
 10
52.449811
 20
-30.896438
 40
15.249999
 50
119.435859
 51
420.558663
  0
ARC
  8
St
  6
CONTINUOUS
 62
   127
 10
59.699823
 20
-18.051218
 40
0.5
 50
60.558663
 51
179.99588
  0
ARC
  8
St
  6
CONTINUOUS
 62
   127
 10
45.199824
 20
-18.051218
 40
0.5
 50
359.998642
 51
479.435874
  0
ARC
  8
St
  6
CONTINUOUS
 62
   127
 10
52.449811
 20
46.591755
 40
7.5
 50
14.833936
 51
165.160571
  0
ARC
  8
St
  6
CONTINUOUS
 62
   127
 10
44.69981
 20
47.091757
 40
0.5
 50
269.997253
 51
359.998627
  0
ARC
  8
St
  6
CONTINUOUS
 62
   127
 10
60.199812
 20
47.091757
 40
0.5
 50
179.99588
 51
269.997253
  0
ARC
  8
St
  6
CONTINUOUS
 62
   127
 10
-26.551291
 20
48.09176
 40
7.5
 50
14.833936
 51
165.160571
  0
ARC
  8
St
  6
CONTINUOUS
 62
   127
 10
-34.301291
 20
48.591762
 40
0.5
 50
269.997253
 51
359.998627
  0
ARC
  8
St
  6
CONTINUOUS
 62
   127
 10
-18.80129
 20
48.591762
 40
0.5
 50
179.99588
 51
269.997253
  0
ARC
  8
St
  6
CONTINUOUS
 10
72.450007
 20
56.091756
 40
5.0
 50
0.0
 51
90.0
  0
LINE
  8
St
  6
CONTINUOUS
 62
   127
 10
77.45001
 20
46.091753
 11
77.45001
 21
56.091742
  0
ARC
  8
St
  6
CONTINUOUS
 10
72.450007
 20
46.091761
 40
5.0
 50
270.0
 51
360.0
  0
LINE
  8
St
  6
CONTINUOUS
 62
   127
 10
32.450033
 20
61.091745
 11
72.450007
 21
61.091745
  0
ARC
  8
St
  6
CONTINUOUS
 10
32.450027
 20
56.091756
 40
5.0
 50
90.0
 51
180.0
  0
LINE
  8
St
  6
CONTINUOUS
 62
   127
 10
27.45003
 20
46.091753
 11
27.45003
 21
56.091742
  0
LINE
  8
St
  6
CONTINUOUS
 62
   127
 10
32.450033
 20
41.09175
 11
72.450007
 21
41.09175
  0
ARC
  8
St
  6
CONTINUOUS
 10
32.450027
 20
46.091761
 40
5.0
 50
180.0
 51
270.0
  0
ARC
  8
St
  6
CONTINUOUS
 10
32.450012
 20
46.091753
 40
2.3
 50
180.0
 51
270.0
  0
LINE
  8
St
  6
CONTINUOUS
 62
   127
 10
30.150015
 20
46.091745
 11
30.150015
 21
56.09175
  0
ARC
  8
St
  6
CONTINUOUS
 10
32.450012
 20
56.091763
 40
2.3
 50
90.0
 51
180.0
  0
LINE
  8
St
  6
CONTINUOUS
 62
   127
 10
32.450017
 20
58.391753
 11
72.45
 21
58.391753
  0
ARC
  8
St
  6
CONTINUOUS
 10
72.449999
 20
56.091763
 40
2.3
 50
0.0
 51
90.0
  0
LINE
  8
St
  6
CONTINUOUS
 62
   127
 10
74.750002
 20
46.091745
 11
74.750002
 21
56.09175
  0
LINE
  8
St
  6
CONTINUOUS
 62
   127
 10
32.450017
 20
43.791742
 11
72.45
 21
43.791742
  0
ARC
  8
St
  6
CONTINUOUS
 10
72.449999
 20
46.091753
 40
2.3
 50
270.0
 51
360.0
  0
ARC
  8
St
  6
CONTINUOUS
 10
-6.551063
 20
21.091726
 40
5.0
 50
-90.0
 51
0.0
  0
LINE
  8
St
  6
CONTINUOUS
 62
   127
 10
-1.55106
 20
21.091718
 11
-1.55106
 21
31.09173
  0
ARC
  8
St
  6
CONTINUOUS
 10
-6.551063
 20
31.091743
 40
5.0
 50
0.0
 51
90.0
  0
LINE
  8
St
  6
CONTINUOUS
 62
   127
 10
-46.551075
 20
36.091733
 11
-6.551062
 21
36.091733
  0
ARC
  8
St
  6
CONTINUOUS
 10
-46.551081
 20
31.091743
 40
5.0
 50
90.0
 51
180.0
  0
LINE
  8
St
  6
CONTINUOUS
 62
   127
 10
-51.551077
 20
21.091718
 11
-51.551077
 21
31.09173
  0
LINE
  8
St
  6
CONTINUOUS
 62
   127
 10
-46.551075
 20
16.091715
 11
-6.551062
 21
16.091715
  0
ARC
  8
St
  6
CONTINUOUS
 10
-46.551081
 20
21.091726
 40
5.0
 50
180.0
 51
270.0
  0
ARC
  8
St
  6
CONTINUOUS
 10
-46.551088
 20
21.091741
 40
2.3
 50
180.0
 51
270.0
  0
LINE
  8
St
  6
CONTINUOUS
 62
   127
 10
-48.851085
 20
21.091733
 11
-48.851085
 21
31.091745
  0
ARC
  8
St
  6
CONTINUOUS
 10
-46.551088
 20
31.091758
 40
2.3
 50
90.0
 51
180.0
  0
LINE
  8
St
  6
CONTINUOUS
 62
   127
 10
-46.551083
 20
18.79173
 11
-6.551048
 21
18.79173
  0
ARC
  8
St
  6
CONTINUOUS
 10
-6.551048
 20
21.091741
 40
2.3
 50
-90.0
 51
0.0
  0
LINE
  8
St
  6
CONTINUOUS
 62
   127
 10
-4.251045
 20
21.091733
 11
-4.251045
 21
31.091745
  0
LINE
  8
St
  6
CONTINUOUS
 62
   127
 10
-46.551083
 20
33.391748
 11
-6.551048
 21
33.391748
  0
ARC
  8
St
  6
CONTINUOUS
 10
-6.551048
 20
31.091758
 40
2.3
 50
0.0
 51
90.0
  0
LINE
  8
St
  6
DASHDOT
 10
12.94947
 20
61.091745
 11
12.94947
 21
16.09173
  0
LINE
  8
St
  6
DOT
 62
   127
 10
32.450017
 20
16.091722
 11
72.45
 21
16.091722
  0
ARC
  8
St
  6
DOT
 10
32.450002
 20
21.091718
 40
5.0
 50
180.0
 51
270.0
  0
LINE
  8
St
  6
DOT
 62
   127
 10
27.45
 20
21.09171
 11
27.45
 21
31.091722
  0
ARC
  8
St
  6
DOT
 10
32.450002
 20
31.091736
 40
5.0
 50
90.0
 51
180.0
  0
LINE
  8
St
  6
DOT
 62
   127
 10
72.450015
 20
36.091725
 11
32.450002
 21
36.091725
  0
ARC
  8
St
  6
DOT
 10
72.45002
 20
31.091736
 40
5.0
 50
0.0
 51
90.0
  0
LINE
  8
St
  6
DOT
 62
   127
 10
77.450017
 20
21.09171
 11
77.450017
 21
31.091722
  0
ARC
  8
St
  6
DOT
 10
72.45002
 20
21.091718
 40
5.0
 50
-90.0
 51
0.0
  0
ARC
  8
St
  6
DOT
 10
72.450027
 20
21.091733
 40
2.3
 50
270.0
 51
360.0
  0
LINE
  8
St
  6
DOT
 62
   127
 10
74.750025
 20
21.091725
 11
74.750025
 21
31.091738
  0
ARC
  8
St
  6
DOT
 10
72.450027
 20
31.091751
 40
2.3
 50
0.0
 51
90.0
  0
LINE
  8
St
  6
DOT
 62
   127
 10
72.450022
 20
18.791722
 11
32.449987
 21
18.791722
  0
ARC
  8
St
  6
DOT
 10
32.449987
 20
21.091733
 40
2.3
 50
180.0
 51
270.0
  0
LINE
  8
St
  6
DOT
 62
   127
 10
30.149985
 20
21.091725
 11
30.149985
 21
31.091738
  0
LINE
  8
St
  6
DOT
 62
   127
 10
72.450022
 20
33.39174
 11
32.449987
 21
33.39174
  0
ARC
  8
St
  6
DOT
 10
32.449987
 20
31.091751
 40
2.3
 50
90.0
 51
180.0
  0
LINE
  8
St
  6
DOT
 62
   127
 10
-6.551077
 20
41.091735
 11
-46.55106
 21
41.091735
  0
ARC
  8
St
  6
DOT
 10
-6.551063
 20
46.091731
 40
5.0
 50
-90.0
 51
0.0
  0
LINE
  8
St
  6
DOT
 62
   127
 10
-1.55106
 20
46.091722
 11
-1.55106
 21
56.091735
  0
ARC
  8
St
  6
DOT
 10
-6.551063
 20
56.091748
 40
5.0
 50
0.0
 51
90.0
  0
LINE
  8
St
  6
DOT
 62
   127
 10
-46.551075
 20
61.091738
 11
-6.551062
 21
61.091738
  0
ARC
  8
St
  6
DOT
 10
-46.551081
 20
56.091748
 40
5.0
 50
90.0
 51
180.0
  0
LINE
  8
St
  6
DOT
 62
   127
 10
-51.551077
 20
46.091722
 11
-51.551077
 21
56.091735
  0
ARC
  8
St
  6
DOT
 10
-46.551081
 20
46.091731
 40
5.0
 50
180.0
 51
270.0
  0
ARC
  8
St
  6
DOT
 10
-46.551088
 20
46.091746
 40
2.3
 50
180.0
 51
270.0
  0
LINE
  8
St
  6
DOT
 62
   127
 10
-48.851085
 20
46.091738
 11
-48.851085
 21
56.09175
  0
ARC
  8
St
  6
DOT
 10
-46.551088
 20
56.091763
 40
2.3
 50
90.0
 51
180.0
  0
LINE
  8
St
  6
DOT
 62
   127
 10
-46.551083
 20
43.791735
 11
-6.551048
 21
43.791735
  0
ARC
  8
St
  6
DOT
 10
-6.551048
 20
46.091746
 40
2.3
 50
-90.0
 51
0.0
  0
LINE
  8
St
  6
DOT
 62
   127
 10
-4.251045
 20
46.091738
 11
-4.251045
 21
56.09175
  0
LINE
  8
St
  6
DOT
 62
   127
 10
-46.551083
 20
58.391753
 11
-6.551048
 21
58.391753
  0
ARC
  8
St
  6
DOT
 10
-6.551048
 20
56.091763
 40
2.3
 50
0.0
 51
90.0
  0
LINE
  8
St
  6
DOT
 10
32.19981
 20
61.091745
 11
-6.551062
 21
61.091745
  0
LINE
  8
St
  6
DOT
 10
32.19981
 20
41.09175
 11
-6.536078
 21
41.09175
  0
LINE
  8
St
  6
DOT
 10
-6.551077
 20
16.09173
 11
32.43777
 21
16.09173
  0
LINE
  8
St
  6
DOT
 10
-6.551077
 20
36.091733
 11
32.450002
 21
36.091733
  0
ENDBLK
  0
BLOCK
  2
*GRP_0060
 70
    65
 10
0.0
 20
0.0
  0
LINE
  8
補助線
  6
BYBLOCK
 62
     0
 10
52.44981
 20
-29.408273
 11
52.44981
 21
-32.408273
  0
LINE
  8
補助線
  6
BYBLOCK
 62
     0
 10
53.94981
 20
-30.908273
 11
50.94981
 21
-30.908273
  0
ENDBLK
  0
BLOCK
  2
*GRP_0061
 70
    65
 10
0.0
 20
0.0
  0
LINE
  8
補助線
  6
BYBLOCK
 62
     0
 10
-26.55129
 20
-29.408273
 11
-26.55129
 21
-32.408273
  0
LINE
  8
補助線
  6
BYBLOCK
 62
     0
 10
-25.05129
 20
-30.908273
 11
-28.05129
 21
-30.908273
  0
ENDBLK
  0
BLOCK
  2
*GRP_0062
 70
    65
 10
0.0
 20
0.0
  0
LINE
  8
ボルト／ビス
  6
CONTINUOUS
 62
    64
 10
57.69981
 20
62.691775
 11
47.19981
 21
62.691775
  0
LINE
  8
ボルト／ビス
  6
CONTINUOUS
 62
    64
 10
52.44981
 20
71.612595
 11
52.44981
 21
48.122682
  0
LINE
  8
ボルト／ビス
  6
CONTINUOUS
 62
    64
 10
47.19981
 20
62.691775
 11
47.19981
 21
64.091775
  0
ARC
  8
ボルト／ビス
  6
CONTINUOUS
 62
    64
 10
49.699812
 20
64.09177
 40
2.5
 50
90.0
 51
180.0
  0
LINE
  8
ボルト／ビス
  6
CONTINUOUS
 62
    64
 10
49.69981
 20
66.591775
 11
55.19981
 21
66.591775
  0
LINE
  8
ボルト／ビス
  6
CONTINUOUS
 62
    64
 10
57.69981
 20
62.691775
 11
57.69981
 21
64.091775
  0
ARC
  8
ボルト／ビス
  6
CONTINUOUS
 62
    64
 10
55.199812
 20
64.09177
 40
2.5
 50
0.0
 51
90.0
  0
LINE
  8
ボルト／ビス
  6
CONTINUOUS
 62
    64
 10
55.44981
 20
53.191775
 11
54.94981
 21
52.691775
  0
LINE
  8
ボルト／ビス
  6
CONTINUOUS
 62
    64
 10
49.44981
 20
53.191775
 11
49.94981
 21
52.691775
  0
LINE
  8
ボルト／ビス
  6
CONTINUOUS
 62
    64
 10
49.44981
 20
62.691775
 11
49.44981
 21
53.191775
  0
LINE
  8
ボルト／ビス
  6
CONTINUOUS
 62
    64
 10
49.94981
 20
62.691775
 11
49.94981
 21
52.691775
  0
LINE
  8
ボルト／ビス
  6
CONTINUOUS
 62
    64
 10
55.44981
 20
62.691775
 11
55.44981
 21
53.191775
  0
LINE
  8
ボルト／ビス
  6
CONTINUOUS
 62
    64
 10
49.44981
 20
53.191775
 11
55.44981
 21
53.191775
  0
LINE
  8
ボルト／ビス
  6
CONTINUOUS
 62
    64
 10
54.94981
 20
62.691775
 11
54.94981
 21
52.691775
  0
LINE
  8
ボルト／ビス
  6
CONTINUOUS
 62
    64
 10
49.94981
 20
52.691775
 11
54.94981
 21
52.691775
  0
ENDBLK
  0
BLOCK
  2
*GRP_0063
 70
    65
 10
0.0
 20
0.0
  0
LINE
  8
ボルト／ビス
  6
CONTINUOUS
 62
    64
 10
-21.30137
 20
37.691763
 11
-31.80137
 21
37.691763
  0
LINE
  8
ボルト／ビス
  6
CONTINUOUS
 62
    64
 10
-26.55137
 20
46.612582
 11
-26.55137
 21
23.12267
  0
LINE
  8
ボルト／ビス
  6
CONTINUOUS
 62
    64
 10
-31.80137
 20
37.691763
 11
-31.80137
 21
39.091763
  0
ARC
  8
ボルト／ビス
  6
CONTINUOUS
 62
    64
 10
-29.301368
 20
39.091757
 40
2.5
 50
90.0
 51
180.0
  0
LINE
  8
ボルト／ビス
  6
CONTINUOUS
 62
    64
 10
-29.30137
 20
41.591763
 11
-23.80137
 21
41.591763
  0
LINE
  8
ボルト／ビス
  6
CONTINUOUS
 62
    64
 10
-21.30137
 20
37.691763
 11
-21.30137
 21
39.091763
  0
ARC
  8
ボルト／ビス
  6
CONTINUOUS
 62
    64
 10
-23.801368
 20
39.091757
 40
2.5
 50
0.0
 51
90.0
  0
LINE
  8
ボルト／ビス
  6
CONTINUOUS
 62
    64
 10
-23.55137
 20
28.191763
 11
-24.05137
 21
27.691763
  0
LINE
  8
ボルト／ビス
  6
CONTINUOUS
 62
    64
 10
-29.55137
 20
28.191763
 11
-29.05137
 21
27.691763
  0
LINE
  8
ボルト／ビス
  6
CONTINUOUS
 62
    64
 10
-29.55137
 20
37.691763
 11
-29.55137
 21
28.191763
  0
LINE
  8
ボルト／ビス
  6
CONTINUOUS
 62
    64
 10
-29.05137
 20
37.691763
 11
-29.05137
 21
27.691763
  0
LINE
  8
ボルト／ビス
  6
CONTINUOUS
 62
    64
 10
-23.55137
 20
37.691763
 11
-23.55137
 21
28.191763
  0
LINE
  8
ボルト／ビス
  6
CONTINUOUS
 62
    64
 10
-29.55137
 20
28.191763
 11
-23.55137
 21
28.191763
  0
LINE
  8
ボルト／ビス
  6
CONTINUOUS
 62
    64
 10
-24.05137
 20
37.691763
 11
-24.05137
 21
27.691763
  0
LINE
  8
ボルト／ビス
  6
CONTINUOUS
 62
    64
 10
-29.05137
 20
27.691763
 11
-24.05137
 21
27.691763
  0
ENDBLK
  0
BLOCK
  2
*GRP_0064
 70
    65
 10
0.0
 20
0.0
  0
LINE
  8
St
  6
DOT
 10
-26.55137
 20
37.691763
 11
-26.55137
 21
36.091763
  0
LINE
  8
St
  6
DOT
 10
-31.55137
 20
37.691763
 11
-31.55137
 21
36.091763
  0
LINE
  8
St
  6
DOT
 10
-21.55137
 20
37.691763
 11
-21.55137
 21
36.091763
  0
LINE
  8
St
  6
DOT
 10
-31.55137
 20
37.371762
 11
-21.55137
 21
37.371762
  0
LINE
  8
St
  6
DOT
 10
-31.55137
 20
37.051763
 11
-21.55137
 21
37.051763
  0
LINE
  8
St
  6
DOT
 10
-31.55137
 20
36.731762
 11
-21.55137
 21
36.731762
  0
LINE
  8
St
  6
DOT
 10
-31.55137
 20
36.411763
 11
-21.55137
 21
36.411763
  0
LINE
  8
St
  6
CONTINUOUS
 10
-41.55137
 20
37.691763
 11
-41.55137
 21
36.091763
  0
LINE
  8
St
  6
CONTINUOUS
 10
-37.465768
 20
36.091763
 11
-35.865768
 21
37.691763
  0
LINE
  8
St
  6
CONTINUOUS
 10
-36.758662
 20
36.091763
 11
-35.158662
 21
37.691763
  0
LINE
  8
St
  6
DOT
 10
47.44981
 20
61.091775
 11
47.44981
 21
62.691775
  0
LINE
  8
St
  6
DOT
 10
57.44981
 20
62.691775
 11
57.44981
 21
61.091775
  0
LINE
  8
St
  6
DOT
 10
52.44981
 20
62.691775
 11
52.44981
 21
61.091775
  0
LINE
  8
St
  6
DOT
 10
57.44981
 20
62.371775
 11
47.44981
 21
62.371775
  0
LINE
  8
St
  6
DOT
 10
57.44981
 20
62.051775
 11
47.44981
 21
62.051775
  0
LINE
  8
St
  6
DOT
 10
57.44981
 20
61.731775
 11
47.44981
 21
61.731775
  0
LINE
  8
St
  6
DOT
 10
57.44981
 20
61.411775
 11
47.44981
 21
61.411775
  0
LINE
  8
St
  6
CONTINUOUS
 10
67.44981
 20
61.091775
 11
67.44981
 21
62.691775
  0
LINE
  8
St
  6
CONTINUOUS
 10
61.721502
 20
61.091775
 11
63.321502
 21
62.691775
  0
LINE
  8
St
  6
CONTINUOUS
 10
62.428607
 20
61.091775
 11
64.028607
 21
62.691775
  0
LINE
  8
St
  6
CONTINUOUS
 10
30.322257
 20
61.091775
 11
31.922257
 21
62.691775
  0
LINE
  8
St
  6
CONTINUOUS
 10
31.029363
 20
61.091775
 11
32.629363
 21
62.691775
  0
LINE
  8
St
  6
CONTINUOUS
 10
67.44981
 20
61.091775
 11
23.44981
 21
61.091775
  0
LINE
  8
St
  6
CONTINUOUS
 10
-41.55137
 20
37.691763
 11
-18.991513
 21
37.691763
  0
ARC
  8
St
  6
CONTINUOUS
 10
-18.991512
 20
37.691759
 40
1.6
 50
270.0
 51
300.762025
  0
ARC
  8
St
  6
CONTINUOUS
 10
23.449812
 20
61.091772
 40
1.6
 50
90.0
 51
120.762025
  0
LINE
  8
St
  6
CONTINUOUS
 10
-18.991513
 20
37.691763
 11
23.009668
 21
62.691775
  0
LINE
  8
St
  6
CONTINUOUS
 10
67.44981
 20
62.691775
 11
23.009668
 21
62.691775
  0
LINE
  8
St
  6
CONTINUOUS
 10
-41.55137
 20
36.091763
 11
-18.55137
 21
36.091763
  0
LINE
  8
St
  6
CONTINUOUS
 10
23.44981
 20
61.091775
 11
-18.55137
 21
36.091763
  0
LINE
  8
St
  6
CONTINUOUS
 10
-10.868362
 20
40.664855
 11
-10.31184
 21
42.85809
  0
LINE
  8
St
  6
CONTINUOUS
 10
-10.260747
 20
41.02652
 11
-9.704225
 21
43.219758
  0
LINE
  8
St
  6
CONTINUOUS
 10
15.960518
 20
56.633987
 11
16.51704
 21
58.827223
  0
LINE
  8
St
  6
CONTINUOUS
 10
16.568132
 20
56.995652
 11
17.124655
 21
59.18889
  0
ENDBLK
  0
BLOCK
  2
*GRP_0065
 70
    65
 10
0.0
 20
0.0
  0
POLYLINE
  8
寸法
  6
CONTINUOUS
 66
     1
  0
VERTEX
  8
寸法
 10
6.112315
 20
51.868965
  0
VERTEX
  8
寸法
 10
3.779433
 20
53.630625
  0
VERTEX
  8
寸法
 10
3.779433
 20
56.999055
  0
SEQEND
  0
ENDBLK
  0
BLOCK
  2
*GRP_0066
 70
    65
 10
0.0
 20
0.0
  0
INSERT
  2
*GRP_0086
  8
型材断面
  6
CONTINUOUS
 10
0.0
 20
0.0
  0
LINE
  8
型材断面
  6
DOT
 10
57.449813
 20
-30.908273
 11
47.449807
 21
-30.908273
  0
LINE
  8
型材断面
  6
DOT
 10
52.44981
 20
-35.908275
 11
52.44981
 21
-25.90827
  0
ENDBLK
  0
BLOCK
  2
*GRP_0067
 70
    65
 10
0.0
 20
0.0
  0
LINE
  8
型材断面
  6
CONTINUOUS
 62
    47
 10
111.949868
 20
-37.308323
 11
111.949868
 21
-35.30832
  0
LINE
  8
型材断面
  6
CONTINUOUS
 62
    47
 10
111.949868
 20
-35.30832
 11
113.449868
 21
-35.30832
  0
LINE
  8
型材断面
  6
CONTINUOUS
 62
    47
 10
115.948417
 20
-40.308323
 11
116.248417
 21
-40.008323
  0
LINE
  8
型材断面
  6
CONTINUOUS
 62
    47
 10
115.948417
 20
-40.308323
 11
116.248417
 21
-40.608323
  0
LINE
  8
型材断面
  6
CONTINUOUS
 62
    47
 10
111.949868
 20
-37.308323
 11
114.748417
 21
-37.868025
  0
LINE
  8
型材断面
  6
CONTINUOUS
 62
    47
 10
113.449868
 20
-35.30832
 11
113.449868
 21
-36.308325
  0
LINE
  8
型材断面
  6
CONTINUOUS
 62
    47
 10
113.449868
 20
-36.308325
 11
116.248417
 21
-36.308325
  0
LINE
  8
型材断面
  6
CONTINUOUS
 62
    47
 10
116.248417
 20
-40.008323
 11
116.248417
 21
-36.308325
  0
LINE
  8
型材断面
  6
CONTINUOUS
 62
    47
 10
6.349868
 20
-62.71317
 11
5.749868
 21
-62.11317
  0
LINE
  8
型材断面
  6
CONTINUOUS
 62
    47
 10
5.749868
 20
-60.40827
 11
5.749868
 21
-62.11317
  0
LINE
  8
型材断面
  6
CONTINUOUS
 62
    47
 10
6.349868
 20
-62.71317
 11
6.949868
 21
-62.71317
  0
LINE
  8
型材断面
  6
CONTINUOUS
 62
    47
 10
6.349868
 20
-67.81317
 11
6.949868
 21
-67.81317
  0
LINE
  8
型材断面
  6
CONTINUOUS
 62
    47
 10
6.349868
 20
-67.81317
 11
5.749868
 21
-68.41317
  0
LINE
  8
型材断面
  6
CONTINUOUS
 62
    47
 10
6.949868
 20
-62.71317
 11
6.949868
 21
-61.60827
  0
LINE
  8
型材断面
  6
CONTINUOUS
 62
    47
 10
6.949868
 20
-61.60827
 11
9.449872
 21
-61.60827
  0
LINE
  8
型材断面
  6
CONTINUOUS
 62
    47
 10
6.949868
 20
-67.81317
 11
6.949868
 21
-68.913173
  0
LINE
  8
型材断面
  6
CONTINUOUS
 62
    47
 10
6.949868
 20
-68.913173
 11
9.449872
 21
-68.913173
  0
LINE
  8
型材断面
  6
CONTINUOUS
 62
    47
 10
9.449872
 20
-61.60827
 11
9.449872
 21
-68.913173
  0
LINE
  8
型材断面
  6
CONTINUOUS
 62
    47
 10
10.949872
 20
-62.408273
 11
10.949872
 21
-70.413173
  0
LINE
  8
型材断面
  6
CONTINUOUS
 62
    47
 10
10.949872
 20
-70.413173
 11
7.249868
 21
-70.413173
  0
LINE
  8
型材断面
  6
CONTINUOUS
 62
    47
 10
5.749868
 20
-68.41317
 11
5.749868
 21
-72.40827
  0
LINE
  8
型材断面
  6
CONTINUOUS
 62
    47
 10
7.249868
 20
-70.413173
 11
7.249868
 21
-71.78697
  0
LINE
  8
型材断面
  6
CONTINUOUS
 62
    47
 10
5.749868
 20
-72.40827
 11
11.64987
 21
-78.308325
  0
LINE
  8
型材断面
  6
CONTINUOUS
 62
    47
 10
19.948373
 20
-60.40827
 11
21.948367
 21
-60.40827
  0
LINE
  8
型材断面
  6
CONTINUOUS
 62
    47
 10
21.948367
 20
-61.90827
 11
21.178118
 21
-61.90827
  0
LINE
  8
型材断面
  6
CONTINUOUS
 62
    47
 10
21.948367
 20
-60.40827
 11
21.948367
 21
-61.90827
  0
LINE
  8
型材断面
  6
CONTINUOUS
 62
    47
 10
14.548373
 20
-65.20827
 11
19.348373
 21
-65.20827
  0
LINE
  8
型材断面
  6
CONTINUOUS
 62
    47
 10
14.04837
 20
-64.708275
 11
14.548373
 21
-65.20827
  0
LINE
  8
型材断面
  6
CONTINUOUS
 62
    47
 10
19.848367
 20
-64.708275
 11
19.348373
 21
-65.20827
  0
LINE
  8
型材断面
  6
CONTINUOUS
 62
    47
 10
14.04837
 20
-64.708275
 11
13.278667
 21
-64.708275
  0
LINE
  8
型材断面
  6
CONTINUOUS
 62
    47
 10
19.948373
 20
-60.40827
 11
19.38837
 21
-63.208275
  0
LINE
  8
型材断面
  6
CONTINUOUS
 62
    47
 10
19.848367
 20
-64.708275
 11
20.61807
 21
-64.708275
  0
LINE
  8
型材断面
  6
CONTINUOUS
 62
    47
 10
21.178118
 20
-61.90827
 11
20.61807
 21
-64.708275
  0
LINE
  8
型材断面
  6
CONTINUOUS
 62
    47
 10
16.948373
 20
-63.508275
 11
16.648373
 21
-63.208275
  0
LINE
  8
型材断面
  6
CONTINUOUS
 62
    47
 10
16.948373
 20
-63.508275
 11
17.248373
 21
-63.208275
  0
LINE
  8
型材断面
  6
CONTINUOUS
 62
    47
 10
14.508367
 20
-63.208275
 11
16.648373
 21
-63.208275
  0
LINE
  8
型材断面
  6
CONTINUOUS
 62
    47
 10
17.248373
 20
-63.208275
 11
19.38837
 21
-63.208275
  0
LINE
  8
型材断面
  6
CONTINUOUS
 62
    47
 10
10.949872
 20
-62.408273
 11
12.81867
 21
-62.408273
  0
LINE
  8
型材断面
  6
CONTINUOUS
 62
    47
 10
13.278667
 20
-64.708275
 11
12.81867
 21
-62.408273
  0
LINE
  8
型材断面
  6
CONTINUOUS
 62
    47
 10
5.749868
 20
-60.40827
 11
13.948373
 21
-60.40827
  0
LINE
  8
型材断面
  6
CONTINUOUS
 62
    47
 10
14.508367
 20
-63.208275
 11
13.948373
 21
-60.40827
  0
LINE
  8
型材断面
  6
CONTINUOUS
 62
    47
 10
7.249868
 20
-71.78697
 11
8.271218
 21
-72.80832
  0
LINE
  8
型材断面
  6
CONTINUOUS
 62
    47
 10
9.771172
 20
-74.30832
 11
12.27117
 21
-76.808325
  0
LINE
  8
型材断面
  6
CONTINUOUS
 62
    47
 10
8.271218
 20
-72.80832
 11
14.448367
 21
-72.80832
  0
LINE
  8
型材断面
  6
CONTINUOUS
 62
    47
 10
14.448367
 20
-72.80832
 11
14.448367
 21
-74.30832
  0
LINE
  8
型材断面
  6
CONTINUOUS
 62
    47
 10
9.771172
 20
-74.30832
 11
14.448367
 21
-74.30832
  0
LINE
  8
型材断面
  6
CONTINUOUS
 62
    47
 10
113.449868
 20
-44.358022
 11
114.748417
 21
-44.358022
  0
LINE
  8
型材断面
  6
CONTINUOUS
 62
    47
 10
114.748417
 20
-42.74862
 11
111.949868
 21
-43.308323
  0
LINE
  8
型材断面
  6
CONTINUOUS
 62
    47
 10
114.748417
 20
-37.868025
 11
114.748417
 21
-42.74862
  0
LINE
  8
型材断面
  6
CONTINUOUS
 62
    47
 10
123.24987
 20
-78.008325
 11
123.54987
 21
-78.308325
  0
LINE
  8
型材断面
  6
CONTINUOUS
 62
    47
 10
128.749868
 20
-78.308325
 11
123.54987
 21
-78.308325
  0
LINE
  8
型材断面
  6
CONTINUOUS
 62
    47
 10
123.24987
 20
-78.008325
 11
122.94987
 21
-78.308325
  0
LINE
  8
型材断面
  6
CONTINUOUS
 62
    47
 10
11.64987
 20
-78.308325
 11
122.94987
 21
-78.308325
  0
LINE
  8
型材断面
  6
CONTINUOUS
 62
    47
 10
12.27117
 20
-76.808325
 11
127.249868
 21
-76.808325
  0
LINE
  8
型材断面
  6
CONTINUOUS
 62
    47
 10
127.249868
 20
-76.808325
 11
127.249868
 21
-46.808325
  0
LINE
  8
型材断面
  6
CONTINUOUS
 62
    47
 10
116.248417
 20
-45.308325
 11
128.749868
 21
-45.308325
  0
LINE
  8
型材断面
  6
CONTINUOUS
 62
    47
 10
138.84987
 20
-51.308325
 11
138.84987
 21
-53.30832
  0
LINE
  8
型材断面
  6
CONTINUOUS
 62
    47
 10
138.84987
 20
-51.308325
 11
128.749868
 21
-51.308325
  0
LINE
  8
型材断面
  6
CONTINUOUS
 62
    47
 10
128.749868
 20
-45.308325
 11
128.749868
 21
-51.308325
  0
LINE
  8
型材断面
  6
CONTINUOUS
 62
    47
 10
138.84987
 20
-53.30832
 11
128.749868
 21
-53.30832
  0
LINE
  8
型材断面
  6
CONTINUOUS
 62
    47
 10
128.749868
 20
-78.308325
 11
128.749868
 21
-53.30832
  0
LINE
  8
型材断面
  6
CONTINUOUS
 62
    47
 10
111.949868
 20
-43.308323
 11
111.949868
 21
-45.308325
  0
LINE
  8
型材断面
  6
CONTINUOUS
 62
    47
 10
111.949868
 20
-45.308325
 11
113.449868
 21
-45.308325
  0
LINE
  8
型材断面
  6
CONTINUOUS
 62
    47
 10
113.449868
 20
-44.358022
 11
113.449868
 21
-45.308325
  0
LINE
  8
型材断面
  6
CONTINUOUS
 62
    47
 10
118.24842
 20
-50.808323
 11
118.24842
 21
-49.308323
  0
LINE
  8
型材断面
  6
CONTINUOUS
 62
    47
 10
118.24842
 20
-50.808323
 11
114.748417
 21
-50.808323
  0
LINE
  8
型材断面
  6
CONTINUOUS
 62
    47
 10
114.748417
 20
-44.358022
 11
114.748417
 21
-50.808323
  0
LINE
  8
型材断面
  6
CONTINUOUS
 62
    47
 10
127.249868
 20
-46.808325
 11
116.248417
 21
-46.808325
  0
LINE
  8
型材断面
  6
CONTINUOUS
 62
    47
 10
116.248417
 20
-40.608323
 11
116.248417
 21
-45.308325
  0
LINE
  8
型材断面
  6
CONTINUOUS
 62
    47
 10
116.248417
 20
-46.808325
 11
116.248417
 21
-49.308323
  0
LINE
  8
型材断面
  6
CONTINUOUS
 62
    47
 10
118.24842
 20
-49.308323
 11
116.248417
 21
-49.308323
  0
ENDBLK
  0
BLOCK
  2
*GRP_0068
 70
    65
 10
0.0
 20
0.0
  0
LINE
  8
型材断面
  6
DOT
 10
127.249868
 20
-76.808325
 11
127.249868
 21
-78.308325
  0
LINE
  8
型材断面
  6
DOT
 10
119.249865
 20
-76.808325
 11
119.249865
 21
-78.308325
  0
LINE
  8
型材断面
  6
DOT
 10
119.249865
 20
-77.933325
 11
127.249868
 21
-77.933325
  0
LINE
  8
型材断面
  6
DOT
 10
119.249865
 20
-77.558325
 11
127.249868
 21
-77.558325
  0
LINE
  8
型材断面
  6
DOT
 10
119.249865
 20
-77.183325
 11
127.249868
 21
-77.183325
  0
ENDBLK
  0
BLOCK
  2
*GRP_0069
 70
    65
 10
0.0
 20
0.0
  0
ARC
  8
型材断面
  6
CONTINUOUS
 62
    47
 10
74.999822
 20
-11.358266
 40
0.3
 50
180.0
 51
270.0
  0
LINE
  8
型材断面
  6
CONTINUOUS
 62
    47
 10
74.99982
 20
-11.65827
 11
76.399822
 21
-11.65827
  0
LINE
  8
型材断面
  6
CONTINUOUS
 62
    47
 10
76.699822
 20
-11.35827
 11
76.699822
 21
5.841735
  0
ARC
  8
型材断面
  6
CONTINUOUS
 62
    47
 10
76.399822
 20
-11.358266
 40
0.3
 50
270.0
 51
360.0
  0
ARC
  8
型材断面
  6
CONTINUOUS
 62
    47
 10
29.199822
 20
5.841734
 40
1.0
 50
90.0
 51
180.0
  0
ARC
  8
型材断面
  6
CONTINUOUS
 62
    47
 10
29.899822
 20
-11.358266
 40
0.3
 50
270.0
 51
360.0
  0
LINE
  8
型材断面
  6
CONTINUOUS
 62
    47
 10
29.899822
 20
-11.65827
 11
28.49982
 21
-11.65827
  0
LINE
  8
型材断面
  6
CONTINUOUS
 62
    47
 10
28.19982
 20
-11.35827
 11
28.19982
 21
5.841735
  0
ARC
  8
型材断面
  6
CONTINUOUS
 62
    47
 10
28.499822
 20
-11.358266
 40
0.3
 50
180.0
 51
270.0
  0
LINE
  8
型材断面
  6
CONTINUOUS
 62
    47
 10
74.69982
 20
4.84173
 11
30.199822
 21
4.84173
  0
LINE
  8
型材断面
  6
CONTINUOUS
 62
    47
 10
75.699825
 20
6.841733
 11
29.199825
 21
6.841733
  0
ARC
  8
型材断面
  6
CONTINUOUS
 62
    47
 10
75.699822
 20
5.841734
 40
1.0
 50
0.0
 51
90.0
  0
LINE
  8
型材断面
  6
CONTINUOUS
 62
    47
 10
74.69982
 20
-2.158267
 11
74.69982
 21
4.84173
  0
LINE
  8
型材断面
  6
CONTINUOUS
 62
    47
 10
73.999822
 20
-2.158267
 11
74.69982
 21
-2.158267
  0
ARC
  8
型材断面
  6
CONTINUOUS
 62
    47
 10
73.999822
 20
-2.358266
 40
0.2
 50
90.0
 51
216.085808
  0
LINE
  8
型材断面
  6
CONTINUOUS
 62
    47
 10
73.838198
 20
-2.476065
 11
74.69982
 21
-3.658267
  0
LINE
  8
型材断面
  6
CONTINUOUS
 62
    47
 10
74.69982
 20
-11.35827
 11
74.69982
 21
-3.658267
  0
ARC
  8
型材断面
  6
CONTINUOUS
 62
    47
 10
30.899822
 20
-2.358266
 40
0.2
 50
323.914192
 51
450.0
  0
LINE
  8
型材断面
  6
CONTINUOUS
 62
    47
 10
30.199822
 20
-2.158267
 11
30.199822
 21
4.84173
  0
LINE
  8
型材断面
  6
CONTINUOUS
 62
    47
 10
30.89982
 20
-2.158267
 11
30.199822
 21
-2.158267
  0
LINE
  8
型材断面
  6
CONTINUOUS
 62
    47
 10
31.061453
 20
-2.476065
 11
30.199822
 21
-3.658267
  0
LINE
  8
型材断面
  6
CONTINUOUS
 62
    47
 10
30.199822
 20
-11.35827
 11
30.199822
 21
-3.658267
  0
ENDBLK
  0
BLOCK
  2
*GRP_0070
 70
    65
 10
0.0
 20
0.0
  0
SPLINE
  5
1400000
100
AcDbEntity
  8
ガラス
100
AcDbSpline
  6
CONTINUOUS
 70
     0
 71
     3
 74
     3
 44
0.0
 11
128.9589
 21
-81.366795
 11
127.404435
 21
-80.419883
 11
126.829582
 21
-78.84123
  0
SPLINE
  5
1400001
100
AcDbEntity
  8
ガラス
100
AcDbSpline
  6
CONTINUOUS
 70
     0
 71
     3
 74
     3
 44
0.0
 11
126.829582
 21
-78.84123
 11
128.06874
 21
-79.292655
 11
129.187815
 21
-79.470292
  0
ARC
  8
ガラス
  6
CONTINUOUS
 10
129.073348
 20
-80.418544
 40
0.955135
 50
263.117442
 51
443.117442
  0
ENDBLK
  0
BLOCK
  2
*GRP_0071
 70
    65
 10
0.0
 20
0.0
  0
SPLINE
  5
1400002
100
AcDbEntity
  8
ガラス
100
AcDbSpline
  6
CONTINUOUS
 70
     0
 71
     3
 74
     3
 44
0.0
 11
124.55415
 21
-68.435783
 11
124.62405
 21
-66.616965
 11
125.722815
 21
-65.346022
  0
SPLINE
  5
1400003
100
AcDbEntity
  8
ガラス
100
AcDbSpline
  6
CONTINUOUS
 70
     0
 71
     3
 74
     3
 44
0.0
 11
125.722815
 21
-65.346022
 11
125.93208
 21
-66.648128
 11
126.321997
 21
-67.71201
  0
ARC
  8
ガラス
  6
CONTINUOUS
 10
125.438067
 20
-68.073899
 40
0.955135
 50
202.264587
 51
382.264587
  0
ENDBLK
  0
BLOCK
  2
*GRP_0072
 70
    65
 10
0.0
 20
0.0
  0
SPLINE
  5
1400004
100
AcDbEntity
  8
ガラス
100
AcDbSpline
  6
CONTINUOUS
 70
     0
 71
     3
 74
     3
 44
0.0
 11
116.01732
 21
-63.617813
 11
114.462862
 21
-62.670892
 11
113.88801
 21
-61.092248
  0
SPLINE
  5
1400005
100
AcDbEntity
  8
ガラス
100
AcDbSpline
  6
CONTINUOUS
 70
     0
 71
     3
 74
     3
 44
0.0
 11
113.88801
 21
-61.092248
 11
115.127168
 21
-61.54368
 11
116.246235
 21
-61.72131
  0
ARC
  8
ガラス
  6
CONTINUOUS
 10
116.131775
 20
-62.669561
 40
0.955135
 50
263.117442
 51
443.117442
  0
ENDBLK
  0
BLOCK
  2
*GRP_0073
 70
    65
 10
0.0
 20
0.0
  0
SPLINE
  5
1400006
100
AcDbEntity
  8
ガラス
100
AcDbSpline
  6
CONTINUOUS
 70
     0
 71
     3
 74
     3
 44
0.0
 11
93.597038
 21
-21.525202
 11
93.666945
 21
-19.706385
 11
94.765703
 21
-18.435443
  0
SPLINE
  5
1400007
100
AcDbEntity
  8
ガラス
100
AcDbSpline
  6
CONTINUOUS
 70
     0
 71
     3
 74
     3
 44
0.0
 11
94.765703
 21
-18.435443
 11
94.974975
 21
-19.73754
 11
95.364892
 21
-20.80143
  0
ARC
  8
ガラス
  6
CONTINUOUS
 10
94.480959
 20
-21.163316
 40
0.955135
 50
202.264587
 51
382.264587
  0
ENDBLK
  0
BLOCK
  2
*GRP_0074
 70
    65
 10
0.0
 20
0.0
  0
SPLINE
  5
1400008
100
AcDbEntity
  8
ガラス
100
AcDbSpline
  6
CONTINUOUS
 70
     0
 71
     3
 74
     3
 44
0.0
 11
93.597045
 21
-36.366472
 11
93.666937
 21
-34.547655
 11
94.765703
 21
-33.276705
  0
SPLINE
  5
1400009
100
AcDbEntity
  8
ガラス
100
AcDbSpline
  6
CONTINUOUS
 70
     0
 71
     3
 74
     3
 44
0.0
 11
94.765703
 21
-33.276705
 11
94.974975
 21
-34.578817
 11
95.3649
 21
-35.6427
  0
ARC
  8
ガラス
  6
CONTINUOUS
 10
94.480958
 20
-36.004586
 40
0.955135
 50
202.264587
 51
382.264587
  0
ENDBLK
  0
BLOCK
  2
*GRP_0075
 70
    65
 10
0.0
 20
0.0
  0
SPLINE
  5
1400010
100
AcDbEntity
  8
ガラス
100
AcDbSpline
  6
CONTINUOUS
 70
     0
 71
     3
 74
     3
 44
0.0
 11
93.597045
 21
-49.752712
 11
93.666945
 21
-47.933895
 11
94.765703
 21
-46.662953
  0
SPLINE
  5
1400011
100
AcDbEntity
  8
ガラス
100
AcDbSpline
  6
CONTINUOUS
 70
     0
 71
     3
 74
     3
 44
0.0
 11
94.765703
 21
-46.662953
 11
94.974975
 21
-47.965057
 11
95.364892
 21
-49.028947
  0
ARC
  8
ガラス
  6
CONTINUOUS
 10
94.480958
 20
-49.39083
 40
0.955135
 50
202.264587
 51
382.264587
  0
ENDBLK
  0
BLOCK
  2
*GRP_0076
 70
    65
 10
0.0
 20
0.0
  0
SPLINE
  5
1400012
100
AcDbEntity
  8
ガラス
100
AcDbSpline
  6
CONTINUOUS
 70
     0
 71
     3
 74
     3
 44
0.0
 11
97.713292
 21
-59.669888
 11
96.158828
 21
-58.722975
 11
95.583975
 21
-57.14433
  0
SPLINE
  5
1400013
100
AcDbEntity
  8
ガラス
100
AcDbSpline
  6
CONTINUOUS
 70
     0
 71
     3
 74
     3
 44
0.0
 11
95.583975
 21
-57.14433
 11
96.823125
 21
-57.595748
 11
97.942208
 21
-57.773377
  0
ARC
  8
ガラス
  6
CONTINUOUS
 10
97.827742
 20
-58.721633
 40
0.955135
 50
263.117442
 51
443.117442
  0
ENDBLK
  0
BLOCK
  2
*GRP_0077
 70
    65
 10
0.0
 20
0.0
  0
SPLINE
  5
1400014
100
AcDbEntity
  8
ガラス
100
AcDbSpline
  6
CONTINUOUS
 70
     0
 71
     3
 74
     3
 44
0.0
 11
93.80937
 21
14.892135
 11
93.879277
 21
16.710952
 11
94.978035
 21
17.981895
  0
SPLINE
  5
1400015
100
AcDbEntity
  8
ガラス
100
AcDbSpline
  6
CONTINUOUS
 70
     0
 71
     3
 74
     3
 44
0.0
 11
94.978035
 21
17.981895
 11
95.187307
 21
16.679782
 11
95.577225
 21
15.615892
  0
ARC
  8
ガラス
  6
CONTINUOUS
 10
94.693292
 20
15.254012
 40
0.955135
 50
202.264587
 51
382.264587
  0
ENDBLK
  0
BLOCK
  2
*GRP_0078
 70
    65
 10
0.0
 20
0.0
  0
SPLINE
  5
1400016
100
AcDbEntity
  8
ガラス
100
AcDbSpline
  6
CONTINUOUS
 70
     0
 71
     3
 74
     3
 44
0.0
 11
93.809377
 21
-5.827455
 11
93.879277
 21
-4.00863
 11
94.978035
 21
-2.73768
  0
SPLINE
  5
1400017
100
AcDbEntity
  8
ガラス
100
AcDbSpline
  6
CONTINUOUS
 70
     0
 71
     3
 74
     3
 44
0.0
 11
94.978035
 21
-2.73768
 11
95.187307
 21
-4.0398
 11
95.577225
 21
-5.103683
  0
ARC
  8
ガラス
  6
CONTINUOUS
 10
94.693292
 20
-5.465565
 40
0.955135
 50
202.264587
 51
382.264587
  0
ENDBLK
  0
BLOCK
  2
*GRP_0079
 70
    65
 10
0.0
 20
0.0
  0
LINE
  8
ゴム等
  6
DOT
 10
19.348373
 20
-62.908267
 11
19.848375
 21
-60.40827
  0
LINE
  8
ゴム等
  6
DOT
 10
14.04837
 20
-60.40827
 11
14.548373
 21
-62.908267
  0
LINE
  8
ゴム等
  6
DOT
 10
11.94837
 20
-55.408267
 11
11.94837
 21
-60.40827
  0
LINE
  8
ゴム等
  6
DOT
 10
21.948375
 20
-55.408267
 11
21.948375
 21
-60.40827
  0
LINE
  8
ゴム等
  6
DOT
 10
19.348373
 20
-62.908267
 11
14.548373
 21
-62.908267
  0
LINE
  8
ゴム等
  6
DOT
 10
11.94837
 20
-60.40827
 11
14.04837
 21
-60.40827
  0
LINE
  8
ゴム等
  6
DOT
 10
19.848375
 20
-60.40827
 11
21.948375
 21
-60.40827
  0
LINE
  8
ゴム等
  6
DOT
 10
16.948373
 20
-55.90827
 11
16.44837
 21
-55.408267
  0
LINE
  8
ゴム等
  6
DOT
 10
16.948373
 20
-55.90827
 11
17.448375
 21
-55.408267
  0
LINE
  8
ゴム等
  6
DOT
 10
21.948375
 20
-55.408267
 11
17.448375
 21
-55.408267
  0
LINE
  8
ゴム等
  6
DOT
 10
16.44837
 20
-55.408267
 11
11.94837
 21
-55.408267
  0
INSERT
  2
*HAT_0002
  8
ゴム等
 10
0.0
 20
0.0
  0
ENDBLK
  0
BLOCK
  2
*GRP_0080
 70
    65
 10
0.0
 20
0.0
  0
LINE
  8
ゴム等
  6
DOT
 10
114.449872
 20
-42.708323
 11
111.949875
 21
-43.208317
  0
LINE
  8
ゴム等
  6
DOT
 10
111.949875
 20
-37.40832
 11
114.449872
 21
-37.908323
  0
LINE
  8
ゴム等
  6
DOT
 10
106.949872
 20
-35.30832
 11
111.949875
 21
-35.30832
  0
LINE
  8
ゴム等
  6
DOT
 10
106.949872
 20
-45.308317
 11
111.949875
 21
-45.308317
  0
LINE
  8
ゴム等
  6
DOT
 10
114.449872
 20
-42.708323
 11
114.449872
 21
-37.908323
  0
LINE
  8
ゴム等
  6
DOT
 10
111.949875
 20
-35.30832
 11
111.949875
 21
-37.40832
  0
LINE
  8
ゴム等
  6
DOT
 10
111.949875
 20
-43.208317
 11
111.949875
 21
-45.308317
  0
LINE
  8
ゴム等
  6
DOT
 10
107.449875
 20
-40.308323
 11
106.949872
 21
-39.80832
  0
LINE
  8
ゴム等
  6
DOT
 10
107.449875
 20
-40.308323
 11
106.949872
 21
-40.808317
  0
LINE
  8
ゴム等
  6
DOT
 10
106.949872
 20
-45.308317
 11
106.949872
 21
-40.808317
  0
LINE
  8
ゴム等
  6
DOT
 10
106.949872
 20
-39.80832
 11
106.949872
 21
-35.30832
  0
INSERT
  2
*HAT_0003
  8
ゴム等
 10
0.0
 20
0.0
  0
ENDBLK
  0
BLOCK
  2
*GRP_0081
 70
    65
 10
0.0
 20
0.0
  0
LINE
  8
ゴム等
  6
CONTINUOUS
 10
2.94834
 20
-44.408258
 11
2.94834
 21
-40.40826
  0
LINE
  8
ゴム等
  6
CONTINUOUS
 10
8.94834
 20
-44.408258
 11
8.94834
 21
-52.40826
  0
LINE
  8
ゴム等
  6
CONTINUOUS
 10
2.94834
 20
-52.40826
 11
5.148345
 21
-52.40826
  0
LINE
  8
ゴム等
  6
CONTINUOUS
 10
2.94834
 20
-44.408258
 11
5.148345
 21
-44.408258
  0
LINE
  8
ゴム等
  6
CONTINUOUS
 10
2.94834
 20
-52.40826
 11
2.94834
 21
-54.408262
  0
ARC
  8
ゴム等
  6
CONTINUOUS
 10
3.948342
 20
-47.908246
 40
1.0
 50
90.0
 51
180.0
  0
LINE
  8
ゴム等
  6
CONTINUOUS
 10
6.448343
 20
-46.908262
 11
3.948345
 21
-46.908262
  0
ARC
  8
ゴム等
  6
CONTINUOUS
 10
6.448342
 20
-47.908246
 40
1.0
 50
0.0
 51
90.0
  0
LINE
  8
ゴム等
  6
CONTINUOUS
 10
7.44834
 20
-47.90826
 11
7.44834
 21
-48.908258
  0
ARC
  8
ゴム等
  6
CONTINUOUS
 10
6.448342
 20
-48.908246
 40
1.0
 50
-90.0
 51
0.0
  0
LINE
  8
ゴム等
  6
CONTINUOUS
 10
6.448343
 20
-49.908262
 11
3.948345
 21
-49.908262
  0
LINE
  8
ゴム等
  6
CONTINUOUS
 10
2.94834
 20
-47.90826
 11
2.94834
 21
-48.908258
  0
ARC
  8
ゴム等
  6
CONTINUOUS
 10
3.948342
 20
-48.908246
 40
1.0
 50
180.0
 51
270.0
  0
LINE
  8
ゴム等
  6
CONTINUOUS
 10
0.748343
 20
-40.40826
 11
2.94834
 21
-40.40826
  0
ARC
  8
ゴム等
  6
CONTINUOUS
 10
0.748342
 20
-42.408246
 40
2.0
 50
90.0
 51
180.0
  0
LINE
  8
ゴム等
  6
CONTINUOUS
 10
-1.25166
 20
-42.408262
 11
-1.25166
 21
-55.908262
  0
ARC
  8
ゴム等
  6
CONTINUOUS
 10
-0.251658
 20
-55.908246
 40
1.0
 50
180.0
 51
270.0
  0
LINE
  8
ゴム等
  6
CONTINUOUS
 10
8.94834
 20
-44.408258
 11
5.743132
 21
-43.667325
  0
ARC
  8
ゴム等
  6
CONTINUOUS
 10
5.648342
 20
-44.158246
 40
0.5
 50
79.071863
 51
180.0
  0
LINE
  8
ゴム等
  6
CONTINUOUS
 10
5.148345
 20
-44.408258
 11
5.148345
 21
-44.15826
  0
LINE
  8
ゴム等
  6
CONTINUOUS
 10
8.94834
 20
-52.40826
 11
5.743132
 21
-53.149193
  0
ARC
  8
ゴム等
  6
CONTINUOUS
 10
5.648342
 20
-52.658246
 40
0.5
 50
180.0
 51
280.928137
  0
LINE
  8
ゴム等
  6
CONTINUOUS
 10
5.148345
 20
-52.40826
 11
5.148345
 21
-52.658258
  0
LINE
  8
ゴム等
  6
CONTINUOUS
 10
-0.251655
 20
-56.90826
 11
0.448343
 21
-56.90826
  0
LINE
  8
ゴム等
  6
CONTINUOUS
 10
0.448343
 20
-56.90826
 11
0.148343
 21
-54.408262
  0
LINE
  8
ゴム等
  6
CONTINUOUS
 10
2.94834
 20
-54.408262
 11
0.148343
 21
-54.408262
  0
INSERT
  2
*HAT_0004
  8
ゴム等
 10
0.0
 20
0.0
  0
ENDBLK
  0
BLOCK
  2
*GRP_0082
 70
    65
 10
0.0
 20
0.0
  0
LINE
  8
ゴム等
  6
CONTINUOUS
 10
9.249825
 20
-67.763137
 11
9.249825
 21
-62.763135
  0
LINE
  8
ゴム等
  6
CONTINUOUS
 10
7.249822
 20
-62.763135
 11
5.749822
 21
-62.763135
  0
LINE
  8
ゴム等
  6
CONTINUOUS
 10
7.249822
 20
-67.763137
 11
5.749822
 21
-67.763137
  0
LINE
  8
ゴム等
  6
CONTINUOUS
 10
5.749822
 20
-71.763135
 11
5.749822
 21
-67.763137
  0
LINE
  8
ゴム等
  6
CONTINUOUS
 10
5.749822
 20
-62.763135
 11
5.749822
 21
-56.763135
  0
LINE
  8
ゴム等
  6
CONTINUOUS
 10
5.749822
 20
-56.763135
 11
2.749822
 21
-56.763135
  0
LINE
  8
ゴム等
  6
CONTINUOUS
 10
2.749822
 20
-54.763133
 11
2.749822
 21
-56.763135
  0
LINE
  8
ゴム等
  6
CONTINUOUS
 10
2.749822
 20
-54.763133
 11
0.249825
 21
-54.763133
  0
ARC
  8
ゴム等
  6
CONTINUOUS
 10
11.499821
 20
-65.763121
 40
12.75
 50
151.927513
 51
208.072487
  0
LINE
  8
ゴム等
  6
CONTINUOUS
 10
0.249825
 20
-54.763133
 11
0.249825
 21
-59.763135
  0
LINE
  8
ゴム等
  6
CONTINUOUS
 10
5.749822
 20
-71.763135
 11
0.249825
 21
-71.763135
  0
LINE
  8
ゴム等
  6
CONTINUOUS
 10
9.249825
 20
-62.763135
 11
8.05353
 21
-61.863068
  0
ARC
  8
ゴム等
  6
CONTINUOUS
 10
7.749821
 20
-62.263121
 40
0.5
 50
52.618449
 51
180.0
  0
LINE
  8
ゴム等
  6
CONTINUOUS
 10
7.249822
 20
-62.763135
 11
7.249822
 21
-62.263133
  0
LINE
  8
ゴム等
  6
CONTINUOUS
 10
9.249825
 20
-67.763137
 11
8.05353
 21
-68.663198
  0
ARC
  8
ゴム等
  6
CONTINUOUS
 10
7.749821
 20
-68.263121
 40
0.5
 50
180.0
 51
307.381551
  0
LINE
  8
ゴム等
  6
CONTINUOUS
 10
7.249822
 20
-67.763137
 11
7.249822
 21
-68.263133
  0
INSERT
  2
*HAT_0005
  8
ゴム等
 10
0.0
 20
0.0
  0
ENDBLK
  0
BLOCK
  2
*GRP_0083
 70
    65
 10
0.0
 20
0.0
  0
LINE
  8
ボルト／ビス
  6
CONTINUOUS
 10
13.448378
 20
-53.408265
 11
13.54008
 21
-52.360102
  0
ARC
  8
ボルト／ビス
  6
CONTINUOUS
 10
15.233612
 20
-52.508263
 40
1.7
 50
90.0
 51
175.000011
  0
LINE
  8
ボルト／ビス
  6
CONTINUOUS
 10
15.23361
 20
-50.808262
 11
16.948373
 21
-50.808262
  0
LINE
  8
ボルト／ビス
  6
CONTINUOUS
 10
20.448375
 20
-53.408265
 11
20.356673
 21
-52.360102
  0
ARC
  8
ボルト／ビス
  6
CONTINUOUS
 10
18.663145
 20
-52.508263
 40
1.7
 50
4.999989
 51
90.0
  0
LINE
  8
ボルト／ビス
  6
CONTINUOUS
 10
18.663142
 20
-50.808262
 11
16.948373
 21
-50.808262
  0
LINE
  8
ボルト／ビス
  6
CONTINUOUS
 10
14.551733
 20
-51.19317
 11
14.551733
 21
-50.95101
  0
LINE
  8
ボルト／ビス
  6
CONTINUOUS
 10
16.248375
 20
-51.843255
 11
16.948373
 21
-51.843255
  0
LINE
  8
ボルト／ビス
  6
CONTINUOUS
 10
15.848378
 20
-51.19317
 11
14.551733
 21
-51.19317
  0
LINE
  8
ボルト／ビス
  6
CONTINUOUS
 10
16.248375
 20
-51.843255
 11
16.248375
 21
-51.593167
  0
ARC
  8
ボルト／ビス
  6
CONTINUOUS
 10
15.848379
 20
-51.593168
 40
0.4
 50
0.0
 51
90.0
  0
LINE
  8
ボルト／ビス
  6
CONTINUOUS
 10
19.345012
 20
-51.19317
 11
19.345012
 21
-50.95101
  0
LINE
  8
ボルト／ビス
  6
CONTINUOUS
 10
17.648378
 20
-51.843255
 11
16.948373
 21
-51.843255
  0
LINE
  8
ボルト／ビス
  6
CONTINUOUS
 10
18.048375
 20
-51.19317
 11
19.345012
 21
-51.19317
  0
LINE
  8
ボルト／ビス
  6
CONTINUOUS
 10
17.648378
 20
-51.843255
 11
17.648378
 21
-51.593167
  0
ARC
  8
ボルト／ビス
  6
CONTINUOUS
 10
18.048379
 20
-51.593168
 40
0.4
 50
90.0
 51
180.0
  0
LINE
  8
ボルト／ビス
  6
CONTINUOUS
 10
13.448378
 20
-53.408265
 11
20.448375
 21
-53.408265
  0
LINE
  8
ボルト／ビス
  6
CONTINUOUS
 10
16.948373
 20
-48.83688
 11
16.948373
 21
-69.05154
  0
LINE
  8
ボルト／ビス
  6
CONTINUOUS
 10
14.948378
 20
-66.908265
 11
15.448373
 21
-67.408267
  0
LINE
  8
ボルト／ビス
  6
CONTINUOUS
 10
18.948375
 20
-66.908265
 11
18.448373
 21
-67.408267
  0
LINE
  8
ボルト／ビス
  6
CONTINUOUS
 10
14.948378
 20
-66.908265
 11
18.948375
 21
-66.908265
  0
LINE
  8
ボルト／ビス
  6
CONTINUOUS
 10
15.448373
 20
-67.408267
 11
18.448373
 21
-67.408267
  0
LINE
  8
ボルト／ビス
  6
CONTINUOUS
 10
18.948375
 20
-53.408265
 11
18.948375
 21
-66.908265
  0
LINE
  8
ボルト／ビス
  6
CONTINUOUS
 10
14.948378
 20
-53.408265
 11
14.948378
 21
-66.908265
  0
LINE
  8
ボルト／ビス
  6
CONTINUOUS
 10
15.448373
 20
-53.408265
 11
15.448373
 21
-67.408267
  0
LINE
  8
ボルト／ビス
  6
CONTINUOUS
 10
18.448373
 20
-53.408265
 11
18.448373
 21
-67.408267
  0
ENDBLK
  0
BLOCK
  2
*GRP_0084
 70
    65
 10
0.0
 20
0.0
  0
LINE
  8
ボルト／ビス
  6
CONTINUOUS
 10
116.248417
 20
-43.808317
 11
117.29658
 21
-43.716615
  0
ARC
  8
ボルト／ビス
  6
CONTINUOUS
 10
117.148417
 20
-42.023092
 40
1.7
 50
274.999989
 51
360.0
  0
LINE
  8
ボルト／ビス
  6
CONTINUOUS
 10
118.84842
 20
-42.023085
 11
118.84842
 21
-40.308323
  0
LINE
  8
ボルト／ビス
  6
CONTINUOUS
 10
116.248417
 20
-36.80832
 11
117.29658
 21
-36.900022
  0
ARC
  8
ボルト／ビス
  6
CONTINUOUS
 10
117.148417
 20
-38.593559
 40
1.7
 50
0.0
 51
85.000011
  0
LINE
  8
ボルト／ビス
  6
CONTINUOUS
 10
118.84842
 20
-38.593552
 11
118.84842
 21
-40.308323
  0
LINE
  8
ボルト／ビス
  6
CONTINUOUS
 10
118.463513
 20
-42.704962
 11
118.705673
 21
-42.704962
  0
LINE
  8
ボルト／ビス
  6
CONTINUOUS
 10
117.813428
 20
-41.00832
 11
117.813428
 21
-40.308323
  0
LINE
  8
ボルト／ビス
  6
CONTINUOUS
 10
118.463513
 20
-41.408317
 11
118.463513
 21
-42.704962
  0
LINE
  8
ボルト／ビス
  6
CONTINUOUS
 10
117.813428
 20
-41.00832
 11
118.063515
 21
-41.00832
  0
ARC
  8
ボルト／ビス
  6
CONTINUOUS
 10
118.063512
 20
-41.408326
 40
0.4
 50
0.0
 51
90.0
  0
LINE
  8
ボルト／ビス
  6
CONTINUOUS
 10
118.463513
 20
-37.911683
 11
118.705673
 21
-37.911683
  0
LINE
  8
ボルト／ビス
  6
CONTINUOUS
 10
117.813428
 20
-39.608317
 11
117.813428
 21
-40.308323
  0
LINE
  8
ボルト／ビス
  6
CONTINUOUS
 10
118.463513
 20
-39.20832
 11
118.463513
 21
-37.911683
  0
LINE
  8
ボルト／ビス
  6
CONTINUOUS
 10
117.813428
 20
-39.608317
 11
118.063515
 21
-39.608317
  0
ARC
  8
ボルト／ビス
  6
CONTINUOUS
 10
118.063512
 20
-39.208326
 40
0.4
 50
270.0
 51
360.0
  0
LINE
  8
ボルト／ビス
  6
CONTINUOUS
 10
116.248417
 20
-43.808317
 11
116.248417
 21
-36.80832
  0
LINE
  8
ボルト／ビス
  6
CONTINUOUS
 10
120.819802
 20
-40.308323
 11
100.605142
 21
-40.308323
  0
LINE
  8
ボルト／ビス
  6
CONTINUOUS
 10
102.748417
 20
-42.308317
 11
102.248415
 21
-41.808323
  0
LINE
  8
ボルト／ビス
  6
CONTINUOUS
 10
102.748417
 20
-38.30832
 11
102.248415
 21
-38.808323
  0
LINE
  8
ボルト／ビス
  6
CONTINUOUS
 10
102.748417
 20
-42.308317
 11
102.748417
 21
-38.30832
  0
LINE
  8
ボルト／ビス
  6
CONTINUOUS
 10
102.248415
 20
-41.808323
 11
102.248415
 21
-38.808323
  0
LINE
  8
ボルト／ビス
  6
CONTINUOUS
 10
116.248417
 20
-38.30832
 11
102.748417
 21
-38.30832
  0
LINE
  8
ボルト／ビス
  6
CONTINUOUS
 10
116.248417
 20
-42.308317
 11
102.748417
 21
-42.308317
  0
LINE
  8
ボルト／ビス
  6
CONTINUOUS
 10
116.248417
 20
-41.808323
 11
102.248415
 21
-41.808323
  0
LINE
  8
ボルト／ビス
  6
CONTINUOUS
 10
116.248417
 20
-38.808323
 11
102.248415
 21
-38.808323
  0
ENDBLK
  0
BLOCK
  2
*GRP_0085
 70
    65
 10
0.0
 20
0.0
  0
LINE
  8
別途部材
  6
DOT
 10
117.24987
 20
-66.808327
 11
117.24987
 21
-76.808325
  0
LINE
  8
別途部材
  6
DOT
 10
127.249868
 20
-76.808325
 11
117.24987
 21
-76.808325
  0
INSERT
  2
*HAT_0006
  8
別途部材
 10
0.0
 20
0.0
  0
LINE
  8
別途部材
  6
DOT
 10
127.249868
 20
-66.808327
 11
117.24987
 21
-66.808327
  0
LINE
  8
別途部材
  6
DOT
 10
127.249868
 20
-66.808327
 11
127.249868
 21
-76.808325
  0
ENDBLK
  0
BLOCK
  2
*GRP_0086
 70
    65
 10
0.0
 20
0.0
  0
ARC
  8
型材断面
  6
CONTINUOUS
 62
    47
 10
34.44981
 20
-2.908269
 40
2.2
 50
270.0
 51
450.0
  0
ARC
  8
型材断面
  6
CONTINUOUS
 62
    47
 10
60.74981
 20
-17.46394
 40
0.3
 50
180.0
 51
238.310451
  0
ARC
  8
型材断面
  6
CONTINUOUS
 62
    47
 10
44.14981
 20
-17.46394
 40
0.3
 50
301.689549
 51
360.0
  0
LINE
  8
型材断面
  6
CONTINUOUS
 62
    47
 10
74.449822
 20
-1.908263
 11
73.302975
 21
-1.908263
  0
LINE
  8
型材断面
  6
CONTINUOUS
 62
    47
 10
74.449822
 20
-15.408263
 11
74.449822
 21
-3.408263
  0
LINE
  8
型材断面
  6
CONTINUOUS
 62
    47
 10
73.302975
 20
-1.908263
 11
74.449822
 21
-3.408263
  0
LINE
  8
型材断面
  6
CONTINUOUS
 62
    47
 10
31.596675
 20
-1.908263
 11
30.449827
 21
-1.908263
  0
LINE
  8
型材断面
  6
CONTINUOUS
 62
    47
 10
31.596675
 20
-1.908263
 11
30.449827
 21
-3.408263
  0
LINE
  8
型材断面
  6
CONTINUOUS
 62
    47
 10
69.173228
 20
-0.758813
 11
70.449825
 21
-0.758813
  0
LINE
  8
型材断面
  6
CONTINUOUS
 62
    47
 10
69.173228
 20
-5.057768
 11
70.449825
 21
-5.057768
  0
ARC
  8
型材断面
  6
CONTINUOUS
 62
    47
 10
70.449814
 20
-2.908271
 40
2.5
 50
120.706651
 51
239.29391
  0
LINE
  8
型材断面
  6
CONTINUOUS
 62
    47
 10
39.449827
 20
-15.408263
 11
44.449822
 21
-15.408263
  0
LINE
  8
型材断面
  6
CONTINUOUS
 62
    47
 10
44.449822
 20
-17.463968
 11
44.449822
 21
-15.408263
  0
LINE
  8
型材断面
  6
CONTINUOUS
 62
    47
 10
65.449822
 20
-15.408263
 11
60.449827
 21
-15.408263
  0
LINE
  8
型材断面
  6
CONTINUOUS
 62
    47
 10
60.449827
 20
-17.463968
 11
60.449827
 21
-15.408263
  0
LINE
  8
型材断面
  6
CONTINUOUS
 62
    47
 10
70.449825
 20
-26.085165
 11
70.449825
 21
-17.912715
  0
LINE
  8
型材断面
  6
CONTINUOUS
 62
    47
 10
64.782172
 20
-17.912715
 11
70.449825
 21
-17.912715
  0
LINE
  8
型材断面
  6
CONTINUOUS
 62
    47
 10
64.782172
 20
-17.912715
 11
63.786825
 21
-18.961612
  0
ARC
  8
型材断面
  6
CONTINUOUS
 62
    47
 10
52.44981
 20
-30.908269
 40
15.5
 50
49.974578
 51
58.310451
  0
ARC
  8
型材断面
  6
CONTINUOUS
 62
    47
 10
63.061412
 20
-18.273243
 40
1.0
 50
229.974578
 51
316.500153
  0
LINE
  8
型材断面
  6
CONTINUOUS
 62
    47
 10
68.358323
 20
-26.645618
 11
70.449825
 21
-26.085165
  0
ARC
  8
型材断面
  6
CONTINUOUS
 62
    47
 10
68.617108
 20
-27.611533
 40
1.0
 50
105.000058
 51
191.525393
  0
LINE
  8
型材断面
  6
CONTINUOUS
 62
    47
 10
34.449825
 20
-26.085165
 11
34.449825
 21
-17.912715
  0
LINE
  8
型材断面
  6
CONTINUOUS
 62
    47
 10
40.117477
 20
-17.912715
 11
34.449825
 21
-17.912715
  0
LINE
  8
型材断面
  6
CONTINUOUS
 62
    47
 10
40.117477
 20
-17.912715
 11
41.112877
 21
-18.961612
  0
ARC
  8
型材断面
  6
CONTINUOUS
 62
    47
 10
41.838212
 20
-18.273243
 40
1.0
 50
223.499847
 51
310.025422
  0
LINE
  8
型材断面
  6
CONTINUOUS
 62
    47
 10
36.541373
 20
-26.645618
 11
34.449825
 21
-26.085165
  0
ARC
  8
型材断面
  6
CONTINUOUS
 62
    47
 10
36.282517
 20
-27.611533
 40
1.0
 50
348.474607
 51
434.999942
  0
ARC
  8
型材断面
  6
CONTINUOUS
 62
    47
 10
52.44981
 20
-30.908269
 40
15.5
 50
168.474603
 51
371.525393
  0
ARC
  8
型材断面
  6
CONTINUOUS
 62
    47
 10
52.44981
 20
-30.908269
 40
15.5
 50
121.689549
 51
130.025407
  0
LINE
  8
型材断面
  6
CONTINUOUS
 62
    47
 10
39.449827
 20
-15.408263
 11
35.949877
 21
-11.908313
  0
LINE
  8
型材断面
  6
CONTINUOUS
 62
    47
 10
35.949877
 20
-11.908313
 11
34.449825
 21
-11.908313
  0
LINE
  8
型材断面
  6
CONTINUOUS
 62
    47
 10
34.449825
 20
-5.108265
 11
34.449825
 21
-11.908313
  0
LINE
  8
型材断面
  6
CONTINUOUS
 62
    47
 10
65.449822
 20
-15.408263
 11
68.949772
 21
-11.908313
  0
LINE
  8
型材断面
  6
CONTINUOUS
 62
    47
 10
68.949772
 20
-11.908313
 11
70.449825
 21
-11.908313
  0
LINE
  8
型材断面
  6
CONTINUOUS
 62
    47
 10
70.449825
 20
-5.057768
 11
70.449825
 21
-11.908313
  0
LINE
  8
型材断面
  6
CONTINUOUS
 62
    47
 10
30.449827
 20
-3.408263
 11
30.449827
 21
-15.408263
  0
ARC
  8
型材断面
  6
CONTINUOUS
 62
    47
 10
52.449812
 20
-30.908268
 40
17.499998
 50
169.917098
 51
267.543714
  0
LINE
  8
型材断面
  6
CONTINUOUS
 62
    47
 10
35.220127
 20
-27.844515
 11
32.949825
 21
-27.236168
  0
ARC
  8
型材断面
  6
CONTINUOUS
 62
    47
 10
106.199871
 20
21.841739
 40
0.75
 50
180.0
 51
270.0
  0
LINE
  8
型材断面
  6
CONTINUOUS
 62
    47
 10
106.199872
 20
21.091733
 11
106.199872
 21
21.091733
  0
ARC
  8
型材断面
  6
CONTINUOUS
 62
    47
 10
106.199871
 20
21.841739
 40
0.75
 50
270.0
 51
360.0
  0
LINE
  8
型材断面
  6
CONTINUOUS
 62
    47
 10
105.449872
 20
21.841733
 11
105.449872
 21
27.091733
  0
LINE
  8
型材断面
  6
CONTINUOUS
 62
    47
 10
106.949872
 20
21.841733
 11
106.949872
 21
29.091735
  0
LINE
  8
型材断面
  6
CONTINUOUS
 62
    47
 10
86.449822
 20
62.091735
 11
100.449825
 21
62.091735
  0
LINE
  8
型材断面
  6
CONTINUOUS
 62
    47
 10
86.449822
 20
62.091735
 11
86.449822
 21
60.091733
  0
ARC
  8
型材断面
  6
CONTINUOUS
 62
    47
 10
106.199871
 20
-26.658261
 40
0.75
 50
90.0
 51
180.0
  0
LINE
  8
型材断面
  6
CONTINUOUS
 62
    47
 10
106.199872
 20
-25.908262
 11
106.199872
 21
-25.908262
  0
ARC
  8
型材断面
  6
CONTINUOUS
 62
    47
 10
106.199871
 20
-26.658261
 40
0.75
 50
0.0
 51
90.0
  0
LINE
  8
型材断面
  6
CONTINUOUS
 62
    47
 10
30.449827
 20
-1.908263
 11
30.449827
 21
4.591733
  0
LINE
  8
型材断面
  6
CONTINUOUS
 62
    47
 10
30.449827
 20
4.591733
 11
34.449825
 21
4.591733
  0
LINE
  8
型材断面
  6
CONTINUOUS
 62
    47
 10
34.449825
 20
-0.708263
 11
34.449825
 21
4.591733
  0
LINE
  8
型材断面
  6
CONTINUOUS
 62
    47
 10
70.449825
 20
-0.758813
 11
70.449825
 21
4.591733
  0
LINE
  8
型材断面
  6
CONTINUOUS
 62
    47
 10
70.449825
 20
4.591733
 11
74.449822
 21
4.591733
  0
LINE
  8
型材断面
  6
CONTINUOUS
 62
    47
 10
74.449822
 20
-1.908263
 11
74.449822
 21
4.591733
  0
LINE
  8
型材断面
  6
CONTINUOUS
 62
    47
 10
105.449872
 20
-45.308317
 11
106.949872
 21
-45.308317
  0
LINE
  8
型材断面
  6
CONTINUOUS
 62
    47
 10
104.449875
 20
-42.808313
 11
105.449872
 21
-43.808317
  0
LINE
  8
型材断面
  6
CONTINUOUS
 62
    47
 10
105.449872
 20
-45.308317
 11
105.449872
 21
-43.808317
  0
LINE
  8
型材断面
  6
CONTINUOUS
 62
    47
 10
106.949872
 20
-26.658262
 11
106.949872
 21
-40.008315
  0
LINE
  8
型材断面
  6
CONTINUOUS
 62
    47
 10
106.949872
 20
-40.608315
 11
106.949872
 21
-45.308317
  0
LINE
  8
型材断面
  6
CONTINUOUS
 62
    47
 10
106.649872
 20
-40.308315
 11
106.949872
 21
-40.008315
  0
LINE
  8
型材断面
  6
CONTINUOUS
 62
    47
 10
106.649872
 20
-40.308315
 11
106.949872
 21
-40.608315
  0
LINE
  8
型材断面
  6
CONTINUOUS
 62
    47
 10
104.449875
 20
-42.808313
 11
104.449875
 21
-36.808313
  0
LINE
  8
型材断面
  6
CONTINUOUS
 62
    47
 10
105.449872
 20
-26.658262
 11
105.449872
 21
-34.808317
  0
LINE
  8
型材断面
  6
CONTINUOUS
 62
    47
 10
4.948328
 20
-53.408265
 11
9.448328
 21
-53.408265
  0
LINE
  8
型材断面
  6
CONTINUOUS
 62
    47
 10
51.699825
 20
-48.392213
 11
51.699825
 21
-53.408265
  0
LINE
  8
型材断面
  6
CONTINUOUS
 62
    47
 10
23.949825
 20
-53.408265
 11
51.699825
 21
-53.408265
  0
LINE
  8
型材断面
  6
CONTINUOUS
 62
    47
 10
53.199825
 20
-48.392213
 11
53.199825
 21
-53.408265
  0
LINE
  8
型材断面
  6
CONTINUOUS
 62
    47
 10
2.948325
 20
-55.408267
 11
2.948325
 21
-52.955768
  0
LINE
  8
型材断面
  6
CONTINUOUS
 62
    47
 10
2.948325
 20
-40.408267
 11
2.948325
 21
-43.808265
  0
LINE
  8
型材断面
  6
CONTINUOUS
 62
    47
 10
3.548325
 20
-44.408265
 11
2.948325
 21
-43.808265
  0
LINE
  8
型材断面
  6
CONTINUOUS
 62
    47
 10
3.548325
 20
-44.408265
 11
4.948328
 21
-44.408265
  0
LINE
  8
型材断面
  6
CONTINUOUS
 62
    47
 10
4.948328
 20
-41.908267
 11
4.948328
 21
-44.408265
  0
LINE
  8
型材断面
  6
CONTINUOUS
 62
    47
 10
3.548325
 20
-52.408267
 11
4.948328
 21
-52.408267
  0
LINE
  8
型材断面
  6
CONTINUOUS
 62
    47
 10
4.948328
 20
-53.460818
 11
4.948328
 21
-52.408267
  0
LINE
  8
型材断面
  6
CONTINUOUS
 62
    47
 10
3.548325
 20
-52.408267
 11
2.948325
 21
-53.008267
  0
LINE
  8
型材断面
  6
CONTINUOUS
 62
    47
 10
4.948328
 20
-41.908267
 11
9.448328
 21
-41.908267
  0
LINE
  8
型材断面
  6
CONTINUOUS
 62
    47
 10
9.448328
 20
-53.408265
 11
9.448328
 21
-41.908267
  0
ARC
  8
型材断面
  6
CONTINUOUS
 62
    47
 10
52.449812
 20
-30.908268
 40
17.499998
 50
272.456286
 51
370.0829
  0
LINE
  8
型材断面
  6
CONTINUOUS
 62
    47
 10
69.679575
 20
-27.844515
 11
71.949825
 21
-27.236168
  0
LINE
  8
型材断面
  6
CONTINUOUS
 62
    47
 10
71.949825
 20
-27.236168
 11
71.949825
 21
-17.408265
  0
LINE
  8
型材断面
  6
CONTINUOUS
 62
    47
 10
97.649827
 20
27.091733
 11
97.649827
 21
-34.808317
  0
LINE
  8
型材断面
  6
CONTINUOUS
 62
    47
 10
97.649827
 20
-36.808313
 11
97.649827
 21
-53.408265
  0
LINE
  8
型材断面
  6
CONTINUOUS
 62
    47
 10
100.449825
 20
60.591735
 11
97.649827
 21
60.591735
  0
LINE
  8
型材断面
  6
CONTINUOUS
 62
    47
 10
97.649827
 20
29.091735
 11
97.649827
 21
60.591735
  0
LINE
  8
型材断面
  6
CONTINUOUS
 62
    47
 10
100.449825
 20
62.091735
 11
100.449825
 21
60.591735
  0
LINE
  8
型材断面
  6
CONTINUOUS
 62
    47
 10
106.949872
 20
29.091735
 11
97.649827
 21
29.091735
  0
LINE
  8
型材断面
  6
CONTINUOUS
 62
    47
 10
105.449872
 20
27.091733
 11
97.649827
 21
27.091733
  0
LINE
  8
型材断面
  6
CONTINUOUS
 62
    47
 10
105.449872
 20
-34.808317
 11
97.649827
 21
-34.808317
  0
LINE
  8
型材断面
  6
CONTINUOUS
 62
    47
 10
104.449875
 20
-36.808313
 11
97.649827
 21
-36.808313
  0
LINE
  8
型材断面
  6
CONTINUOUS
 62
    47
 10
74.449822
 20
-15.408263
 11
95.649825
 21
-15.408263
  0
LINE
  8
型材断面
  6
CONTINUOUS
 62
    47
 10
53.199825
 20
-53.408265
 11
95.649825
 21
-53.408265
  0
LINE
  8
型材断面
  6
CONTINUOUS
 62
    47
 10
86.449822
 20
60.091733
 11
95.649825
 21
60.091733
  0
LINE
  8
型材断面
  6
CONTINUOUS
 62
    47
 10
95.649825
 20
-15.408263
 11
95.649825
 21
60.091733
  0
LINE
  8
型材断面
  6
CONTINUOUS
 62
    47
 10
32.949825
 20
-27.236168
 11
32.949825
 21
-17.408265
  0
LINE
  8
型材断面
  6
CONTINUOUS
 62
    47
 10
30.449827
 20
-15.408263
 11
19.449825
 21
-15.408263
  0
LINE
  8
型材断面
  6
CONTINUOUS
 62
    47
 10
19.449825
 20
-15.408263
 11
19.449825
 21
-16.908262
  0
LINE
  8
型材断面
  6
CONTINUOUS
 62
    47
 10
19.449825
 20
-16.908262
 11
22.449825
 21
-16.908262
  0
LINE
  8
型材断面
  6
CONTINUOUS
 62
    47
 10
22.449825
 20
-53.408265
 11
22.449825
 21
-16.908262
  0
LINE
  8
型材断面
  6
CONTINUOUS
 62
    47
 10
2.948325
 20
-40.408267
 11
10.948328
 21
-40.408267
  0
LINE
  8
型材断面
  6
CONTINUOUS
 62
    47
 10
91.649827
 20
-55.108267
 11
91.349827
 21
-55.408267
  0
LINE
  8
型材断面
  6
CONTINUOUS
 62
    47
 10
91.649827
 20
-55.108267
 11
91.949827
 21
-55.408267
  0
LINE
  8
型材断面
  6
CONTINUOUS
 62
    47
 10
91.949827
 20
-55.408267
 11
106.949872
 21
-55.408267
  0
LINE
  8
型材断面
  6
CONTINUOUS
 62
    47
 10
97.649827
 20
-53.408265
 11
105.949875
 21
-53.408265
  0
LINE
  8
型材断面
  6
CONTINUOUS
 62
    47
 10
106.949872
 20
-54.408262
 11
106.949872
 21
-55.408267
  0
LINE
  8
型材断面
  6
CONTINUOUS
 62
    47
 10
105.949875
 20
-53.408265
 11
106.949872
 21
-54.408262
  0
LINE
  8
型材断面
  6
CONTINUOUS
 62
    47
 10
23.949825
 20
-22.845218
 11
23.949825
 21
-53.408265
  0
ARC
  8
型材断面
  6
CONTINUOUS
 62
    47
 10
24.449821
 20
-22.845182
 40
0.5
 50
66.421821
 51
180.0
  0
LINE
  8
型材断面
  6
CONTINUOUS
 62
    47
 10
29.386778
 20
-17.408265
 11
32.949825
 21
-17.408265
  0
ARC
  8
型材断面
  6
CONTINUOUS
 62
    47
 10
29.386752
 20
-17.908251
 40
0.5
 50
90.0
 51
203.578178
  0
ARC
  8
型材断面
  6
CONTINUOUS
 62
    47
 10
26.034652
 20
-21.656651
 40
0.5
 50
14.998835
 51
92.160733
  0
LINE
  8
型材断面
  6
CONTINUOUS
 62
    47
 10
26.517622
 20
-21.527265
 11
26.649727
 21
-22.020315
  0
ARC
  8
型材断面
  6
CONTINUOUS
 62
    47
 10
25.949821
 20
-19.408251
 40
3.25
 50
246.421822
 51
274.52439
  0
ARC
  8
型材断面
  6
CONTINUOUS
 62
    47
 10
26.16675
 20
-22.149681
 40
0.5
 50
-85.47561
 51
14.998682
  0
ARC
  8
型材断面
  6
CONTINUOUS
 62
    47
 10
25.949821
 20
-19.408251
 40
1.75
 50
357.839267
 51
632.160733
  0
ARC
  8
型材断面
  6
CONTINUOUS
 62
    47
 10
28.198221
 20
-19.493082
 40
0.5
 50
177.839266
 51
255.001165
  0
LINE
  8
型材断面
  6
CONTINUOUS
 62
    47
 10
28.068825
 20
-19.976062
 11
28.561875
 21
-20.108168
  0
ARC
  8
型材断面
  6
CONTINUOUS
 62
    47
 10
25.949821
 20
-19.408251
 40
3.25
 50
355.47561
 51
383.578179
  0
ARC
  8
型材断面
  6
CONTINUOUS
 62
    47
 10
28.691251
 20
-19.62518
 40
0.5
 50
255.001318
 51
355.47561
  0
ARC
  8
型材断面
  6
CONTINUOUS
 62
    47
 10
93.179695
 20
-21.058095
 40
0.5
 50
132.839267
 51
210.001165
  0
LINE
  8
型材断面
  6
CONTINUOUS
 62
    47
 10
92.746673
 20
-21.308115
 11
93.001928
 21
-21.750165
  0
ARC
  8
型材断面
  6
CONTINUOUS
 62
    47
 10
93.434913
 20
-21.500127
 40
0.5
 50
210.001318
 51
310.47561
  0
ARC
  8
型材断面
  6
CONTINUOUS
 62
    47
 10
91.649821
 20
-19.408251
 40
1.75
 50
312.839267
 51
587.160733
  0
ARC
  8
型材断面
  6
CONTINUOUS
 62
    47
 10
90.119947
 20
-21.058095
 40
0.5
 50
-30.001165
 51
47.160734
  0
LINE
  8
型材断面
  6
CONTINUOUS
 62
    47
 10
90.552975
 20
-21.308115
 11
90.297727
 21
-21.750165
  0
ARC
  8
型材断面
  6
CONTINUOUS
 62
    47
 10
89.864729
 20
-21.500127
 40
0.5
 50
229.52439
 51
329.998682
  0
LINE
  8
型材断面
  6
CONTINUOUS
 62
    47
 10
95.649825
 20
-53.408265
 11
95.649825
 21
-19.408267
  0
ARC
  8
型材断面
  6
CONTINUOUS
 62
    47
 10
91.649821
 20
-19.408251
 40
3.25
 50
310.47561
 51
360.0
  0
LINE
  8
型材断面
  6
CONTINUOUS
 62
    47
 10
94.899825
 20
-19.408267
 11
95.649825
 21
-19.408267
  0
LINE
  8
型材断面
  6
CONTINUOUS
 62
    47
 10
71.949825
 20
-17.408265
 11
88.212877
 21
-17.408265
  0
ARC
  8
型材断面
  6
CONTINUOUS
 62
    47
 10
91.649821
 20
-19.408251
 40
3.25
 50
156.421822
 51
229.52439
  0
ARC
  8
型材断面
  6
CONTINUOUS
 62
    47
 10
88.212889
 20
-17.908251
 40
0.5
 50
-23.578179
 51
90.0
  0
LINE
  8
型材断面
  6
CONTINUOUS
 62
    47
 10
16.948373
 20
-55.108267
 11
16.648373
 21
-55.408267
  0
LINE
  8
型材断面
  6
CONTINUOUS
 62
    47
 10
16.948373
 20
-55.108267
 11
17.248373
 21
-55.408267
  0
LINE
  8
型材断面
  6
CONTINUOUS
 62
    47
 10
2.948325
 20
-55.408267
 11
16.648373
 21
-55.408267
  0
LINE
  8
型材断面
  6
CONTINUOUS
 62
    47
 10
10.948328
 20
-40.408267
 11
10.948328
 21
-53.408265
  0
LINE
  8
型材断面
  6
CONTINUOUS
 62
    47
 10
22.449825
 20
-53.408265
 11
10.948328
 21
-53.408265
  0
LINE
  8
型材断面
  6
CONTINUOUS
 62
    47
 10
37.449825
 20
-55.108267
 11
37.149825
 21
-55.408267
  0
LINE
  8
型材断面
  6
CONTINUOUS
 62
    47
 10
37.449825
 20
-55.108267
 11
37.749825
 21
-55.408267
  0
LINE
  8
型材断面
  6
CONTINUOUS
 62
    47
 10
85.449825
 20
-55.108267
 11
85.149825
 21
-55.408267
  0
LINE
  8
型材断面
  6
CONTINUOUS
 62
    47
 10
85.449825
 20
-55.108267
 11
85.749825
 21
-55.408267
  0
LINE
  8
型材断面
  6
CONTINUOUS
 62
    47
 10
85.749825
 20
-55.408267
 11
91.349827
 21
-55.408267
  0
LINE
  8
型材断面
  6
CONTINUOUS
 62
    47
 10
17.248373
 20
-55.408267
 11
37.149825
 21
-55.408267
  0
LINE
  8
型材断面
  6
CONTINUOUS
 62
    47
 10
37.749825
 20
-55.408267
 11
85.149825
 21
-55.408267
  0
ENDBLK
  0
BLOCK
  2
*GRP_0087
 70
    65
 10
0.0
 20
0.0
  0
LINE
  8
通り芯
  6
CONTINUOUS
 10
12.949875
 20
-76.808302
 11
12.949875
 21
-74.8083
  0
LINE
  8
通り芯
  6
CONTINUOUS
 10
12.949875
 20
-74.8083
 11
125.249865
 21
-74.8083
  0
LINE
  8
通り芯
  6
CONTINUOUS
 10
12.949875
 20
-76.808302
 11
125.249865
 21
-76.808302
  0
ARC
  8
通り芯
  6
CONTINUOUS
 10
125.249869
 20
-74.808302
 40
2.0
 50
-90.0
 51
0.0
  0
INSERT
  2
*GRP_0088
  8
通り芯
  6
DOT
 10
0.0
 20
0.0
  0
INSERT
  2
*GRP_0089
  8
通り芯
  6
DOT
 10
0.0
 20
0.0
  0
LINE
  8
通り芯
  6
CONTINUOUS
 10
127.249868
 20
-74.8083
 11
127.249868
 21
-47.30831
  0
LINE
  8
通り芯
  6
CONTINUOUS
 10
125.249865
 20
-74.8083
 11
125.249865
 21
-47.30831
  0
LINE
  8
通り芯
  6
CONTINUOUS
 10
127.249868
 20
-47.30831
 11
125.249865
 21
-47.30831
  0
ENDBLK
  0
BLOCK
  2
*GRP_0088
 70
    65
 10
0.0
 20
0.0
  0
LINE
  8
通り芯
  6
CONTINUOUS
 10
37.94988
 20
-72.991943
 11
37.94988
 21
-77.61681
  0
LINE
  8
通り芯
  6
CONTINUOUS
 10
36.29988
 20
-76.80831
 11
36.29988
 21
-74.808307
  0
LINE
  8
通り芯
  6
CONTINUOUS
 10
39.59988
 20
-76.80831
 11
39.59988
 21
-74.808307
  0
LINE
  8
通り芯
  6
CONTINUOUS
 10
36.29988
 20
-75.30831
 11
39.59988
 21
-75.30831
  0
LINE
  8
通り芯
  6
CONTINUOUS
 10
36.29988
 20
-75.808313
 11
39.59988
 21
-75.808313
  0
LINE
  8
通り芯
  6
CONTINUOUS
 10
36.29988
 20
-76.308307
 11
39.59988
 21
-76.308307
  0
LINE
  8
型材断面
  6
CONTINUOUS
 10
37.94988
 20
-75.308317
 11
37.94988
 21
-80.18463
  0
LINE
  8
型材断面
  6
CONTINUOUS
 10
39.59988
 20
-78.30831
 11
39.59988
 21
-76.308315
  0
LINE
  8
型材断面
  6
CONTINUOUS
 10
36.29988
 20
-78.30831
 11
36.29988
 21
-76.308315
  0
LINE
  8
型材断面
  6
CONTINUOUS
 10
36.29988
 20
-77.808307
 11
39.59988
 21
-77.808307
  0
LINE
  8
型材断面
  6
CONTINUOUS
 10
36.29988
 20
-77.308313
 11
39.59988
 21
-77.308313
  0
LINE
  8
型材断面
  6
CONTINUOUS
 10
36.29988
 20
-76.80831
 11
39.59988
 21
-76.80831
  0
LINE
  8
ボルト／ビス
  6
CONTINUOUS
 10
34.94988
 20
-78.30831
 11
40.94988
 21
-78.30831
  0
LINE
  8
ボルト／ビス
  6
CONTINUOUS
 10
34.94988
 20
-78.30831
 11
35.449883
 21
-78.808313
  0
LINE
  8
ボルト／ビス
  6
CONTINUOUS
 10
40.94988
 20
-78.30831
 11
40.449885
 21
-78.808305
  0
LINE
  8
ボルト／ビス
  6
CONTINUOUS
 10
35.449883
 20
-78.808313
 11
40.449885
 21
-78.808305
  0
LINE
  8
ボルト／ビス
  6
CONTINUOUS
 10
34.94988
 20
-73.808302
 11
40.94988
 21
-73.808302
  0
LINE
  8
ボルト／ビス
  6
CONTINUOUS
 10
34.94988
 20
-73.808302
 11
34.94988
 21
-74.808307
  0
LINE
  8
ボルト／ビス
  6
CONTINUOUS
 10
40.94988
 20
-73.808302
 11
40.94988
 21
-74.8083
  0
LINE
  8
ボルト／ビス
  6
CONTINUOUS
 10
34.94988
 20
-74.808307
 11
40.94988
 21
-74.8083
  0
LINE
  8
ボルト／ビス
  6
CONTINUOUS
 10
35.949885
 20
-73.808302
 11
35.949885
 21
-73.808302
  0
ARC
  8
ボルト／ビス
  6
CONTINUOUS
 10
36.449876
 20
-73.808308
 40
0.5
 50
90.000036
 51
180.0
  0
LINE
  8
ボルト／ビス
  6
CONTINUOUS
 10
36.44988
 20
-73.308307
 11
39.44988
 21
-73.3083
  0
LINE
  8
ボルト／ビス
  6
CONTINUOUS
 10
39.949883
 20
-73.808302
 11
39.949883
 21
-73.808302
  0
ARC
  8
ボルト／ビス
  6
CONTINUOUS
 10
39.449876
 20
-73.808306
 40
0.5
 50
0.0
 51
90.000041
  0
LINE
  8
ボルト／ビス
  6
CONTINUOUS
 10
35.949885
 20
-78.30831
 11
35.949885
 21
-74.808307
  0
LINE
  8
ボルト／ビス
  6
CONTINUOUS
 10
39.949883
 20
-78.30831
 11
39.949883
 21
-74.808307
  0
ENDBLK
  0
BLOCK
  2
*GRP_0089
 70
    65
 10
0.0
 20
0.0
  0
LINE
  8
通り芯
  6
CONTINUOUS
 10
102.249863
 20
-72.991943
 11
102.249863
 21
-77.61681
  0
LINE
  8
通り芯
  6
CONTINUOUS
 10
100.599863
 20
-76.80831
 11
100.599863
 21
-74.808307
  0
LINE
  8
通り芯
  6
CONTINUOUS
 10
103.899863
 20
-76.80831
 11
103.899863
 21
-74.808307
  0
LINE
  8
通り芯
  6
CONTINUOUS
 10
100.599863
 20
-75.30831
 11
103.899863
 21
-75.30831
  0
LINE
  8
通り芯
  6
CONTINUOUS
 10
100.599863
 20
-75.808313
 11
103.899863
 21
-75.808313
  0
LINE
  8
通り芯
  6
CONTINUOUS
 10
100.599863
 20
-76.308307
 11
103.899863
 21
-76.308307
  0
LINE
  8
型材断面
  6
CONTINUOUS
 10
102.249863
 20
-75.308317
 11
102.249863
 21
-80.18463
  0
LINE
  8
型材断面
  6
CONTINUOUS
 10
103.899863
 20
-78.30831
 11
103.899863
 21
-76.308315
  0
LINE
  8
型材断面
  6
CONTINUOUS
 10
100.599863
 20
-78.30831
 11
100.599863
 21
-76.308315
  0
LINE
  8
型材断面
  6
CONTINUOUS
 10
100.599863
 20
-77.808307
 11
103.899863
 21
-77.808307
  0
LINE
  8
型材断面
  6
CONTINUOUS
 10
100.599863
 20
-77.308313
 11
103.899863
 21
-77.308313
  0
LINE
  8
型材断面
  6
CONTINUOUS
 10
100.599863
 20
-76.80831
 11
103.899863
 21
-76.80831
  0
LINE
  8
ボルト／ビス
  6
CONTINUOUS
 10
99.249863
 20
-78.30831
 11
105.249863
 21
-78.30831
  0
LINE
  8
ボルト／ビス
  6
CONTINUOUS
 10
99.249863
 20
-78.30831
 11
99.749865
 21
-78.808313
  0
LINE
  8
ボルト／ビス
  6
CONTINUOUS
 10
105.249863
 20
-78.30831
 11
104.749868
 21
-78.808305
  0
LINE
  8
ボルト／ビス
  6
CONTINUOUS
 10
99.749865
 20
-78.808313
 11
104.749868
 21
-78.808305
  0
LINE
  8
ボルト／ビス
  6
CONTINUOUS
 10
99.249863
 20
-73.808302
 11
105.249863
 21
-73.808302
  0
LINE
  8
ボルト／ビス
  6
CONTINUOUS
 10
99.249863
 20
-73.808302
 11
99.249863
 21
-74.808307
  0
LINE
  8
ボルト／ビス
  6
CONTINUOUS
 10
105.249863
 20
-73.808302
 11
105.249863
 21
-74.8083
  0
LINE
  8
ボルト／ビス
  6
CONTINUOUS
 10
99.249863
 20
-74.808307
 11
105.249863
 21
-74.8083
  0
LINE
  8
ボルト／ビス
  6
CONTINUOUS
 10
100.249868
 20
-73.808302
 11
100.249868
 21
-73.808302
  0
ARC
  8
ボルト／ビス
  6
CONTINUOUS
 10
100.749859
 20
-73.808308
 40
0.5
 50
90.000036
 51
180.0
  0
LINE
  8
ボルト／ビス
  6
CONTINUOUS
 10
100.749863
 20
-73.308307
 11
103.749863
 21
-73.3083
  0
LINE
  8
ボルト／ビス
  6
CONTINUOUS
 10
104.249865
 20
-73.808302
 11
104.249865
 21
-73.808302
  0
ARC
  8
ボルト／ビス
  6
CONTINUOUS
 10
103.749859
 20
-73.808306
 40
0.5
 50
0.0
 51
90.000041
  0
LINE
  8
ボルト／ビス
  6
CONTINUOUS
 10
100.249868
 20
-78.30831
 11
100.249868
 21
-74.808307
  0
LINE
  8
ボルト／ビス
  6
CONTINUOUS
 10
104.249865
 20
-78.30831
 11
104.249865
 21
-74.808307
  0
ENDBLK
  0
BLOCK
  2
*DIM_0090
 70
    65
 10
0.0
 20
0.0
  0
LINE
  8
寸法
  6
CONTINUOUS
 10
-96.354885
 20
-50.408323
 11
-96.354885
 21
-97.443135
  0
LINE
  8
寸法
  6
CONTINUOUS
 10
128.749868
 20
-83.308325
 11
128.749868
 21
-97.443135
  0
LINE
  8
寸法
  6
CONTINUOUS
 10
-96.354885
 20
-97.443135
 11
128.749868
 21
-97.443135
  0
POINT
  8
寸法
 10
-96.354885
 20
-97.443135
  0
POINT
  8
寸法
 10
128.749868
 20
-97.443135
  0
TEXT
  7
TextStyle03
  8
寸法
  6
CONTINUOUS
 10
13.7375
 20
-97.075
  1
225
 40
3.0
 72
     5
 11
18.6125
 21
-97.075
  0
ENDBLK
  0
BLOCK
  2
*DIM_0091
 70
    65
 10
0.0
 20
0.0
  0
LINE
  8
寸法
  6
CONTINUOUS
 10
128.749868
 20
-83.308325
 11
128.749868
 21
-97.443135
  0
LINE
  8
寸法
  6
CONTINUOUS
 10
138.84987
 20
-58.30832
 11
138.84987
 21
-97.443135
  0
LINE
  8
寸法
  6
CONTINUOUS
 10
128.749868
 20
-97.443135
 11
138.84987
 21
-97.443135
  0
POINT
  8
寸法
 10
128.749868
 20
-97.443135
  0
POINT
  8
寸法
 10
138.84987
 20
-97.443135
  0
TEXT
  7
TextStyle03
  8
寸法
  6
CONTINUOUS
 10
130.49375
 20
-97.075
  1
10.1
 40
3.0
 72
     5
 11
137.05625
 21
-97.075
  0
ENDBLK
  0
BLOCK
  2
*DIM_0092
 70
    65
 10
0.0
 20
0.0
  0
LINE
  8
寸法
  6
CONTINUOUS
 10
133.749868
 20
-78.308325
 11
156.386747
 21
-78.308325
  0
LINE
  8
寸法
  6
CONTINUOUS
 10
143.84987
 20
-53.30832
 11
156.386747
 21
-53.30832
  0
LINE
  8
寸法
  6
CONTINUOUS
 10
156.386747
 20
-78.308325
 11
156.386747
 21
-53.30832
  0
POINT
  8
寸法
 10
156.386747
 20
-78.308325
  0
POINT
  8
寸法
 10
156.386747
 20
-53.30832
  0
TEXT
  7
TextStyle03
  8
寸法
  6
CONTINUOUS
 10
156.0
 20
-67.41875
  1
25
 40
3.0
 50
90.0
 72
     5
 11
156.0
 21
-64.23125
  0
ENDBLK
  0
BLOCK
  2
*DIM_0093
 70
    65
 10
0.0
 20
0.0
  0
LINE
  8
寸法
  6
CONTINUOUS
 10
106.949872
 20
34.091735
 11
106.949872
 21
97.765393
  0
LINE
  8
寸法
  6
CONTINUOUS
 10
138.84987
 20
-46.308325
 11
138.84987
 21
97.765393
  0
LINE
  8
寸法
  6
CONTINUOUS
 10
106.949872
 20
97.765393
 11
138.84987
 21
97.765393
  0
POINT
  8
寸法
 10
106.949872
 20
97.765393
  0
POINT
  8
寸法
 10
138.84987
 20
97.765393
  0
TEXT
  7
TextStyle03
  8
寸法
  6
CONTINUOUS
 10
119.59375
 20
98.125
  1
31.9
 40
3.0
 72
     5
 11
126.15625
 21
98.125
  0
ENDBLK
  0
BLOCK
  2
*DIM_0094
 70
    65
 10
0.0
 20
0.0
  0
LINE
  8
寸法
  6
CONTINUOUS
 10
11.64987
 20
-83.308325
 11
11.64987
 21
-85.841835
  0
LINE
  8
寸法
  6
CONTINUOUS
 10
128.749868
 20
-83.308325
 11
128.749868
 21
-85.841835
  0
LINE
  8
寸法
  6
CONTINUOUS
 10
11.64987
 20
-85.841835
 11
128.749868
 21
-85.841835
  0
POINT
  8
寸法
 10
11.64987
 20
-85.841835
  0
POINT
  8
寸法
 10
128.749868
 20
-85.841835
  0
TEXT
  7
TextStyle03
  8
寸法
  6
CONTINUOUS
 10
66.05
 20
-85.475
  1
117.1
 40
3.0
 72
     5
 11
74.3
 21
-85.475
  0
ENDBLK
  0
ENDSEC
  0
SECTION
  2
ENTITIES
  0
POLYLINE
  8
通り芯
  6
CONTINUOUS
 66
     1
 70
     1
  0
VERTEX
  8
通り芯
 10
-210.0
 20
-148.5
  0
VERTEX
  8
通り芯
 10
210.0
 20
-148.5
  0
VERTEX
  8
通り芯
 10
210.0
 20
148.5
  0
VERTEX
  8
通り芯
 10
-210.0
 20
148.5
  0
SEQEND
  0
INSERT
  2
*GRP_0001
  8
通り芯
  6
CONTINUOUS
 10
0.0
 20
0.0
  0
LINE
  8
通り芯
  6
CONTINUOUS
 10
-61.705985
 20
-37.68411
 11
-59.927088
 21
-36.226192
  0
LINE
  8
通り芯
  6
CONTINUOUS
 10
-31.234325
 20
-74.86451
 11
-29.455412
 21
-73.40658
  0
LINE
  8
通り芯
  6
CONTINUOUS
 10
-31.234325
 20
-74.86451
 11
-61.705985
 21
-37.68411
  0
LINE
  8
通り芯
  6
CONTINUOUS
 10
-29.455412
 20
-73.40658
 11
-59.927088
 21
-36.226192
  0
LINE
  8
通り芯
  6
CONTINUOUS
 10
-27.552762
 20
-76.808302
 11
-27.552762
 21
-74.808302
  0
LINE
  8
通り芯
  6
CONTINUOUS
 10
-6.052762
 20
-74.808302
 11
-27.552762
 21
-74.808302
  0
LINE
  8
通り芯
  6
CONTINUOUS
 10
-6.052762
 20
-76.808302
 11
-27.552762
 21
-76.808302
  0
LINE
  8
通り芯
  6
CONTINUOUS
 10
-6.052762
 20
-74.808302
 11
-6.052762
 21
-76.808302
  0
INSERT
  2
*GRP_0002
  8
通り芯
  6
CONTINUOUS
 10
0.0
 20
0.0
  0
INSERT
  2
*GRP_0003
  8
通り芯
  6
CONTINUOUS
 10
0.0
 20
0.0
  0
LINE
  8
通り芯
  6
CONTINUOUS
 10
-50.154065
 20
-48.150865
 11
-50.475043
 21
-51.387692
  0
LINE
  8
通り芯
  6
CONTINUOUS
 10
-49.705847
 20
-48.697763
 11
-50.026825
 21
-51.934592
  0
LINE
  8
通り芯
  6
CONTINUOUS
 10
-33.63116
 20
-68.31149
 11
-33.95214
 21
-71.548333
  0
LINE
  8
通り芯
  6
CONTINUOUS
 10
-33.182942
 20
-68.858388
 11
-33.503923
 21
-72.095233
  0
LINE
  8
通り芯
  6
CONTINUOUS
 10
-10.48479
 20
-74.808302
 11
-8.484788
 21
-76.808302
  0
LINE
  8
通り芯
  6
CONTINUOUS
 10
-9.777685
 20
-74.808302
 11
-7.777682
 21
-76.808302
  0
LINE
  8
通り芯
  6
CONTINUOUS
 10
-25.642465
 20
-74.808302
 11
-23.642462
 21
-76.808302
  0
LINE
  8
通り芯
  6
CONTINUOUS
 10
-24.93536
 20
-74.808302
 11
-22.935358
 21
-76.808302
  0
INSERT
  2
*GRP_0004
  8
通り芯
  6
CONTINUOUS
 10
0.0
 20
0.0
  0
INSERT
  2
*GRP_0087
  8
通り芯
  6
CONTINUOUS
 10
0.0
 20
0.0
  0
INSERT
  2
*GRP_0005
  8
型材断面
  6
CONTINUOUS
 10
0.0
 20
0.0
  0
POLYLINE
  8
型材断面
  6
CONTINUOUS
 66
     1
  0
VERTEX
  8
型材断面
 10
-142.309365
 20
94.10116
  0
VERTEX
  8
型材断面
 10
-144.098523
 20
87.538107
  0
VERTEX
  8
型材断面
 10
-142.309365
 20
87.538107
  0
SEQEND
  0
POLYLINE
  8
型材断面
  6
CONTINUOUS
 66
     1
  0
VERTEX
  8
型材断面
 10
-142.309365
 20
91.431912
  0
VERTEX
  8
型材断面
 10
-144.098523
 20
84.86886
  0
VERTEX
  8
型材断面
 10
-142.309365
 20
84.86886
  0
SEQEND
  0
INSERT
  2
*GRP_0006
  8
型材断面
  6
DOT
 10
0.0
 20
0.0
  0
LINE
  8
型材断面
  6
DOT
 10
-16.051295
 20
4.837372
 11
-16.051295
 21
6.837372
  0
LINE
  8
型材断面
  6
DOT
 10
-37.051295
 20
4.837372
 11
-37.051295
 21
6.837372
  0
LINE
  8
型材断面
  6
DOT
 10
-37.051295
 20
5.337372
 11
-16.051295
 21
5.337372
  0
LINE
  8
型材断面
  6
DOT
 10
-37.051295
 20
5.837372
 11
-16.051295
 21
5.837372
  0
LINE
  8
型材断面
  6
DOT
 10
-37.051295
 20
6.337372
 11
-16.051295
 21
6.337372
  0
INSERT
  2
*GRP_0055
  8
型材断面
  6
CONTINUOUS
 62
    47
 10
0.0
 20
0.0
  0
INSERT
  2
*GRP_0056
  8
型材断面
  6
CONTINUOUS
 62
    47
 10
0.0
 20
0.0
  0
LINE
  8
型材断面
  6
DOT
 10
62.948645
 20
4.841725
 11
62.948645
 21
6.841725
  0
LINE
  8
型材断面
  6
DOT
 10
41.948645
 20
4.841725
 11
41.948645
 21
6.841725
  0
LINE
  8
型材断面
  6
DOT
 10
41.948645
 20
5.341725
 11
62.948645
 21
5.341725
  0
LINE
  8
型材断面
  6
DOT
 10
41.948645
 20
5.841725
 11
62.948645
 21
5.841725
  0
LINE
  8
型材断面
  6
DOT
 10
41.948645
 20
6.341725
 11
62.948645
 21
6.341725
  0
INSERT
  2
*GRP_0066
  8
型材断面
  6
CONTINUOUS
 10
0.0
 20
0.0
  0
INSERT
  2
*GRP_0067
  8
型材断面
  6
CONTINUOUS
 10
0.0
 20
0.0
  0
INSERT
  2
*GRP_0068
  8
型材断面
  6
DOT
 10
0.0
 20
0.0
  0
LINE
  8
型材断面
  6
DOT
 10
95.649825
 20
-55.408267
 11
95.649825
 21
-53.408265
  0
LINE
  8
型材断面
  6
DOT
 10
87.649822
 20
-55.408267
 11
87.649822
 21
-53.408265
  0
LINE
  8
型材断面
  6
DOT
 10
95.649825
 20
-55.00827
 11
87.649822
 21
-55.00827
  0
LINE
  8
型材断面
  6
DOT
 10
95.649825
 20
-54.608265
 11
87.649822
 21
-54.608265
  0
LINE
  8
型材断面
  6
DOT
 10
95.649825
 20
-54.208267
 11
87.649822
 21
-54.208267
  0
LINE
  8
型材断面
  6
DOT
 10
95.649825
 20
-53.808262
 11
87.649822
 21
-53.808262
  0
LINE
  8
型材断面
  6
DOT
 10
95.649825
 20
-15.783255
 11
87.64983
 21
-15.783263
  0
LINE
  8
型材断面
  6
DOT
 10
95.649825
 20
-16.158262
 11
87.64983
 21
-16.158262
  0
LINE
  8
型材断面
  6
DOT
 10
95.649825
 20
-16.533255
 11
87.64983
 21
-16.533262
  0
LINE
  8
型材断面
  6
DOT
 10
95.649825
 20
-16.913257
 11
87.64983
 21
-16.913265
  0
LINE
  8
型材断面
  6
DOT
 10
95.649825
 20
-17.293253
 11
87.64983
 21
-17.29326
  0
LINE
  8
型材断面
  6
DOT
 10
95.649825
 20
-15.408263
 11
95.649803
 21
-19.40826
  0
LINE
  8
型材断面
  6
DOT
 10
87.64983
 20
-15.408263
 11
87.64983
 21
-17.408265
  0
POLYLINE
  8
型材断面
  6
DOT
 66
     1
  0
VERTEX
  8
型材断面
 10
95.649825
 20
-17.673255
  0
VERTEX
  8
型材断面
 10
91.878518
 20
-17.673262
  0
VERTEX
  8
型材断面
 10
91.878495
 20
-17.673262
  0
SEQEND
  0
POLYLINE
  8
型材断面
  6
DOT
 66
     1
  0
VERTEX
  8
型材断面
 10
91.42119
 20
-17.673262
  0
VERTEX
  8
型材断面
 10
91.421168
 20
-17.673262
  0
VERTEX
  8
型材断面
 10
88.654245
 20
-17.673262
  0
SEQEND
  0
LINE
  8
型材断面
  6
DOT
 10
95.649825
 20
-18.053258
 11
92.757308
 21
-18.053258
  0
LINE
  8
型材断面
  6
DOT
 10
90.54237
 20
-18.053265
 11
88.691423
 21
-18.053265
  0
LINE
  8
型材断面
  6
DOT
 10
95.649825
 20
-18.433252
 11
93.103073
 21
-18.433252
  0
LINE
  8
型材断面
  6
DOT
 10
90.196613
 20
-18.43326
 11
88.549538
 21
-18.43326
  0
LINE
  8
型材断面
  6
DOT
 10
95.649825
 20
-19.193257
 11
93.386587
 21
-19.193257
  0
LINE
  8
型材断面
  6
DOT
 10
89.913098
 20
-19.193265
 11
88.406963
 21
-19.193265
  0
LINE
  8
型材断面
  6
DOT
 10
95.649825
 20
-18.813255
 11
93.29559
 21
-18.813255
  0
LINE
  8
型材断面
  6
DOT
 10
90.004095
 20
-18.813263
 11
88.454775
 21
-18.813263
  0
LINE
  8
型材断面
  6
DOT
 10
88.404038
 20
-19.57326
 11
89.907638
 21
-19.57326
  0
LINE
  8
型材断面
  6
DOT
 10
93.392048
 20
-19.573253
 11
94.895655
 21
-19.573253
  0
LINE
  8
型材断面
  6
DOT
 10
88.445865
 20
-19.953262
 11
89.986875
 21
-19.953262
  0
LINE
  8
型材断面
  6
DOT
 10
93.312817
 20
-19.953255
 11
94.85382
 21
-19.953255
  0
LINE
  8
型材断面
  6
DOT
 10
88.53426
 20
-20.333265
 11
90.164295
 21
-20.333265
  0
LINE
  8
型材断面
  6
DOT
 10
93.135397
 20
-20.333258
 11
94.765432
 21
-20.333258
  0
LINE
  8
型材断面
  6
DOT
 10
89.140215
 20
-21.473265
 11
90.457612
 21
-21.473265
  0
LINE
  8
型材断面
  6
DOT
 10
92.842073
 20
-21.473257
 11
94.159477
 21
-21.473257
  0
LINE
  8
型材断面
  6
DOT
 10
88.87077
 20
-21.093263
 11
90.55788
 21
-21.093263
  0
LINE
  8
型材断面
  6
DOT
 10
92.741805
 20
-21.093255
 11
94.428923
 21
-21.093255
  0
LINE
  8
型材断面
  6
DOT
 10
90.451342
 20
-20.71326
 11
88.673355
 21
-20.71326
  0
LINE
  8
型材断面
  6
DOT
 10
94.62633
 20
-20.713252
 11
92.84835
 21
-20.713252
  0
INSERT
  2
*GRP_0069
  8
型材断面
  6
CONTINUOUS
 62
    47
 10
0.0
 20
0.0
  0
LINE
  8
ガラス
  6
CONTINUOUS
 10
-76.051365
 20
53.682575
 11
-76.051365
 21
4.59168
  0
LINE
  8
ガラス
  6
CONTINUOUS
 10
-75.551365
 20
53.682575
 11
-75.551365
 21
4.59168
  0
LINE
  8
ガラス
  6
CONTINUOUS
 10
-82.351365
 20
53.682575
 11
-82.351365
 21
4.59168
  0
LINE
  8
ガラス
  6
CONTINUOUS
 10
-81.851365
 20
53.682575
 11
-81.851365
 21
4.59168
  0
INSERT
  2
*GRP_0070
  8
ガラス
  6
CONTINUOUS
 10
0.0
 20
0.0
  0
INSERT
  2
*GRP_0071
  8
ガラス
  6
CONTINUOUS
 10
0.0
 20
0.0
  0
INSERT
  2
*GRP_0072
  8
ガラス
  6
CONTINUOUS
 10
0.0
 20
0.0
  0
INSERT
  2
*GRP_0073
  8
ガラス
  6
CONTINUOUS
 10
0.0
 20
0.0
  0
INSERT
  2
*GRP_0074
  8
ガラス
  6
CONTINUOUS
 10
0.0
 20
0.0
  0
INSERT
  2
*GRP_0075
  8
ガラス
  6
CONTINUOUS
 10
0.0
 20
0.0
  0
INSERT
  2
*GRP_0076
  8
ガラス
  6
CONTINUOUS
 10
0.0
 20
0.0
  0
INSERT
  2
*GRP_0077
  8
ガラス
  6
CONTINUOUS
 10
0.0
 20
0.0
  0
INSERT
  2
*GRP_0078
  8
ガラス
  6
CONTINUOUS
 10
0.0
 20
0.0
  0
INSERT
  2
*GRP_0007
  8
ゴム等
  6
CONTINUOUS
 10
0.0
 20
0.0
  0
INSERT
  2
*GRP_0008
  8
ゴム等
  6
CONTINUOUS
 10
0.0
 20
0.0
  0
INSERT
  2
*GRP_0009
  8
ゴム等
  6
DOT
 10
0.0
 20
0.0
  0
INSERT
  2
*GRP_0010
  8
ゴム等
  6
CONTINUOUS
 10
0.0
 20
0.0
  0
INSERT
  2
*GRP_0079
  8
ゴム等
  6
DOT
 10
0.0
 20
0.0
  0
INSERT
  2
*GRP_0080
  8
ゴム等
  6
DOT
 10
0.0
 20
0.0
  0
INSERT
  2
*GRP_0081
  8
ゴム等
  6
CONTINUOUS
 10
0.0
 20
0.0
  0
INSERT
  2
*GRP_0082
  8
ゴム等
  6
CONTINUOUS
 10
0.0
 20
0.0
  0
INSERT
  2
*GRP_0011
  8
ボルト／ビス
  6
CONTINUOUS
 10
0.0
 20
0.0
  0
INSERT
  2
*GRP_0012
  8
ボルト／ビス
  6
CONTINUOUS
 10
0.0
 20
0.0
  0
INSERT
  2
*GRP_0013
  8
ボルト／ビス
  6
CONTINUOUS
 10
0.0
 20
0.0
  0
INSERT
  2
*GRP_0014
  8
ボルト／ビス
  6
CONTINUOUS
 10
0.0
 20
0.0
  0
INSERT
  2
*GRP_0039
  8
ボルト／ビス
  6
CONTINUOUS
 62
    64
 10
0.0
 20
0.0
  0
INSERT
  2
*GRP_0040
  8
ボルト／ビス
  6
CONTINUOUS
 62
    64
 10
0.0
 20
0.0
  0
INSERT
  2
*GRP_0062
  8
ボルト／ビス
  6
CONTINUOUS
 62
    64
 10
0.0
 20
0.0
  0
INSERT
  2
*GRP_0063
  8
ボルト／ビス
  6
CONTINUOUS
 62
    64
 10
0.0
 20
0.0
  0
INSERT
  2
*GRP_0083
  8
ボルト／ビス
  6
CONTINUOUS
 10
0.0
 20
0.0
  0
INSERT
  2
*GRP_0084
  8
ボルト／ビス
  6
CONTINUOUS
 10
0.0
 20
0.0
  0
TEXT
  7
TextStyle03
  8
文字
  6
CONTINUOUS
 10
-142.3
 20
24.85
  1
ドーム呼称寸法
 40
4.0
 50
90.0
 72
     5
 11
-142.3
 21
55.85
  0
TEXT
  7
TextStyle03
  8
文字
  6
CONTINUOUS
 10
-48.725
 20
-83.05
  1
TK-1112
 40
4.0
 50
90.0
 72
     5
 11
-48.725
 21
-67.55
  0
TEXT
  7
TextStyle03
  8
文字
  6
CONTINUOUS
 10
-104.15
 20
33.175
  1
TK-0009
 40
4.0
 50
90.0
 72
     5
 11
-104.15
 21
48.675
  0
TEXT
  7
TextStyle03
  8
文字
  6
CONTINUOUS
 10
-56.125
 20
-67.4
  1
TKR-1401
 40
4.0
 50
90.0
 72
     5
 11
-56.125
 21
-49.65
  0
TEXT
  7
TextStyle03
  8
文字
  6
CONTINUOUS
 10
-109.475
 20
-67.95
  1
TKR-1701
 40
4.0
 50
90.0
 72
     5
 11
-109.475
 21
-50.2
  0
TEXT
  7
TextStyle03
  8
文字
  6
CONTINUOUS
 10
87.325
 20
104.525
  1
ＮＳコード：ＮＳＤ
 40
5.0
 72
     5
 11
137.325
 21
104.525
  0
TEXT
  7
TextStyle03
  8
文字
  6
CONTINUOUS
 10
-0.375
 20
-116.475
  1
TKR-1401
 40
4.0
 50
90.0
 72
     5
 11
-0.375
 21
-98.725
  0
TEXT
  7
TextStyle03
  8
文字
  6
CONTINUOUS
 10
-54.425
 20
-0.8
  1
TK-1104S
 40
4.0
 50
90.0
 72
     5
 11
-54.425
 21
16.95
  0
TEXT
  7
TextStyle03
  8
文字
  6
CONTINUOUS
 10
-91.925
 20
34.7
  1
TKR-1303
 40
4.0
 50
90.0
 72
     5
 11
-91.925
 21
52.45
  0
TEXT
  7
TextStyle03
  8
文字
  6
CONTINUOUS
 10
-61.775
 20
31.225
  1
TKR-1107
 40
4.0
 50
90.0
 72
     5
 11
-61.775
 21
48.975
  0
TEXT
  7
TextStyle03
  8
文字
  6
CONTINUOUS
 10
-57.275
 20
26.975
  1
TK-1166
 40
4.0
 50
90.0
 72
     5
 11
-57.275
 21
42.475
  0
TEXT
  7
TextStyle03
  8
文字
  6
CONTINUOUS
 10
87.75
 20
125.05
  1
シリーズ：ＴＤ１
 40
5.0
 72
     5
 11
132.125
 21
125.05
  0
TEXT
  7
TextStyle03
  8
文字
  6
CONTINUOUS
 10
87.75
 20
119.425
  1
　　　　　（上下可動）
 40
5.0
 72
     5
 11
149.0
 21
119.425
  0
TEXT
  7
TextStyle03
  8
文字
  6
CONTINUOUS
 10
87.75
 20
113.8
  1
図面名　：下枠断面詳細図Ａ
 40
5.0
 72
     5
 11
160.25
 21
113.8
  0
TEXT
  7
TextStyle03
  8
文字
  6
CONTINUOUS
 10
93.2
 20
-130.3
  1
M4リベット
 40
4.0
 50
90.0
 72
     5
 11
93.2
 21
-108.3
  0
TEXT
  7
TextStyle03
  8
文字
  6
CONTINUOUS
 10
97.7
 20
-130.3
  1
(コーナー)
 40
4.0
 50
90.0
 72
     5
 11
97.7
 21
-108.05
  0
TEXT
  7
TextStyle03
  8
文字
  6
CONTINUOUS
 10
27.95
 20
-71.15
  1
TKR-1301
 40
4.0
 50
90.0
 72
     5
 11
27.95
 21
-53.4
  0
TEXT
  7
TextStyle03
  8
文字
  6
CONTINUOUS
 10
13.15
 20
-33.775
  1
TKR-1201
 40
4.0
 50
90.0
 72
     5
 11
13.15
 21
-16.025
  0
TEXT
  7
TextStyle03
  8
文字
  6
CONTINUOUS
 10
123.775
 20
20.775
  1
アンカー　St-3.2t
 40
4.0
 50
90.0
 72
     5
 11
123.775
 21
58.775
  0
TEXT
  7
TextStyle03
  8
文字
  6
CONTINUOUS
 10
12.85
 20
108.775
  1
バランスステー
 40
3.0
 50
90.0
 72
     5
 11
12.85
 21
132.025
  0
TEXT
  7
TextStyle03
  8
文字
  6
CONTINUOUS
 10
5.325
 20
57.5
  1
出荷固定金物
 40
4.0
 50
90.0
 72
     5
 11
5.325
 21
84.0
  0
INSERT
  2
*DIM_0015
  8
寸法
  6
CONTINUOUS
 10
0.0
 20
0.0
  0
INSERT
  2
*DIM_0016
  8
寸法
  6
CONTINUOUS
 10
0.0
 20
0.0
  0
INSERT
  2
*DIM_0017
  8
寸法
  6
CONTINUOUS
 10
0.0
 20
0.0
  0
INSERT
  2
*GRP_0018
  8
寸法
  6
CONTINUOUS
 10
0.0
 20
0.0
  0
INSERT
  2
*GRP_0019
  8
寸法
  6
CONTINUOUS
 10
0.0
 20
0.0
  0
INSERT
  2
*GRP_0020
  8
寸法
  6
CONTINUOUS
 10
0.0
 20
0.0
  0
INSERT
  2
*DIM_0021
  8
寸法
  6
CONTINUOUS
 10
0.0
 20
0.0
  0
INSERT
  2
*GRP_0022
  8
寸法
  6
CONTINUOUS
 10
0.0
 20
0.0
  0
INSERT
  2
*DIM_0023
  8
寸法
  6
CONTINUOUS
 10
0.0
 20
0.0
  0
INSERT
  2
*DIM_0024
  8
寸法
  6
CONTINUOUS
 10
0.0
 20
0.0
  0
INSERT
  2
*GRP_0025
  8
寸法
  6
CONTINUOUS
 10
0.0
 20
0.0
  0
INSERT
  2
*GRP_0026
  8
寸法
  6
CONTINUOUS
 10
0.0
 20
0.0
  0
INSERT
  2
*GRP_0027
  8
寸法
  6
CONTINUOUS
 10
0.0
 20
0.0
  0
INSERT
  2
*GRP_0028
  8
寸法
  6
CONTINUOUS
 10
0.0
 20
0.0
  0
INSERT
  2
*GRP_0029
  8
寸法
  6
CONTINUOUS
 10
0.0
 20
0.0
  0
INSERT
  2
*DIM_0030
  8
寸法
  6
CONTINUOUS
 10
0.0
 20
0.0
  0
INSERT
  2
*DIM_0031
  8
寸法
  6
CONTINUOUS
 10
0.0
 20
0.0
  0
INSERT
  2
*DIM_0041
  8
寸法
  6
CONTINUOUS
 10
0.0
 20
0.0
  0
INSERT
  2
*DIM_0042
  8
寸法
  6
CONTINUOUS
 10
0.0
 20
0.0
  0
INSERT
  2
*DIM_0043
  8
寸法
  6
CONTINUOUS
 10
0.0
 20
0.0
  0
INSERT
  2
*DIM_0044
  8
寸法
  6
CONTINUOUS
 10
0.0
 20
0.0
  0
INSERT
  2
*DIM_0045
  8
寸法
  6
CONTINUOUS
 10
0.0
 20
0.0
  0
INSERT
  2
*DIM_0046
  8
寸法
  6
CONTINUOUS
 10
0.0
 20
0.0
  0
INSERT
  2
*DIM_0048
  8
寸法
  6
CONTINUOUS
 10
0.0
 20
0.0
  0
INSERT
  2
*DIM_0049
  8
寸法
  6
CONTINUOUS
 10
0.0
 20
0.0
  0
INSERT
  2
*DIM_0050
  8
寸法
  6
CONTINUOUS
 10
0.0
 20
0.0
  0
INSERT
  2
*GRP_0051
  8
寸法
  6
CONTINUOUS
 10
0.0
 20
0.0
  0
INSERT
  2
*GRP_0052
  8
寸法
  6
CONTINUOUS
 10
0.0
 20
0.0
  0
INSERT
  2
*GRP_0053
  8
寸法
  6
CONTINUOUS
 10
0.0
 20
0.0
  0
INSERT
  2
*GRP_0054
  8
寸法
  6
CONTINUOUS
 10
0.0
 20
0.0
  0
INSERT
  2
*GRP_0057
  8
寸法
  6
CONTINUOUS
 10
0.0
 20
0.0
  0
INSERT
  2
*GRP_0058
  8
寸法
  6
CONTINUOUS
 10
0.0
 20
0.0
  0
INSERT
  2
*GRP_0065
  8
寸法
  6
CONTINUOUS
 10
0.0
 20
0.0
  0
INSERT
  2
*DIM_0090
  8
寸法
  6
CONTINUOUS
 10
0.0
 20
0.0
  0
INSERT
  2
*DIM_0091
  8
寸法
  6
CONTINUOUS
 10
0.0
 20
0.0
  0
INSERT
  2
*DIM_0092
  8
寸法
  6
CONTINUOUS
 10
0.0
 20
0.0
  0
INSERT
  2
*DIM_0093
  8
寸法
  6
CONTINUOUS
 10
0.0
 20
0.0
  0
INSERT
  2
*DIM_0094
  8
寸法
  6
CONTINUOUS
 10
0.0
 20
0.0
  0
INSERT
  2
*GRP_0085
  8
別途部材
  6
DOT
 10
0.0
 20
0.0
  0
LINE
  8
曲げ物
  6
CONTINUOUS
 10
-82.35132
 20
4.59168
 11
-75.551318
 21
4.59168
  0
INSERT
  2
*GRP_0032
  8
鉄骨等
  6
CONTINUOUS
 10
0.0
 20
0.0
  0
INSERT
  2
*GRP_0033
  8
St
  6
CONTINUOUS
 10
0.0
 20
0.0
  0
INSERT
  2
*GRP_0034
  8
St
  6
CONTINUOUS
 10
0.0
 20
0.0
  0
INSERT
  2
*GRP_0035
  8
St
  6
CONTINUOUS
 10
0.0
 20
0.0
  0
INSERT
  2
*GRP_0047
  8
St
  6
CONTINUOUS
 10
0.0
 20
0.0
  0
INSERT
  2
*GRP_0059
  8
St
  6
CONTINUOUS
 10
0.0
 20
0.0
  0
LINE
  8
St
  6
DOT
 10
69.449813
 20
61.091745
 11
69.449813
 21
106.571983
  0
LINE
  8
St
  6
DOT
 10
35.449807
 20
61.091745
 11
35.449807
 21
106.571983
  0
LINE
  8
St
  6
DOT
 10
-9.551288
 20
36.091733
 11
-9.551288
 21
106.571983
  0
LINE
  8
St
  6
DOT
 10
-43.551293
 20
36.091733
 11
-43.551293
 21
106.571983
  0
INSERT
  2
*GRP_0064
  8
St
  6
CONTINUOUS
 10
0.0
 20
0.0
  0
LINE
  8
その他部品等
  6
CONTINUOUS
 62
    47
 10
-142.309365
 20
4.591672
 11
-142.309365
 21
94.10116
  0
ENDSEC
  0
EOF
