  0
SECTION
  2
HEADER
  9
$EXTMIN
 10
-210.0
 20
-148.5
  9
$EXTMAX
 10
210.0
 20
148.5
  9
$PDMODE
 70
    32
  9
$PDSIZE
 40
1.5
  9
$LTSCALE
 40
10.0
  0
ENDSEC
  0
SECTION
  2
TABLES
  0
TABLE
  2
LTYPE
 70
    15
  0
LTYPE
  2
CONTINUOUS
 70
    64
  3
実線
 72
    65
 73
     0
 40
0.0
  0
LTYPE
  2
DASHED
 70
    64
  3
破線A
 72
    65
 73
     2
 40
0.6
 49
0.4
 49
-0.2
  0
LTYPE
  2
DASHEDX2
 70
    64
  3
破線B
 72
    65
 73
     2
 40
1.3
 49
0.9
 49
-0.4
  0
LTYPE
  2
DASHDOT
 70
    64
  3
１点鎖線A
 72
    65
 73
     4
 40
0.5375
 49
0.375
 49
-0.05
 49
0.0625
 49
-0.05
  0
LTYPE
  2
DASHDOTX2
 70
    64
  3
１点鎖線B
 72
    65
 73
     4
 40
1.075
 49
0.75
 49
-0.1
 49
0.125
 49
-0.1
  0
LTYPE
  2
DIVIDE2
 70
    64
  3
２点鎖線A
 72
    65
 73
     6
 40
0.5125
 49
0.3
 49
-0.0375
 49
0.05
 49
-0.0375
 49
0.05
 49
-0.0375
  0
LTYPE
  2
DIVIDE
 70
    64
  3
２点鎖線B
 72
    65
 73
     6
 40
1.05
 49
0.55
 49
-0.1
 49
0.1
 49
-0.1
 49
0.1
 49
-0.1
  0
LTYPE
  2
DOT
 70
    64
  3
点線A
 72
    65
 73
     2
 40
0.1125
 49
0.0625
 49
-0.05
  0
LTYPE
  2
DOTX2
 70
    64
  3
点線B
 72
    65
 73
     2
 40
0.275
 49
0.15
 49
-0.125
  0
LTYPE
  2
CONTINUOUS
 70
    64
  3
実線
 72
    65
 73
     0
 40
0.0
  0
LTYPE
  2
CONTINUOUS
 70
    64
  3
実線
 72
    65
 73
     0
 40
0.0
  0
LTYPE
  2
CONTINUOUS
 70
    64
  3
実線
 72
    65
 73
     0
 40
0.0
  0
LTYPE
  2
CONTINUOUS
 70
    64
  3
実線
 72
    65
 73
     0
 40
0.0
  0
LTYPE
  2
CONTINUOUS
 70
    64
  3
実線
 72
    65
 73
     0
 40
0.0
  0
LTYPE
  2
CONTINUOUS
 70
    64
  3
実線
 72
    65
 73
     0
 40
0.0
  0
ENDTAB
  0
TABLE
  2
LAYER
 70
    34
  0
LAYER
  2
通り芯
 70
     0
 62
    15
  6
CONTINUOUS
  0
LAYER
  2
補助線
 70
     0
 62
    16
  6
DOT
  0
LAYER
  2
躯体
 70
     0
 62
    31
  6
CONTINUOUS
  0
LAYER
  2
型材
 70
     0
 62
    32
  6
CONTINUOUS
  0
LAYER
  2
型材断面
 70
     0
 62
    47
  6
CONTINUOUS
  0
LAYER
  2
ガラス
 70
     0
 62
    48
  6
CONTINUOUS
  0
LAYER
  2
ゴム等
 70
     0
 62
    63
  6
CONTINUOUS
  0
LAYER
  2
ボルト／ビス
 70
     0
 62
    64
  6
CONTINUOUS
  0
LAYER
  2
文字
 70
     0
 62
    79
  6
CONTINUOUS
  0
LAYER
  2
寸法
 70
     0
 62
    80
  6
CONTINUOUS
  0
LAYER
  2
ﾊｯﾁﾝｸﾞ
 70
     0
 62
    95
  6
CONTINUOUS
  0
LAYER
  2
別途部材
 70
     0
 62
    96
  6
CONTINUOUS
  0
LAYER
  2
曲げ物
 70
     0
 62
   111
  6
CONTINUOUS
  0
LAYER
  2
鉄骨等
 70
     0
 62
   112
  6
CONTINUOUS
  0
LAYER
  2
St
 70
     0
 62
   127
  6
CONTINUOUS
  0
LAYER
  2
その他部品等
 70
     0
 62
   128
  6
CONTINUOUS
  0
LAYER
  2
ｶﾞｽｹｯﾄ
 70
     0
 62
   143
  6
CONTINUOUS
  0
LAYER
  2
ｽｹｯﾁ
 70
     0
 62
    14
  6
CONTINUOUS
  0
LAYER
  2
0
 70
     0
 62
    17
  6
CONTINUOUS
  0
LAYER
  2
1
 70
     0
 62
    30
  6
CONTINUOUS
  0
LAYER
  2
4
 70
     0
 62
    33
  6
CONTINUOUS
  0
LAYER
  2
ﾚｲﾔ3
 70
     0
 62
    46
  6
CONTINUOUS
  0
LAYER
  2
外形線
 70
     0
 62
    49
  6
CONTINUOUS
  0
LAYER
  2
部品
 70
     0
 62
    14
  6
CONTINUOUS
  0
LAYER
  2
サッシ芯
 70
     0
 62
    17
  6
DASHDOTX2
  0
LAYER
  2
寸法線
 70
     0
 62
    62
  6
CONTINUOUS
  0
LAYER
  2
姿図外形線
 70
     0
 62
    65
  6
CONTINUOUS
  0
LAYER
  2
姿補助線
 70
     0
 62
    30
  6
CONTINUOUS
  0
LAYER
  2
透視線
 70
     0
 62
    78
  6
DOT
  0
LAYER
  2
用紙
 70
     0
 62
    81
  6
CONTINUOUS
  0
LAYER
  2
実線図枠
 70
     0
 62
    94
  6
CONTINUOUS
  0
LAYER
  2
補助図枠
 70
     0
 62
    97
  6
CONTINUOUS
  0
LAYER
  2
建具記号
 70
     0
 62
   110
  6
CONTINUOUS
  0
LAYER
  2
補助文字
 70
     0
 62
   113
  6
CONTINUOUS
  0
ENDTAB
  0
TABLE
  2
STYLE
 70
    10
  0
STYLE
  2
STANDARD
 70
     0
 40
1.0
 41
1.0
 42
1.0
 50
0.0
 71
     0
  3
TXT
  4
BIGFONT
  0
STYLE
  2
TATE
 70
     4
 40
1.0
 41
1.0
 42
1.0
 50
0.0
 71
     0
  3
TXT
  4
BIGFONT
  0
STYLE
  2
TextStyle03
 70
     0
 40
1.0
 41
1.0
 42
1.0
 50
0.0
 71
     0
  3
MONOTXT
  4
BIGFONT
  0
STYLE
  2
TextStyle04
 70
     0
 40
1.0
 41
1.0
 42
1.0
 50
0.0
 71
     0
  3
MONOTXT
  4
BIGFONT
  0
STYLE
  2
TextStyle05
 70
     0
 40
1.0
 41
1.0
 42
1.0
 50
0.0
 71
     0
  3
MONOTXT
  4
BIGFONT
  0
STYLE
  2
TextStyle06
 70
     0
 40
1.0
 41
1.0
 42
1.0
 50
0.0
 71
     0
  3
MONOTXT
  4
BIGFONT
  0
STYLE
  2
TextStyle07
 70
     0
 40
1.0
 41
1.0
 42
1.0
 50
0.0
 71
     0
  3
MONOTXT
  4
BIGFONT
  0
STYLE
  2
TextStyle08
 70
     0
 40
1.0
 41
1.0
 42
1.0
 50
0.0
 71
     0
  3
MONOTXT
  4
BIGFONT
  0
STYLE
  2
TextStyle09
 70
     0
 40
1.0
 41
1.0
 42
1.0
 50
0.0
 71
     0
  3
MONOTXT
  4
BIGFONT
  0
STYLE
  2
TextStyle10
 70
     0
 40
1.0
 41
1.0
 42
1.0
 50
0.0
 71
     0
  3
MONOTXT
  4
BIGFONT
  0
ENDTAB
  0
ENDSEC
  0
SECTION
  2
BLOCKS
  0
BLOCK
  2
*GRP_0001
 70
    65
 10
0.0
 20
0.0
  0
LINE
  8
型材断面
  6
CONTINUOUS
 10
195.0
 20
133.5
 11
195.0
 21
-133.5
  0
LINE
  8
型材断面
  6
CONTINUOUS
 10
195.0
 20
-133.5
 11
-185.0
 21
-133.5
  0
LINE
  8
型材断面
  6
CONTINUOUS
 10
-185.0
 20
-133.5
 11
-185.0
 21
133.5
  0
LINE
  8
型材断面
  6
CONTINUOUS
 10
195.0
 20
133.5
 11
-185.0
 21
133.5
  0
LINE
  8
型材断面
  6
CONTINUOUS
 10
145.0
 20
-133.5
 11
145.0
 21
-118.5
  0
LINE
  8
型材断面
  6
CONTINUOUS
 10
195.0
 20
-118.5
 11
145.0
 21
-118.5
  0
ENDBLK
  0
BLOCK
  2
*DIM_0002
 70
    65
 10
0.0
 20
0.0
  0
LINE
  8
寸法
  6
BYBLOCK
 62
     0
 10
0.668223
 20
-67.95793
 11
37.30454
 21
-67.95793
  0
LINE
  8
寸法
  6
BYBLOCK
 62
     0
 10
37.30454
 20
-79.624597
 11
37.30454
 21
-67.95793
  0
POINT
  8
寸法
 62
     0
 10
37.30454
 20
-79.624597
  0
POINT
  8
寸法
 62
     0
 10
37.30454
 20
-67.95793
  0
TEXT
  7
TextStyle03
  8
寸法
  6
CONTINUOUS
 62
     0
 10
36.975
 20
-76.2375
  1
350
 40
3.0
 50
90.0
 72
     5
 11
36.975
 21
-71.3625
  0
ENDBLK
  0
BLOCK
  2
*DIM_0003
 70
    65
 10
0.0
 20
0.0
  0
LINE
  8
寸法
  6
BYBLOCK
 62
     0
 10
21.33489
 20
-22.536362
 11
-61.998442
 21
-22.536362
  0
POINT
  8
寸法
 62
     0
 10
21.33489
 20
-22.536362
  0
POINT
  8
寸法
 62
     0
 10
-61.998442
 20
-22.536362
  0
TEXT
  7
TextStyle03
  8
寸法
  6
CONTINUOUS
 62
     0
 10
-32.06875
 20
-22.175
  1
呼称寸法　2500
 40
3.0
 72
     5
 11
-8.63125
 21
-22.175
  0
ENDBLK
  0
BLOCK
  2
*DIM_0004
 70
    65
 10
0.0
 20
0.0
  0
LINE
  8
寸法
  6
BYBLOCK
 62
     0
 10
-45.331775
 20
9.76892
 11
-45.331775
 21
4.76579
  0
LINE
  8
寸法
  6
BYBLOCK
 62
     0
 10
4.66822
 20
9.76892
 11
4.66822
 21
4.76579
  0
LINE
  8
寸法
  6
BYBLOCK
 62
     0
 10
-45.331775
 20
4.76579
 11
4.66822
 21
4.76579
  0
POINT
  8
寸法
 62
     0
 10
-45.331775
 20
4.76579
  0
POINT
  8
寸法
 62
     0
 10
4.66822
 20
4.76579
  0
TEXT
  7
TextStyle03
  8
寸法
  6
CONTINUOUS
 62
     0
 10
-23.63125
 20
5.125
  1
1500
 40
3.0
 72
     5
 11
-17.06875
 21
5.125
  0
ENDBLK
  0
BLOCK
  2
*DIM_0005
 70
    65
 10
0.0
 20
0.0
  0
LINE
  8
寸法
  6
BYBLOCK
 62
     0
 10
22.33489
 20
56.732382
 11
32.059173
 21
56.732382
  0
LINE
  8
寸法
  6
BYBLOCK
 62
     0
 10
24.96502
 20
53.032382
 11
32.059173
 21
53.032382
  0
LINE
  8
寸法
  6
BYBLOCK
 62
     0
 10
32.059173
 20
56.732382
 11
32.059173
 21
53.032382
  0
POINT
  8
寸法
 62
     0
 10
32.059173
 20
56.732382
  0
POINT
  8
寸法
 62
     0
 10
32.059173
 20
53.032382
  0
TEXT
  7
TextStyle03
  8
寸法
  6
CONTINUOUS
 62
     0
 10
31.75
 20
57.7125
  1
111
 40
3.0
 50
90.0
 72
     5
 11
31.75
 21
62.5875
  0
ENDBLK
  0
BLOCK
  2
*DIM_0006
 70
    65
 10
0.0
 20
0.0
  0
LINE
  8
寸法
  6
BYBLOCK
 62
     0
 10
22.33489
 20
13.399048
 11
32.059173
 21
13.399045
  0
LINE
  8
寸法
  6
BYBLOCK
 62
     0
 10
24.96502
 20
17.099048
 11
32.059173
 21
17.099045
  0
LINE
  8
寸法
  6
BYBLOCK
 62
     0
 10
32.059173
 20
13.399045
 11
32.059173
 21
17.099045
  0
POINT
  8
寸法
 62
     0
 10
32.059173
 20
13.399045
  0
POINT
  8
寸法
 62
     0
 10
32.059173
 20
17.099045
  0
TEXT
  7
TextStyle03
  8
寸法
  6
CONTINUOUS
 62
     0
 10
31.725
 20
7.5375
  1
111
 40
3.0
 50
90.0
 72
     5
 11
31.725
 21
12.4125
  0
ENDBLK
  0
BLOCK
  2
*GRP_0007
 70
    65
 10
0.0
 20
0.0
  0
LINE
  8
別途部材
  6
CONTINUOUS
 62
    96
 10
-63.66511
 20
-79.624597
 11
-64.06511
 21
-80.624597
  0
ARC
  8
別途部材
  6
CONTINUOUS
 10
-40.331775
 20
-93.910308
 40
25.952382
 50
90.0
 51
146.601512
  0
LINE
  8
別途部材
  6
CONTINUOUS
 10
-64.06511
 20
-80.624597
 11
-20.331775
 21
-80.624597
  0
LINE
  8
別途部材
  6
CONTINUOUS
 62
    96
 10
-63.66511
 20
-79.624597
 11
-20.331775
 21
-79.624597
  0
LINE
  8
別途部材
  6
CONTINUOUS
 10
-20.831775
 20
-66.95793
 11
-21.831775
 21
-67.95793
  0
LINE
  8
別途部材
  6
CONTINUOUS
 10
-22.831775
 20
-67.95793
 11
-23.831775
 21
-66.95793
  0
LINE
  8
別途部材
  6
CONTINUOUS
 10
-24.831775
 20
-66.95793
 11
-25.831775
 21
-67.95793
  0
LINE
  8
別途部材
  6
CONTINUOUS
 10
-23.831775
 20
-66.95793
 11
-24.831775
 21
-66.95793
  0
LINE
  8
別途部材
  6
CONTINUOUS
 10
-20.831775
 20
-66.95793
 11
-20.331775
 21
-66.95793
  0
LINE
  8
別途部材
  6
CONTINUOUS
 10
-26.831775
 20
-67.95793
 11
-27.831775
 21
-66.95793
  0
LINE
  8
別途部材
  6
CONTINUOUS
 10
-28.831775
 20
-66.95793
 11
-29.831775
 21
-67.95793
  0
LINE
  8
別途部材
  6
CONTINUOUS
 10
-27.831775
 20
-66.95793
 11
-28.831775
 21
-66.95793
  0
LINE
  8
別途部材
  6
CONTINUOUS
 10
-30.831775
 20
-67.95793
 11
-31.831775
 21
-66.95793
  0
LINE
  8
別途部材
  6
CONTINUOUS
 10
-32.831775
 20
-66.95793
 11
-33.831775
 21
-67.95793
  0
LINE
  8
別途部材
  6
CONTINUOUS
 10
-31.831775
 20
-66.95793
 11
-32.831775
 21
-66.95793
  0
LINE
  8
別途部材
  6
CONTINUOUS
 10
-34.831775
 20
-67.95793
 11
-35.831775
 21
-66.95793
  0
LINE
  8
別途部材
  6
CONTINUOUS
 10
-36.831775
 20
-66.95793
 11
-37.831775
 21
-67.95793
  0
LINE
  8
別途部材
  6
CONTINUOUS
 10
-35.831775
 20
-66.95793
 11
-36.831775
 21
-66.95793
  0
LINE
  8
別途部材
  6
CONTINUOUS
 10
-33.831775
 20
-67.95793
 11
-34.831775
 21
-67.95793
  0
LINE
  8
別途部材
  6
CONTINUOUS
 10
-29.831775
 20
-67.95793
 11
-30.831775
 21
-67.95793
  0
LINE
  8
別途部材
  6
CONTINUOUS
 10
-25.831775
 20
-67.95793
 11
-26.831775
 21
-67.95793
  0
LINE
  8
別途部材
  6
CONTINUOUS
 10
-22.831775
 20
-67.95793
 11
-21.831775
 21
-67.95793
  0
LINE
  8
別途部材
  6
CONTINUOUS
 10
-36.831775
 20
-66.95793
 11
-36.831775
 21
-79.624597
  0
LINE
  8
別途部材
  6
CONTINUOUS
 10
-35.831775
 20
-66.95793
 11
-35.831775
 21
-79.624597
  0
LINE
  8
別途部材
  6
CONTINUOUS
 10
-25.831775
 20
-67.95793
 11
-25.831775
 21
-79.624597
  0
LINE
  8
別途部材
  6
CONTINUOUS
 10
-20.831775
 20
-66.95793
 11
-20.831775
 21
-79.624597
  0
LINE
  8
別途部材
  6
CONTINUOUS
 10
-21.831775
 20
-67.95793
 11
-21.831775
 21
-79.624597
  0
LINE
  8
別途部材
  6
CONTINUOUS
 10
-23.831775
 20
-66.95793
 11
-23.831775
 21
-79.624597
  0
LINE
  8
別途部材
  6
CONTINUOUS
 10
-24.831775
 20
-66.95793
 11
-24.831775
 21
-79.624597
  0
LINE
  8
別途部材
  6
CONTINUOUS
 10
-26.831775
 20
-67.95793
 11
-26.831775
 21
-79.624597
  0
LINE
  8
別途部材
  6
CONTINUOUS
 10
-37.831775
 20
-67.95793
 11
-37.831775
 21
-79.624597
  0
LINE
  8
別途部材
  6
CONTINUOUS
 10
-33.831775
 20
-67.95793
 11
-33.831775
 21
-79.624597
  0
LINE
  8
別途部材
  6
CONTINUOUS
 10
-34.831775
 20
-67.95793
 11
-34.831775
 21
-79.624597
  0
LINE
  8
別途部材
  6
CONTINUOUS
 10
-32.831775
 20
-66.95793
 11
-32.831775
 21
-79.624597
  0
LINE
  8
別途部材
  6
CONTINUOUS
 10
-30.831775
 20
-67.95793
 11
-30.831775
 21
-79.624597
  0
LINE
  8
別途部材
  6
CONTINUOUS
 10
-31.831775
 20
-66.95793
 11
-31.831775
 21
-79.624597
  0
LINE
  8
別途部材
  6
CONTINUOUS
 10
-29.831775
 20
-67.95793
 11
-29.831775
 21
-79.624597
  0
LINE
  8
別途部材
  6
CONTINUOUS
 10
-27.831775
 20
-66.95793
 11
-27.831775
 21
-79.624597
  0
LINE
  8
別途部材
  6
CONTINUOUS
 10
-28.831775
 20
-66.95793
 11
-28.831775
 21
-79.624597
  0
LINE
  8
別途部材
  6
CONTINUOUS
 10
-22.831775
 20
-67.95793
 11
-22.831775
 21
-79.624597
  0
LINE
  8
別途部材
  6
CONTINUOUS
 10
-37.831775
 20
-67.95793
 11
-40.331775
 21
-67.95793
  0
LINE
  8
別途部材
  6
CONTINUOUS
 62
    96
 10
23.001557
 20
-79.624597
 11
23.401557
 21
-80.624597
  0
ARC
  8
別途部材
  6
CONTINUOUS
 10
-0.331776
 20
-93.910308
 40
25.952382
 50
33.398488
 51
90.0
  0
LINE
  8
別途部材
  6
CONTINUOUS
 10
23.401557
 20
-80.624597
 11
-20.331775
 21
-80.624597
  0
LINE
  8
別途部材
  6
CONTINUOUS
 62
    96
 10
23.001557
 20
-79.624597
 11
-20.331775
 21
-79.624597
  0
LINE
  8
別途部材
  6
CONTINUOUS
 10
-19.831775
 20
-66.95793
 11
-18.831775
 21
-67.95793
  0
LINE
  8
別途部材
  6
CONTINUOUS
 10
-17.831775
 20
-67.95793
 11
-16.831775
 21
-66.95793
  0
LINE
  8
別途部材
  6
CONTINUOUS
 10
-15.831775
 20
-66.95793
 11
-14.831775
 21
-67.95793
  0
LINE
  8
別途部材
  6
CONTINUOUS
 10
-16.831775
 20
-66.95793
 11
-15.831775
 21
-66.95793
  0
LINE
  8
別途部材
  6
CONTINUOUS
 10
-19.831775
 20
-66.95793
 11
-20.331775
 21
-66.95793
  0
LINE
  8
別途部材
  6
CONTINUOUS
 10
-13.831775
 20
-67.95793
 11
-12.831775
 21
-66.95793
  0
LINE
  8
別途部材
  6
CONTINUOUS
 10
-11.831775
 20
-66.95793
 11
-10.831775
 21
-67.95793
  0
LINE
  8
別途部材
  6
CONTINUOUS
 10
-12.831775
 20
-66.95793
 11
-11.831775
 21
-66.95793
  0
LINE
  8
別途部材
  6
CONTINUOUS
 10
-9.831775
 20
-67.95793
 11
-8.831775
 21
-66.95793
  0
LINE
  8
別途部材
  6
CONTINUOUS
 10
-7.831775
 20
-66.95793
 11
-6.831775
 21
-67.95793
  0
LINE
  8
別途部材
  6
CONTINUOUS
 10
-8.831775
 20
-66.95793
 11
-7.831775
 21
-66.95793
  0
LINE
  8
別途部材
  6
CONTINUOUS
 10
-5.831775
 20
-67.95793
 11
-4.831775
 21
-66.95793
  0
LINE
  8
別途部材
  6
CONTINUOUS
 10
-3.831775
 20
-66.95793
 11
-2.831775
 21
-67.95793
  0
LINE
  8
別途部材
  6
CONTINUOUS
 10
-4.831775
 20
-66.95793
 11
-3.831775
 21
-66.95793
  0
LINE
  8
別途部材
  6
CONTINUOUS
 10
-6.831775
 20
-67.95793
 11
-5.831775
 21
-67.95793
  0
LINE
  8
別途部材
  6
CONTINUOUS
 10
-10.831775
 20
-67.95793
 11
-9.831775
 21
-67.95793
  0
LINE
  8
別途部材
  6
CONTINUOUS
 10
-14.831775
 20
-67.95793
 11
-13.831775
 21
-67.95793
  0
LINE
  8
別途部材
  6
CONTINUOUS
 10
-17.831775
 20
-67.95793
 11
-18.831775
 21
-67.95793
  0
LINE
  8
別途部材
  6
CONTINUOUS
 10
-3.831775
 20
-66.95793
 11
-3.831775
 21
-79.624597
  0
LINE
  8
別途部材
  6
CONTINUOUS
 10
-4.831775
 20
-66.95793
 11
-4.831775
 21
-79.624597
  0
LINE
  8
別途部材
  6
CONTINUOUS
 10
-14.831775
 20
-67.95793
 11
-14.831775
 21
-79.624597
  0
LINE
  8
別途部材
  6
CONTINUOUS
 10
-19.831775
 20
-66.95793
 11
-19.831775
 21
-79.624597
  0
LINE
  8
別途部材
  6
CONTINUOUS
 10
-18.831775
 20
-67.95793
 11
-18.831775
 21
-79.624597
  0
LINE
  8
別途部材
  6
CONTINUOUS
 10
-16.831775
 20
-66.95793
 11
-16.831775
 21
-79.624597
  0
LINE
  8
別途部材
  6
CONTINUOUS
 10
-15.831775
 20
-66.95793
 11
-15.831775
 21
-79.624597
  0
LINE
  8
別途部材
  6
CONTINUOUS
 10
-13.831775
 20
-67.95793
 11
-13.831775
 21
-79.624597
  0
LINE
  8
別途部材
  6
CONTINUOUS
 10
-2.831775
 20
-67.95793
 11
-2.831775
 21
-79.624597
  0
LINE
  8
別途部材
  6
CONTINUOUS
 10
-6.831775
 20
-67.95793
 11
-6.831775
 21
-79.624597
  0
LINE
  8
別途部材
  6
CONTINUOUS
 10
-5.831775
 20
-67.95793
 11
-5.831775
 21
-79.624597
  0
LINE
  8
別途部材
  6
CONTINUOUS
 10
-7.831775
 20
-66.95793
 11
-7.831775
 21
-79.624597
  0
LINE
  8
別途部材
  6
CONTINUOUS
 10
-9.831775
 20
-67.95793
 11
-9.831775
 21
-79.624597
  0
LINE
  8
別途部材
  6
CONTINUOUS
 10
-8.831775
 20
-66.95793
 11
-8.831775
 21
-79.624597
  0
LINE
  8
別途部材
  6
CONTINUOUS
 10
-10.831775
 20
-67.95793
 11
-10.831775
 21
-79.624597
  0
LINE
  8
別途部材
  6
CONTINUOUS
 10
-12.831775
 20
-66.95793
 11
-12.831775
 21
-79.624597
  0
LINE
  8
別途部材
  6
CONTINUOUS
 10
-11.831775
 20
-66.95793
 11
-11.831775
 21
-79.624597
  0
LINE
  8
別途部材
  6
CONTINUOUS
 10
-17.831775
 20
-67.95793
 11
-17.831775
 21
-79.624597
  0
LINE
  8
別途部材
  6
CONTINUOUS
 10
-2.831775
 20
-67.95793
 11
-0.331775
 21
-67.95793
  0
ENDBLK
  0
BLOCK
  2
*GRP_0008
 70
    65
 10
0.0
 20
0.0
  0
LINE
  8
補助線
  6
BYBLOCK
 62
    64
 10
-58.607215
 20
-84.524827
 11
-58.72301
 21
-84.644697
  0
LINE
  8
補助線
  6
BYBLOCK
 62
    64
 10
-58.72505
 20
-84.526862
 11
-58.605177
 21
-84.64266
  0
LINE
  8
補助線
  6
BYBLOCK
 62
    64
 10
-50.89514
 20
-76.54147
 11
-51.01094
 21
-76.66134
  0
LINE
  8
補助線
  6
BYBLOCK
 62
    64
 10
-51.012975
 20
-76.543505
 11
-50.893105
 21
-76.659303
  0
LINE
  8
補助線
  6
BYBLOCK
 62
    64
 10
-43.298867
 20
-68.677982
 11
-43.18307
 21
-68.558112
  0
LINE
  8
補助線
  6
BYBLOCK
 62
    64
 10
-43.300905
 20
-68.560148
 11
-43.181033
 21
-68.675945
  0
LINE
  8
型材断面
  6
CONTINUOUS
 10
-59.496055
 20
-84.24552
 11
-59.483835
 21
-84.95252
  0
LINE
  8
型材断面
  6
CONTINUOUS
 10
-59.483835
 20
-84.95252
 11
-59.004353
 21
-85.415708
  0
LINE
  8
型材断面
  6
CONTINUOUS
 10
-59.004353
 20
-85.415708
 11
-58.297353
 21
-85.403488
  0
LINE
  8
型材断面
  6
CONTINUOUS
 10
-43.608727
 20
-67.799323
 11
-42.901725
 21
-67.787105
  0
LINE
  8
型材断面
  6
CONTINUOUS
 10
-42.901725
 20
-67.787105
 11
-42.422242
 21
-68.25029
  0
LINE
  8
型材断面
  6
CONTINUOUS
 10
-42.422242
 20
-68.25029
 11
-42.410023
 21
-68.957293
  0
LINE
  8
型材断面
  6
CONTINUOUS
 10
-59.496055
 20
-84.24552
 11
-43.608727
 21
-67.799323
  0
LINE
  8
型材断面
  6
CONTINUOUS
 10
-58.297353
 20
-85.403488
 11
-42.410023
 21
-68.957293
  0
CIRCLE
  8
ボルト／ビス
  6
CONTINUOUS
 10
-58.665113
 20
-84.584763
 40
0.250185
  0
CIRCLE
  8
ボルト／ビス
  6
CONTINUOUS
 10
-58.665113
 20
-84.584763
 40
0.301025
  0
LINE
  8
ボルト／ビス
  6
CONTINUOUS
 62
    64
 10
-58.905617
 20
-84.653683
 11
-58.84505
 21
-84.41094
  0
LINE
  8
ボルト／ビス
  6
CONTINUOUS
 62
    64
 10
-58.604545
 20
-84.342018
 11
-58.84505
 21
-84.41094
  0
LINE
  8
ボルト／ビス
  6
CONTINUOUS
 62
    64
 10
-58.72568
 20
-84.827507
 11
-58.485175
 21
-84.758585
  0
LINE
  8
ボルト／ビス
  6
CONTINUOUS
 62
    64
 10
-58.424605
 20
-84.515842
 11
-58.485175
 21
-84.758585
  0
LINE
  8
ボルト／ビス
  6
CONTINUOUS
 62
    64
 10
-58.905617
 20
-84.653683
 11
-58.72568
 21
-84.827507
  0
LINE
  8
ボルト／ビス
  6
CONTINUOUS
 62
    64
 10
-58.604545
 20
-84.342018
 11
-58.424605
 21
-84.515842
  0
CIRCLE
  8
ボルト／ビス
  6
CONTINUOUS
 62
    64
 10
-58.665113
 20
-84.584763
 40
0.216668
  0
CIRCLE
  8
ボルト／ビス
  6
CONTINUOUS
 10
-50.95304
 20
-76.601405
 40
0.250185
  0
CIRCLE
  8
ボルト／ビス
  6
CONTINUOUS
 10
-50.95304
 20
-76.601405
 40
0.301025
  0
LINE
  8
ボルト／ビス
  6
CONTINUOUS
 62
    64
 10
-51.193545
 20
-76.670323
 11
-51.13298
 21
-76.42758
  0
LINE
  8
ボルト／ビス
  6
CONTINUOUS
 62
    64
 10
-50.892472
 20
-76.35866
 11
-51.13298
 21
-76.42758
  0
LINE
  8
ボルト／ビス
  6
CONTINUOUS
 62
    64
 10
-51.013608
 20
-76.84415
 11
-50.773103
 21
-76.775227
  0
LINE
  8
ボルト／ビス
  6
CONTINUOUS
 62
    64
 10
-50.712532
 20
-76.532485
 11
-50.773103
 21
-76.775227
  0
LINE
  8
ボルト／ビス
  6
CONTINUOUS
 62
    64
 10
-51.193545
 20
-76.670323
 11
-51.013608
 21
-76.84415
  0
LINE
  8
ボルト／ビス
  6
CONTINUOUS
 62
    64
 10
-50.892472
 20
-76.35866
 11
-50.712532
 21
-76.532485
  0
CIRCLE
  8
ボルト／ビス
  6
CONTINUOUS
 62
    64
 10
-50.95304
 20
-76.601405
 40
0.216668
  0
CIRCLE
  8
ボルト／ビス
  6
CONTINUOUS
 10
-43.240967
 20
-68.618048
 40
0.250185
  0
CIRCLE
  8
ボルト／ビス
  6
CONTINUOUS
 10
-43.240967
 20
-68.618048
 40
0.301025
  0
LINE
  8
ボルト／ビス
  6
CONTINUOUS
 62
    64
 10
-43.1804
 20
-68.375303
 11
-43.420905
 21
-68.444225
  0
LINE
  8
ボルト／ビス
  6
CONTINUOUS
 62
    64
 10
-43.481475
 20
-68.686967
 11
-43.420905
 21
-68.444225
  0
LINE
  8
ボルト／ビス
  6
CONTINUOUS
 62
    64
 10
-43.000462
 20
-68.549125
 11
-43.06103
 21
-68.79187
  0
LINE
  8
ボルト／ビス
  6
CONTINUOUS
 62
    64
 10
-43.301535
 20
-68.86079
 11
-43.06103
 21
-68.79187
  0
LINE
  8
ボルト／ビス
  6
CONTINUOUS
 62
    64
 10
-43.1804
 20
-68.375303
 11
-43.000462
 21
-68.549125
  0
LINE
  8
ボルト／ビス
  6
CONTINUOUS
 62
    64
 10
-43.481475
 20
-68.686967
 11
-43.301535
 21
-68.86079
  0
CIRCLE
  8
ボルト／ビス
  6
CONTINUOUS
 62
    64
 10
-43.240967
 20
-68.618048
 40
0.216668
  0
ENDBLK
  0
BLOCK
  2
*GRP_0009
 70
    65
 10
0.0
 20
0.0
  0
LINE
  8
補助線
  6
BYBLOCK
 62
    64
 10
-43.298865
 20
-84.524827
 11
-43.18307
 21
-84.644697
  0
LINE
  8
補助線
  6
BYBLOCK
 62
    64
 10
-43.18103
 20
-84.526862
 11
-43.300903
 21
-84.64266
  0
LINE
  8
補助線
  6
BYBLOCK
 62
    64
 10
-51.01094
 20
-76.54147
 11
-50.89514
 21
-76.66134
  0
LINE
  8
補助線
  6
BYBLOCK
 62
    64
 10
-50.893105
 20
-76.543505
 11
-51.012975
 21
-76.659303
  0
LINE
  8
補助線
  6
BYBLOCK
 62
    64
 10
-58.607212
 20
-68.677982
 11
-58.72301
 21
-68.558112
  0
LINE
  8
補助線
  6
BYBLOCK
 62
    64
 10
-58.605175
 20
-68.560148
 11
-58.725047
 21
-68.675945
  0
LINE
  8
型材断面
  6
CONTINUOUS
 10
-42.410025
 20
-84.24552
 11
-42.422245
 21
-84.95252
  0
LINE
  8
型材断面
  6
CONTINUOUS
 10
-42.422245
 20
-84.95252
 11
-42.901728
 21
-85.415708
  0
LINE
  8
型材断面
  6
CONTINUOUS
 10
-42.901728
 20
-85.415708
 11
-43.608727
 21
-85.403488
  0
LINE
  8
型材断面
  6
CONTINUOUS
 10
-58.297353
 20
-67.799323
 11
-59.004355
 21
-67.787105
  0
LINE
  8
型材断面
  6
CONTINUOUS
 10
-59.004355
 20
-67.787105
 11
-59.483838
 21
-68.25029
  0
LINE
  8
型材断面
  6
CONTINUOUS
 10
-59.483838
 20
-68.25029
 11
-59.496058
 21
-68.957293
  0
LINE
  8
型材断面
  6
CONTINUOUS
 10
-42.410025
 20
-84.24552
 11
-58.297353
 21
-67.799323
  0
LINE
  8
型材断面
  6
CONTINUOUS
 10
-43.608727
 20
-85.403488
 11
-59.496058
 21
-68.957293
  0
CIRCLE
  8
ボルト／ビス
  6
CONTINUOUS
 10
-43.240967
 20
-84.584763
 40
0.250185
  0
CIRCLE
  8
ボルト／ビス
  6
CONTINUOUS
 10
-43.240967
 20
-84.584763
 40
0.301025
  0
LINE
  8
ボルト／ビス
  6
CONTINUOUS
 62
    64
 10
-43.000462
 20
-84.653683
 11
-43.06103
 21
-84.41094
  0
LINE
  8
ボルト／ビス
  6
CONTINUOUS
 62
    64
 10
-43.301535
 20
-84.342018
 11
-43.06103
 21
-84.41094
  0
LINE
  8
ボルト／ビス
  6
CONTINUOUS
 62
    64
 10
-43.1804
 20
-84.827507
 11
-43.420905
 21
-84.758585
  0
LINE
  8
ボルト／ビス
  6
CONTINUOUS
 62
    64
 10
-43.481475
 20
-84.515842
 11
-43.420905
 21
-84.758585
  0
LINE
  8
ボルト／ビス
  6
CONTINUOUS
 62
    64
 10
-43.000462
 20
-84.653683
 11
-43.1804
 21
-84.827507
  0
LINE
  8
ボルト／ビス
  6
CONTINUOUS
 62
    64
 10
-43.301535
 20
-84.342018
 11
-43.481475
 21
-84.515842
  0
CIRCLE
  8
ボルト／ビス
  6
CONTINUOUS
 62
    64
 10
-43.240967
 20
-84.584763
 40
0.216668
  0
CIRCLE
  8
ボルト／ビス
  6
CONTINUOUS
 10
-50.95304
 20
-76.601405
 40
0.250185
  0
CIRCLE
  8
ボルト／ビス
  6
CONTINUOUS
 10
-50.95304
 20
-76.601405
 40
0.301025
  0
LINE
  8
ボルト／ビス
  6
CONTINUOUS
 62
    64
 10
-50.712535
 20
-76.670323
 11
-50.7731
 21
-76.42758
  0
LINE
  8
ボルト／ビス
  6
CONTINUOUS
 62
    64
 10
-51.013608
 20
-76.35866
 11
-50.7731
 21
-76.42758
  0
LINE
  8
ボルト／ビス
  6
CONTINUOUS
 62
    64
 10
-50.892472
 20
-76.84415
 11
-51.132978
 21
-76.775227
  0
LINE
  8
ボルト／ビス
  6
CONTINUOUS
 62
    64
 10
-51.193548
 20
-76.532485
 11
-51.132978
 21
-76.775227
  0
LINE
  8
ボルト／ビス
  6
CONTINUOUS
 62
    64
 10
-50.712535
 20
-76.670323
 11
-50.892472
 21
-76.84415
  0
LINE
  8
ボルト／ビス
  6
CONTINUOUS
 62
    64
 10
-51.013608
 20
-76.35866
 11
-51.193548
 21
-76.532485
  0
CIRCLE
  8
ボルト／ビス
  6
CONTINUOUS
 62
    64
 10
-50.95304
 20
-76.601405
 40
0.216668
  0
CIRCLE
  8
ボルト／ビス
  6
CONTINUOUS
 10
-58.665113
 20
-68.618048
 40
0.250185
  0
CIRCLE
  8
ボルト／ビス
  6
CONTINUOUS
 10
-58.665113
 20
-68.618048
 40
0.301025
  0
LINE
  8
ボルト／ビス
  6
CONTINUOUS
 62
    64
 10
-58.72568
 20
-68.375303
 11
-58.485175
 21
-68.444225
  0
LINE
  8
ボルト／ビス
  6
CONTINUOUS
 62
    64
 10
-58.424605
 20
-68.686967
 11
-58.485175
 21
-68.444225
  0
LINE
  8
ボルト／ビス
  6
CONTINUOUS
 62
    64
 10
-58.905617
 20
-68.549125
 11
-58.84505
 21
-68.79187
  0
LINE
  8
ボルト／ビス
  6
CONTINUOUS
 62
    64
 10
-58.604545
 20
-68.86079
 11
-58.84505
 21
-68.79187
  0
LINE
  8
ボルト／ビス
  6
CONTINUOUS
 62
    64
 10
-58.72568
 20
-68.375303
 11
-58.905617
 21
-68.549125
  0
LINE
  8
ボルト／ビス
  6
CONTINUOUS
 62
    64
 10
-58.424605
 20
-68.686967
 11
-58.604545
 21
-68.86079
  0
CIRCLE
  8
ボルト／ビス
  6
CONTINUOUS
 62
    64
 10
-58.665113
 20
-68.618048
 40
0.216668
  0
ENDBLK
  0
BLOCK
  2
*GRP_0010
 70
    65
 10
0.0
 20
0.0
  0
LINE
  8
補助線
  6
BYBLOCK
 62
    64
 10
17.94366
 20
-84.524827
 11
18.059455
 21
-84.644697
  0
LINE
  8
補助線
  6
BYBLOCK
 62
    64
 10
18.061495
 20
-84.526862
 11
17.941623
 21
-84.64266
  0
LINE
  8
補助線
  6
BYBLOCK
 62
    64
 10
10.231585
 20
-76.54147
 11
10.347385
 21
-76.66134
  0
LINE
  8
補助線
  6
BYBLOCK
 62
    64
 10
10.34942
 20
-76.543505
 11
10.22955
 21
-76.659303
  0
LINE
  8
補助線
  6
BYBLOCK
 62
    64
 10
2.635312
 20
-68.677982
 11
2.519515
 21
-68.558112
  0
LINE
  8
補助線
  6
BYBLOCK
 62
    64
 10
2.63735
 20
-68.560148
 11
2.517477
 21
-68.675945
  0
LINE
  8
型材断面
  6
CONTINUOUS
 10
18.8325
 20
-84.24552
 11
18.82028
 21
-84.95252
  0
LINE
  8
型材断面
  6
CONTINUOUS
 10
18.82028
 20
-84.95252
 11
18.340798
 21
-85.415708
  0
LINE
  8
型材断面
  6
CONTINUOUS
 10
18.340798
 20
-85.415708
 11
17.633798
 21
-85.403488
  0
LINE
  8
型材断面
  6
CONTINUOUS
 10
2.945173
 20
-67.799323
 11
2.23817
 21
-67.787105
  0
LINE
  8
型材断面
  6
CONTINUOUS
 10
2.23817
 20
-67.787105
 11
1.758688
 21
-68.25029
  0
LINE
  8
型材断面
  6
CONTINUOUS
 10
1.758688
 20
-68.25029
 11
1.746467
 21
-68.957293
  0
LINE
  8
型材断面
  6
CONTINUOUS
 10
18.8325
 20
-84.24552
 11
2.945173
 21
-67.799323
  0
LINE
  8
型材断面
  6
CONTINUOUS
 10
17.633798
 20
-85.403488
 11
1.746467
 21
-68.957293
  0
CIRCLE
  8
ボルト／ビス
  6
CONTINUOUS
 10
18.001557
 20
-84.584763
 40
0.250185
  0
CIRCLE
  8
ボルト／ビス
  6
CONTINUOUS
 10
18.001557
 20
-84.584763
 40
0.301025
  0
LINE
  8
ボルト／ビス
  6
CONTINUOUS
 62
    64
 10
18.242063
 20
-84.653683
 11
18.181495
 21
-84.41094
  0
LINE
  8
ボルト／ビス
  6
CONTINUOUS
 62
    64
 10
17.94099
 20
-84.342018
 11
18.181495
 21
-84.41094
  0
LINE
  8
ボルト／ビス
  6
CONTINUOUS
 62
    64
 10
18.062125
 20
-84.827507
 11
17.82162
 21
-84.758585
  0
LINE
  8
ボルト／ビス
  6
CONTINUOUS
 62
    64
 10
17.76105
 20
-84.515842
 11
17.82162
 21
-84.758585
  0
LINE
  8
ボルト／ビス
  6
CONTINUOUS
 62
    64
 10
18.242063
 20
-84.653683
 11
18.062125
 21
-84.827507
  0
LINE
  8
ボルト／ビス
  6
CONTINUOUS
 62
    64
 10
17.94099
 20
-84.342018
 11
17.76105
 21
-84.515842
  0
CIRCLE
  8
ボルト／ビス
  6
CONTINUOUS
 62
    64
 10
18.001557
 20
-84.584763
 40
0.216668
  0
CIRCLE
  8
ボルト／ビス
  6
CONTINUOUS
 10
10.289485
 20
-76.601405
 40
0.250185
  0
CIRCLE
  8
ボルト／ビス
  6
CONTINUOUS
 10
10.289485
 20
-76.601405
 40
0.301025
  0
LINE
  8
ボルト／ビス
  6
CONTINUOUS
 62
    64
 10
10.52999
 20
-76.670323
 11
10.469425
 21
-76.42758
  0
LINE
  8
ボルト／ビス
  6
CONTINUOUS
 62
    64
 10
10.228917
 20
-76.35866
 11
10.469425
 21
-76.42758
  0
LINE
  8
ボルト／ビス
  6
CONTINUOUS
 62
    64
 10
10.350052
 20
-76.84415
 11
10.109548
 21
-76.775227
  0
LINE
  8
ボルト／ビス
  6
CONTINUOUS
 62
    64
 10
10.048978
 20
-76.532485
 11
10.109548
 21
-76.775227
  0
LINE
  8
ボルト／ビス
  6
CONTINUOUS
 62
    64
 10
10.52999
 20
-76.670323
 11
10.350052
 21
-76.84415
  0
LINE
  8
ボルト／ビス
  6
CONTINUOUS
 62
    64
 10
10.228917
 20
-76.35866
 11
10.048978
 21
-76.532485
  0
CIRCLE
  8
ボルト／ビス
  6
CONTINUOUS
 62
    64
 10
10.289485
 20
-76.601405
 40
0.216668
  0
CIRCLE
  8
ボルト／ビス
  6
CONTINUOUS
 10
2.577412
 20
-68.618048
 40
0.250185
  0
CIRCLE
  8
ボルト／ビス
  6
CONTINUOUS
 10
2.577412
 20
-68.618048
 40
0.301025
  0
LINE
  8
ボルト／ビス
  6
CONTINUOUS
 62
    64
 10
2.516845
 20
-68.375303
 11
2.75735
 21
-68.444225
  0
LINE
  8
ボルト／ビス
  6
CONTINUOUS
 62
    64
 10
2.81792
 20
-68.686967
 11
2.75735
 21
-68.444225
  0
LINE
  8
ボルト／ビス
  6
CONTINUOUS
 62
    64
 10
2.336908
 20
-68.549125
 11
2.397475
 21
-68.79187
  0
LINE
  8
ボルト／ビス
  6
CONTINUOUS
 62
    64
 10
2.63798
 20
-68.86079
 11
2.397475
 21
-68.79187
  0
LINE
  8
ボルト／ビス
  6
CONTINUOUS
 62
    64
 10
2.516845
 20
-68.375303
 11
2.336908
 21
-68.549125
  0
LINE
  8
ボルト／ビス
  6
CONTINUOUS
 62
    64
 10
2.81792
 20
-68.686967
 11
2.63798
 21
-68.86079
  0
CIRCLE
  8
ボルト／ビス
  6
CONTINUOUS
 62
    64
 10
2.577412
 20
-68.618048
 40
0.216668
  0
ENDBLK
  0
BLOCK
  2
*GRP_0011
 70
    65
 10
0.0
 20
0.0
  0
LINE
  8
補助線
  6
BYBLOCK
 62
    64
 10
2.63531
 20
-84.524827
 11
2.519515
 21
-84.644697
  0
LINE
  8
補助線
  6
BYBLOCK
 62
    64
 10
2.517475
 20
-84.526862
 11
2.637348
 21
-84.64266
  0
LINE
  8
補助線
  6
BYBLOCK
 62
    64
 10
10.347385
 20
-76.54147
 11
10.231585
 21
-76.66134
  0
LINE
  8
補助線
  6
BYBLOCK
 62
    64
 10
10.22955
 20
-76.543505
 11
10.34942
 21
-76.659303
  0
LINE
  8
補助線
  6
BYBLOCK
 62
    64
 10
17.943657
 20
-68.677982
 11
18.059455
 21
-68.558112
  0
LINE
  8
補助線
  6
BYBLOCK
 62
    64
 10
17.94162
 20
-68.560148
 11
18.061492
 21
-68.675945
  0
LINE
  8
型材断面
  6
CONTINUOUS
 10
1.74647
 20
-84.24552
 11
1.75869
 21
-84.95252
  0
LINE
  8
型材断面
  6
CONTINUOUS
 10
1.75869
 20
-84.95252
 11
2.238172
 21
-85.415708
  0
LINE
  8
型材断面
  6
CONTINUOUS
 10
2.238172
 20
-85.415708
 11
2.945173
 21
-85.403488
  0
LINE
  8
型材断面
  6
CONTINUOUS
 10
17.633798
 20
-67.799323
 11
18.3408
 21
-67.787105
  0
LINE
  8
型材断面
  6
CONTINUOUS
 10
18.3408
 20
-67.787105
 11
18.820283
 21
-68.25029
  0
LINE
  8
型材断面
  6
CONTINUOUS
 10
18.820283
 20
-68.25029
 11
18.832503
 21
-68.957293
  0
LINE
  8
型材断面
  6
CONTINUOUS
 10
1.74647
 20
-84.24552
 11
17.633798
 21
-67.799323
  0
LINE
  8
型材断面
  6
CONTINUOUS
 10
2.945173
 20
-85.403488
 11
18.832503
 21
-68.957293
  0
CIRCLE
  8
ボルト／ビス
  6
CONTINUOUS
 10
2.577412
 20
-84.584763
 40
0.250185
  0
CIRCLE
  8
ボルト／ビス
  6
CONTINUOUS
 10
2.577412
 20
-84.584763
 40
0.301025
  0
LINE
  8
ボルト／ビス
  6
CONTINUOUS
 62
    64
 10
2.336908
 20
-84.653683
 11
2.397475
 21
-84.41094
  0
LINE
  8
ボルト／ビス
  6
CONTINUOUS
 62
    64
 10
2.63798
 20
-84.342018
 11
2.397475
 21
-84.41094
  0
LINE
  8
ボルト／ビス
  6
CONTINUOUS
 62
    64
 10
2.516845
 20
-84.827507
 11
2.75735
 21
-84.758585
  0
LINE
  8
ボルト／ビス
  6
CONTINUOUS
 62
    64
 10
2.81792
 20
-84.515842
 11
2.75735
 21
-84.758585
  0
LINE
  8
ボルト／ビス
  6
CONTINUOUS
 62
    64
 10
2.336908
 20
-84.653683
 11
2.516845
 21
-84.827507
  0
LINE
  8
ボルト／ビス
  6
CONTINUOUS
 62
    64
 10
2.63798
 20
-84.342018
 11
2.81792
 21
-84.515842
  0
CIRCLE
  8
ボルト／ビス
  6
CONTINUOUS
 62
    64
 10
2.577412
 20
-84.584763
 40
0.216668
  0
CIRCLE
  8
ボルト／ビス
  6
CONTINUOUS
 10
10.289485
 20
-76.601405
 40
0.250185
  0
CIRCLE
  8
ボルト／ビス
  6
CONTINUOUS
 10
10.289485
 20
-76.601405
 40
0.301025
  0
LINE
  8
ボルト／ビス
  6
CONTINUOUS
 62
    64
 10
10.04898
 20
-76.670323
 11
10.109545
 21
-76.42758
  0
LINE
  8
ボルト／ビス
  6
CONTINUOUS
 62
    64
 10
10.350052
 20
-76.35866
 11
10.109545
 21
-76.42758
  0
LINE
  8
ボルト／ビス
  6
CONTINUOUS
 62
    64
 10
10.228917
 20
-76.84415
 11
10.469422
 21
-76.775227
  0
LINE
  8
ボルト／ビス
  6
CONTINUOUS
 62
    64
 10
10.529992
 20
-76.532485
 11
10.469422
 21
-76.775227
  0
LINE
  8
ボルト／ビス
  6
CONTINUOUS
 62
    64
 10
10.04898
 20
-76.670323
 11
10.228917
 21
-76.84415
  0
LINE
  8
ボルト／ビス
  6
CONTINUOUS
 62
    64
 10
10.350052
 20
-76.35866
 11
10.529992
 21
-76.532485
  0
CIRCLE
  8
ボルト／ビス
  6
CONTINUOUS
 62
    64
 10
10.289485
 20
-76.601405
 40
0.216668
  0
CIRCLE
  8
ボルト／ビス
  6
CONTINUOUS
 10
18.001557
 20
-68.618048
 40
0.250185
  0
CIRCLE
  8
ボルト／ビス
  6
CONTINUOUS
 10
18.001557
 20
-68.618048
 40
0.301025
  0
LINE
  8
ボルト／ビス
  6
CONTINUOUS
 62
    64
 10
18.062125
 20
-68.375303
 11
17.82162
 21
-68.444225
  0
LINE
  8
ボルト／ビス
  6
CONTINUOUS
 62
    64
 10
17.76105
 20
-68.686967
 11
17.82162
 21
-68.444225
  0
LINE
  8
ボルト／ビス
  6
CONTINUOUS
 62
    64
 10
18.242063
 20
-68.549125
 11
18.181495
 21
-68.79187
  0
LINE
  8
ボルト／ビス
  6
CONTINUOUS
 62
    64
 10
17.94099
 20
-68.86079
 11
18.181495
 21
-68.79187
  0
LINE
  8
ボルト／ビス
  6
CONTINUOUS
 62
    64
 10
18.062125
 20
-68.375303
 11
18.242063
 21
-68.549125
  0
LINE
  8
ボルト／ビス
  6
CONTINUOUS
 62
    64
 10
17.76105
 20
-68.686967
 11
17.94099
 21
-68.86079
  0
CIRCLE
  8
ボルト／ビス
  6
CONTINUOUS
 62
    64
 10
18.001557
 20
-68.618048
 40
0.216668
  0
ENDBLK
  0
BLOCK
  2
*DIM_0012
 70
    65
 10
0.0
 20
0.0
  0
LINE
  8
寸法
  6
BYBLOCK
 62
     0
 10
-64.998442
 20
23.399048
 11
-93.943607
 21
23.399048
  0
LINE
  8
寸法
  6
BYBLOCK
 62
     0
 10
-64.998442
 20
46.732382
 11
-93.943607
 21
46.732382
  0
LINE
  8
寸法
  6
BYBLOCK
 62
     0
 10
-93.943607
 20
23.399048
 11
-93.943607
 21
46.732382
  0
POINT
  8
寸法
 62
     0
 10
-93.943607
 20
23.399048
  0
POINT
  8
寸法
 62
     0
 10
-93.943607
 20
46.732382
  0
TEXT
  7
TextStyle03
  8
寸法
  6
CONTINUOUS
 62
     0
 10
-94.325
 20
32.6125
  1
700
 40
3.0
 50
90.0
 72
     5
 11
-94.325
 21
37.4875
  0
ENDBLK
  0
BLOCK
  2
*DIM_0013
 70
    65
 10
0.0
 20
0.0
  0
LINE
  8
寸法
  6
BYBLOCK
 62
     0
 10
-55.331778
 20
59.73238
 11
-55.331778
 21
89.48
  0
LINE
  8
寸法
  6
BYBLOCK
 62
     0
 10
-31.998445
 20
59.73238
 11
-31.998445
 21
89.48
  0
LINE
  8
寸法
  6
BYBLOCK
 62
     0
 10
-55.331778
 20
89.48
 11
-31.998445
 21
89.48
  0
POINT
  8
寸法
 62
     0
 10
-55.331778
 20
89.48
  0
POINT
  8
寸法
 62
     0
 10
-31.998445
 20
89.48
  0
TEXT
  7
TextStyle03
  8
寸法
  6
CONTINUOUS
 62
     0
 10
-46.1125
 20
89.85
  1
700
 40
3.0
 72
     5
 11
-41.2375
 21
89.85
  0
ENDBLK
  0
BLOCK
  2
*DIM_0014
 70
    65
 10
0.0
 20
0.0
  0
LINE
  8
寸法
  6
BYBLOCK
 62
     0
 10
-8.66511
 20
59.73238
 11
-8.66511
 21
89.48
  0
LINE
  8
寸法
  6
BYBLOCK
 62
     0
 10
-31.998445
 20
89.48
 11
-8.66511
 21
89.48
  0
POINT
  8
寸法
 62
     0
 10
-8.66511
 20
89.48
  0
TEXT
  7
TextStyle03
  8
寸法
  6
CONTINUOUS
 62
     0
 10
-22.7875
 20
89.85
  1
700
 40
3.0
 72
     5
 11
-17.9125
 21
89.85
  0
ENDBLK
  0
BLOCK
  2
*DIM_0015
 70
    65
 10
0.0
 20
0.0
  0
LINE
  8
寸法
  6
BYBLOCK
 62
     0
 10
14.668223
 20
59.73238
 11
14.668223
 21
89.48
  0
LINE
  8
寸法
  6
BYBLOCK
 62
     0
 10
-8.66511
 20
89.48
 11
14.668223
 21
89.48
  0
POINT
  8
寸法
 62
     0
 10
14.668223
 20
89.48
  0
TEXT
  7
TextStyle03
  8
寸法
  6
CONTINUOUS
 62
     0
 10
0.5625
 20
89.85
  1
700
 40
3.0
 72
     5
 11
5.4375
 21
89.85
  0
ENDBLK
  0
BLOCK
  2
*GRP_0016
 70
    65
 10
0.0
 20
0.0
  0
LINE
  8
ボルト／ビス
  6
CONTINUOUS
 10
-63.03178
 20
-79.501263
 11
-62.298448
 21
-79.501263
  0
LINE
  8
ボルト／ビス
  6
CONTINUOUS
 10
-62.248448
 20
-79.541262
 11
-62.248448
 21
-79.624597
  0
LINE
  8
ボルト／ビス
  6
CONTINUOUS
 10
-62.248448
 20
-79.624597
 11
-63.08178
 21
-79.624597
  0
LINE
  8
ボルト／ビス
  6
CONTINUOUS
 10
-63.08178
 20
-79.624597
 11
-63.08178
 21
-79.541262
  0
LINE
  8
ボルト／ビス
  6
CONTINUOUS
 10
-62.248448
 20
-79.541262
 11
-63.08178
 21
-79.541262
  0
LINE
  8
ボルト／ビス
  6
CONTINUOUS
 10
-63.03178
 20
-79.501263
 11
-63.03178
 21
-79.541262
  0
LINE
  8
ボルト／ビス
  6
CONTINUOUS
 10
-62.298448
 20
-79.501263
 11
-62.298448
 21
-79.541262
  0
LINE
  8
ボルト／ビス
  6
CONTINUOUS
 10
-62.825487
 20
-79.367933
 11
-62.857563
 21
-79.379605
  0
ARC
  8
ボルト／ビス
  6
CONTINUOUS
 10
-62.80945
 20
-79.47291
 40
0.104978
 50
62.721967
 51
90.0
  0
ARC
  8
ボルト／ビス
  6
CONTINUOUS
 10
-62.665113
 20
-79.770333
 40
0.402402
 50
76.165002
 51
103.834985
  0
LINE
  8
ボルト／ビス
  6
CONTINUOUS
 10
-62.504738
 20
-79.367933
 11
-62.472663
 21
-79.379605
  0
ARC
  8
ボルト／ビス
  6
CONTINUOUS
 10
-62.520775
 20
-79.47291
 40
0.104978
 50
90.0
 51
117.278033
  0
LINE
  8
ボルト／ビス
  6
CONTINUOUS
 10
-62.825487
 20
-79.367933
 11
-62.504738
 21
-79.367933
  0
LINE
  8
ボルト／ビス
  6
CONTINUOUS
 10
-62.472663
 20
-79.379605
 11
-62.472663
 21
-79.501263
  0
LINE
  8
ボルト／ビス
  6
CONTINUOUS
 10
-62.568887
 20
-79.379605
 11
-62.568887
 21
-79.501263
  0
LINE
  8
ボルト／ビス
  6
CONTINUOUS
 10
-62.857563
 20
-79.379605
 11
-62.857563
 21
-79.501263
  0
LINE
  8
ボルト／ビス
  6
CONTINUOUS
 10
-62.761337
 20
-79.379605
 11
-62.761337
 21
-79.501263
  0
LINE
  8
ボルト／ビス
  6
CONTINUOUS
 10
-62.472663
 20
-79.501263
 11
-62.857563
 21
-79.501263
  0
LINE
  8
ボルト／ビス
  6
CONTINUOUS
 10
-62.665113
 20
-79.201263
 11
-62.665113
 21
-80.10668
  0
ENDBLK
  0
BLOCK
  2
*GRP_0017
 70
    65
 10
0.0
 20
0.0
  0
LINE
  8
ボルト／ビス
  6
CONTINUOUS
 10
-63.03178
 20
-79.501263
 11
-62.298448
 21
-79.501263
  0
LINE
  8
ボルト／ビス
  6
CONTINUOUS
 10
-62.248448
 20
-79.541262
 11
-62.248448
 21
-79.624597
  0
LINE
  8
ボルト／ビス
  6
CONTINUOUS
 10
-62.248448
 20
-79.624597
 11
-63.08178
 21
-79.624597
  0
LINE
  8
ボルト／ビス
  6
CONTINUOUS
 10
-63.08178
 20
-79.624597
 11
-63.08178
 21
-79.541262
  0
LINE
  8
ボルト／ビス
  6
CONTINUOUS
 10
-62.248448
 20
-79.541262
 11
-63.08178
 21
-79.541262
  0
LINE
  8
ボルト／ビス
  6
CONTINUOUS
 10
-63.03178
 20
-79.501263
 11
-63.03178
 21
-79.541262
  0
LINE
  8
ボルト／ビス
  6
CONTINUOUS
 10
-62.298448
 20
-79.501263
 11
-62.298448
 21
-79.541262
  0
LINE
  8
ボルト／ビス
  6
CONTINUOUS
 10
-62.825487
 20
-79.367933
 11
-62.857563
 21
-79.379605
  0
ARC
  8
ボルト／ビス
  6
CONTINUOUS
 10
-62.809451
 20
-79.472912
 40
0.104978
 50
62.721967
 51
90.0
  0
ARC
  8
ボルト／ビス
  6
CONTINUOUS
 10
-62.665113
 20
-79.770336
 40
0.402402
 50
76.165002
 51
103.834985
  0
LINE
  8
ボルト／ビス
  6
CONTINUOUS
 10
-62.504738
 20
-79.367933
 11
-62.472663
 21
-79.379605
  0
ARC
  8
ボルト／ビス
  6
CONTINUOUS
 10
-62.520776
 20
-79.472912
 40
0.104978
 50
90.0
 51
117.278033
  0
LINE
  8
ボルト／ビス
  6
CONTINUOUS
 10
-62.825487
 20
-79.367933
 11
-62.504738
 21
-79.367933
  0
LINE
  8
ボルト／ビス
  6
CONTINUOUS
 10
-62.472663
 20
-79.379605
 11
-62.472663
 21
-79.501263
  0
LINE
  8
ボルト／ビス
  6
CONTINUOUS
 10
-62.568887
 20
-79.379605
 11
-62.568887
 21
-79.501263
  0
LINE
  8
ボルト／ビス
  6
CONTINUOUS
 10
-62.857563
 20
-79.379605
 11
-62.857563
 21
-79.501263
  0
LINE
  8
ボルト／ビス
  6
CONTINUOUS
 10
-62.761337
 20
-79.379605
 11
-62.761337
 21
-79.501263
  0
LINE
  8
ボルト／ビス
  6
CONTINUOUS
 10
-62.472663
 20
-79.501263
 11
-62.857563
 21
-79.501263
  0
LINE
  8
ボルト／ビス
  6
CONTINUOUS
 10
-62.665113
 20
-79.201263
 11
-62.665113
 21
-80.10668
  0
ENDBLK
  0
BLOCK
  2
*GRP_0018
 70
    65
 10
0.0
 20
0.0
  0
LINE
  8
ボルト／ビス
  6
DOT
 10
-63.03178
 20
-66.16793
 11
-62.298448
 21
-66.16793
  0
LINE
  8
ボルト／ビス
  6
DOT
 10
-62.248448
 20
-66.20793
 11
-62.248448
 21
-66.291265
  0
LINE
  8
ボルト／ビス
  6
DOT
 10
-62.248448
 20
-66.291265
 11
-63.08178
 21
-66.291265
  0
LINE
  8
ボルト／ビス
  6
DOT
 10
-63.08178
 20
-66.291265
 11
-63.08178
 21
-66.20793
  0
LINE
  8
ボルト／ビス
  6
DOT
 10
-62.248448
 20
-66.20793
 11
-63.08178
 21
-66.20793
  0
LINE
  8
ボルト／ビス
  6
DOT
 10
-63.03178
 20
-66.16793
 11
-63.03178
 21
-66.20793
  0
LINE
  8
ボルト／ビス
  6
DOT
 10
-62.298448
 20
-66.16793
 11
-62.298448
 21
-66.20793
  0
LINE
  8
ボルト／ビス
  6
DOT
 10
-62.825487
 20
-66.0346
 11
-62.857563
 21
-66.046273
  0
ARC
  8
ボルト／ビス
  6
DOT
 10
-62.80945
 20
-66.139576
 40
0.104978
 50
62.721967
 51
90.0
  0
ARC
  8
ボルト／ビス
  6
DOT
 10
-62.665113
 20
-66.437
 40
0.402402
 50
76.165002
 51
103.834985
  0
LINE
  8
ボルト／ビス
  6
DOT
 10
-62.504738
 20
-66.0346
 11
-62.472663
 21
-66.046273
  0
ARC
  8
ボルト／ビス
  6
DOT
 10
-62.520775
 20
-66.139576
 40
0.104978
 50
90.0
 51
117.278033
  0
LINE
  8
ボルト／ビス
  6
DOT
 10
-62.825487
 20
-66.0346
 11
-62.504738
 21
-66.0346
  0
LINE
  8
ボルト／ビス
  6
DOT
 10
-62.472663
 20
-66.046273
 11
-62.472663
 21
-66.16793
  0
LINE
  8
ボルト／ビス
  6
DOT
 10
-62.568887
 20
-66.046273
 11
-62.568887
 21
-66.16793
  0
LINE
  8
ボルト／ビス
  6
DOT
 10
-62.857563
 20
-66.046273
 11
-62.857563
 21
-66.16793
  0
LINE
  8
ボルト／ビス
  6
DOT
 10
-62.761337
 20
-66.046273
 11
-62.761337
 21
-66.16793
  0
LINE
  8
ボルト／ビス
  6
DOT
 10
-62.472663
 20
-66.16793
 11
-62.857563
 21
-66.16793
  0
LINE
  8
ボルト／ビス
  6
DOT
 10
-62.665113
 20
-65.86793
 11
-62.665113
 21
-66.773348
  0
ENDBLK
  0
BLOCK
  2
*GRP_0019
 70
    65
 10
0.0
 20
0.0
  0
LINE
  8
ボルト／ビス
  6
DOT
 10
-63.03178
 20
-66.16793
 11
-62.298448
 21
-66.16793
  0
LINE
  8
ボルト／ビス
  6
DOT
 10
-62.248448
 20
-66.20793
 11
-62.248448
 21
-66.291265
  0
LINE
  8
ボルト／ビス
  6
DOT
 10
-62.248448
 20
-66.291265
 11
-63.08178
 21
-66.291265
  0
LINE
  8
ボルト／ビス
  6
DOT
 10
-63.08178
 20
-66.291265
 11
-63.08178
 21
-66.20793
  0
LINE
  8
ボルト／ビス
  6
DOT
 10
-62.248448
 20
-66.20793
 11
-63.08178
 21
-66.20793
  0
LINE
  8
ボルト／ビス
  6
DOT
 10
-63.03178
 20
-66.16793
 11
-63.03178
 21
-66.20793
  0
LINE
  8
ボルト／ビス
  6
DOT
 10
-62.298448
 20
-66.16793
 11
-62.298448
 21
-66.20793
  0
LINE
  8
ボルト／ビス
  6
DOT
 10
-62.825487
 20
-66.0346
 11
-62.857563
 21
-66.046273
  0
ARC
  8
ボルト／ビス
  6
DOT
 10
-62.809451
 20
-66.139579
 40
0.104978
 50
62.721967
 51
90.0
  0
ARC
  8
ボルト／ビス
  6
DOT
 10
-62.665113
 20
-66.437003
 40
0.402402
 50
76.165002
 51
103.834985
  0
LINE
  8
ボルト／ビス
  6
DOT
 10
-62.504738
 20
-66.0346
 11
-62.472663
 21
-66.046273
  0
ARC
  8
ボルト／ビス
  6
DOT
 10
-62.520776
 20
-66.139579
 40
0.104978
 50
90.0
 51
117.278033
  0
LINE
  8
ボルト／ビス
  6
DOT
 10
-62.825487
 20
-66.0346
 11
-62.504738
 21
-66.0346
  0
LINE
  8
ボルト／ビス
  6
DOT
 10
-62.472663
 20
-66.046273
 11
-62.472663
 21
-66.16793
  0
LINE
  8
ボルト／ビス
  6
DOT
 10
-62.568887
 20
-66.046273
 11
-62.568887
 21
-66.16793
  0
LINE
  8
ボルト／ビス
  6
DOT
 10
-62.857563
 20
-66.046273
 11
-62.857563
 21
-66.16793
  0
LINE
  8
ボルト／ビス
  6
DOT
 10
-62.761337
 20
-66.046273
 11
-62.761337
 21
-66.16793
  0
LINE
  8
ボルト／ビス
  6
DOT
 10
-62.472663
 20
-66.16793
 11
-62.857563
 21
-66.16793
  0
LINE
  8
ボルト／ビス
  6
DOT
 10
-62.665113
 20
-65.86793
 11
-62.665113
 21
-66.773348
  0
ENDBLK
  0
BLOCK
  2
*DIM_0020
 70
    65
 10
0.0
 20
0.0
  0
LINE
  8
寸法
  6
CONTINUOUS
 10
-61.998442
 20
-22.536362
 11
-64.761777
 21
-22.536362
  0
POINT
  8
寸法
 10
-61.998442
 20
-22.536362
  0
POINT
  8
寸法
 10
-64.761777
 20
-22.536362
  0
TEXT
  7
TextStyle03
  8
寸法
  6
CONTINUOUS
 10
-70.90625
 20
-21.275
  1
82.9
 40
3.0
 72
     5
 11
-64.34375
 21
-21.275
  0
ENDBLK
  0
BLOCK
  2
*DIM_0021
 70
    65
 10
0.0
 20
0.0
  0
LINE
  8
寸法
  6
CONTINUOUS
 10
24.098222
 20
-22.536362
 11
21.33489
 21
-22.536362
  0
POINT
  8
寸法
 10
24.098222
 20
-22.536362
  0
POINT
  8
寸法
 10
21.33489
 20
-22.536362
  0
TEXT
  7
TextStyle03
  8
寸法
  6
CONTINUOUS
 10
23.69375
 20
-21.05
  1
82.9
 40
3.0
 72
     5
 11
30.25625
 21
-21.05
  0
ENDBLK
  0
BLOCK
  2
*DIM_0023
 70
    65
 10
0.0
 20
0.0
  0
LINE
  8
寸法
  6
CONTINUOUS
 10
82.812743
 20
-42.619188
 11
82.812743
 21
-36.45336
  0
LINE
  8
寸法
  6
CONTINUOUS
 10
123.946075
 20
-42.619188
 11
123.946075
 21
-36.45336
  0
LINE
  8
寸法
  6
CONTINUOUS
 10
82.812743
 20
-36.45336
 11
123.946075
 21
-36.45336
  0
POINT
  8
寸法
 10
82.812743
 20
-36.45336
  0
POINT
  8
寸法
 10
123.946075
 20
-36.45336
  0
TEXT
  7
TextStyle03
  8
寸法
  6
CONTINUOUS
 10
100.09375
 20
-36.075
  1
1234
 40
3.0
 72
     5
 11
106.65625
 21
-36.075
  0
ENDBLK
  0
BLOCK
  2
*DIM_0024
 70
    65
 10
0.0
 20
0.0
  0
LINE
  8
寸法
  6
CONTINUOUS
 10
128.946075
 20
-47.619188
 11
139.44335
 21
-47.619188
  0
LINE
  8
寸法
  6
CONTINUOUS
 10
128.946075
 20
-90.95252
 11
139.44335
 21
-90.95252
  0
LINE
  8
寸法
  6
CONTINUOUS
 10
139.44335
 20
-47.619188
 11
139.44335
 21
-90.95252
  0
POINT
  8
寸法
 10
139.44335
 20
-47.619188
  0
POINT
  8
寸法
 10
139.44335
 20
-90.95252
  0
TEXT
  7
TextStyle03
  8
寸法
  6
CONTINUOUS
 10
139.075
 20
-72.55625
  1
1300
 40
3.0
 50
90.0
 72
     5
 11
139.075
 21
-65.99375
  0
ENDBLK
  0
BLOCK
  2
*DIM_0025
 70
    65
 10
0.0
 20
0.0
  0
LINE
  8
寸法
  6
BYBLOCK
 62
     0
 10
55.661368
 20
13.399048
 11
55.661368
 21
56.73238
  0
POINT
  8
寸法
 62
     0
 10
55.661368
 20
13.399048
  0
POINT
  8
寸法
 62
     0
 10
55.661368
 20
56.73238
  0
TEXT
  7
TextStyle03
  8
寸法
  6
CONTINUOUS
 62
     0
 10
55.325
 20
23.33125
  1
呼称寸法　1300
 40
3.0
 50
90.0
 72
     5
 11
55.325
 21
46.76875
  0
ENDBLK
  0
BLOCK
  2
*DIM_0026
 70
    65
 10
0.0
 20
0.0
  0
LINE
  8
寸法
  6
BYBLOCK
 62
     0
 10
99.508315
 20
36.065715
 11
99.508315
 21
72.668433
  0
LINE
  8
寸法
  6
BYBLOCK
 62
     0
 10
111.174983
 20
72.668433
 11
99.508315
 21
72.668433
  0
POINT
  8
寸法
 62
     0
 10
99.508315
 20
72.668433
  0
TEXT
  7
TextStyle03
  8
寸法
  6
CONTINUOUS
 62
     0
 10
102.9375
 20
73.025
  1
350
 40
3.0
 72
     5
 11
107.8125
 21
73.025
  0
ENDBLK
  0
BLOCK
  2
*DIM_0027
 70
    65
 10
0.0
 20
0.0
  0
LINE
  8
寸法
  6
CONTINUOUS
 10
55.661368
 20
13.399048
 11
55.661368
 21
10.635715
  0
POINT
  8
寸法
 10
55.661368
 20
13.399048
  0
POINT
  8
寸法
 10
55.661368
 20
10.635715
  0
TEXT
  7
TextStyle03
  8
寸法
  6
CONTINUOUS
 10
54.4
 20
5.16875
  1
82.9
 40
3.0
 50
90.0
 72
     5
 11
54.4
 21
11.73125
  0
ENDBLK
  0
BLOCK
  2
*DIM_0028
 70
    65
 10
0.0
 20
0.0
  0
LINE
  8
寸法
  6
CONTINUOUS
 10
55.661368
 20
59.495715
 11
55.661368
 21
56.73238
  0
POINT
  8
寸法
 10
55.661368
 20
59.495715
  0
POINT
  8
寸法
 10
55.661368
 20
56.73238
  0
TEXT
  7
TextStyle03
  8
寸法
  6
CONTINUOUS
 10
54.3
 20
58.44375
  1
82.9
 40
3.0
 50
90.0
 72
     5
 11
54.3
 21
65.00625
  0
ENDBLK
  0
BLOCK
  2
*DIM_0029
 70
    65
 10
0.0
 20
0.0
  0
LINE
  8
寸法
  6
CONTINUOUS
 10
111.174983
 20
63.39905
 11
111.174983
 21
72.668433
  0
LINE
  8
寸法
  6
CONTINUOUS
 10
118.674987
 20
64.495715
 11
118.674987
 21
72.668433
  0
LINE
  8
寸法
  6
CONTINUOUS
 10
111.174983
 20
72.668433
 11
118.674987
 21
72.668433
  0
POINT
  8
寸法
 10
111.174983
 20
72.668433
  0
POINT
  8
寸法
 10
118.674987
 20
72.668433
  0
TEXT
  7
TextStyle03
  8
寸法
  6
CONTINUOUS
 10
112.4625
 20
73.025
  1
225
 40
3.0
 72
     5
 11
117.3375
 21
73.025
  0
ENDBLK
  0
BLOCK
  2
*GRP_0030
 70
    65
 10
0.0
 20
0.0
  0
LINE
  8
ボルト／ビス
  6
CONTINUOUS
 10
111.174983
 20
57.39905
 11
110.708317
 21
57.39905
  0
LINE
  8
ボルト／ビス
  6
CONTINUOUS
 10
111.174983
 20
57.032385
 11
111.108317
 21
57.032385
  0
LINE
  8
ボルト／ビス
  6
CONTINUOUS
 10
111.108317
 20
57.032385
 11
111.108317
 21
57.765718
  0
LINE
  8
ボルト／ビス
  6
CONTINUOUS
 10
111.108317
 20
57.765718
 11
111.174983
 21
57.765718
  0
LINE
  8
ボルト／ビス
  6
CONTINUOUS
 10
111.174983
 20
57.032385
 11
111.174983
 21
57.765718
  0
LINE
  8
ボルト／ビス
  6
CONTINUOUS
 10
111.074983
 20
57.09905
 11
111.108317
 21
57.09905
  0
LINE
  8
ボルト／ビス
  6
CONTINUOUS
 10
111.074983
 20
57.09905
 11
111.074983
 21
57.69905
  0
LINE
  8
ボルト／ビス
  6
CONTINUOUS
 10
111.074983
 20
57.69905
 11
111.108317
 21
57.69905
  0
LINE
  8
ボルト／ビス
  6
CONTINUOUS
 62
    64
 10
110.874983
 20
57.238675
 11
110.886658
 21
57.2066
  0
ARC
  8
ボルト／ビス
  6
CONTINUOUS
 62
    64
 10
110.979959
 20
57.254714
 40
0.104978
 50
152.721967
 51
180.0
  0
ARC
  8
ボルト／ビス
  6
CONTINUOUS
 62
    64
 10
111.277382
 20
57.399052
 40
0.402402
 50
166.165002
 51
193.834985
  0
LINE
  8
ボルト／ビス
  6
CONTINUOUS
 62
    64
 10
110.874983
 20
57.559425
 11
110.886658
 21
57.5915
  0
ARC
  8
ボルト／ビス
  6
CONTINUOUS
 62
    64
 10
110.979959
 20
57.54339
 40
0.104978
 50
180.0
 51
207.278033
  0
LINE
  8
ボルト／ビス
  6
CONTINUOUS
 62
    64
 10
110.874983
 20
57.238675
 11
110.874983
 21
57.559425
  0
LINE
  8
ボルト／ビス
  6
CONTINUOUS
 62
    64
 10
110.886658
 20
57.5915
 11
111.008317
 21
57.5915
  0
LINE
  8
ボルト／ビス
  6
CONTINUOUS
 62
    64
 10
110.886658
 20
57.495275
 11
111.008317
 21
57.495275
  0
LINE
  8
ボルト／ビス
  6
CONTINUOUS
 62
    64
 10
110.886658
 20
57.2066
 11
111.008317
 21
57.2066
  0
LINE
  8
ボルト／ビス
  6
CONTINUOUS
 62
    64
 10
110.886658
 20
57.302825
 11
111.008317
 21
57.302825
  0
LINE
  8
ボルト／ビス
  6
CONTINUOUS
 10
111.008317
 20
57.2066
 11
111.008317
 21
57.5915
  0
LINE
  8
ボルト／ビス
  6
CONTINUOUS
 10
111.008317
 20
57.19905
 11
111.074983
 21
57.19905
  0
LINE
  8
ボルト／ビス
  6
CONTINUOUS
 10
111.008317
 20
57.19905
 11
111.008317
 21
57.59905
  0
LINE
  8
ボルト／ビス
  6
CONTINUOUS
 10
111.008317
 20
57.59905
 11
111.074983
 21
57.59905
  0
ENDBLK
  0
BLOCK
  2
*GRP_0031
 70
    65
 10
0.0
 20
0.0
  0
LINE
  8
ボルト／ビス
  6
CONTINUOUS
 10
111.174983
 20
12.73238
 11
110.708317
 21
12.73238
  0
LINE
  8
ボルト／ビス
  6
CONTINUOUS
 10
111.174983
 20
13.099045
 11
111.108317
 21
13.099045
  0
LINE
  8
ボルト／ビス
  6
CONTINUOUS
 10
111.108317
 20
13.099045
 11
111.108317
 21
12.365712
  0
LINE
  8
ボルト／ビス
  6
CONTINUOUS
 10
111.108317
 20
12.365712
 11
111.174983
 21
12.365712
  0
LINE
  8
ボルト／ビス
  6
CONTINUOUS
 10
111.174983
 20
13.099045
 11
111.174983
 21
12.365712
  0
LINE
  8
ボルト／ビス
  6
CONTINUOUS
 10
111.074983
 20
13.03238
 11
111.108317
 21
13.03238
  0
LINE
  8
ボルト／ビス
  6
CONTINUOUS
 10
111.074983
 20
13.03238
 11
111.074983
 21
12.43238
  0
LINE
  8
ボルト／ビス
  6
CONTINUOUS
 10
111.074983
 20
12.43238
 11
111.108317
 21
12.43238
  0
LINE
  8
ボルト／ビス
  6
CONTINUOUS
 62
    64
 10
110.874983
 20
12.892755
 11
110.886658
 21
12.92483
  0
ARC
  8
ボルト／ビス
  6
CONTINUOUS
 62
    64
 10
110.979959
 20
12.876716
 40
0.104978
 50
180.0
 51
207.278033
  0
ARC
  8
ボルト／ビス
  6
CONTINUOUS
 62
    64
 10
111.277382
 20
12.732378
 40
0.402402
 50
166.165015
 51
193.834998
  0
LINE
  8
ボルト／ビス
  6
CONTINUOUS
 62
    64
 10
110.874983
 20
12.572005
 11
110.886658
 21
12.53993
  0
ARC
  8
ボルト／ビス
  6
CONTINUOUS
 62
    64
 10
110.979959
 20
12.58804
 40
0.104978
 50
152.721967
 51
180.0
  0
LINE
  8
ボルト／ビス
  6
CONTINUOUS
 62
    64
 10
110.874983
 20
12.892755
 11
110.874983
 21
12.572005
  0
LINE
  8
ボルト／ビス
  6
CONTINUOUS
 62
    64
 10
110.886658
 20
12.53993
 11
111.008317
 21
12.53993
  0
LINE
  8
ボルト／ビス
  6
CONTINUOUS
 62
    64
 10
110.886658
 20
12.636155
 11
111.008317
 21
12.636155
  0
LINE
  8
ボルト／ビス
  6
CONTINUOUS
 62
    64
 10
110.886658
 20
12.92483
 11
111.008317
 21
12.92483
  0
LINE
  8
ボルト／ビス
  6
CONTINUOUS
 62
    64
 10
110.886658
 20
12.828605
 11
111.008317
 21
12.828605
  0
LINE
  8
ボルト／ビス
  6
CONTINUOUS
 10
111.008317
 20
12.92483
 11
111.008317
 21
12.53993
  0
LINE
  8
ボルト／ビス
  6
CONTINUOUS
 10
111.008317
 20
12.93238
 11
111.074983
 21
12.93238
  0
LINE
  8
ボルト／ビス
  6
CONTINUOUS
 10
111.008317
 20
12.93238
 11
111.008317
 21
12.53238
  0
LINE
  8
ボルト／ビス
  6
CONTINUOUS
 10
111.008317
 20
12.53238
 11
111.074983
 21
12.53238
  0
ENDBLK
  0
BLOCK
  2
*DIM_0032
 70
    65
 10
0.0
 20
0.0
  0
LINE
  8
寸法
  6
CONTINUOUS
 10
28.001557
 20
-79.624597
 11
37.30454
 21
-79.624597
  0
LINE
  8
寸法
  6
CONTINUOUS
 10
29.098222
 20
-87.124603
 11
37.30454
 21
-87.124603
  0
LINE
  8
寸法
  6
CONTINUOUS
 10
37.30454
 20
-79.624597
 11
37.30454
 21
-87.124603
  0
POINT
  8
寸法
 10
37.30454
 20
-79.624597
  0
POINT
  8
寸法
 10
37.30454
 20
-87.124603
  0
TEXT
  7
TextStyle03
  8
寸法
  6
CONTINUOUS
 10
36.925
 20
-85.8125
  1
225
 40
3.0
 50
90.0
 72
     5
 11
36.925
 21
-80.9375
  0
ENDBLK
  0
BLOCK
  2
*GRP_0033
 70
    65
 10
0.0
 20
0.0
  0
LINE
  8
型材断面
  6
DOT
 10
-63.358593
 20
-67.341385
 11
-20.331778
 21
-67.341385
  0
LINE
  8
型材断面
  6
DOT
 10
-20.331778
 20
-68.491385
 11
-64.761777
 21
-68.491385
  0
LINE
  8
型材断面
  6
DOT
 10
-20.331778
 20
-69.658053
 11
-64.761777
 21
-69.658053
  0
LINE
  8
型材断面
  6
DOT
 10
22.695038
 20
-67.341385
 11
-20.331778
 21
-67.341385
  0
LINE
  8
型材断面
  6
DOT
 10
-20.331778
 20
-68.491385
 11
24.098222
 21
-68.491385
  0
LINE
  8
型材断面
  6
DOT
 10
-20.331778
 20
-69.658053
 11
24.098222
 21
-69.658053
  0
LINE
  8
別途部材
  6
DOT
 62
    96
 10
-63.665113
 20
-66.291265
 11
-64.065113
 21
-67.291265
  0
LINE
  8
別途部材
  6
DOT
 10
-37.831775
 20
-54.624597
 11
-40.331775
 21
-54.624597
  0
LINE
  8
別途部材
  6
DOT
 62
    96
 10
-63.66511
 20
-66.291265
 11
-64.06511
 21
-67.291265
  0
ARC
  8
別途部材
  6
DOT
 10
-40.331775
 20
-80.576975
 40
25.952382
 50
90.0
 51
146.601512
  0
LINE
  8
別途部材
  6
DOT
 10
-64.06511
 20
-67.291265
 11
-20.331775
 21
-67.291265
  0
LINE
  8
別途部材
  6
DOT
 62
    96
 10
-63.66511
 20
-66.291265
 11
-20.331775
 21
-66.291265
  0
LINE
  8
別途部材
  6
DOT
 10
-37.831775
 20
-54.624597
 11
-40.331775
 21
-54.624597
  0
LINE
  8
別途部材
  6
DOT
 62
    96
 10
23.001557
 20
-66.291265
 11
23.401557
 21
-67.291265
  0
ARC
  8
別途部材
  6
DOT
 10
-0.331776
 20
-80.576975
 40
25.952382
 50
33.398488
 51
90.0
  0
LINE
  8
別途部材
  6
DOT
 10
23.401557
 20
-67.291265
 11
-20.331775
 21
-67.291265
  0
LINE
  8
別途部材
  6
DOT
 62
    96
 10
23.001557
 20
-66.291265
 11
-20.331775
 21
-66.291265
  0
LINE
  8
別途部材
  6
DOT
 10
-2.831775
 20
-54.624597
 11
-0.331775
 21
-54.624597
  0
LINE
  8
別途部材
  6
DOT
 10
-37.831775
 20
-54.624597
 11
-20.331778
 21
-54.624597
  0
LINE
  8
別途部材
  6
DOT
 10
-2.831775
 20
-54.624597
 11
-20.331778
 21
-54.624597
  0
LINE
  8
鉄骨等
  6
DOT
 62
    47
 10
-64.761777
 20
-69.658053
 11
-64.761777
 21
-68.491385
  0
LINE
  8
鉄骨等
  6
DOT
 62
    47
 10
-64.761777
 20
-68.491385
 11
-63.358593
 21
-67.341385
  0
LINE
  8
鉄骨等
  6
DOT
 62
    47
 10
-63.358593
 20
-67.341385
 11
-63.358593
 21
-67.291265
  0
LINE
  8
鉄骨等
  6
DOT
 62
    47
 10
24.098222
 20
-69.658053
 11
24.098222
 21
-68.491385
  0
LINE
  8
鉄骨等
  6
DOT
 62
    47
 10
24.098222
 20
-68.491385
 11
22.695038
 21
-67.341385
  0
LINE
  8
鉄骨等
  6
DOT
 62
    47
 10
22.695038
 20
-67.341385
 11
22.695038
 21
-67.291265
  0
ENDBLK
  0
BLOCK
  2
*GRP_0034
 70
    65
 10
0.0
 20
0.0
  0
LINE
  8
ボルト／ビス
  6
CONTINUOUS
 10
22.001557
 20
-79.624597
 11
22.001557
 21
-79.157932
  0
LINE
  8
ボルト／ビス
  6
CONTINUOUS
 10
22.368223
 20
-79.624597
 11
22.368223
 21
-79.557932
  0
LINE
  8
ボルト／ビス
  6
CONTINUOUS
 10
22.368223
 20
-79.557932
 11
21.63489
 21
-79.557932
  0
LINE
  8
ボルト／ビス
  6
CONTINUOUS
 10
21.63489
 20
-79.557932
 11
21.63489
 21
-79.624597
  0
LINE
  8
ボルト／ビス
  6
CONTINUOUS
 10
22.368223
 20
-79.624597
 11
21.63489
 21
-79.624597
  0
LINE
  8
ボルト／ビス
  6
CONTINUOUS
 10
22.301557
 20
-79.524597
 11
22.301557
 21
-79.557932
  0
LINE
  8
ボルト／ビス
  6
CONTINUOUS
 10
22.301557
 20
-79.524597
 11
21.701557
 21
-79.524597
  0
LINE
  8
ボルト／ビス
  6
CONTINUOUS
 10
21.701557
 20
-79.524597
 11
21.701557
 21
-79.557932
  0
LINE
  8
ボルト／ビス
  6
CONTINUOUS
 62
    64
 10
22.161932
 20
-79.324597
 11
22.194008
 21
-79.336272
  0
ARC
  8
ボルト／ビス
  6
CONTINUOUS
 62
    64
 10
22.145894
 20
-79.429575
 40
0.104978
 50
90.0
 51
117.278033
  0
ARC
  8
ボルト／ビス
  6
CONTINUOUS
 62
    64
 10
22.001556
 20
-79.726999
 40
0.402402
 50
76.165015
 51
103.834998
  0
LINE
  8
ボルト／ビス
  6
CONTINUOUS
 62
    64
 10
21.841182
 20
-79.324597
 11
21.809108
 21
-79.336272
  0
ARC
  8
ボルト／ビス
  6
CONTINUOUS
 62
    64
 10
21.857218
 20
-79.429575
 40
0.104978
 50
62.721967
 51
90.0
  0
LINE
  8
ボルト／ビス
  6
CONTINUOUS
 62
    64
 10
22.161932
 20
-79.324597
 11
21.841182
 21
-79.324597
  0
LINE
  8
ボルト／ビス
  6
CONTINUOUS
 62
    64
 10
21.809108
 20
-79.336272
 11
21.809108
 21
-79.457932
  0
LINE
  8
ボルト／ビス
  6
CONTINUOUS
 62
    64
 10
21.905333
 20
-79.336272
 11
21.905333
 21
-79.457932
  0
LINE
  8
ボルト／ビス
  6
CONTINUOUS
 62
    64
 10
22.194008
 20
-79.336272
 11
22.194008
 21
-79.457932
  0
LINE
  8
ボルト／ビス
  6
CONTINUOUS
 62
    64
 10
22.097782
 20
-79.336272
 11
22.097782
 21
-79.457932
  0
LINE
  8
ボルト／ビス
  6
CONTINUOUS
 10
22.194008
 20
-79.457932
 11
21.809108
 21
-79.457932
  0
LINE
  8
ボルト／ビス
  6
CONTINUOUS
 10
22.201557
 20
-79.457932
 11
22.201557
 21
-79.524597
  0
LINE
  8
ボルト／ビス
  6
CONTINUOUS
 10
22.201557
 20
-79.457932
 11
21.801557
 21
-79.457932
  0
LINE
  8
ボルト／ビス
  6
CONTINUOUS
 10
21.801557
 20
-79.457932
 11
21.801557
 21
-79.524597
  0
ENDBLK
  0
BLOCK
  2
*GRP_0035
 70
    65
 10
0.0
 20
0.0
  0
LINE
  8
ボルト／ビス
  6
DOT
 10
22.001557
 20
-66.291265
 11
22.001557
 21
-65.8246
  0
LINE
  8
ボルト／ビス
  6
DOT
 10
22.368223
 20
-66.291265
 11
22.368223
 21
-66.2246
  0
LINE
  8
ボルト／ビス
  6
DOT
 10
22.368223
 20
-66.2246
 11
21.63489
 21
-66.2246
  0
LINE
  8
ボルト／ビス
  6
DOT
 10
21.63489
 20
-66.2246
 11
21.63489
 21
-66.291265
  0
LINE
  8
ボルト／ビス
  6
DOT
 10
22.368223
 20
-66.291265
 11
21.63489
 21
-66.291265
  0
LINE
  8
ボルト／ビス
  6
DOT
 10
22.301557
 20
-66.191265
 11
22.301557
 21
-66.2246
  0
LINE
  8
ボルト／ビス
  6
DOT
 10
22.301557
 20
-66.191265
 11
21.701557
 21
-66.191265
  0
LINE
  8
ボルト／ビス
  6
DOT
 10
21.701557
 20
-66.191265
 11
21.701557
 21
-66.2246
  0
LINE
  8
ボルト／ビス
  6
DOT
 62
    64
 10
22.161932
 20
-65.991265
 11
22.194008
 21
-66.00294
  0
ARC
  8
ボルト／ビス
  6
DOT
 62
    64
 10
22.145894
 20
-66.096242
 40
0.104978
 50
90.0
 51
117.278033
  0
ARC
  8
ボルト／ビス
  6
DOT
 62
    64
 10
22.001556
 20
-66.393666
 40
0.402402
 50
76.165015
 51
103.834998
  0
LINE
  8
ボルト／ビス
  6
DOT
 62
    64
 10
21.841182
 20
-65.991265
 11
21.809108
 21
-66.00294
  0
ARC
  8
ボルト／ビス
  6
DOT
 62
    64
 10
21.857218
 20
-66.096242
 40
0.104978
 50
62.721967
 51
90.0
  0
LINE
  8
ボルト／ビス
  6
DOT
 62
    64
 10
22.161932
 20
-65.991265
 11
21.841182
 21
-65.991265
  0
LINE
  8
ボルト／ビス
  6
DOT
 62
    64
 10
21.809108
 20
-66.00294
 11
21.809108
 21
-66.1246
  0
LINE
  8
ボルト／ビス
  6
DOT
 62
    64
 10
21.905333
 20
-66.00294
 11
21.905333
 21
-66.1246
  0
LINE
  8
ボルト／ビス
  6
DOT
 62
    64
 10
22.194008
 20
-66.00294
 11
22.194008
 21
-66.1246
  0
LINE
  8
ボルト／ビス
  6
DOT
 62
    64
 10
22.097782
 20
-66.00294
 11
22.097782
 21
-66.1246
  0
LINE
  8
ボルト／ビス
  6
DOT
 10
22.194008
 20
-66.1246
 11
21.809108
 21
-66.1246
  0
LINE
  8
ボルト／ビス
  6
DOT
 10
22.201557
 20
-66.1246
 11
22.201557
 21
-66.191265
  0
LINE
  8
ボルト／ビス
  6
DOT
 10
22.201557
 20
-66.1246
 11
21.801557
 21
-66.1246
  0
LINE
  8
ボルト／ビス
  6
DOT
 10
21.801557
 20
-66.1246
 11
21.801557
 21
-66.191265
  0
ENDBLK
  0
BLOCK
  2
*GRP_0036
 70
    65
 10
0.0
 20
0.0
  0
LINE
  8
ボルト／ビス
  6
CONTINUOUS
 10
-62.665113
 20
-79.624597
 11
-62.665113
 21
-79.157932
  0
LINE
  8
ボルト／ビス
  6
CONTINUOUS
 10
-63.031778
 20
-79.624597
 11
-63.031778
 21
-79.557932
  0
LINE
  8
ボルト／ビス
  6
CONTINUOUS
 10
-63.031778
 20
-79.557932
 11
-62.298445
 21
-79.557932
  0
LINE
  8
ボルト／ビス
  6
CONTINUOUS
 10
-62.298445
 20
-79.557932
 11
-62.298445
 21
-79.624597
  0
LINE
  8
ボルト／ビス
  6
CONTINUOUS
 10
-63.031778
 20
-79.624597
 11
-62.298445
 21
-79.624597
  0
LINE
  8
ボルト／ビス
  6
CONTINUOUS
 10
-62.965113
 20
-79.524597
 11
-62.965113
 21
-79.557932
  0
LINE
  8
ボルト／ビス
  6
CONTINUOUS
 10
-62.965113
 20
-79.524597
 11
-62.365113
 21
-79.524597
  0
LINE
  8
ボルト／ビス
  6
CONTINUOUS
 10
-62.365113
 20
-79.524597
 11
-62.365113
 21
-79.557932
  0
LINE
  8
ボルト／ビス
  6
CONTINUOUS
 62
    64
 10
-62.825487
 20
-79.324597
 11
-62.857563
 21
-79.336272
  0
ARC
  8
ボルト／ビス
  6
CONTINUOUS
 62
    64
 10
-62.809449
 20
-79.429575
 40
0.104978
 50
62.721967
 51
90.0
  0
ARC
  8
ボルト／ビス
  6
CONTINUOUS
 62
    64
 10
-62.665111
 20
-79.726999
 40
0.402402
 50
76.165002
 51
103.834985
  0
LINE
  8
ボルト／ビス
  6
CONTINUOUS
 62
    64
 10
-62.504738
 20
-79.324597
 11
-62.472663
 21
-79.336272
  0
ARC
  8
ボルト／ビス
  6
CONTINUOUS
 62
    64
 10
-62.520773
 20
-79.429575
 40
0.104978
 50
90.0
 51
117.278033
  0
LINE
  8
ボルト／ビス
  6
CONTINUOUS
 62
    64
 10
-62.825487
 20
-79.324597
 11
-62.504738
 21
-79.324597
  0
LINE
  8
ボルト／ビス
  6
CONTINUOUS
 62
    64
 10
-62.472663
 20
-79.336272
 11
-62.472663
 21
-79.457932
  0
LINE
  8
ボルト／ビス
  6
CONTINUOUS
 62
    64
 10
-62.568887
 20
-79.336272
 11
-62.568887
 21
-79.457932
  0
LINE
  8
ボルト／ビス
  6
CONTINUOUS
 62
    64
 10
-62.857563
 20
-79.336272
 11
-62.857563
 21
-79.457932
  0
LINE
  8
ボルト／ビス
  6
CONTINUOUS
 62
    64
 10
-62.761337
 20
-79.336272
 11
-62.761337
 21
-79.457932
  0
LINE
  8
ボルト／ビス
  6
CONTINUOUS
 10
-62.857563
 20
-79.457932
 11
-62.472663
 21
-79.457932
  0
LINE
  8
ボルト／ビス
  6
CONTINUOUS
 10
-62.865113
 20
-79.457932
 11
-62.865113
 21
-79.524597
  0
LINE
  8
ボルト／ビス
  6
CONTINUOUS
 10
-62.865113
 20
-79.457932
 11
-62.465113
 21
-79.457932
  0
LINE
  8
ボルト／ビス
  6
CONTINUOUS
 10
-62.465113
 20
-79.457932
 11
-62.465113
 21
-79.524597
  0
ENDBLK
  0
BLOCK
  2
*GRP_0037
 70
    65
 10
0.0
 20
0.0
  0
LINE
  8
ボルト／ビス
  6
DOT
 10
-62.665113
 20
-66.291265
 11
-62.665113
 21
-65.8246
  0
LINE
  8
ボルト／ビス
  6
DOT
 10
-63.031778
 20
-66.291265
 11
-63.031778
 21
-66.2246
  0
LINE
  8
ボルト／ビス
  6
DOT
 10
-63.031778
 20
-66.2246
 11
-62.298445
 21
-66.2246
  0
LINE
  8
ボルト／ビス
  6
DOT
 10
-62.298445
 20
-66.2246
 11
-62.298445
 21
-66.291265
  0
LINE
  8
ボルト／ビス
  6
DOT
 10
-63.031778
 20
-66.291265
 11
-62.298445
 21
-66.291265
  0
LINE
  8
ボルト／ビス
  6
DOT
 10
-62.965113
 20
-66.191265
 11
-62.965113
 21
-66.2246
  0
LINE
  8
ボルト／ビス
  6
DOT
 10
-62.965113
 20
-66.191265
 11
-62.365113
 21
-66.191265
  0
LINE
  8
ボルト／ビス
  6
DOT
 10
-62.365113
 20
-66.191265
 11
-62.365113
 21
-66.2246
  0
LINE
  8
ボルト／ビス
  6
DOT
 62
    64
 10
-62.825487
 20
-65.991265
 11
-62.857563
 21
-66.00294
  0
ARC
  8
ボルト／ビス
  6
DOT
 62
    64
 10
-62.809449
 20
-66.096242
 40
0.104978
 50
62.721967
 51
90.0
  0
ARC
  8
ボルト／ビス
  6
DOT
 62
    64
 10
-62.665111
 20
-66.393666
 40
0.402402
 50
76.165002
 51
103.834985
  0
LINE
  8
ボルト／ビス
  6
DOT
 62
    64
 10
-62.504738
 20
-65.991265
 11
-62.472663
 21
-66.00294
  0
ARC
  8
ボルト／ビス
  6
DOT
 62
    64
 10
-62.520773
 20
-66.096242
 40
0.104978
 50
90.0
 51
117.278033
  0
LINE
  8
ボルト／ビス
  6
DOT
 62
    64
 10
-62.825487
 20
-65.991265
 11
-62.504738
 21
-65.991265
  0
LINE
  8
ボルト／ビス
  6
DOT
 62
    64
 10
-62.472663
 20
-66.00294
 11
-62.472663
 21
-66.1246
  0
LINE
  8
ボルト／ビス
  6
DOT
 62
    64
 10
-62.568887
 20
-66.00294
 11
-62.568887
 21
-66.1246
  0
LINE
  8
ボルト／ビス
  6
DOT
 62
    64
 10
-62.857563
 20
-66.00294
 11
-62.857563
 21
-66.1246
  0
LINE
  8
ボルト／ビス
  6
DOT
 62
    64
 10
-62.761337
 20
-66.00294
 11
-62.761337
 21
-66.1246
  0
LINE
  8
ボルト／ビス
  6
DOT
 10
-62.857563
 20
-66.1246
 11
-62.472663
 21
-66.1246
  0
LINE
  8
ボルト／ビス
  6
DOT
 10
-62.865113
 20
-66.1246
 11
-62.865113
 21
-66.191265
  0
LINE
  8
ボルト／ビス
  6
DOT
 10
-62.865113
 20
-66.1246
 11
-62.465113
 21
-66.1246
  0
LINE
  8
ボルト／ビス
  6
DOT
 10
-62.465113
 20
-66.1246
 11
-62.465113
 21
-66.191265
  0
ENDBLK
  0
BLOCK
  2
*DIM_0038
 70
    65
 10
0.0
 20
0.0
  0
LINE
  8
寸法
  6
BYBLOCK
 62
     0
 10
2.668223
 20
-54.624597
 11
37.30454
 21
-54.624597
  0
LINE
  8
寸法
  6
BYBLOCK
 62
     0
 10
37.30454
 20
-67.95793
 11
37.30454
 21
-54.624597
  0
POINT
  8
寸法
 62
     0
 10
37.30454
 20
-67.95793
  0
POINT
  8
寸法
 62
     0
 10
37.30454
 20
-54.624597
  0
TEXT
  7
TextStyle03
  8
寸法
  6
CONTINUOUS
 62
     0
 10
36.25
 20
-52.5875
  1
上昇高さ400
 40
3.0
 50
90.0
 72
     5
 11
36.25
 21
-34.2125
  0
ENDBLK
  0
ENDSEC
  0
SECTION
  2
ENTITIES
  0
POLYLINE
  8
通り芯
  6
CONTINUOUS
 66
     1
 70
     1
  0
VERTEX
  8
通り芯
 10
-210.0
 20
-148.5
  0
VERTEX
  8
通り芯
 10
210.0
 20
-148.5
  0
VERTEX
  8
通り芯
 10
210.0
 20
148.5
  0
VERTEX
  8
通り芯
 10
-210.0
 20
148.5
  0
SEQEND
  0
INSERT
  2
*GRP_0001
  8
型材断面
  6
CONTINUOUS
 10
0.0
 20
0.0
  0
LINE
  8
型材断面
  6
DASHDOT
 10
21.33489
 20
-87.251428
 11
21.33489
 21
56.73238
  0
LINE
  8
型材断面
  6
DASHDOT
 10
-20.331778
 20
-87.251428
 11
-20.331778
 21
56.73238
  0
LINE
  8
型材断面
  6
DASHDOT
 10
-61.998442
 20
-87.251428
 11
-61.998442
 21
56.73238
  0
LINE
  8
型材断面
  6
DASHDOT
 10
119.011652
 20
56.73238
 11
-61.998442
 21
56.73238
  0
LINE
  8
型材断面
  6
DASHDOT
 10
119.011652
 20
35.065715
 11
-61.998442
 21
35.065715
  0
LINE
  8
型材断面
  6
DASHDOT
 10
119.011652
 20
13.399048
 11
-61.998442
 21
13.399048
  0
LINE
  8
型材断面
  6
DOT
 10
-19.081778
 20
13.399048
 11
-19.081778
 21
56.73238
  0
LINE
  8
型材断面
  6
DOT
 10
-21.581778
 20
13.399048
 11
-21.581778
 21
56.73238
  0
POLYLINE
  8
型材断面
  6
CONTINUOUS
 66
     1
 70
     1
  0
VERTEX
  8
型材断面
 10
-10.768635
 20
66.508305
  0
VERTEX
  8
型材断面
 10
-29.540565
 20
66.508305
  0
VERTEX
  8
型材断面
 10
-29.540565
 20
71.245147
  0
VERTEX
  8
型材断面
 10
-10.768635
 20
71.245147
  0
SEQEND
  0
POLYLINE
  8
型材断面
  6
CONTINUOUS
 66
     1
 70
     1
  0
VERTEX
  8
型材断面
 10
-10.768635
 20
3.623125
  0
VERTEX
  8
型材断面
 10
-29.540565
 20
3.623125
  0
VERTEX
  8
型材断面
 10
-29.540565
 20
-1.113717
  0
VERTEX
  8
型材断面
 10
-10.768635
 20
-1.113717
  0
SEQEND
  0
LINE
  8
型材断面
  6
CONTINUOUS
 10
-102.85065
 20
94.709852
 11
-102.254595
 21
92.119345
  0
LINE
  8
型材断面
  6
CONTINUOUS
 10
-102.85065
 20
94.709852
 11
-103.446707
 21
92.119345
  0
LINE
  8
型材断面
  6
CONTINUOUS
 10
-103.446707
 20
92.119345
 11
-102.254595
 21
92.119345
  0
LINE
  8
型材断面
  6
CONTINUOUS
 10
-108.873237
 20
88.840452
 11
-62.63146
 21
88.840452
  0
LINE
  8
型材断面
  6
CONTINUOUS
 10
-102.85065
 20
101.239727
 11
-104.34628
 21
98.64922
  0
LINE
  8
型材断面
  6
CONTINUOUS
 10
-102.85065
 20
101.239727
 11
-101.35502
 21
98.64922
  0
LINE
  8
型材断面
  6
CONTINUOUS
 10
-101.35502
 20
98.64922
 11
-104.34628
 21
98.64922
  0
LINE
  8
型材断面
  6
CONTINUOUS
 10
-108.873237
 20
97.710625
 11
-62.63146
 21
97.710625
  0
LINE
  8
型材断面
  6
CONTINUOUS
 10
-108.873237
 20
83.05242
 11
-62.63146
 21
83.05242
  0
INSERT
  2
*GRP_0008
  8
型材断面
  6
CONTINUOUS
 10
0.0
 20
0.0
  0
INSERT
  2
*GRP_0009
  8
型材断面
  6
CONTINUOUS
 10
0.0
 20
0.0
  0
INSERT
  2
*GRP_0010
  8
型材断面
  6
CONTINUOUS
 10
0.0
 20
0.0
  0
INSERT
  2
*GRP_0011
  8
型材断面
  6
CONTINUOUS
 10
0.0
 20
0.0
  0
LINE
  8
型材断面
  6
CONTINUOUS
 10
-108.873237
 20
77.264387
 11
-62.63146
 21
77.264387
  0
LINE
  8
型材断面
  6
CONTINUOUS
 10
-63.358593
 20
-80.674718
 11
-20.331778
 21
-80.674718
  0
LINE
  8
型材断面
  6
CONTINUOUS
 10
-20.331778
 20
-81.824718
 11
-64.761777
 21
-81.824718
  0
LINE
  8
型材断面
  6
CONTINUOUS
 10
-20.331778
 20
-82.991385
 11
-64.761777
 21
-82.991385
  0
LINE
  8
型材断面
  6
CONTINUOUS
 10
22.695038
 20
-80.674718
 11
-20.331778
 21
-80.674718
  0
LINE
  8
型材断面
  6
CONTINUOUS
 10
-20.331778
 20
-81.824718
 11
24.098222
 21
-81.824718
  0
LINE
  8
型材断面
  6
CONTINUOUS
 10
-20.331778
 20
-82.991385
 11
24.098222
 21
-82.991385
  0
LINE
  8
型材断面
  6
CONTINUOUS
 10
-64.065113
 20
58.79905
 11
-64.76178
 21
59.495715
  0
LINE
  8
型材断面
  6
CONTINUOUS
 10
23.401557
 20
58.79905
 11
24.098222
 21
59.495713
  0
LINE
  8
型材断面
  6
CONTINUOUS
 10
23.401557
 20
11.33238
 11
24.098225
 21
10.635715
  0
LINE
  8
型材断面
  6
CONTINUOUS
 10
24.098222
 20
10.635715
 11
24.098222
 21
59.495715
  0
LINE
  8
型材断面
  6
CONTINUOUS
 10
-64.761777
 20
59.495715
 11
24.098222
 21
59.495715
  0
LINE
  8
型材断面
  6
CONTINUOUS
 10
-64.065113
 20
11.33238
 11
-64.76178
 21
10.635715
  0
LINE
  8
型材断面
  6
CONTINUOUS
 10
24.098222
 20
10.635715
 11
-64.761777
 21
10.635715
  0
LINE
  8
型材断面
  6
CONTINUOUS
 10
-64.761777
 20
59.495715
 11
-64.761777
 21
10.635715
  0
LINE
  8
型材断面
  6
CONTINUOUS
 10
-64.761777
 20
35.065715
 11
-67.352285
 21
36.561345
  0
LINE
  8
型材断面
  6
CONTINUOUS
 10
-64.761777
 20
35.065715
 11
-67.352285
 21
33.570085
  0
LINE
  8
型材断面
  6
CONTINUOUS
 10
-67.352285
 20
33.570085
 11
-67.352285
 21
36.561345
  0
LINE
  8
型材断面
  6
CONTINUOUS
 10
-64.76178
 20
53.032382
 11
-67.35229
 21
52.43633
  0
LINE
  8
型材断面
  6
CONTINUOUS
 10
-64.76178
 20
53.032382
 11
-67.352287
 21
53.628442
  0
LINE
  8
型材断面
  6
CONTINUOUS
 10
-67.352287
 20
53.628442
 11
-67.35229
 21
52.43633
  0
LINE
  8
型材断面
  6
CONTINUOUS
 10
-64.76178
 20
17.099048
 11
-67.35229
 21
17.6951
  0
LINE
  8
型材断面
  6
CONTINUOUS
 10
-64.76178
 20
17.099048
 11
-67.352287
 21
16.502988
  0
LINE
  8
型材断面
  6
CONTINUOUS
 10
-67.352287
 20
16.502988
 11
-67.35229
 21
17.6951
  0
LINE
  8
型材断面
  6
CONTINUOUS
 10
-45.331775
 20
10.635715
 11
-46.827405
 21
8.045207
  0
LINE
  8
型材断面
  6
CONTINUOUS
 10
-45.331775
 20
10.635715
 11
-43.836145
 21
8.045207
  0
LINE
  8
型材断面
  6
CONTINUOUS
 10
-43.836145
 20
8.045207
 11
-46.827405
 21
8.045207
  0
LINE
  8
型材断面
  6
CONTINUOUS
 10
4.66822
 20
10.635715
 11
6.16385
 21
8.045207
  0
LINE
  8
型材断面
  6
CONTINUOUS
 10
4.66822
 20
10.635715
 11
3.17259
 21
8.045207
  0
LINE
  8
型材断面
  6
CONTINUOUS
 10
3.17259
 20
8.045207
 11
6.16385
 21
8.045207
  0
LINE
  8
型材断面
  6
CONTINUOUS
 10
24.098222
 20
35.065715
 11
26.68873
 21
36.561345
  0
LINE
  8
型材断面
  6
CONTINUOUS
 10
24.098222
 20
35.065715
 11
26.68873
 21
33.570085
  0
LINE
  8
型材断面
  6
CONTINUOUS
 10
26.68873
 20
33.570085
 11
26.68873
 21
36.561345
  0
LINE
  8
型材断面
  6
CONTINUOUS
 10
24.098225
 20
53.032382
 11
26.688735
 21
52.43633
  0
LINE
  8
型材断面
  6
CONTINUOUS
 10
24.098225
 20
53.032382
 11
26.688732
 21
53.628442
  0
LINE
  8
型材断面
  6
CONTINUOUS
 10
26.688732
 20
53.628442
 11
26.688735
 21
52.43633
  0
LINE
  8
型材断面
  6
CONTINUOUS
 10
24.098225
 20
17.099048
 11
26.688735
 21
17.6951
  0
LINE
  8
型材断面
  6
CONTINUOUS
 10
24.098225
 20
17.099048
 11
26.688732
 21
16.502988
  0
LINE
  8
型材断面
  6
CONTINUOUS
 10
26.688732
 20
16.502988
 11
26.688735
 21
17.6951
  0
LINE
  8
型材断面
  6
CONTINUOUS
 10
-45.331775
 20
59.495715
 11
-46.827405
 21
62.086223
  0
LINE
  8
型材断面
  6
CONTINUOUS
 10
-45.331775
 20
59.495715
 11
-43.836145
 21
62.086223
  0
LINE
  8
型材断面
  6
CONTINUOUS
 10
-43.836145
 20
62.086223
 11
-46.827405
 21
62.086223
  0
LINE
  8
型材断面
  6
CONTINUOUS
 10
4.66822
 20
59.495715
 11
6.16385
 21
62.086223
  0
LINE
  8
型材断面
  6
CONTINUOUS
 10
4.66822
 20
59.495715
 11
3.17259
 21
62.086223
  0
LINE
  8
型材断面
  6
CONTINUOUS
 10
3.17259
 20
62.086223
 11
6.16385
 21
62.086223
  0
LINE
  8
型材断面
  6
CONTINUOUS
 10
23.598222
 20
-87.124603
 11
23.598222
 21
-87.461268
  0
LINE
  8
型材断面
  6
CONTINUOUS
 10
24.098222
 20
-87.124603
 11
23.598222
 21
-87.124603
  0
LINE
  8
型材断面
  6
CONTINUOUS
 10
24.098222
 20
-83.22472
 11
23.901598
 21
-83.028097
  0
LINE
  8
型材断面
  6
CONTINUOUS
 10
24.098222
 20
-83.22472
 11
24.098222
 21
-87.124603
  0
LINE
  8
型材断面
  6
CONTINUOUS
 10
114.54177
 20
10.635715
 11
114.54177
 21
35.065715
  0
LINE
  8
型材断面
  6
CONTINUOUS
 10
112.225102
 20
12.0389
 11
112.225102
 21
35.065715
  0
LINE
  8
型材断面
  6
CONTINUOUS
 10
113.375102
 20
35.065715
 11
113.375102
 21
10.635715
  0
LINE
  8
型材断面
  6
CONTINUOUS
 10
114.54177
 20
59.495715
 11
114.54177
 21
35.065715
  0
LINE
  8
型材断面
  6
CONTINUOUS
 10
112.225102
 20
58.09253
 11
112.225102
 21
35.065715
  0
LINE
  8
型材断面
  6
CONTINUOUS
 10
113.375102
 20
35.065715
 11
113.375102
 21
59.495715
  0
LINE
  8
型材断面
  6
CONTINUOUS
 10
118.674987
 20
58.995715
 11
119.011652
 21
58.995715
  0
LINE
  8
型材断面
  6
CONTINUOUS
 10
118.674987
 20
59.495715
 11
118.674987
 21
58.995715
  0
LINE
  8
型材断面
  6
CONTINUOUS
 10
114.775105
 20
59.495715
 11
114.578483
 21
59.29909
  0
LINE
  8
型材断面
  6
CONTINUOUS
 10
114.775105
 20
59.495715
 11
118.674987
 21
59.495715
  0
LINE
  8
型材断面
  6
CONTINUOUS
 62
    47
 10
114.578483
 20
59.29909
 11
114.578483
 21
35.065715
  0
LINE
  8
型材断面
  6
CONTINUOUS
 10
114.775105
 20
59.495715
 11
114.775105
 21
35.065715
  0
LINE
  8
型材断面
  6
CONTINUOUS
 10
119.011652
 20
58.995715
 11
119.011652
 21
35.065715
  0
LINE
  8
型材断面
  6
CONTINUOUS
 10
118.674987
 20
59.495715
 11
118.674987
 21
35.065715
  0
LINE
  8
型材断面
  6
CONTINUOUS
 10
118.674987
 20
11.135715
 11
119.011652
 21
11.135715
  0
LINE
  8
型材断面
  6
CONTINUOUS
 10
118.674987
 20
10.635715
 11
118.674987
 21
11.135715
  0
LINE
  8
型材断面
  6
CONTINUOUS
 10
114.775105
 20
10.635715
 11
114.578483
 21
10.83234
  0
LINE
  8
型材断面
  6
CONTINUOUS
 10
114.775105
 20
10.635715
 11
118.674987
 21
10.635715
  0
LINE
  8
型材断面
  6
CONTINUOUS
 62
    47
 10
114.578483
 20
10.83234
 11
114.578483
 21
35.065715
  0
LINE
  8
型材断面
  6
CONTINUOUS
 10
114.775105
 20
10.635715
 11
114.775105
 21
35.065715
  0
LINE
  8
型材断面
  6
CONTINUOUS
 10
119.011652
 20
11.135715
 11
119.011652
 21
35.065715
  0
LINE
  8
型材断面
  6
CONTINUOUS
 10
118.674987
 20
10.635715
 11
118.674987
 21
35.065715
  0
LINE
  8
型材断面
  6
CONTINUOUS
 10
24.098222
 20
-87.124603
 11
-20.331778
 21
-87.124603
  0
LINE
  8
型材断面
  6
CONTINUOUS
 10
23.598222
 20
-87.461268
 11
-20.331778
 21
-87.461268
  0
LINE
  8
型材断面
  6
CONTINUOUS
 62
    47
 10
23.901598
 20
-83.028097
 11
-20.331778
 21
-83.028097
  0
LINE
  8
型材断面
  6
CONTINUOUS
 10
24.098222
 20
-83.22472
 11
-20.331778
 21
-83.22472
  0
LINE
  8
型材断面
  6
CONTINUOUS
 10
-64.261777
 20
-87.124603
 11
-64.261777
 21
-87.461268
  0
LINE
  8
型材断面
  6
CONTINUOUS
 10
-64.761777
 20
-87.124603
 11
-64.261777
 21
-87.124603
  0
LINE
  8
型材断面
  6
CONTINUOUS
 10
-64.761777
 20
-83.22472
 11
-64.565153
 21
-83.028097
  0
LINE
  8
型材断面
  6
CONTINUOUS
 10
-64.761777
 20
-83.22472
 11
-64.761777
 21
-87.124603
  0
LINE
  8
型材断面
  6
CONTINUOUS
 10
-64.761777
 20
-87.124603
 11
-20.331778
 21
-87.124603
  0
LINE
  8
型材断面
  6
CONTINUOUS
 10
-64.261777
 20
-87.461268
 11
-20.331778
 21
-87.461268
  0
LINE
  8
型材断面
  6
CONTINUOUS
 62
    47
 10
-64.565153
 20
-83.028097
 11
-20.331778
 21
-83.028097
  0
LINE
  8
型材断面
  6
CONTINUOUS
 10
-64.761777
 20
-83.22472
 11
-20.331778
 21
-83.22472
  0
INSERT
  2
*GRP_0016
  8
ボルト／ビス
  6
CONTINUOUS
 10
0.0
 20
0.0
  0
INSERT
  2
*GRP_0017
  8
ボルト／ビス
  6
CONTINUOUS
 10
0.0
 20
0.0
  0
INSERT
  2
*GRP_0018
  8
ボルト／ビス
  6
DOT
 10
0.0
 20
0.0
  0
INSERT
  2
*GRP_0019
  8
ボルト／ビス
  6
DOT
 10
0.0
 20
0.0
  0
TEXT
  7
TextStyle03
  8
文字
  6
CONTINUOUS
 10
-28.5
 20
67.2
  1
可動装置側
 40
3.0
 72
     5
 11
-12.0
 21
67.2
  0
TEXT
  7
TextStyle03
  8
文字
  6
CONTINUOUS
 10
-28.5
 20
-0.075
  1
可動装置側
 40
3.0
 72
     5
 11
-12.0
 21
-0.075
  0
TEXT
  7
TextStyle03
  8
文字
  6
CONTINUOUS
 10
-100.1
 20
93.325
  1
はケーシング位置を示す
 40
3.0
 72
     5
 11
-63.35
 21
93.325
  0
TEXT
  7
TextStyle03
  8
文字
  6
CONTINUOUS
 10
-100.1
 20
89.95
  1
４ヶ所中1ヶ所に設定
 40
3.0
 72
     5
 11
-68.4125
 21
89.95
  0
TEXT
  7
TextStyle03
  8
文字
  6
CONTINUOUS
 10
-100.1
 20
98.85
  1
は排水穴位置を示す
 40
3.0
 72
     5
 11
-70.1
 21
98.85
  0
TEXT
  7
TextStyle03
  8
文字
  6
CONTINUOUS
 10
-103.825
 20
83.975
  1
アンカー数量　１２ヶ所
 40
3.0
 72
     5
 11
-67.075
 21
83.975
  0
TEXT
  7
TextStyle03
  8
文字
  6
CONTINUOUS
 10
-99.525
 20
23.975
  1
アンカーピッチ
 40
3.0
 50
90.0
 72
     5
 11
-99.525
 21
47.225
  0
TEXT
  7
TextStyle03
  8
文字
  6
CONTINUOUS
 10
-55.375
 20
94.75
  1
アンカーピッチ
 40
3.0
 72
     5
 11
-32.125
 21
94.75
  0
TEXT
  7
TextStyle03
  8
文字
  6
CONTINUOUS
 10
-103.825
 20
78.2
  1
アームユニット数　４ヶ所
 40
3.0
 72
     5
 11
-63.7
 21
78.2
  0
LINE
  8
文字
  6
CONTINUOUS
 10
-64.761777
 20
-22.536362
 11
-64.761777
 21
-80.990352
  0
LINE
  8
文字
  6
CONTINUOUS
 10
24.098222
 20
-22.536362
 11
24.098222
 21
-80.990352
  0
TEXT
  7
TextStyle03
  8
文字
  6
CONTINUOUS
 10
105.15
 20
-84.4
  1
網入り6.8t
 40
3.0
 72
     5
 11
121.8375
 21
-84.4
  0
TEXT
  7
TextStyle03
  8
文字
  6
CONTINUOUS
 10
111.825
 20
-89.075
  1
×２枚
 40
3.0
 72
     5
 11
121.575
 21
-89.075
  0
TEXT
  7
TextStyle03
  8
文字
  6
CONTINUOUS
 10
78.1
 20
125.25
  1
シリーズ：ＴＤ１Ｌ
 40
5.0
 72
     5
 11
128.1
 21
125.25
  0
TEXT
  7
TextStyle03
  8
文字
  6
CONTINUOUS
 10
78.1
 20
119.625
  1
　　　　　（上下可動）1300×2500タイプ
 40
5.0
 72
     5
 11
184.35
 21
119.625
  0
TEXT
  7
TextStyle03
  8
文字
  6
CONTINUOUS
 10
78.1
 20
114.0
  1
図面名　：外観姿図
 40
5.0
 72
     5
 11
128.1
 21
114.0
  0
TEXT
  7
TextStyle03
  8
文字
  6
CONTINUOUS
 10
78.1
 20
108.375
  1
　　　　　　
 40
5.0
 72
     5
 11
111.225
 21
108.375
  0
TEXT
  7
TextStyle03
  8
文字
  6
CONTINUOUS
 10
77.5
 20
103.925
  1
ＮＳコード：ＮＳＤＬ
 40
5.0
 72
     5
 11
133.125
 21
103.925
  0
LINE
  8
文字
  6
CONTINUOUS
 10
55.661368
 20
59.495715
 11
112.667828
 21
59.495715
  0
LINE
  8
文字
  6
CONTINUOUS
 10
55.661368
 20
10.635715
 11
112.667828
 21
10.635715
  0
INSERT
  2
*DIM_0002
  8
寸法
  6
CONTINUOUS
 10
0.0
 20
0.0
  0
INSERT
  2
*DIM_0003
  8
寸法
  6
CONTINUOUS
 10
0.0
 20
0.0
  0
INSERT
  2
*DIM_0004
  8
寸法
  6
CONTINUOUS
 10
0.0
 20
0.0
  0
INSERT
  2
*DIM_0005
  8
寸法
  6
CONTINUOUS
 10
0.0
 20
0.0
  0
INSERT
  2
*DIM_0006
  8
寸法
  6
CONTINUOUS
 10
0.0
 20
0.0
  0
INSERT
  2
*DIM_0012
  8
寸法
  6
CONTINUOUS
 10
0.0
 20
0.0
  0
INSERT
  2
*DIM_0013
  8
寸法
  6
CONTINUOUS
 10
0.0
 20
0.0
  0
INSERT
  2
*DIM_0014
  8
寸法
  6
CONTINUOUS
 10
0.0
 20
0.0
  0
INSERT
  2
*DIM_0015
  8
寸法
  6
CONTINUOUS
 10
0.0
 20
0.0
  0
INSERT
  2
*DIM_0020
  8
寸法
  6
CONTINUOUS
 10
0.0
 20
0.0
  0
INSERT
  2
*DIM_0021
  8
寸法
  6
CONTINUOUS
 10
0.0
 20
0.0
  0
INSERT
  2
*DIM_0023
  8
寸法
  6
CONTINUOUS
 10
0.0
 20
0.0
  0
INSERT
  2
*DIM_0024
  8
寸法
  6
CONTINUOUS
 10
0.0
 20
0.0
  0
INSERT
  2
*DIM_0025
  8
寸法
  6
CONTINUOUS
 10
0.0
 20
0.0
  0
INSERT
  2
*DIM_0026
  8
寸法
  6
CONTINUOUS
 10
0.0
 20
0.0
  0
INSERT
  2
*DIM_0027
  8
寸法
  6
CONTINUOUS
 10
0.0
 20
0.0
  0
INSERT
  2
*DIM_0028
  8
寸法
  6
CONTINUOUS
 10
0.0
 20
0.0
  0
INSERT
  2
*DIM_0029
  8
寸法
  6
CONTINUOUS
 10
0.0
 20
0.0
  0
INSERT
  2
*DIM_0032
  8
寸法
  6
CONTINUOUS
 10
0.0
 20
0.0
  0
INSERT
  2
*DIM_0038
  8
寸法
  6
CONTINUOUS
 10
0.0
 20
0.0
  0
LINE
  8
別途部材
  6
CONTINUOUS
 10
23.401557
 20
11.33238
 11
23.001557
 21
11.73238
  0
LINE
  8
別途部材
  6
CONTINUOUS
 10
21.33489
 20
13.399048
 11
13.275635
 21
21.458305
  0
LINE
  8
別途部材
  6
CONTINUOUS
 10
23.001557
 20
11.73238
 11
23.001557
 21
35.065715
  0
LINE
  8
別途部材
  6
CONTINUOUS
 10
23.401557
 20
11.33238
 11
23.401557
 21
35.065715
  0
LINE
  8
別途部材
  6
CONTINUOUS
 10
23.401557
 20
58.79905
 11
23.001557
 21
58.39905
  0
LINE
  8
別途部材
  6
CONTINUOUS
 10
21.33489
 20
56.732382
 11
13.275635
 21
48.673125
  0
LINE
  8
別途部材
  6
CONTINUOUS
 10
23.001557
 20
58.39905
 11
23.001557
 21
35.065715
  0
LINE
  8
別途部材
  6
CONTINUOUS
 10
23.401557
 20
58.79905
 11
23.401557
 21
35.065715
  0
LINE
  8
別途部材
  6
CONTINUOUS
 10
23.401557
 20
58.79905
 11
-20.331778
 21
58.79905
  0
LINE
  8
別途部材
  6
CONTINUOUS
 10
23.001557
 20
58.39905
 11
-20.331778
 21
58.39905
  0
LINE
  8
別途部材
  6
CONTINUOUS
 10
23.001557
 20
11.73238
 11
-20.331778
 21
11.73238
  0
LINE
  8
別途部材
  6
CONTINUOUS
 10
23.401557
 20
11.33238
 11
-20.331778
 21
11.33238
  0
LINE
  8
別途部材
  6
CONTINUOUS
 10
-64.065113
 20
11.33238
 11
-63.665113
 21
11.73238
  0
LINE
  8
別途部材
  6
CONTINUOUS
 10
-61.998445
 20
13.399048
 11
-53.93919
 21
21.458305
  0
LINE
  8
別途部材
  6
CONTINUOUS
 10
-63.665113
 20
11.73238
 11
-63.665113
 21
35.065715
  0
LINE
  8
別途部材
  6
CONTINUOUS
 10
-64.065113
 20
11.33238
 11
-64.065113
 21
35.065715
  0
LINE
  8
別途部材
  6
CONTINUOUS
 10
-64.065113
 20
58.79905
 11
-63.665113
 21
58.39905
  0
LINE
  8
別途部材
  6
CONTINUOUS
 10
-61.998445
 20
56.732382
 11
-53.93919
 21
48.673125
  0
LINE
  8
別途部材
  6
CONTINUOUS
 10
-63.665113
 20
58.39905
 11
-63.665113
 21
35.065715
  0
LINE
  8
別途部材
  6
CONTINUOUS
 10
-64.065113
 20
58.79905
 11
-64.065113
 21
35.065715
  0
LINE
  8
別途部材
  6
CONTINUOUS
 10
-64.065113
 20
58.79905
 11
-20.331778
 21
58.79905
  0
LINE
  8
別途部材
  6
CONTINUOUS
 10
-63.665113
 20
58.39905
 11
-20.331778
 21
58.39905
  0
LINE
  8
別途部材
  6
CONTINUOUS
 10
-63.665113
 20
11.73238
 11
-20.331778
 21
11.73238
  0
LINE
  8
別途部材
  6
CONTINUOUS
 10
-64.065113
 20
11.33238
 11
-20.331778
 21
11.33238
  0
INSERT
  2
*GRP_0007
  8
別途部材
  6
CONTINUOUS
 10
0.0
 20
0.0
  0
LINE
  8
別途部材
  6
CONTINUOUS
 62
    96
 10
-63.665113
 20
-79.624597
 11
-64.065113
 21
-80.624597
  0
LINE
  8
別途部材
  6
CONTINUOUS
 62
    96
 10
111.174983
 20
11.73238
 11
112.174983
 21
11.33238
  0
LINE
  8
別途部材
  6
CONTINUOUS
 10
112.174983
 20
11.33238
 11
112.174983
 21
35.065715
  0
LINE
  8
別途部材
  6
CONTINUOUS
 62
    96
 10
111.174983
 20
11.73238
 11
111.174983
 21
35.065715
  0
LINE
  8
別途部材
  6
CONTINUOUS
 62
    96
 10
111.174983
 20
58.39905
 11
112.174983
 21
58.79905
  0
LINE
  8
別途部材
  6
CONTINUOUS
 10
112.174983
 20
58.79905
 11
112.174983
 21
35.065715
  0
LINE
  8
別途部材
  6
CONTINUOUS
 62
    96
 10
111.174983
 20
58.39905
 11
111.174983
 21
35.065715
  0
ARC
  8
別途部材
  6
CONTINUOUS
 10
125.460694
 20
35.065713
 40
25.95238
 50
123.398485
 51
236.601515
  0
INSERT
  2
*GRP_0030
  8
別途部材
  6
DOT
 10
0.0
 20
0.0
  0
INSERT
  2
*GRP_0031
  8
別途部材
  6
DOT
 10
0.0
 20
0.0
  0
INSERT
  2
*GRP_0034
  8
別途部材
  6
DOT
 10
0.0
 20
0.0
  0
INSERT
  2
*GRP_0035
  8
別途部材
  6
DOT
 10
0.0
 20
0.0
  0
INSERT
  2
*GRP_0036
  8
別途部材
  6
DOT
 10
0.0
 20
0.0
  0
INSERT
  2
*GRP_0037
  8
別途部材
  6
DOT
 10
0.0
 20
0.0
  0
POLYLINE
  8
曲げ物
  6
CONTINUOUS
 66
     1
 70
     1
  0
VERTEX
  8
曲げ物
 10
123.946075
 20
-47.619188
  0
VERTEX
  8
曲げ物
 10
82.812743
 20
-47.619188
  0
VERTEX
  8
曲げ物
 10
82.812743
 20
-90.95252
  0
VERTEX
  8
曲げ物
 10
123.946075
 20
-90.95252
  0
SEQEND
  0
INSERT
  2
*GRP_0033
  8
曲げ物
  6
CONTINUOUS
 10
0.0
 20
0.0
  0
LINE
  8
鉄骨等
  6
CONTINUOUS
 62
    47
 10
-64.761777
 20
-82.991385
 11
-64.761777
 21
-81.824718
  0
LINE
  8
鉄骨等
  6
CONTINUOUS
 62
    47
 10
-64.761777
 20
-81.824718
 11
-63.358593
 21
-80.674718
  0
LINE
  8
鉄骨等
  6
CONTINUOUS
 62
    47
 10
-63.358593
 20
-80.674718
 11
-63.358593
 21
-80.624597
  0
LINE
  8
鉄骨等
  6
CONTINUOUS
 62
    47
 10
24.098222
 20
-82.991385
 11
24.098222
 21
-81.824718
  0
LINE
  8
鉄骨等
  6
CONTINUOUS
 62
    47
 10
24.098222
 20
-81.824718
 11
22.695038
 21
-80.674718
  0
LINE
  8
鉄骨等
  6
CONTINUOUS
 62
    47
 10
22.695038
 20
-80.674718
 11
22.695038
 21
-80.624597
  0
LINE
  8
鉄骨等
  6
CONTINUOUS
 62
    47
 10
114.54177
 20
10.635715
 11
113.375102
 21
10.635715
  0
LINE
  8
鉄骨等
  6
CONTINUOUS
 62
    47
 10
113.375102
 20
10.635715
 11
112.225102
 21
12.0389
  0
LINE
  8
鉄骨等
  6
CONTINUOUS
 62
    47
 10
112.225102
 20
12.0389
 11
112.174983
 21
12.0389
  0
LINE
  8
鉄骨等
  6
CONTINUOUS
 62
    47
 10
114.54177
 20
59.495715
 11
113.375102
 21
59.495715
  0
LINE
  8
鉄骨等
  6
CONTINUOUS
 62
    47
 10
113.375102
 20
59.495715
 11
112.225102
 21
58.09253
  0
LINE
  8
鉄骨等
  6
CONTINUOUS
 62
    47
 10
112.225102
 20
58.09253
 11
112.174983
 21
58.09253
  0
ENDSEC
  0
EOF
