  0
SECTION
  2
HEADER
  9
$EXTMIN
 10
-210.0
 20
-148.5
  9
$EXTMAX
 10
210.0
 20
148.5
  9
$PDMODE
 70
    32
  9
$PDSIZE
 40
1.5
  9
$LTSCALE
 40
10.0
  0
ENDSEC
  0
SECTION
  2
TABLES
  0
TABLE
  2
LTYPE
 70
    15
  0
LTYPE
  2
CONTINUOUS
 70
    64
  3
実線
 72
    65
 73
     0
 40
0.0
  0
LTYPE
  2
DASHED
 70
    64
  3
破線A
 72
    65
 73
     2
 40
0.6
 49
0.4
 49
-0.2
  0
LTYPE
  2
DASHEDX2
 70
    64
  3
破線B
 72
    65
 73
     2
 40
1.3
 49
0.9
 49
-0.4
  0
LTYPE
  2
DASHDOT
 70
    64
  3
１点鎖線A
 72
    65
 73
     4
 40
0.5375
 49
0.375
 49
-0.05
 49
0.0625
 49
-0.05
  0
LTYPE
  2
DASHDOTX2
 70
    64
  3
１点鎖線B
 72
    65
 73
     4
 40
1.075
 49
0.75
 49
-0.1
 49
0.125
 49
-0.1
  0
LTYPE
  2
DIVIDE2
 70
    64
  3
２点鎖線A
 72
    65
 73
     6
 40
0.5125
 49
0.3
 49
-0.0375
 49
0.05
 49
-0.0375
 49
0.05
 49
-0.0375
  0
LTYPE
  2
DIVIDE
 70
    64
  3
２点鎖線B
 72
    65
 73
     6
 40
1.05
 49
0.55
 49
-0.1
 49
0.1
 49
-0.1
 49
0.1
 49
-0.1
  0
LTYPE
  2
DOT
 70
    64
  3
点線A
 72
    65
 73
     2
 40
0.1125
 49
0.0625
 49
-0.05
  0
LTYPE
  2
DOTX2
 70
    64
  3
点線B
 72
    65
 73
     2
 40
0.275
 49
0.15
 49
-0.125
  0
LTYPE
  2
CONTINUOUS
 70
    64
  3
実線
 72
    65
 73
     0
 40
0.0
  0
LTYPE
  2
CONTINUOUS
 70
    64
  3
実線
 72
    65
 73
     0
 40
0.0
  0
LTYPE
  2
CONTINUOUS
 70
    64
  3
実線
 72
    65
 73
     0
 40
0.0
  0
LTYPE
  2
CONTINUOUS
 70
    64
  3
実線
 72
    65
 73
     0
 40
0.0
  0
LTYPE
  2
CONTINUOUS
 70
    64
  3
実線
 72
    65
 73
     0
 40
0.0
  0
LTYPE
  2
CONTINUOUS
 70
    64
  3
実線
 72
    65
 73
     0
 40
0.0
  0
ENDTAB
  0
TABLE
  2
LAYER
 70
    34
  0
LAYER
  2
通り芯
 70
     0
 62
    15
  6
CONTINUOUS
  0
LAYER
  2
補助線
 70
     0
 62
    16
  6
DOT
  0
LAYER
  2
躯体
 70
     0
 62
    31
  6
CONTINUOUS
  0
LAYER
  2
型材
 70
     0
 62
    32
  6
CONTINUOUS
  0
LAYER
  2
型材断面
 70
     0
 62
    47
  6
CONTINUOUS
  0
LAYER
  2
ガラス
 70
     0
 62
    48
  6
CONTINUOUS
  0
LAYER
  2
ゴム等
 70
     0
 62
    63
  6
CONTINUOUS
  0
LAYER
  2
ボルト／ビス
 70
     0
 62
    64
  6
CONTINUOUS
  0
LAYER
  2
文字
 70
     0
 62
    79
  6
CONTINUOUS
  0
LAYER
  2
寸法
 70
     0
 62
    80
  6
CONTINUOUS
  0
LAYER
  2
ﾊｯﾁﾝｸﾞ
 70
     0
 62
    95
  6
CONTINUOUS
  0
LAYER
  2
別途部材
 70
     0
 62
    96
  6
CONTINUOUS
  0
LAYER
  2
曲げ物
 70
     0
 62
   111
  6
CONTINUOUS
  0
LAYER
  2
鉄骨等
 70
     0
 62
   112
  6
CONTINUOUS
  0
LAYER
  2
St
 70
     0
 62
   127
  6
CONTINUOUS
  0
LAYER
  2
その他部品等
 70
     0
 62
   128
  6
CONTINUOUS
  0
LAYER
  2
ｶﾞｽｹｯﾄ
 70
     0
 62
   143
  6
CONTINUOUS
  0
LAYER
  2
ｽｹｯﾁ
 70
     0
 62
    14
  6
CONTINUOUS
  0
LAYER
  2
0
 70
     0
 62
    17
  6
CONTINUOUS
  0
LAYER
  2
1
 70
     0
 62
    30
  6
CONTINUOUS
  0
LAYER
  2
4
 70
     0
 62
    33
  6
CONTINUOUS
  0
LAYER
  2
ﾚｲﾔ3
 70
     0
 62
    46
  6
CONTINUOUS
  0
LAYER
  2
外形線
 70
     0
 62
    49
  6
CONTINUOUS
  0
LAYER
  2
部品
 70
     0
 62
    14
  6
CONTINUOUS
  0
LAYER
  2
サッシ芯
 70
     0
 62
    17
  6
DASHDOTX2
  0
LAYER
  2
寸法線
 70
     0
 62
    62
  6
CONTINUOUS
  0
LAYER
  2
姿図外形線
 70
     0
 62
    65
  6
CONTINUOUS
  0
LAYER
  2
姿補助線
 70
     0
 62
    30
  6
CONTINUOUS
  0
LAYER
  2
透視線
 70
     0
 62
    78
  6
DOT
  0
LAYER
  2
用紙
 70
     0
 62
    81
  6
CONTINUOUS
  0
LAYER
  2
実線図枠
 70
     0
 62
    94
  6
CONTINUOUS
  0
LAYER
  2
補助図枠
 70
     0
 62
    97
  6
CONTINUOUS
  0
LAYER
  2
建具記号
 70
     0
 62
   110
  6
CONTINUOUS
  0
LAYER
  2
補助文字
 70
     0
 62
   113
  6
CONTINUOUS
  0
ENDTAB
  0
TABLE
  2
STYLE
 70
    10
  0
STYLE
  2
STANDARD
 70
     0
 40
1.0
 41
1.0
 42
1.0
 50
0.0
 71
     0
  3
TXT
  4
BIGFONT
  0
STYLE
  2
TATE
 70
     4
 40
1.0
 41
1.0
 42
1.0
 50
0.0
 71
     0
  3
TXT
  4
BIGFONT
  0
STYLE
  2
TextStyle03
 70
     0
 40
1.0
 41
1.0
 42
1.0
 50
0.0
 71
     0
  3
MONOTXT
  4
BIGFONT
  0
STYLE
  2
TextStyle04
 70
     0
 40
1.0
 41
1.0
 42
1.0
 50
0.0
 71
     0
  3
MONOTXT
  4
BIGFONT
  0
STYLE
  2
TextStyle05
 70
     0
 40
1.0
 41
1.0
 42
1.0
 50
0.0
 71
     0
  3
MONOTXT
  4
BIGFONT
  0
STYLE
  2
TextStyle06
 70
     0
 40
1.0
 41
1.0
 42
1.0
 50
0.0
 71
     0
  3
MONOTXT
  4
BIGFONT
  0
STYLE
  2
TextStyle07
 70
     0
 40
1.0
 41
1.0
 42
1.0
 50
0.0
 71
     0
  3
MONOTXT
  4
BIGFONT
  0
STYLE
  2
TextStyle08
 70
     0
 40
1.0
 41
1.0
 42
1.0
 50
0.0
 71
     0
  3
MONOTXT
  4
BIGFONT
  0
STYLE
  2
TextStyle09
 70
     0
 40
1.0
 41
1.0
 42
1.0
 50
0.0
 71
     0
  3
MONOTXT
  4
BIGFONT
  0
STYLE
  2
TextStyle10
 70
     0
 40
1.0
 41
1.0
 42
1.0
 50
0.0
 71
     0
  3
MONOTXT
  4
BIGFONT
  0
ENDTAB
  0
ENDSEC
  0
SECTION
  2
BLOCKS
  0
BLOCK
  2
*GRP_0001
 70
    65
 10
0.0
 20
0.0
  0
LINE
  8
型材断面
  6
CONTINUOUS
 10
195.0
 20
133.5
 11
195.0
 21
-133.5
  0
LINE
  8
型材断面
  6
CONTINUOUS
 10
195.0
 20
-133.5
 11
-185.0
 21
-133.5
  0
LINE
  8
型材断面
  6
CONTINUOUS
 10
-185.0
 20
-133.5
 11
-185.0
 21
133.5
  0
LINE
  8
型材断面
  6
CONTINUOUS
 10
195.0
 20
133.5
 11
-185.0
 21
133.5
  0
LINE
  8
型材断面
  6
CONTINUOUS
 10
145.0
 20
-133.5
 11
145.0
 21
-118.5
  0
LINE
  8
型材断面
  6
CONTINUOUS
 10
195.0
 20
-118.5
 11
145.0
 21
-118.5
  0
ENDBLK
  0
BLOCK
  2
*DIM_0002
 70
    65
 10
0.0
 20
0.0
  0
LINE
  8
寸法
  6
BYBLOCK
 62
     0
 10
-17.566237
 20
-62.95793
 11
30.736745
 21
-62.95793
  0
LINE
  8
寸法
  6
BYBLOCK
 62
     0
 10
30.736745
 20
-79.624597
 11
30.736745
 21
-62.95793
  0
POINT
  8
寸法
 62
     0
 10
30.736745
 20
-62.95793
  0
TEXT
  7
TextStyle03
  8
寸法
  6
CONTINUOUS
 62
     0
 10
30.375
 20
-73.7375
  1
500
 40
3.0
 50
90.0
 72
     5
 11
30.375
 21
-68.8625
  0
ENDBLK
  0
BLOCK
  2
*DIM_0003
 70
    65
 10
0.0
 20
0.0
  0
LINE
  8
寸法
  6
BYBLOCK
 62
     0
 10
14.767095
 20
-29.63158
 11
-85.232905
 21
-29.63158
  0
POINT
  8
寸法
 62
     0
 10
14.767095
 20
-29.63158
  0
POINT
  8
寸法
 62
     0
 10
-85.232905
 20
-29.63158
  0
TEXT
  7
TextStyle03
  8
寸法
  6
CONTINUOUS
 62
     0
 10
-46.94375
 20
-29.275
  1
呼称寸法　3000
 40
3.0
 72
     5
 11
-23.50625
 21
-29.275
  0
ENDBLK
  0
BLOCK
  2
*DIM_0004
 70
    65
 10
0.0
 20
0.0
  0
LINE
  8
寸法
  6
BYBLOCK
 62
     0
 10
-68.566237
 20
-5.54017
 11
-68.566237
 21
-9.97829
  0
LINE
  8
寸法
  6
BYBLOCK
 62
     0
 10
-1.899572
 20
-5.54017
 11
-1.899572
 21
-9.97829
  0
LINE
  8
寸法
  6
BYBLOCK
 62
     0
 10
-68.566237
 20
-9.97829
 11
-1.899572
 21
-9.97829
  0
POINT
  8
寸法
 62
     0
 10
-68.566237
 20
-9.97829
  0
POINT
  8
寸法
 62
     0
 10
-1.899572
 20
-9.97829
  0
TEXT
  7
TextStyle03
  8
寸法
  6
CONTINUOUS
 62
     0
 10
-38.53125
 20
-9.625
  1
2000
 40
3.0
 72
     5
 11
-31.96875
 21
-9.625
  0
ENDBLK
  0
BLOCK
  2
*DIM_0005
 70
    65
 10
0.0
 20
0.0
  0
LINE
  8
寸法
  6
BYBLOCK
 62
     0
 10
15.767095
 20
64.756627
 11
25.491378
 21
64.756627
  0
LINE
  8
寸法
  6
BYBLOCK
 62
     0
 10
18.397225
 20
61.056627
 11
25.491378
 21
61.056627
  0
LINE
  8
寸法
  6
BYBLOCK
 62
     0
 10
25.491378
 20
64.756627
 11
25.491378
 21
61.056627
  0
POINT
  8
寸法
 62
     0
 10
25.491378
 20
64.756627
  0
POINT
  8
寸法
 62
     0
 10
25.491378
 20
61.056627
  0
TEXT
  7
TextStyle03
  8
寸法
  6
CONTINUOUS
 62
     0
 10
25.175
 20
65.7125
  1
111
 40
3.0
 50
90.0
 72
     5
 11
25.175
 21
70.5875
  0
ENDBLK
  0
BLOCK
  2
*DIM_0006
 70
    65
 10
0.0
 20
0.0
  0
LINE
  8
寸法
  6
BYBLOCK
 62
     0
 10
15.767095
 20
-1.910042
 11
25.491378
 21
-1.910045
  0
LINE
  8
寸法
  6
BYBLOCK
 62
     0
 10
18.397225
 20
1.789957
 11
25.491378
 21
1.789955
  0
LINE
  8
寸法
  6
BYBLOCK
 62
     0
 10
25.491378
 20
-1.910045
 11
25.491378
 21
1.789955
  0
POINT
  8
寸法
 62
     0
 10
25.491378
 20
-1.910045
  0
POINT
  8
寸法
 62
     0
 10
25.491378
 20
1.789955
  0
TEXT
  7
TextStyle03
  8
寸法
  6
CONTINUOUS
 62
     0
 10
25.125
 20
-7.7625
  1
111
 40
3.0
 50
90.0
 72
     5
 11
25.125
 21
-2.8875
  0
ENDBLK
  0
BLOCK
  2
*GRP_0007
 70
    65
 10
0.0
 20
0.0
  0
LINE
  8
別途部材
  6
CONTINUOUS
 62
    96
 10
-86.89957
 20
-79.624597
 11
-87.29957
 21
-80.624597
  0
LINE
  8
別途部材
  6
CONTINUOUS
 62
    96
 10
-86.89957
 20
-79.624597
 11
-35.232905
 21
-79.624597
  0
LINE
  8
別途部材
  6
CONTINUOUS
 10
-87.29957
 20
-80.624597
 11
-35.232905
 21
-80.624597
  0
LINE
  8
別途部材
  6
CONTINUOUS
 10
-35.732905
 20
-79.624597
 11
-35.732905
 21
-61.95793
  0
LINE
  8
別途部材
  6
CONTINUOUS
 10
-38.732905
 20
-79.624597
 11
-38.732905
 21
-61.95793
  0
LINE
  8
別途部材
  6
CONTINUOUS
 10
-35.732905
 20
-61.95793
 11
-36.732905
 21
-62.95793
  0
LINE
  8
別途部材
  6
CONTINUOUS
 10
-39.732905
 20
-79.624597
 11
-39.732905
 21
-61.95793
  0
LINE
  8
別途部材
  6
CONTINUOUS
 10
-37.732905
 20
-62.95793
 11
-38.732905
 21
-61.95793
  0
LINE
  8
別途部材
  6
CONTINUOUS
 10
-39.732905
 20
-61.95793
 11
-40.732905
 21
-62.95793
  0
LINE
  8
別途部材
  6
CONTINUOUS
 10
-38.732905
 20
-61.95793
 11
-39.732905
 21
-61.95793
  0
LINE
  8
別途部材
  6
CONTINUOUS
 10
-35.732905
 20
-61.95793
 11
-35.232905
 21
-61.95793
  0
LINE
  8
別途部材
  6
CONTINUOUS
 10
-41.732905
 20
-62.95793
 11
-42.732905
 21
-61.95793
  0
LINE
  8
別途部材
  6
CONTINUOUS
 10
-43.732905
 20
-61.95793
 11
-44.732905
 21
-62.95793
  0
LINE
  8
別途部材
  6
CONTINUOUS
 10
-42.732905
 20
-61.95793
 11
-43.732905
 21
-61.95793
  0
LINE
  8
別途部材
  6
CONTINUOUS
 10
-37.732905
 20
-79.624597
 11
-37.732905
 21
-62.95793
  0
LINE
  8
別途部材
  6
CONTINUOUS
 10
-40.732905
 20
-79.624597
 11
-40.732905
 21
-62.95793
  0
LINE
  8
別途部材
  6
CONTINUOUS
 10
-41.732905
 20
-79.624597
 11
-41.732905
 21
-62.95793
  0
LINE
  8
別途部材
  6
CONTINUOUS
 10
-42.732905
 20
-79.624597
 11
-42.732905
 21
-61.95793
  0
LINE
  8
別途部材
  6
CONTINUOUS
 10
-43.732905
 20
-79.624597
 11
-43.732905
 21
-61.95793
  0
LINE
  8
別途部材
  6
CONTINUOUS
 10
-44.732905
 20
-79.624597
 11
-44.732905
 21
-62.95793
  0
LINE
  8
別途部材
  6
CONTINUOUS
 10
-45.732905
 20
-62.95793
 11
-46.732905
 21
-61.95793
  0
LINE
  8
別途部材
  6
CONTINUOUS
 10
-47.732905
 20
-61.95793
 11
-48.732905
 21
-62.95793
  0
LINE
  8
別途部材
  6
CONTINUOUS
 10
-46.732905
 20
-61.95793
 11
-47.732905
 21
-61.95793
  0
LINE
  8
別途部材
  6
CONTINUOUS
 10
-45.732905
 20
-79.624597
 11
-45.732905
 21
-62.95793
  0
LINE
  8
別途部材
  6
CONTINUOUS
 10
-46.732905
 20
-79.624597
 11
-46.732905
 21
-61.95793
  0
LINE
  8
別途部材
  6
CONTINUOUS
 10
-47.732905
 20
-79.624597
 11
-47.732905
 21
-61.95793
  0
LINE
  8
別途部材
  6
CONTINUOUS
 10
-48.732905
 20
-79.624597
 11
-48.732905
 21
-62.95793
  0
LINE
  8
別途部材
  6
CONTINUOUS
 10
-50.732905
 20
-79.624597
 11
-50.732905
 21
-61.95793
  0
LINE
  8
別途部材
  6
CONTINUOUS
 10
-51.732905
 20
-79.624597
 11
-51.732905
 21
-61.95793
  0
LINE
  8
別途部材
  6
CONTINUOUS
 10
-49.732905
 20
-62.95793
 11
-50.732905
 21
-61.95793
  0
LINE
  8
別途部材
  6
CONTINUOUS
 10
-51.732905
 20
-61.95793
 11
-52.732905
 21
-62.95793
  0
LINE
  8
別途部材
  6
CONTINUOUS
 10
-50.732905
 20
-61.95793
 11
-51.732905
 21
-61.95793
  0
LINE
  8
別途部材
  6
CONTINUOUS
 10
-49.732905
 20
-79.624597
 11
-49.732905
 21
-62.95793
  0
LINE
  8
別途部材
  6
CONTINUOUS
 10
-52.732905
 20
-79.624597
 11
-52.732905
 21
-62.95793
  0
LINE
  8
別途部材
  6
CONTINUOUS
 10
-48.732905
 20
-62.95793
 11
-49.732905
 21
-62.95793
  0
LINE
  8
別途部材
  6
CONTINUOUS
 10
-44.732905
 20
-62.95793
 11
-45.732905
 21
-62.95793
  0
LINE
  8
別途部材
  6
CONTINUOUS
 10
-40.732905
 20
-62.95793
 11
-41.732905
 21
-62.95793
  0
LINE
  8
別途部材
  6
CONTINUOUS
 10
-36.732905
 20
-79.624597
 11
-36.732905
 21
-62.95793
  0
LINE
  8
別途部材
  6
CONTINUOUS
 10
-37.732905
 20
-62.95793
 11
-36.732905
 21
-62.95793
  0
LINE
  8
別途部材
  6
CONTINUOUS
 10
-53.732905
 20
-62.95793
 11
-54.732905
 21
-61.95793
  0
LINE
  8
別途部材
  6
CONTINUOUS
 10
-55.732905
 20
-61.95793
 11
-56.732905
 21
-62.95793
  0
LINE
  8
別途部材
  6
CONTINUOUS
 10
-54.732905
 20
-61.95793
 11
-55.732905
 21
-61.95793
  0
LINE
  8
別途部材
  6
CONTINUOUS
 10
-53.732905
 20
-79.624597
 11
-53.732905
 21
-62.95793
  0
LINE
  8
別途部材
  6
CONTINUOUS
 10
-54.732905
 20
-79.624597
 11
-54.732905
 21
-61.95793
  0
LINE
  8
別途部材
  6
CONTINUOUS
 10
-55.732905
 20
-79.624597
 11
-55.732905
 21
-61.95793
  0
LINE
  8
別途部材
  6
CONTINUOUS
 10
-56.732905
 20
-79.624597
 11
-56.732905
 21
-62.95793
  0
LINE
  8
別途部材
  6
CONTINUOUS
 10
-57.732905
 20
-62.95793
 11
-58.732905
 21
-61.95793
  0
LINE
  8
別途部材
  6
CONTINUOUS
 10
-59.732905
 20
-61.95793
 11
-60.732905
 21
-62.95793
  0
LINE
  8
別途部材
  6
CONTINUOUS
 10
-58.732905
 20
-61.95793
 11
-59.732905
 21
-61.95793
  0
LINE
  8
別途部材
  6
CONTINUOUS
 10
-57.732905
 20
-79.624597
 11
-57.732905
 21
-62.95793
  0
LINE
  8
別途部材
  6
CONTINUOUS
 10
-58.732905
 20
-79.624597
 11
-58.732905
 21
-61.95793
  0
LINE
  8
別途部材
  6
CONTINUOUS
 10
-59.732905
 20
-79.624597
 11
-59.732905
 21
-61.95793
  0
LINE
  8
別途部材
  6
CONTINUOUS
 10
-60.732905
 20
-79.624597
 11
-60.732905
 21
-62.95793
  0
LINE
  8
別途部材
  6
CONTINUOUS
 10
-62.732905
 20
-79.624597
 11
-62.732905
 21
-61.95793
  0
LINE
  8
別途部材
  6
CONTINUOUS
 10
-63.732905
 20
-79.624597
 11
-63.732905
 21
-61.95793
  0
LINE
  8
別途部材
  6
CONTINUOUS
 10
-61.732905
 20
-62.95793
 11
-62.732905
 21
-61.95793
  0
LINE
  8
別途部材
  6
CONTINUOUS
 10
-63.732905
 20
-61.95793
 11
-64.732905
 21
-62.95793
  0
LINE
  8
別途部材
  6
CONTINUOUS
 10
-62.732905
 20
-61.95793
 11
-63.732905
 21
-61.95793
  0
LINE
  8
別途部材
  6
CONTINUOUS
 10
-61.732905
 20
-79.624597
 11
-61.732905
 21
-62.95793
  0
LINE
  8
別途部材
  6
CONTINUOUS
 10
-64.732905
 20
-79.624597
 11
-64.732905
 21
-62.95793
  0
LINE
  8
別途部材
  6
CONTINUOUS
 10
-60.732905
 20
-62.95793
 11
-61.732905
 21
-62.95793
  0
LINE
  8
別途部材
  6
CONTINUOUS
 10
-56.732905
 20
-62.95793
 11
-57.732905
 21
-62.95793
  0
LINE
  8
別途部材
  6
CONTINUOUS
 10
-52.732905
 20
-62.95793
 11
-53.732905
 21
-62.95793
  0
LINE
  8
別途部材
  6
CONTINUOUS
 10
-66.732905
 20
-79.624597
 11
-66.732905
 21
-61.95793
  0
LINE
  8
別途部材
  6
CONTINUOUS
 10
-67.732905
 20
-79.624597
 11
-67.732905
 21
-61.95793
  0
LINE
  8
別途部材
  6
CONTINUOUS
 10
-65.732905
 20
-62.95793
 11
-66.732905
 21
-61.95793
  0
LINE
  8
別途部材
  6
CONTINUOUS
 10
-67.732905
 20
-61.95793
 11
-68.732905
 21
-62.95793
  0
LINE
  8
別途部材
  6
CONTINUOUS
 10
-66.732905
 20
-61.95793
 11
-67.732905
 21
-61.95793
  0
LINE
  8
別途部材
  6
CONTINUOUS
 10
-65.732905
 20
-79.624597
 11
-65.732905
 21
-62.95793
  0
LINE
  8
別途部材
  6
CONTINUOUS
 10
-68.732905
 20
-79.624597
 11
-68.732905
 21
-62.95793
  0
LINE
  8
別途部材
  6
CONTINUOUS
 10
-64.732905
 20
-62.95793
 11
-65.732905
 21
-62.95793
  0
ARC
  8
別途部材
  6
CONTINUOUS
 10
-68.566237
 20
-79.624597
 40
16.666667
 50
90.572967
 51
180.0
  0
LINE
  8
別途部材
  6
CONTINUOUS
 62
    96
 10
16.433763
 20
-79.624597
 11
16.833763
 21
-80.624597
  0
LINE
  8
別途部材
  6
CONTINUOUS
 62
    96
 10
16.433763
 20
-79.624597
 11
-35.232905
 21
-79.624597
  0
LINE
  8
別途部材
  6
CONTINUOUS
 10
16.833763
 20
-80.624597
 11
-35.232905
 21
-80.624597
  0
LINE
  8
別途部材
  6
CONTINUOUS
 10
-34.732905
 20
-79.624597
 11
-34.732905
 21
-61.95793
  0
LINE
  8
別途部材
  6
CONTINUOUS
 10
-31.732905
 20
-79.624597
 11
-31.732905
 21
-61.95793
  0
LINE
  8
別途部材
  6
CONTINUOUS
 10
-34.732905
 20
-61.95793
 11
-33.732905
 21
-62.95793
  0
LINE
  8
別途部材
  6
CONTINUOUS
 10
-30.732905
 20
-79.624597
 11
-30.732905
 21
-61.95793
  0
LINE
  8
別途部材
  6
CONTINUOUS
 10
-32.732905
 20
-62.95793
 11
-31.732905
 21
-61.95793
  0
LINE
  8
別途部材
  6
CONTINUOUS
 10
-30.732905
 20
-61.95793
 11
-29.732905
 21
-62.95793
  0
LINE
  8
別途部材
  6
CONTINUOUS
 10
-31.732905
 20
-61.95793
 11
-30.732905
 21
-61.95793
  0
LINE
  8
別途部材
  6
CONTINUOUS
 10
-34.732905
 20
-61.95793
 11
-35.232905
 21
-61.95793
  0
LINE
  8
別途部材
  6
CONTINUOUS
 10
-28.732905
 20
-62.95793
 11
-27.732905
 21
-61.95793
  0
LINE
  8
別途部材
  6
CONTINUOUS
 10
-26.732905
 20
-61.95793
 11
-25.732905
 21
-62.95793
  0
LINE
  8
別途部材
  6
CONTINUOUS
 10
-27.732905
 20
-61.95793
 11
-26.732905
 21
-61.95793
  0
LINE
  8
別途部材
  6
CONTINUOUS
 10
-32.732905
 20
-79.624597
 11
-32.732905
 21
-62.95793
  0
LINE
  8
別途部材
  6
CONTINUOUS
 10
-29.732905
 20
-79.624597
 11
-29.732905
 21
-62.95793
  0
LINE
  8
別途部材
  6
CONTINUOUS
 10
-28.732905
 20
-79.624597
 11
-28.732905
 21
-62.95793
  0
LINE
  8
別途部材
  6
CONTINUOUS
 10
-27.732905
 20
-79.624597
 11
-27.732905
 21
-61.95793
  0
LINE
  8
別途部材
  6
CONTINUOUS
 10
-26.732905
 20
-79.624597
 11
-26.732905
 21
-61.95793
  0
LINE
  8
別途部材
  6
CONTINUOUS
 10
-25.732905
 20
-79.624597
 11
-25.732905
 21
-62.95793
  0
LINE
  8
別途部材
  6
CONTINUOUS
 10
-24.732905
 20
-62.95793
 11
-23.732905
 21
-61.95793
  0
LINE
  8
別途部材
  6
CONTINUOUS
 10
-22.732905
 20
-61.95793
 11
-21.732905
 21
-62.95793
  0
LINE
  8
別途部材
  6
CONTINUOUS
 10
-23.732905
 20
-61.95793
 11
-22.732905
 21
-61.95793
  0
LINE
  8
別途部材
  6
CONTINUOUS
 10
-24.732905
 20
-79.624597
 11
-24.732905
 21
-62.95793
  0
LINE
  8
別途部材
  6
CONTINUOUS
 10
-23.732905
 20
-79.624597
 11
-23.732905
 21
-61.95793
  0
LINE
  8
別途部材
  6
CONTINUOUS
 10
-22.732905
 20
-79.624597
 11
-22.732905
 21
-61.95793
  0
LINE
  8
別途部材
  6
CONTINUOUS
 10
-21.732905
 20
-79.624597
 11
-21.732905
 21
-62.95793
  0
LINE
  8
別途部材
  6
CONTINUOUS
 10
-19.732905
 20
-79.624597
 11
-19.732905
 21
-61.95793
  0
LINE
  8
別途部材
  6
CONTINUOUS
 10
-18.732905
 20
-79.624597
 11
-18.732905
 21
-61.95793
  0
LINE
  8
別途部材
  6
CONTINUOUS
 10
-20.732905
 20
-62.95793
 11
-19.732905
 21
-61.95793
  0
LINE
  8
別途部材
  6
CONTINUOUS
 10
-18.732905
 20
-61.95793
 11
-17.732905
 21
-62.95793
  0
LINE
  8
別途部材
  6
CONTINUOUS
 10
-19.732905
 20
-61.95793
 11
-18.732905
 21
-61.95793
  0
LINE
  8
別途部材
  6
CONTINUOUS
 10
-20.732905
 20
-79.624597
 11
-20.732905
 21
-62.95793
  0
LINE
  8
別途部材
  6
CONTINUOUS
 10
-17.732905
 20
-79.624597
 11
-17.732905
 21
-62.95793
  0
LINE
  8
別途部材
  6
CONTINUOUS
 10
-21.732905
 20
-62.95793
 11
-20.732905
 21
-62.95793
  0
LINE
  8
別途部材
  6
CONTINUOUS
 10
-25.732905
 20
-62.95793
 11
-24.732905
 21
-62.95793
  0
LINE
  8
別途部材
  6
CONTINUOUS
 10
-29.732905
 20
-62.95793
 11
-28.732905
 21
-62.95793
  0
LINE
  8
別途部材
  6
CONTINUOUS
 10
-33.732905
 20
-79.624597
 11
-33.732905
 21
-62.95793
  0
LINE
  8
別途部材
  6
CONTINUOUS
 10
-32.732905
 20
-62.95793
 11
-33.732905
 21
-62.95793
  0
LINE
  8
別途部材
  6
CONTINUOUS
 10
-16.732905
 20
-62.95793
 11
-15.732905
 21
-61.95793
  0
LINE
  8
別途部材
  6
CONTINUOUS
 10
-14.732905
 20
-61.95793
 11
-13.732905
 21
-62.95793
  0
LINE
  8
別途部材
  6
CONTINUOUS
 10
-15.732905
 20
-61.95793
 11
-14.732905
 21
-61.95793
  0
LINE
  8
別途部材
  6
CONTINUOUS
 10
-16.732905
 20
-79.624597
 11
-16.732905
 21
-62.95793
  0
LINE
  8
別途部材
  6
CONTINUOUS
 10
-15.732905
 20
-79.624597
 11
-15.732905
 21
-61.95793
  0
LINE
  8
別途部材
  6
CONTINUOUS
 10
-14.732905
 20
-79.624597
 11
-14.732905
 21
-61.95793
  0
LINE
  8
別途部材
  6
CONTINUOUS
 10
-13.732905
 20
-79.624597
 11
-13.732905
 21
-62.95793
  0
LINE
  8
別途部材
  6
CONTINUOUS
 10
-12.732905
 20
-62.95793
 11
-11.732905
 21
-61.95793
  0
LINE
  8
別途部材
  6
CONTINUOUS
 10
-10.732905
 20
-61.95793
 11
-9.732905
 21
-62.95793
  0
LINE
  8
別途部材
  6
CONTINUOUS
 10
-11.732905
 20
-61.95793
 11
-10.732905
 21
-61.95793
  0
LINE
  8
別途部材
  6
CONTINUOUS
 10
-12.732905
 20
-79.624597
 11
-12.732905
 21
-62.95793
  0
LINE
  8
別途部材
  6
CONTINUOUS
 10
-11.732905
 20
-79.624597
 11
-11.732905
 21
-61.95793
  0
LINE
  8
別途部材
  6
CONTINUOUS
 10
-10.732905
 20
-79.624597
 11
-10.732905
 21
-61.95793
  0
LINE
  8
別途部材
  6
CONTINUOUS
 10
-9.732905
 20
-79.624597
 11
-9.732905
 21
-62.95793
  0
LINE
  8
別途部材
  6
CONTINUOUS
 10
-7.732905
 20
-79.624597
 11
-7.732905
 21
-61.95793
  0
LINE
  8
別途部材
  6
CONTINUOUS
 10
-6.732905
 20
-79.624597
 11
-6.732905
 21
-61.95793
  0
LINE
  8
別途部材
  6
CONTINUOUS
 10
-8.732905
 20
-62.95793
 11
-7.732905
 21
-61.95793
  0
LINE
  8
別途部材
  6
CONTINUOUS
 10
-6.732905
 20
-61.95793
 11
-5.732905
 21
-62.95793
  0
LINE
  8
別途部材
  6
CONTINUOUS
 10
-7.732905
 20
-61.95793
 11
-6.732905
 21
-61.95793
  0
LINE
  8
別途部材
  6
CONTINUOUS
 10
-8.732905
 20
-79.624597
 11
-8.732905
 21
-62.95793
  0
LINE
  8
別途部材
  6
CONTINUOUS
 10
-5.732905
 20
-79.624597
 11
-5.732905
 21
-62.95793
  0
LINE
  8
別途部材
  6
CONTINUOUS
 10
-9.732905
 20
-62.95793
 11
-8.732905
 21
-62.95793
  0
LINE
  8
別途部材
  6
CONTINUOUS
 10
-13.732905
 20
-62.95793
 11
-12.732905
 21
-62.95793
  0
LINE
  8
別途部材
  6
CONTINUOUS
 10
-17.732905
 20
-62.95793
 11
-16.732905
 21
-62.95793
  0
LINE
  8
別途部材
  6
CONTINUOUS
 10
-3.732905
 20
-79.624597
 11
-3.732905
 21
-61.95793
  0
LINE
  8
別途部材
  6
CONTINUOUS
 10
-2.732905
 20
-79.624597
 11
-2.732905
 21
-61.95793
  0
LINE
  8
別途部材
  6
CONTINUOUS
 10
-4.732905
 20
-62.95793
 11
-3.732905
 21
-61.95793
  0
LINE
  8
別途部材
  6
CONTINUOUS
 10
-2.732905
 20
-61.95793
 11
-1.732905
 21
-62.95793
  0
LINE
  8
別途部材
  6
CONTINUOUS
 10
-3.732905
 20
-61.95793
 11
-2.732905
 21
-61.95793
  0
LINE
  8
別途部材
  6
CONTINUOUS
 10
-4.732905
 20
-79.624597
 11
-4.732905
 21
-62.95793
  0
LINE
  8
別途部材
  6
CONTINUOUS
 10
-1.732905
 20
-79.624597
 11
-1.732905
 21
-62.95793
  0
LINE
  8
別途部材
  6
CONTINUOUS
 10
-5.732905
 20
-62.95793
 11
-4.732905
 21
-62.95793
  0
ARC
  8
別途部材
  6
CONTINUOUS
 10
-1.899571
 20
-79.624597
 40
16.666667
 50
0.0
 51
89.427033
  0
ENDBLK
  0
BLOCK
  2
*GRP_0008
 70
    65
 10
0.0
 20
0.0
  0
LINE
  8
補助線
  6
BYBLOCK
 62
    64
 10
-81.837907
 20
-84.52871
 11
-81.961237
 21
-84.640815
  0
LINE
  8
補助線
  6
BYBLOCK
 62
    64
 10
-81.955627
 20
-84.523095
 11
-81.84352
 21
-84.646428
  0
LINE
  8
補助線
  6
BYBLOCK
 62
    64
 10
-70.121617
 20
-73.878687
 11
-70.244948
 21
-73.99079
  0
LINE
  8
補助線
  6
BYBLOCK
 62
    64
 10
-70.239335
 20
-73.873073
 11
-70.12723
 21
-73.996403
  0
LINE
  8
補助線
  6
BYBLOCK
 62
    64
 10
-58.528655
 20
-63.340765
 11
-58.405328
 21
-63.22866
  0
LINE
  8
補助線
  6
BYBLOCK
 62
    64
 10
-58.523045
 20
-63.223045
 11
-58.410938
 21
-63.346378
  0
LINE
  8
型材断面
  6
CONTINUOUS
 10
-82.706758
 20
-84.192325
 11
-82.740427
 21
-84.898632
  0
LINE
  8
型材断面
  6
CONTINUOUS
 10
-82.740427
 20
-84.898632
 11
-82.292005
 21
-85.39195
  0
LINE
  8
型材断面
  6
CONTINUOUS
 10
-82.292005
 20
-85.39195
 11
-81.585703
 21
-85.42562
  0
LINE
  8
型材断面
  6
CONTINUOUS
 10
-58.78086
 20
-62.443858
 11
-58.074557
 21
-62.477527
  0
LINE
  8
型材断面
  6
CONTINUOUS
 10
-58.074557
 20
-62.477527
 11
-57.626135
 21
-62.970845
  0
LINE
  8
型材断面
  6
CONTINUOUS
 10
-57.626135
 20
-62.970845
 11
-57.659803
 21
-63.67715
  0
LINE
  8
型材断面
  6
CONTINUOUS
 10
-82.706758
 20
-84.192325
 11
-58.78086
 21
-62.443858
  0
LINE
  8
型材断面
  6
CONTINUOUS
 10
-81.585703
 20
-85.42562
 11
-57.659803
 21
-63.67715
  0
CIRCLE
  8
ボルト／ビス
  6
CONTINUOUS
 10
-81.899572
 20
-84.584763
 40
0.250185
  0
CIRCLE
  8
ボルト／ビス
  6
CONTINUOUS
 10
-81.899572
 20
-84.584763
 40
0.301025
  0
LINE
  8
ボルト／ビス
  6
CONTINUOUS
 62
    64
 10
-82.144042
 20
-84.637935
 11
-82.067855
 21
-84.399633
  0
LINE
  8
ボルト／ビス
  6
CONTINUOUS
 62
    64
 10
-81.823385
 20
-84.346458
 11
-82.067855
 21
-84.399633
  0
LINE
  8
ボルト／ビス
  6
CONTINUOUS
 62
    64
 10
-81.97576
 20
-84.823067
 11
-81.73129
 21
-84.769892
  0
LINE
  8
ボルト／ビス
  6
CONTINUOUS
 62
    64
 10
-81.655102
 20
-84.53159
 11
-81.73129
 21
-84.769892
  0
LINE
  8
ボルト／ビス
  6
CONTINUOUS
 62
    64
 10
-82.144042
 20
-84.637935
 11
-81.97576
 21
-84.823067
  0
LINE
  8
ボルト／ビス
  6
CONTINUOUS
 62
    64
 10
-81.823385
 20
-84.346458
 11
-81.655102
 21
-84.53159
  0
CIRCLE
  8
ボルト／ビス
  6
CONTINUOUS
 62
    64
 10
-81.899572
 20
-84.584763
 40
0.216668
  0
CIRCLE
  8
ボルト／ビス
  6
CONTINUOUS
 10
-70.183283
 20
-73.934738
 40
0.250185
  0
CIRCLE
  8
ボルト／ビス
  6
CONTINUOUS
 10
-70.183283
 20
-73.934738
 40
0.301025
  0
LINE
  8
ボルト／ビス
  6
CONTINUOUS
 62
    64
 10
-70.427753
 20
-73.98791
 11
-70.351565
 21
-73.749605
  0
LINE
  8
ボルト／ビス
  6
CONTINUOUS
 62
    64
 10
-70.107092
 20
-73.696435
 11
-70.351565
 21
-73.749605
  0
LINE
  8
ボルト／ビス
  6
CONTINUOUS
 62
    64
 10
-70.25947
 20
-74.17304
 11
-70.015
 21
-74.11987
  0
LINE
  8
ボルト／ビス
  6
CONTINUOUS
 62
    64
 10
-69.938813
 20
-73.881565
 11
-70.015
 21
-74.11987
  0
LINE
  8
ボルト／ビス
  6
CONTINUOUS
 62
    64
 10
-70.427753
 20
-73.98791
 11
-70.25947
 21
-74.17304
  0
LINE
  8
ボルト／ビス
  6
CONTINUOUS
 62
    64
 10
-70.107092
 20
-73.696435
 11
-69.938813
 21
-73.881565
  0
CIRCLE
  8
ボルト／ビス
  6
CONTINUOUS
 62
    64
 10
-70.183283
 20
-73.934738
 40
0.216668
  0
CIRCLE
  8
ボルト／ビス
  6
CONTINUOUS
 10
-58.46699
 20
-63.284713
 40
0.250185
  0
CIRCLE
  8
ボルト／ビス
  6
CONTINUOUS
 10
-58.46699
 20
-63.284713
 40
0.301025
  0
LINE
  8
ボルト／ビス
  6
CONTINUOUS
 62
    64
 10
-58.390802
 20
-63.046407
 11
-58.635272
 21
-63.099582
  0
LINE
  8
ボルト／ビス
  6
CONTINUOUS
 62
    64
 10
-58.711463
 20
-63.337885
 11
-58.635272
 21
-63.099582
  0
LINE
  8
ボルト／ビス
  6
CONTINUOUS
 62
    64
 10
-58.22252
 20
-63.23154
 11
-58.29871
 21
-63.469842
  0
LINE
  8
ボルト／ビス
  6
CONTINUOUS
 62
    64
 10
-58.54318
 20
-63.523015
 11
-58.29871
 21
-63.469842
  0
LINE
  8
ボルト／ビス
  6
CONTINUOUS
 62
    64
 10
-58.390802
 20
-63.046407
 11
-58.22252
 21
-63.23154
  0
LINE
  8
ボルト／ビス
  6
CONTINUOUS
 62
    64
 10
-58.711463
 20
-63.337885
 11
-58.54318
 21
-63.523015
  0
CIRCLE
  8
ボルト／ビス
  6
CONTINUOUS
 62
    64
 10
-58.46699
 20
-63.284713
 40
0.216668
  0
ENDBLK
  0
BLOCK
  2
*GRP_0009
 70
    65
 10
0.0
 20
0.0
  0
LINE
  8
補助線
  6
BYBLOCK
 62
    64
 10
-58.528658
 20
-84.52871
 11
-58.405328
 21
-84.640815
  0
LINE
  8
補助線
  6
BYBLOCK
 62
    64
 10
-58.410938
 20
-84.523095
 11
-58.523045
 21
-84.646428
  0
LINE
  8
補助線
  6
BYBLOCK
 62
    64
 10
-70.244948
 20
-73.878687
 11
-70.121617
 21
-73.99079
  0
LINE
  8
補助線
  6
BYBLOCK
 62
    64
 10
-70.12723
 20
-73.873073
 11
-70.239335
 21
-73.996403
  0
LINE
  8
補助線
  6
BYBLOCK
 62
    64
 10
-81.83791
 20
-63.340765
 11
-81.961237
 21
-63.22866
  0
LINE
  8
補助線
  6
BYBLOCK
 62
    64
 10
-81.84352
 20
-63.223045
 11
-81.955627
 21
-63.346378
  0
LINE
  8
型材断面
  6
CONTINUOUS
 10
-57.659807
 20
-84.192325
 11
-57.626138
 21
-84.898632
  0
LINE
  8
型材断面
  6
CONTINUOUS
 10
-57.626138
 20
-84.898632
 11
-58.07456
 21
-85.39195
  0
LINE
  8
型材断面
  6
CONTINUOUS
 10
-58.07456
 20
-85.39195
 11
-58.780862
 21
-85.42562
  0
LINE
  8
型材断面
  6
CONTINUOUS
 10
-81.585705
 20
-62.443858
 11
-82.292007
 21
-62.477527
  0
LINE
  8
型材断面
  6
CONTINUOUS
 10
-82.292007
 20
-62.477527
 11
-82.74043
 21
-62.970845
  0
LINE
  8
型材断面
  6
CONTINUOUS
 10
-82.74043
 20
-62.970845
 11
-82.706762
 21
-63.67715
  0
LINE
  8
型材断面
  6
CONTINUOUS
 10
-57.659807
 20
-84.192325
 11
-81.585705
 21
-62.443858
  0
LINE
  8
型材断面
  6
CONTINUOUS
 10
-58.780862
 20
-85.42562
 11
-82.706762
 21
-63.67715
  0
CIRCLE
  8
ボルト／ビス
  6
CONTINUOUS
 10
-58.466993
 20
-84.584763
 40
0.250185
  0
CIRCLE
  8
ボルト／ビス
  6
CONTINUOUS
 10
-58.466993
 20
-84.584763
 40
0.301025
  0
LINE
  8
ボルト／ビス
  6
CONTINUOUS
 62
    64
 10
-58.222523
 20
-84.637935
 11
-58.29871
 21
-84.399633
  0
LINE
  8
ボルト／ビス
  6
CONTINUOUS
 62
    64
 10
-58.54318
 20
-84.346458
 11
-58.29871
 21
-84.399633
  0
LINE
  8
ボルト／ビス
  6
CONTINUOUS
 62
    64
 10
-58.390805
 20
-84.823067
 11
-58.635275
 21
-84.769892
  0
LINE
  8
ボルト／ビス
  6
CONTINUOUS
 62
    64
 10
-58.711463
 20
-84.53159
 11
-58.635275
 21
-84.769892
  0
LINE
  8
ボルト／ビス
  6
CONTINUOUS
 62
    64
 10
-58.222523
 20
-84.637935
 11
-58.390805
 21
-84.823067
  0
LINE
  8
ボルト／ビス
  6
CONTINUOUS
 62
    64
 10
-58.54318
 20
-84.346458
 11
-58.711463
 21
-84.53159
  0
CIRCLE
  8
ボルト／ビス
  6
CONTINUOUS
 62
    64
 10
-58.466993
 20
-84.584763
 40
0.216668
  0
CIRCLE
  8
ボルト／ビス
  6
CONTINUOUS
 10
-70.183283
 20
-73.934738
 40
0.250185
  0
CIRCLE
  8
ボルト／ビス
  6
CONTINUOUS
 10
-70.183283
 20
-73.934738
 40
0.301025
  0
LINE
  8
ボルト／ビス
  6
CONTINUOUS
 62
    64
 10
-69.938813
 20
-73.98791
 11
-70.015
 21
-73.749605
  0
LINE
  8
ボルト／ビス
  6
CONTINUOUS
 62
    64
 10
-70.259472
 20
-73.696435
 11
-70.015
 21
-73.749605
  0
LINE
  8
ボルト／ビス
  6
CONTINUOUS
 62
    64
 10
-70.107095
 20
-74.17304
 11
-70.351565
 21
-74.11987
  0
LINE
  8
ボルト／ビス
  6
CONTINUOUS
 62
    64
 10
-70.427753
 20
-73.881565
 11
-70.351565
 21
-74.11987
  0
LINE
  8
ボルト／ビス
  6
CONTINUOUS
 62
    64
 10
-69.938813
 20
-73.98791
 11
-70.107095
 21
-74.17304
  0
LINE
  8
ボルト／ビス
  6
CONTINUOUS
 62
    64
 10
-70.259472
 20
-73.696435
 11
-70.427753
 21
-73.881565
  0
CIRCLE
  8
ボルト／ビス
  6
CONTINUOUS
 62
    64
 10
-70.183283
 20
-73.934738
 40
0.216668
  0
CIRCLE
  8
ボルト／ビス
  6
CONTINUOUS
 10
-81.899575
 20
-63.284713
 40
0.250185
  0
CIRCLE
  8
ボルト／ビス
  6
CONTINUOUS
 10
-81.899575
 20
-63.284713
 40
0.301025
  0
LINE
  8
ボルト／ビス
  6
CONTINUOUS
 62
    64
 10
-81.975763
 20
-63.046407
 11
-81.731293
 21
-63.099582
  0
LINE
  8
ボルト／ビス
  6
CONTINUOUS
 62
    64
 10
-81.655102
 20
-63.337885
 11
-81.731293
 21
-63.099582
  0
LINE
  8
ボルト／ビス
  6
CONTINUOUS
 62
    64
 10
-82.144045
 20
-63.23154
 11
-82.067855
 21
-63.469842
  0
LINE
  8
ボルト／ビス
  6
CONTINUOUS
 62
    64
 10
-81.823385
 20
-63.523015
 11
-82.067855
 21
-63.469842
  0
LINE
  8
ボルト／ビス
  6
CONTINUOUS
 62
    64
 10
-81.975763
 20
-63.046407
 11
-82.144045
 21
-63.23154
  0
LINE
  8
ボルト／ビス
  6
CONTINUOUS
 62
    64
 10
-81.655102
 20
-63.337885
 11
-81.823385
 21
-63.523015
  0
CIRCLE
  8
ボルト／ビス
  6
CONTINUOUS
 62
    64
 10
-81.899575
 20
-63.284713
 40
0.216668
  0
ENDBLK
  0
BLOCK
  2
*GRP_0010
 70
    65
 10
0.0
 20
0.0
  0
LINE
  8
補助線
  6
BYBLOCK
 62
    64
 10
11.372098
 20
-84.52871
 11
11.495428
 21
-84.640815
  0
LINE
  8
補助線
  6
BYBLOCK
 62
    64
 10
11.489818
 20
-84.523095
 11
11.37771
 21
-84.646428
  0
LINE
  8
補助線
  6
BYBLOCK
 62
    64
 10
-0.344193
 20
-73.878687
 11
-0.220863
 21
-73.99079
  0
LINE
  8
補助線
  6
BYBLOCK
 62
    64
 10
-0.226475
 20
-73.873073
 11
-0.33858
 21
-73.996403
  0
LINE
  8
補助線
  6
BYBLOCK
 62
    64
 10
-11.937155
 20
-63.340765
 11
-12.060483
 21
-63.22866
  0
LINE
  8
補助線
  6
BYBLOCK
 62
    64
 10
-11.942765
 20
-63.223045
 11
-12.054872
 21
-63.346378
  0
LINE
  8
型材断面
  6
CONTINUOUS
 10
12.240948
 20
-84.192325
 11
12.274618
 21
-84.898632
  0
LINE
  8
型材断面
  6
CONTINUOUS
 10
12.274618
 20
-84.898632
 11
11.826195
 21
-85.39195
  0
LINE
  8
型材断面
  6
CONTINUOUS
 10
11.826195
 20
-85.39195
 11
11.119893
 21
-85.42562
  0
LINE
  8
型材断面
  6
CONTINUOUS
 10
-11.68495
 20
-62.443858
 11
-12.391252
 21
-62.477527
  0
LINE
  8
型材断面
  6
CONTINUOUS
 10
-12.391252
 20
-62.477527
 11
-12.839675
 21
-62.970845
  0
LINE
  8
型材断面
  6
CONTINUOUS
 10
-12.839675
 20
-62.970845
 11
-12.806008
 21
-63.67715
  0
LINE
  8
型材断面
  6
CONTINUOUS
 10
12.240948
 20
-84.192325
 11
-11.68495
 21
-62.443858
  0
LINE
  8
型材断面
  6
CONTINUOUS
 10
11.119893
 20
-85.42562
 11
-12.806008
 21
-63.67715
  0
CIRCLE
  8
ボルト／ビス
  6
CONTINUOUS
 10
11.433763
 20
-84.584763
 40
0.250185
  0
CIRCLE
  8
ボルト／ビス
  6
CONTINUOUS
 10
11.433763
 20
-84.584763
 40
0.301025
  0
LINE
  8
ボルト／ビス
  6
CONTINUOUS
 62
    64
 10
11.678233
 20
-84.637935
 11
11.602045
 21
-84.399633
  0
LINE
  8
ボルト／ビス
  6
CONTINUOUS
 62
    64
 10
11.357575
 20
-84.346458
 11
11.602045
 21
-84.399633
  0
LINE
  8
ボルト／ビス
  6
CONTINUOUS
 62
    64
 10
11.50995
 20
-84.823067
 11
11.26548
 21
-84.769892
  0
LINE
  8
ボルト／ビス
  6
CONTINUOUS
 62
    64
 10
11.189293
 20
-84.53159
 11
11.26548
 21
-84.769892
  0
LINE
  8
ボルト／ビス
  6
CONTINUOUS
 62
    64
 10
11.678233
 20
-84.637935
 11
11.50995
 21
-84.823067
  0
LINE
  8
ボルト／ビス
  6
CONTINUOUS
 62
    64
 10
11.357575
 20
-84.346458
 11
11.189293
 21
-84.53159
  0
CIRCLE
  8
ボルト／ビス
  6
CONTINUOUS
 62
    64
 10
11.433763
 20
-84.584763
 40
0.216668
  0
CIRCLE
  8
ボルト／ビス
  6
CONTINUOUS
 10
-0.282528
 20
-73.934738
 40
0.250185
  0
CIRCLE
  8
ボルト／ビス
  6
CONTINUOUS
 10
-0.282528
 20
-73.934738
 40
0.301025
  0
LINE
  8
ボルト／ビス
  6
CONTINUOUS
 62
    64
 10
-0.038058
 20
-73.98791
 11
-0.114245
 21
-73.749605
  0
LINE
  8
ボルト／ビス
  6
CONTINUOUS
 62
    64
 10
-0.358717
 20
-73.696435
 11
-0.114245
 21
-73.749605
  0
LINE
  8
ボルト／ビス
  6
CONTINUOUS
 62
    64
 10
-0.20634
 20
-74.17304
 11
-0.45081
 21
-74.11987
  0
LINE
  8
ボルト／ビス
  6
CONTINUOUS
 62
    64
 10
-0.526998
 20
-73.881565
 11
-0.45081
 21
-74.11987
  0
LINE
  8
ボルト／ビス
  6
CONTINUOUS
 62
    64
 10
-0.038058
 20
-73.98791
 11
-0.20634
 21
-74.17304
  0
LINE
  8
ボルト／ビス
  6
CONTINUOUS
 62
    64
 10
-0.358717
 20
-73.696435
 11
-0.526998
 21
-73.881565
  0
CIRCLE
  8
ボルト／ビス
  6
CONTINUOUS
 62
    64
 10
-0.282528
 20
-73.934738
 40
0.216668
  0
CIRCLE
  8
ボルト／ビス
  6
CONTINUOUS
 10
-11.99882
 20
-63.284713
 40
0.250185
  0
CIRCLE
  8
ボルト／ビス
  6
CONTINUOUS
 10
-11.99882
 20
-63.284713
 40
0.301025
  0
LINE
  8
ボルト／ビス
  6
CONTINUOUS
 62
    64
 10
-12.075007
 20
-63.046407
 11
-11.830537
 21
-63.099582
  0
LINE
  8
ボルト／ビス
  6
CONTINUOUS
 62
    64
 10
-11.754348
 20
-63.337885
 11
-11.830537
 21
-63.099582
  0
LINE
  8
ボルト／ビス
  6
CONTINUOUS
 62
    64
 10
-12.24329
 20
-63.23154
 11
-12.1671
 21
-63.469842
  0
LINE
  8
ボルト／ビス
  6
CONTINUOUS
 62
    64
 10
-11.92263
 20
-63.523015
 11
-12.1671
 21
-63.469842
  0
LINE
  8
ボルト／ビス
  6
CONTINUOUS
 62
    64
 10
-12.075007
 20
-63.046407
 11
-12.24329
 21
-63.23154
  0
LINE
  8
ボルト／ビス
  6
CONTINUOUS
 62
    64
 10
-11.754348
 20
-63.337885
 11
-11.92263
 21
-63.523015
  0
CIRCLE
  8
ボルト／ビス
  6
CONTINUOUS
 62
    64
 10
-11.99882
 20
-63.284713
 40
0.216668
  0
ENDBLK
  0
BLOCK
  2
*GRP_0011
 70
    65
 10
0.0
 20
0.0
  0
LINE
  8
補助線
  6
BYBLOCK
 62
    64
 10
-11.937152
 20
-84.52871
 11
-12.060483
 21
-84.640815
  0
LINE
  8
補助線
  6
BYBLOCK
 62
    64
 10
-12.054872
 20
-84.523095
 11
-11.942765
 21
-84.646428
  0
LINE
  8
補助線
  6
BYBLOCK
 62
    64
 10
-0.220863
 20
-73.878687
 11
-0.344193
 21
-73.99079
  0
LINE
  8
補助線
  6
BYBLOCK
 62
    64
 10
-0.33858
 20
-73.873073
 11
-0.226475
 21
-73.996403
  0
LINE
  8
補助線
  6
BYBLOCK
 62
    64
 10
11.3721
 20
-63.340765
 11
11.495428
 21
-63.22866
  0
LINE
  8
補助線
  6
BYBLOCK
 62
    64
 10
11.37771
 20
-63.223045
 11
11.489818
 21
-63.346378
  0
LINE
  8
型材断面
  6
CONTINUOUS
 10
-12.806002
 20
-84.192325
 11
-12.839672
 21
-84.898632
  0
LINE
  8
型材断面
  6
CONTINUOUS
 10
-12.839672
 20
-84.898632
 11
-12.39125
 21
-85.39195
  0
LINE
  8
型材断面
  6
CONTINUOUS
 10
-12.39125
 20
-85.39195
 11
-11.684947
 21
-85.42562
  0
LINE
  8
型材断面
  6
CONTINUOUS
 10
11.119895
 20
-62.443858
 11
11.826197
 21
-62.477527
  0
LINE
  8
型材断面
  6
CONTINUOUS
 10
11.826197
 20
-62.477527
 11
12.27462
 21
-62.970845
  0
LINE
  8
型材断面
  6
CONTINUOUS
 10
12.27462
 20
-62.970845
 11
12.240952
 21
-63.67715
  0
LINE
  8
型材断面
  6
CONTINUOUS
 10
-12.806002
 20
-84.192325
 11
11.119895
 21
-62.443858
  0
LINE
  8
型材断面
  6
CONTINUOUS
 10
-11.684947
 20
-85.42562
 11
12.240952
 21
-63.67715
  0
CIRCLE
  8
ボルト／ビス
  6
CONTINUOUS
 10
-11.998818
 20
-84.584763
 40
0.250185
  0
CIRCLE
  8
ボルト／ビス
  6
CONTINUOUS
 10
-11.998818
 20
-84.584763
 40
0.301025
  0
LINE
  8
ボルト／ビス
  6
CONTINUOUS
 62
    64
 10
-12.243288
 20
-84.637935
 11
-12.1671
 21
-84.399633
  0
LINE
  8
ボルト／ビス
  6
CONTINUOUS
 62
    64
 10
-11.92263
 20
-84.346458
 11
-12.1671
 21
-84.399633
  0
LINE
  8
ボルト／ビス
  6
CONTINUOUS
 62
    64
 10
-12.075005
 20
-84.823067
 11
-11.830535
 21
-84.769892
  0
LINE
  8
ボルト／ビス
  6
CONTINUOUS
 62
    64
 10
-11.754348
 20
-84.53159
 11
-11.830535
 21
-84.769892
  0
LINE
  8
ボルト／ビス
  6
CONTINUOUS
 62
    64
 10
-12.243288
 20
-84.637935
 11
-12.075005
 21
-84.823067
  0
LINE
  8
ボルト／ビス
  6
CONTINUOUS
 62
    64
 10
-11.92263
 20
-84.346458
 11
-11.754348
 21
-84.53159
  0
CIRCLE
  8
ボルト／ビス
  6
CONTINUOUS
 62
    64
 10
-11.998818
 20
-84.584763
 40
0.216668
  0
CIRCLE
  8
ボルト／ビス
  6
CONTINUOUS
 10
-0.282528
 20
-73.934738
 40
0.250185
  0
CIRCLE
  8
ボルト／ビス
  6
CONTINUOUS
 10
-0.282528
 20
-73.934738
 40
0.301025
  0
LINE
  8
ボルト／ビス
  6
CONTINUOUS
 62
    64
 10
-0.526998
 20
-73.98791
 11
-0.45081
 21
-73.749605
  0
LINE
  8
ボルト／ビス
  6
CONTINUOUS
 62
    64
 10
-0.206337
 20
-73.696435
 11
-0.45081
 21
-73.749605
  0
LINE
  8
ボルト／ビス
  6
CONTINUOUS
 62
    64
 10
-0.358715
 20
-74.17304
 11
-0.114245
 21
-74.11987
  0
LINE
  8
ボルト／ビス
  6
CONTINUOUS
 62
    64
 10
-0.038058
 20
-73.881565
 11
-0.114245
 21
-74.11987
  0
LINE
  8
ボルト／ビス
  6
CONTINUOUS
 62
    64
 10
-0.526998
 20
-73.98791
 11
-0.358715
 21
-74.17304
  0
LINE
  8
ボルト／ビス
  6
CONTINUOUS
 62
    64
 10
-0.206337
 20
-73.696435
 11
-0.038058
 21
-73.881565
  0
CIRCLE
  8
ボルト／ビス
  6
CONTINUOUS
 62
    64
 10
-0.282528
 20
-73.934738
 40
0.216668
  0
CIRCLE
  8
ボルト／ビス
  6
CONTINUOUS
 10
11.433765
 20
-63.284713
 40
0.250185
  0
CIRCLE
  8
ボルト／ビス
  6
CONTINUOUS
 10
11.433765
 20
-63.284713
 40
0.301025
  0
LINE
  8
ボルト／ビス
  6
CONTINUOUS
 62
    64
 10
11.509952
 20
-63.046407
 11
11.265482
 21
-63.099582
  0
LINE
  8
ボルト／ビス
  6
CONTINUOUS
 62
    64
 10
11.189293
 20
-63.337885
 11
11.265482
 21
-63.099582
  0
LINE
  8
ボルト／ビス
  6
CONTINUOUS
 62
    64
 10
11.678235
 20
-63.23154
 11
11.602045
 21
-63.469842
  0
LINE
  8
ボルト／ビス
  6
CONTINUOUS
 62
    64
 10
11.357575
 20
-63.523015
 11
11.602045
 21
-63.469842
  0
LINE
  8
ボルト／ビス
  6
CONTINUOUS
 62
    64
 10
11.509952
 20
-63.046407
 11
11.678235
 21
-63.23154
  0
LINE
  8
ボルト／ビス
  6
CONTINUOUS
 62
    64
 10
11.189293
 20
-63.337885
 11
11.357575
 21
-63.523015
  0
CIRCLE
  8
ボルト／ビス
  6
CONTINUOUS
 62
    64
 10
11.433765
 20
-63.284713
 40
0.216668
  0
ENDBLK
  0
BLOCK
  2
*DIM_0012
 70
    65
 10
0.0
 20
0.0
  0
LINE
  8
寸法
  6
BYBLOCK
 62
     0
 10
-88.232905
 20
8.08996
 11
-117.721983
 21
8.08996
  0
LINE
  8
寸法
  6
BYBLOCK
 62
     0
 10
-88.232905
 20
31.423293
 11
-117.721983
 21
31.423293
  0
LINE
  8
寸法
  6
BYBLOCK
 62
     0
 10
-117.721983
 20
8.08996
 11
-117.721983
 21
31.423293
  0
POINT
  8
寸法
 62
     0
 10
-117.721983
 20
8.08996
  0
POINT
  8
寸法
 62
     0
 10
-117.721983
 20
31.423293
  0
TEXT
  7
TextStyle03
  8
寸法
  6
CONTINUOUS
 62
     0
 10
-118.125
 20
17.3125
  1
700
 40
3.0
 50
90.0
 72
     5
 11
-118.125
 21
22.1875
  0
ENDBLK
  0
BLOCK
  2
*DIM_0013
 70
    65
 10
0.0
 20
0.0
  0
LINE
  8
寸法
  6
BYBLOCK
 62
     0
 10
-88.232905
 20
54.756625
 11
-117.721983
 21
54.756625
  0
LINE
  8
寸法
  6
BYBLOCK
 62
     0
 10
-117.721983
 20
31.423293
 11
-117.721983
 21
54.756625
  0
POINT
  8
寸法
 62
     0
 10
-117.721983
 20
54.756625
  0
TEXT
  7
TextStyle03
  8
寸法
  6
CONTINUOUS
 62
     0
 10
-118.125
 20
40.6375
  1
700
 40
3.0
 50
90.0
 72
     5
 11
-118.125
 21
45.5125
  0
ENDBLK
  0
BLOCK
  2
*DIM_0014
 70
    65
 10
0.0
 20
0.0
  0
LINE
  8
寸法
  6
BYBLOCK
 62
     0
 10
-75.232905
 20
67.756625
 11
-75.232905
 21
96.864697
  0
LINE
  8
寸法
  6
BYBLOCK
 62
     0
 10
-48.566237
 20
67.756625
 11
-48.566237
 21
96.864697
  0
LINE
  8
寸法
  6
BYBLOCK
 62
     0
 10
-75.232905
 20
96.864697
 11
-48.566237
 21
96.864697
  0
POINT
  8
寸法
 62
     0
 10
-75.232905
 20
96.864697
  0
POINT
  8
寸法
 62
     0
 10
-48.566237
 20
96.864697
  0
TEXT
  7
TextStyle03
  8
寸法
  6
CONTINUOUS
 62
     0
 10
-64.3375
 20
97.2
  1
800
 40
3.0
 72
     5
 11
-59.4625
 21
97.2
  0
ENDBLK
  0
BLOCK
  2
*DIM_0015
 70
    65
 10
0.0
 20
0.0
  0
LINE
  8
寸法
  6
BYBLOCK
 62
     0
 10
-21.899572
 20
67.756625
 11
-21.899572
 21
96.864697
  0
LINE
  8
寸法
  6
BYBLOCK
 62
     0
 10
-48.566237
 20
96.864697
 11
-21.899572
 21
96.864697
  0
POINT
  8
寸法
 62
     0
 10
-21.899572
 20
96.864697
  0
TEXT
  7
TextStyle03
  8
寸法
  6
CONTINUOUS
 62
     0
 10
-37.6625
 20
97.2
  1
800
 40
3.0
 72
     5
 11
-32.7875
 21
97.2
  0
ENDBLK
  0
BLOCK
  2
*DIM_0016
 70
    65
 10
0.0
 20
0.0
  0
LINE
  8
寸法
  6
BYBLOCK
 62
     0
 10
4.767095
 20
67.756625
 11
4.767095
 21
96.864697
  0
LINE
  8
寸法
  6
BYBLOCK
 62
     0
 10
-21.899572
 20
96.864697
 11
4.767095
 21
96.864697
  0
POINT
  8
寸法
 62
     0
 10
4.767095
 20
96.864697
  0
TEXT
  7
TextStyle03
  8
寸法
  6
CONTINUOUS
 62
     0
 10
-10.9875
 20
97.2
  1
800
 40
3.0
 72
     5
 11
-6.1125
 21
97.2
  0
ENDBLK
  0
BLOCK
  2
*DIM_0017
 70
    65
 10
0.0
 20
0.0
  0
LINE
  8
寸法
  6
CONTINUOUS
 10
14.767095
 20
-29.63158
 11
17.530428
 21
-29.63158
  0
POINT
  8
寸法
 10
14.767095
 20
-29.63158
  0
POINT
  8
寸法
 10
17.530428
 20
-29.63158
  0
TEXT
  7
TextStyle03
  8
寸法
  6
CONTINUOUS
 10
15.46875
 20
-28.35
  1
82.9
 40
3.0
 72
     5
 11
22.03125
 21
-28.35
  0
ENDBLK
  0
BLOCK
  2
*DIM_0018
 70
    65
 10
0.0
 20
0.0
  0
LINE
  8
寸法
  6
CONTINUOUS
 10
-85.232905
 20
-29.63158
 11
-87.996238
 21
-29.63158
  0
POINT
  8
寸法
 10
-85.232905
 20
-29.63158
  0
POINT
  8
寸法
 10
-87.996238
 20
-29.63158
  0
TEXT
  7
TextStyle03
  8
寸法
  6
CONTINUOUS
 10
-92.43125
 20
-28.65
  1
82.9
 40
3.0
 72
     5
 11
-85.86875
 21
-28.65
  0
ENDBLK
  0
BLOCK
  2
*DIM_0020
 70
    65
 10
0.0
 20
0.0
  0
LINE
  8
寸法
  6
CONTINUOUS
 10
77.54475
 20
-50.387675
 11
77.54475
 21
-45.29824
  0
LINE
  8
寸法
  6
CONTINUOUS
 10
110.14475
 20
-50.387675
 11
110.14475
 21
-45.29824
  0
LINE
  8
寸法
  6
CONTINUOUS
 10
77.54475
 20
-45.29824
 11
110.14475
 21
-45.29824
  0
POINT
  8
寸法
 10
77.54475
 20
-45.29824
  0
POINT
  8
寸法
 10
110.14475
 20
-45.29824
  0
TEXT
  7
TextStyle03
  8
寸法
  6
CONTINUOUS
 10
91.4125
 20
-44.925
  1
978
 40
3.0
 72
     5
 11
96.2875
 21
-44.925
  0
ENDBLK
  0
BLOCK
  2
*DIM_0021
 70
    65
 10
0.0
 20
0.0
  0
LINE
  8
寸法
  6
CONTINUOUS
 10
115.14475
 20
-55.387675
 11
122.077225
 21
-55.387675
  0
LINE
  8
寸法
  6
CONTINUOUS
 10
115.14475
 20
-88.187675
 11
122.077225
 21
-88.187675
  0
LINE
  8
寸法
  6
CONTINUOUS
 10
122.077225
 20
-55.387675
 11
122.077225
 21
-88.187675
  0
POINT
  8
寸法
 10
122.077225
 20
-55.387675
  0
POINT
  8
寸法
 10
122.077225
 20
-88.187675
  0
TEXT
  7
TextStyle03
  8
寸法
  6
CONTINUOUS
 10
121.7
 20
-74.2375
  1
984
 40
3.0
 50
90.0
 72
     5
 11
121.7
 21
-69.3625
  0
ENDBLK
  0
BLOCK
  2
*DIM_0022
 70
    65
 10
0.0
 20
0.0
  0
LINE
  8
寸法
  6
BYBLOCK
 62
     0
 10
52.443232
 20
64.756627
 11
51.70639
 21
64.756627
  0
LINE
  8
寸法
  6
BYBLOCK
 62
     0
 10
52.443232
 20
-1.91004
 11
51.70639
 21
-1.91004
  0
LINE
  8
寸法
  6
BYBLOCK
 62
     0
 10
51.70639
 20
64.756627
 11
51.70639
 21
-1.91004
  0
POINT
  8
寸法
 62
     0
 10
51.70639
 20
64.756627
  0
POINT
  8
寸法
 62
     0
 10
51.70639
 20
-1.91004
  0
TEXT
  7
TextStyle03
  8
寸法
  6
CONTINUOUS
 62
     0
 10
51.3
 20
19.68125
  1
呼称寸法　2000
 40
3.0
 50
90.0
 72
     5
 11
51.3
 21
43.11875
  0
ENDBLK
  0
BLOCK
  2
*DIM_0023
 70
    65
 10
0.0
 20
0.0
  0
LINE
  8
寸法
  6
BYBLOCK
 62
     0
 10
87.940523
 20
32.423293
 11
87.940523
 21
86.588402
  0
LINE
  8
寸法
  6
BYBLOCK
 62
     0
 10
104.60719
 20
86.588402
 11
87.940523
 21
86.588402
  0
POINT
  8
寸法
 62
     0
 10
104.60719
 20
86.588402
  0
POINT
  8
寸法
 62
     0
 10
87.940523
 20
86.588402
  0
TEXT
  7
TextStyle03
  8
寸法
  6
CONTINUOUS
 62
     0
 10
93.8125
 20
86.95
  1
500
 40
3.0
 72
     5
 11
98.6875
 21
86.95
  0
ENDBLK
  0
BLOCK
  2
*DIM_0024
 70
    65
 10
0.0
 20
0.0
  0
LINE
  8
寸法
  6
CONTINUOUS
 10
51.70639
 20
-1.91004
 11
51.70639
 21
-4.673373
  0
POINT
  8
寸法
 10
51.70639
 20
-1.91004
  0
POINT
  8
寸法
 10
51.70639
 20
-4.673373
  0
TEXT
  7
TextStyle03
  8
寸法
  6
CONTINUOUS
 10
50.225
 20
-9.23125
  1
82.9
 40
3.0
 50
90.0
 72
     5
 11
50.225
 21
-2.66875
  0
ENDBLK
  0
BLOCK
  2
*DIM_0025
 70
    65
 10
0.0
 20
0.0
  0
LINE
  8
寸法
  6
CONTINUOUS
 10
51.70639
 20
64.756627
 11
51.70639
 21
67.519962
  0
POINT
  8
寸法
 10
51.70639
 20
64.756627
  0
POINT
  8
寸法
 10
51.70639
 20
67.519962
  0
TEXT
  7
TextStyle03
  8
寸法
  6
CONTINUOUS
 10
50.725
 20
65.39375
  1
82.9
 40
3.0
 50
90.0
 72
     5
 11
50.725
 21
71.95625
  0
ENDBLK
  0
BLOCK
  2
*DIM_0026
 70
    65
 10
0.0
 20
0.0
  0
LINE
  8
寸法
  6
CONTINUOUS
 10
104.60719
 20
71.423293
 11
104.60719
 21
86.588402
  0
LINE
  8
寸法
  6
CONTINUOUS
 10
112.107193
 20
72.519962
 11
112.107193
 21
86.588402
  0
LINE
  8
寸法
  6
CONTINUOUS
 10
104.60719
 20
86.588402
 11
112.107193
 21
86.588402
  0
POINT
  8
寸法
 10
104.60719
 20
86.588402
  0
POINT
  8
寸法
 10
112.107193
 20
86.588402
  0
TEXT
  7
TextStyle03
  8
寸法
  6
CONTINUOUS
 10
105.8875
 20
86.95
  1
225
 40
3.0
 72
     5
 11
110.7625
 21
86.95
  0
ENDBLK
  0
BLOCK
  2
*GRP_0027
 70
    65
 10
0.0
 20
0.0
  0
LINE
  8
ボルト／ビス
  6
CONTINUOUS
 10
104.60719
 20
65.423293
 11
104.140525
 21
65.423293
  0
LINE
  8
ボルト／ビス
  6
CONTINUOUS
 10
104.60719
 20
65.056627
 11
104.540525
 21
65.056627
  0
LINE
  8
ボルト／ビス
  6
CONTINUOUS
 10
104.540525
 20
65.056627
 11
104.540525
 21
65.78996
  0
LINE
  8
ボルト／ビス
  6
CONTINUOUS
 10
104.540525
 20
65.78996
 11
104.60719
 21
65.78996
  0
LINE
  8
ボルト／ビス
  6
CONTINUOUS
 10
104.60719
 20
65.056627
 11
104.60719
 21
65.78996
  0
LINE
  8
ボルト／ビス
  6
CONTINUOUS
 10
104.50719
 20
65.123293
 11
104.540525
 21
65.123293
  0
LINE
  8
ボルト／ビス
  6
CONTINUOUS
 10
104.50719
 20
65.123293
 11
104.50719
 21
65.723293
  0
LINE
  8
ボルト／ビス
  6
CONTINUOUS
 10
104.50719
 20
65.723293
 11
104.540525
 21
65.723293
  0
LINE
  8
ボルト／ビス
  6
CONTINUOUS
 62
    64
 10
104.30719
 20
65.262918
 11
104.318865
 21
65.230842
  0
ARC
  8
ボルト／ビス
  6
CONTINUOUS
 62
    64
 10
104.412168
 20
65.278957
 40
0.104978
 50
152.721967
 51
180.0
  0
ARC
  8
ボルト／ビス
  6
CONTINUOUS
 62
    64
 10
104.709592
 20
65.423295
 40
0.402402
 50
166.165002
 51
193.834985
  0
LINE
  8
ボルト／ビス
  6
CONTINUOUS
 62
    64
 10
104.30719
 20
65.583668
 11
104.318865
 21
65.615742
  0
ARC
  8
ボルト／ビス
  6
CONTINUOUS
 62
    64
 10
104.412168
 20
65.567632
 40
0.104978
 50
180.0
 51
207.278033
  0
LINE
  8
ボルト／ビス
  6
CONTINUOUS
 62
    64
 10
104.30719
 20
65.262918
 11
104.30719
 21
65.583668
  0
LINE
  8
ボルト／ビス
  6
CONTINUOUS
 62
    64
 10
104.318865
 20
65.615742
 11
104.440525
 21
65.615742
  0
LINE
  8
ボルト／ビス
  6
CONTINUOUS
 62
    64
 10
104.318865
 20
65.519518
 11
104.440525
 21
65.519518
  0
LINE
  8
ボルト／ビス
  6
CONTINUOUS
 62
    64
 10
104.318865
 20
65.230842
 11
104.440525
 21
65.230842
  0
LINE
  8
ボルト／ビス
  6
CONTINUOUS
 62
    64
 10
104.318865
 20
65.327067
 11
104.440525
 21
65.327067
  0
LINE
  8
ボルト／ビス
  6
CONTINUOUS
 10
104.440525
 20
65.230842
 11
104.440525
 21
65.615742
  0
LINE
  8
ボルト／ビス
  6
CONTINUOUS
 10
104.440525
 20
65.223293
 11
104.50719
 21
65.223293
  0
LINE
  8
ボルト／ビス
  6
CONTINUOUS
 10
104.440525
 20
65.223293
 11
104.440525
 21
65.623293
  0
LINE
  8
ボルト／ビス
  6
CONTINUOUS
 10
104.440525
 20
65.623293
 11
104.50719
 21
65.623293
  0
ENDBLK
  0
BLOCK
  2
*GRP_0028
 70
    65
 10
0.0
 20
0.0
  0
LINE
  8
ボルト／ビス
  6
CONTINUOUS
 10
104.60719
 20
-2.576707
 11
104.140525
 21
-2.576707
  0
LINE
  8
ボルト／ビス
  6
CONTINUOUS
 10
104.60719
 20
-2.210042
 11
104.540525
 21
-2.210042
  0
LINE
  8
ボルト／ビス
  6
CONTINUOUS
 10
104.540525
 20
-2.210042
 11
104.540525
 21
-2.943375
  0
LINE
  8
ボルト／ビス
  6
CONTINUOUS
 10
104.540525
 20
-2.943375
 11
104.60719
 21
-2.943375
  0
LINE
  8
ボルト／ビス
  6
CONTINUOUS
 10
104.60719
 20
-2.210042
 11
104.60719
 21
-2.943375
  0
LINE
  8
ボルト／ビス
  6
CONTINUOUS
 10
104.50719
 20
-2.276707
 11
104.540525
 21
-2.276707
  0
LINE
  8
ボルト／ビス
  6
CONTINUOUS
 10
104.50719
 20
-2.276707
 11
104.50719
 21
-2.876707
  0
LINE
  8
ボルト／ビス
  6
CONTINUOUS
 10
104.50719
 20
-2.876707
 11
104.540525
 21
-2.876707
  0
LINE
  8
ボルト／ビス
  6
CONTINUOUS
 62
    64
 10
104.30719
 20
-2.416333
 11
104.318865
 21
-2.384257
  0
ARC
  8
ボルト／ビス
  6
CONTINUOUS
 62
    64
 10
104.412168
 20
-2.432372
 40
0.104978
 50
180.0
 51
207.278033
  0
ARC
  8
ボルト／ビス
  6
CONTINUOUS
 62
    64
 10
104.709592
 20
-2.57671
 40
0.402402
 50
166.165015
 51
193.834998
  0
LINE
  8
ボルト／ビス
  6
CONTINUOUS
 62
    64
 10
104.30719
 20
-2.737082
 11
104.318865
 21
-2.769157
  0
ARC
  8
ボルト／ビス
  6
CONTINUOUS
 62
    64
 10
104.412168
 20
-2.721047
 40
0.104978
 50
152.721967
 51
180.0
  0
LINE
  8
ボルト／ビス
  6
CONTINUOUS
 62
    64
 10
104.30719
 20
-2.416333
 11
104.30719
 21
-2.737082
  0
LINE
  8
ボルト／ビス
  6
CONTINUOUS
 62
    64
 10
104.318865
 20
-2.769157
 11
104.440525
 21
-2.769157
  0
LINE
  8
ボルト／ビス
  6
CONTINUOUS
 62
    64
 10
104.318865
 20
-2.672933
 11
104.440525
 21
-2.672933
  0
LINE
  8
ボルト／ビス
  6
CONTINUOUS
 62
    64
 10
104.318865
 20
-2.384257
 11
104.440525
 21
-2.384257
  0
LINE
  8
ボルト／ビス
  6
CONTINUOUS
 62
    64
 10
104.318865
 20
-2.480483
 11
104.440525
 21
-2.480483
  0
LINE
  8
ボルト／ビス
  6
CONTINUOUS
 10
104.440525
 20
-2.384257
 11
104.440525
 21
-2.769157
  0
LINE
  8
ボルト／ビス
  6
CONTINUOUS
 10
104.440525
 20
-2.376707
 11
104.50719
 21
-2.376707
  0
LINE
  8
ボルト／ビス
  6
CONTINUOUS
 10
104.440525
 20
-2.376707
 11
104.440525
 21
-2.776707
  0
LINE
  8
ボルト／ビス
  6
CONTINUOUS
 10
104.440525
 20
-2.776707
 11
104.50719
 21
-2.776707
  0
ENDBLK
  0
BLOCK
  2
*GRP_0029
 70
    65
 10
0.0
 20
0.0
  0
LINE
  8
ボルト／ビス
  6
DOT
 10
85.940523
 20
65.423293
 11
85.473857
 21
65.423293
  0
LINE
  8
ボルト／ビス
  6
DOT
 10
85.940523
 20
65.056627
 11
85.873857
 21
65.056627
  0
LINE
  8
ボルト／ビス
  6
DOT
 10
85.873857
 20
65.056627
 11
85.873857
 21
65.78996
  0
LINE
  8
ボルト／ビス
  6
DOT
 10
85.873857
 20
65.78996
 11
85.940523
 21
65.78996
  0
LINE
  8
ボルト／ビス
  6
DOT
 10
85.940523
 20
65.056627
 11
85.940523
 21
65.78996
  0
LINE
  8
ボルト／ビス
  6
DOT
 10
85.840523
 20
65.123293
 11
85.873857
 21
65.123293
  0
LINE
  8
ボルト／ビス
  6
DOT
 10
85.840523
 20
65.123293
 11
85.840523
 21
65.723293
  0
LINE
  8
ボルト／ビス
  6
DOT
 10
85.840523
 20
65.723293
 11
85.873857
 21
65.723293
  0
LINE
  8
ボルト／ビス
  6
DOT
 62
    64
 10
85.640523
 20
65.262918
 11
85.652197
 21
65.230842
  0
ARC
  8
ボルト／ビス
  6
DOT
 62
    64
 10
85.745502
 20
65.278957
 40
0.104978
 50
152.721967
 51
180.0
  0
ARC
  8
ボルト／ビス
  6
DOT
 62
    64
 10
86.042925
 20
65.423295
 40
0.402402
 50
166.165002
 51
193.834985
  0
LINE
  8
ボルト／ビス
  6
DOT
 62
    64
 10
85.640523
 20
65.583668
 11
85.652197
 21
65.615742
  0
ARC
  8
ボルト／ビス
  6
DOT
 62
    64
 10
85.745502
 20
65.567632
 40
0.104978
 50
180.0
 51
207.278033
  0
LINE
  8
ボルト／ビス
  6
DOT
 62
    64
 10
85.640523
 20
65.262918
 11
85.640523
 21
65.583668
  0
LINE
  8
ボルト／ビス
  6
DOT
 62
    64
 10
85.652197
 20
65.615742
 11
85.773857
 21
65.615742
  0
LINE
  8
ボルト／ビス
  6
DOT
 62
    64
 10
85.652197
 20
65.519518
 11
85.773857
 21
65.519518
  0
LINE
  8
ボルト／ビス
  6
DOT
 62
    64
 10
85.652197
 20
65.230842
 11
85.773857
 21
65.230842
  0
LINE
  8
ボルト／ビス
  6
DOT
 62
    64
 10
85.652197
 20
65.327067
 11
85.773857
 21
65.327067
  0
LINE
  8
ボルト／ビス
  6
DOT
 10
85.773857
 20
65.230842
 11
85.773857
 21
65.615742
  0
LINE
  8
ボルト／ビス
  6
DOT
 10
85.773857
 20
65.223293
 11
85.840523
 21
65.223293
  0
LINE
  8
ボルト／ビス
  6
DOT
 10
85.773857
 20
65.223293
 11
85.773857
 21
65.623293
  0
LINE
  8
ボルト／ビス
  6
DOT
 10
85.773857
 20
65.623293
 11
85.840523
 21
65.623293
  0
ENDBLK
  0
BLOCK
  2
*GRP_0030
 70
    65
 10
0.0
 20
0.0
  0
LINE
  8
ボルト／ビス
  6
DOT
 10
85.940523
 20
-2.576707
 11
85.473857
 21
-2.576707
  0
LINE
  8
ボルト／ビス
  6
DOT
 10
85.940523
 20
-2.210042
 11
85.873857
 21
-2.210042
  0
LINE
  8
ボルト／ビス
  6
DOT
 10
85.873857
 20
-2.210042
 11
85.873857
 21
-2.943375
  0
LINE
  8
ボルト／ビス
  6
DOT
 10
85.873857
 20
-2.943375
 11
85.940523
 21
-2.943375
  0
LINE
  8
ボルト／ビス
  6
DOT
 10
85.940523
 20
-2.210042
 11
85.940523
 21
-2.943375
  0
LINE
  8
ボルト／ビス
  6
DOT
 10
85.840523
 20
-2.276707
 11
85.873857
 21
-2.276707
  0
LINE
  8
ボルト／ビス
  6
DOT
 10
85.840523
 20
-2.276707
 11
85.840523
 21
-2.876707
  0
LINE
  8
ボルト／ビス
  6
DOT
 10
85.840523
 20
-2.876707
 11
85.873857
 21
-2.876707
  0
LINE
  8
ボルト／ビス
  6
DOT
 62
    64
 10
85.640523
 20
-2.416333
 11
85.652197
 21
-2.384257
  0
ARC
  8
ボルト／ビス
  6
DOT
 62
    64
 10
85.745502
 20
-2.432372
 40
0.104978
 50
180.0
 51
207.278033
  0
ARC
  8
ボルト／ビス
  6
DOT
 62
    64
 10
86.042925
 20
-2.57671
 40
0.402402
 50
166.165015
 51
193.834998
  0
LINE
  8
ボルト／ビス
  6
DOT
 62
    64
 10
85.640523
 20
-2.737082
 11
85.652197
 21
-2.769157
  0
ARC
  8
ボルト／ビス
  6
DOT
 62
    64
 10
85.745502
 20
-2.721047
 40
0.104978
 50
152.721967
 51
180.0
  0
LINE
  8
ボルト／ビス
  6
DOT
 62
    64
 10
85.640523
 20
-2.416333
 11
85.640523
 21
-2.737082
  0
LINE
  8
ボルト／ビス
  6
DOT
 62
    64
 10
85.652197
 20
-2.769157
 11
85.773857
 21
-2.769157
  0
LINE
  8
ボルト／ビス
  6
DOT
 62
    64
 10
85.652197
 20
-2.672933
 11
85.773857
 21
-2.672933
  0
LINE
  8
ボルト／ビス
  6
DOT
 62
    64
 10
85.652197
 20
-2.384257
 11
85.773857
 21
-2.384257
  0
LINE
  8
ボルト／ビス
  6
DOT
 62
    64
 10
85.652197
 20
-2.480483
 11
85.773857
 21
-2.480483
  0
LINE
  8
ボルト／ビス
  6
DOT
 10
85.773857
 20
-2.384257
 11
85.773857
 21
-2.769157
  0
LINE
  8
ボルト／ビス
  6
DOT
 10
85.773857
 20
-2.376707
 11
85.840523
 21
-2.376707
  0
LINE
  8
ボルト／ビス
  6
DOT
 10
85.773857
 20
-2.376707
 11
85.773857
 21
-2.776707
  0
LINE
  8
ボルト／ビス
  6
DOT
 10
85.773857
 20
-2.776707
 11
85.840523
 21
-2.776707
  0
ENDBLK
  0
BLOCK
  2
*GRP_0031
 70
    65
 10
0.0
 20
0.0
  0
LINE
  8
型材断面
  6
DOT
 10
86.99064
 20
31.423293
 11
86.99064
 21
-3.270187
  0
LINE
  8
型材断面
  6
DOT
 10
88.14064
 20
31.423293
 11
88.14064
 21
-4.673373
  0
LINE
  8
型材断面
  6
DOT
 10
89.307308
 20
31.423293
 11
89.307308
 21
-4.673373
  0
LINE
  8
型材断面
  6
DOT
 10
86.99064
 20
31.423298
 11
86.99064
 21
66.116777
  0
LINE
  8
型材断面
  6
DOT
 10
88.14064
 20
31.423298
 11
88.14064
 21
67.519962
  0
LINE
  8
型材断面
  6
DOT
 10
89.307308
 20
31.423298
 11
89.307308
 21
67.519962
  0
LINE
  8
別途部材
  6
DOT
 62
    96
 10
85.940523
 20
-3.576707
 11
86.940523
 21
-3.976707
  0
ARC
  8
別途部材
  6
DOT
 10
110.94052
 20
31.423292
 40
41.666665
 50
180.0
 51
233.130105
  0
ARC
  8
別途部材
  6
DOT
 10
110.94052
 20
31.423293
 40
41.666665
 50
126.869895
 51
180.0
  0
LINE
  8
別途部材
  6
DOT
 10
86.940523
 20
-3.976707
 11
86.940523
 21
31.423293
  0
LINE
  8
別途部材
  6
DOT
 62
    96
 10
85.940523
 20
-3.576707
 11
85.940523
 21
31.423293
  0
LINE
  8
別途部材
  6
DOT
 62
    96
 10
85.940523
 20
66.423293
 11
86.940523
 21
66.823293
  0
LINE
  8
別途部材
  6
DOT
 10
86.940523
 20
66.823293
 11
86.940523
 21
31.423293
  0
LINE
  8
別途部材
  6
DOT
 62
    96
 10
85.940523
 20
66.423293
 11
85.940523
 21
31.423293
  0
LINE
  8
鉄骨等
  6
DOT
 62
    47
 10
89.307308
 20
-4.673373
 11
88.14064
 21
-4.673373
  0
LINE
  8
鉄骨等
  6
DOT
 62
    47
 10
88.14064
 20
-4.673373
 11
86.99064
 21
-3.270187
  0
LINE
  8
鉄骨等
  6
DOT
 62
    47
 10
86.99064
 20
-3.270187
 11
86.94052
 21
-3.270187
  0
LINE
  8
鉄骨等
  6
DOT
 62
    47
 10
89.307308
 20
67.519962
 11
88.14064
 21
67.519962
  0
LINE
  8
鉄骨等
  6
DOT
 62
    47
 10
88.14064
 20
67.519962
 11
86.99064
 21
66.116777
  0
LINE
  8
鉄骨等
  6
DOT
 62
    47
 10
86.99064
 20
66.116777
 11
86.94052
 21
66.116777
  0
ENDBLK
  0
BLOCK
  2
*DIM_0033
 70
    65
 10
0.0
 20
0.0
  0
LINE
  8
寸法
  6
CONTINUOUS
 10
21.433765
 20
-79.624597
 11
30.736747
 21
-79.624597
  0
LINE
  8
寸法
  6
CONTINUOUS
 10
22.530428
 20
-87.124603
 11
30.736747
 21
-87.124603
  0
LINE
  8
寸法
  6
CONTINUOUS
 10
30.736747
 20
-79.624597
 11
30.736747
 21
-87.124603
  0
POINT
  8
寸法
 10
30.736747
 20
-79.624597
  0
POINT
  8
寸法
 10
30.736747
 20
-87.124603
  0
TEXT
  7
TextStyle03
  8
寸法
  6
CONTINUOUS
 10
30.325
 20
-85.8125
  1
225
 40
3.0
 50
90.0
 72
     5
 11
30.325
 21
-80.9375
  0
ENDBLK
  0
BLOCK
  2
*GRP_0034
 70
    65
 10
0.0
 20
0.0
  0
LINE
  8
型材断面
  6
DOT
 10
-35.232905
 20
-62.00805
 11
16.127242
 21
-62.00805
  0
LINE
  8
型材断面
  6
DOT
 10
-35.232905
 20
-63.15805
 11
17.530428
 21
-63.15805
  0
LINE
  8
型材断面
  6
DOT
 10
-35.232905
 20
-64.324718
 11
17.530428
 21
-64.324718
  0
LINE
  8
型材断面
  6
DOT
 10
-35.232905
 20
-62.00805
 11
-86.593052
 21
-62.00805
  0
LINE
  8
型材断面
  6
DOT
 10
-35.232905
 20
-63.15805
 11
-87.996238
 21
-63.15805
  0
LINE
  8
型材断面
  6
DOT
 10
-35.232905
 20
-64.324718
 11
-87.996238
 21
-64.324718
  0
LINE
  8
別途部材
  6
DOT
 62
    96
 10
16.433763
 20
-60.95793
 11
16.833763
 21
-61.95793
  0
LINE
  8
別途部材
  6
DOT
 62
    96
 10
16.433763
 20
-60.95793
 11
-35.232905
 21
-60.95793
  0
LINE
  8
別途部材
  6
DOT
 10
16.833763
 20
-61.95793
 11
-35.232905
 21
-61.95793
  0
ARC
  8
別途部材
  6
DOT
 10
-1.899571
 20
-60.957931
 40
16.666667
 50
0.0
 51
89.427033
  0
LINE
  8
別途部材
  6
DOT
 10
-1.732905
 20
-44.291262
 11
-35.232905
 21
-44.291262
  0
LINE
  8
別途部材
  6
DOT
 62
    96
 10
-86.89957
 20
-60.95793
 11
-87.29957
 21
-61.95793
  0
LINE
  8
別途部材
  6
DOT
 62
    96
 10
-86.89957
 20
-60.95793
 11
-35.232905
 21
-60.95793
  0
LINE
  8
別途部材
  6
DOT
 10
-87.29957
 20
-61.95793
 11
-35.232905
 21
-61.95793
  0
LINE
  8
別途部材
  6
DOT
 10
-52.732905
 20
-44.291262
 11
-53.732905
 21
-44.291262
  0
ARC
  8
別途部材
  6
DOT
 10
-68.566237
 20
-60.957931
 40
16.666667
 50
90.572967
 51
180.0
  0
LINE
  8
別途部材
  6
DOT
 10
-68.732905
 20
-44.291262
 11
-35.232905
 21
-44.291262
  0
LINE
  8
鉄骨等
  6
DOT
 62
    47
 10
17.530428
 20
-64.324718
 11
17.530428
 21
-63.15805
  0
LINE
  8
鉄骨等
  6
DOT
 62
    47
 10
17.530428
 20
-63.15805
 11
16.127242
 21
-62.00805
  0
LINE
  8
鉄骨等
  6
DOT
 62
    47
 10
16.127242
 20
-62.00805
 11
16.127242
 21
-61.95793
  0
LINE
  8
鉄骨等
  6
DOT
 62
    47
 10
-87.996238
 20
-64.324718
 11
-87.996238
 21
-63.15805
  0
LINE
  8
鉄骨等
  6
DOT
 62
    47
 10
-87.996238
 20
-63.15805
 11
-86.593052
 21
-62.00805
  0
LINE
  8
鉄骨等
  6
DOT
 62
    47
 10
-86.593052
 20
-62.00805
 11
-86.593052
 21
-61.95793
  0
ENDBLK
  0
BLOCK
  2
*GRP_0035
 70
    65
 10
0.0
 20
0.0
  0
LINE
  8
ボルト／ビス
  6
CONTINUOUS
 10
15.433763
 20
-79.624597
 11
15.433763
 21
-79.157932
  0
LINE
  8
ボルト／ビス
  6
CONTINUOUS
 10
15.800427
 20
-79.624597
 11
15.800427
 21
-79.557932
  0
LINE
  8
ボルト／ビス
  6
CONTINUOUS
 10
15.800427
 20
-79.557932
 11
15.067095
 21
-79.557932
  0
LINE
  8
ボルト／ビス
  6
CONTINUOUS
 10
15.067095
 20
-79.557932
 11
15.067095
 21
-79.624597
  0
LINE
  8
ボルト／ビス
  6
CONTINUOUS
 10
15.800427
 20
-79.624597
 11
15.067095
 21
-79.624597
  0
LINE
  8
ボルト／ビス
  6
CONTINUOUS
 10
15.733763
 20
-79.524597
 11
15.733763
 21
-79.557932
  0
LINE
  8
ボルト／ビス
  6
CONTINUOUS
 10
15.733763
 20
-79.524597
 11
15.133763
 21
-79.524597
  0
LINE
  8
ボルト／ビス
  6
CONTINUOUS
 10
15.133763
 20
-79.524597
 11
15.133763
 21
-79.557932
  0
LINE
  8
ボルト／ビス
  6
CONTINUOUS
 62
    64
 10
15.594138
 20
-79.324597
 11
15.626212
 21
-79.336272
  0
ARC
  8
ボルト／ビス
  6
CONTINUOUS
 62
    64
 10
15.578098
 20
-79.429578
 40
0.104978
 50
90.0
 51
117.278033
  0
ARC
  8
ボルト／ビス
  6
CONTINUOUS
 62
    64
 10
15.433761
 20
-79.727002
 40
0.402402
 50
76.165015
 51
103.834998
  0
LINE
  8
ボルト／ビス
  6
CONTINUOUS
 62
    64
 10
15.273387
 20
-79.324597
 11
15.241312
 21
-79.336272
  0
ARC
  8
ボルト／ビス
  6
CONTINUOUS
 62
    64
 10
15.289423
 20
-79.429578
 40
0.104978
 50
62.721967
 51
90.0
  0
LINE
  8
ボルト／ビス
  6
CONTINUOUS
 62
    64
 10
15.594138
 20
-79.324597
 11
15.273387
 21
-79.324597
  0
LINE
  8
ボルト／ビス
  6
CONTINUOUS
 62
    64
 10
15.241312
 20
-79.336272
 11
15.241312
 21
-79.457932
  0
LINE
  8
ボルト／ビス
  6
CONTINUOUS
 62
    64
 10
15.337537
 20
-79.336272
 11
15.337537
 21
-79.457932
  0
LINE
  8
ボルト／ビス
  6
CONTINUOUS
 62
    64
 10
15.626212
 20
-79.336272
 11
15.626212
 21
-79.457932
  0
LINE
  8
ボルト／ビス
  6
CONTINUOUS
 62
    64
 10
15.529988
 20
-79.336272
 11
15.529988
 21
-79.457932
  0
LINE
  8
ボルト／ビス
  6
CONTINUOUS
 10
15.626212
 20
-79.457932
 11
15.241312
 21
-79.457932
  0
LINE
  8
ボルト／ビス
  6
CONTINUOUS
 10
15.633763
 20
-79.457932
 11
15.633763
 21
-79.524597
  0
LINE
  8
ボルト／ビス
  6
CONTINUOUS
 10
15.633763
 20
-79.457932
 11
15.233763
 21
-79.457932
  0
LINE
  8
ボルト／ビス
  6
CONTINUOUS
 10
15.233763
 20
-79.457932
 11
15.233763
 21
-79.524597
  0
ENDBLK
  0
BLOCK
  2
*GRP_0036
 70
    65
 10
0.0
 20
0.0
  0
LINE
  8
ボルト／ビス
  6
DOT
 10
15.433763
 20
-60.95793
 11
15.433763
 21
-60.491265
  0
LINE
  8
ボルト／ビス
  6
DOT
 10
15.800427
 20
-60.95793
 11
15.800427
 21
-60.891265
  0
LINE
  8
ボルト／ビス
  6
DOT
 10
15.800427
 20
-60.891265
 11
15.067095
 21
-60.891265
  0
LINE
  8
ボルト／ビス
  6
DOT
 10
15.067095
 20
-60.891265
 11
15.067095
 21
-60.95793
  0
LINE
  8
ボルト／ビス
  6
DOT
 10
15.800427
 20
-60.95793
 11
15.067095
 21
-60.95793
  0
LINE
  8
ボルト／ビス
  6
DOT
 10
15.733763
 20
-60.85793
 11
15.733763
 21
-60.891265
  0
LINE
  8
ボルト／ビス
  6
DOT
 10
15.733763
 20
-60.85793
 11
15.133763
 21
-60.85793
  0
LINE
  8
ボルト／ビス
  6
DOT
 10
15.133763
 20
-60.85793
 11
15.133763
 21
-60.891265
  0
LINE
  8
ボルト／ビス
  6
DOT
 62
    64
 10
15.594138
 20
-60.65793
 11
15.626212
 21
-60.669605
  0
ARC
  8
ボルト／ビス
  6
DOT
 62
    64
 10
15.578098
 20
-60.762911
 40
0.104978
 50
90.0
 51
117.278033
  0
ARC
  8
ボルト／ビス
  6
DOT
 62
    64
 10
15.433761
 20
-61.060335
 40
0.402402
 50
76.165015
 51
103.834998
  0
LINE
  8
ボルト／ビス
  6
DOT
 62
    64
 10
15.273387
 20
-60.65793
 11
15.241312
 21
-60.669605
  0
ARC
  8
ボルト／ビス
  6
DOT
 62
    64
 10
15.289423
 20
-60.762911
 40
0.104978
 50
62.721967
 51
90.0
  0
LINE
  8
ボルト／ビス
  6
DOT
 62
    64
 10
15.594138
 20
-60.65793
 11
15.273387
 21
-60.65793
  0
LINE
  8
ボルト／ビス
  6
DOT
 62
    64
 10
15.241312
 20
-60.669605
 11
15.241312
 21
-60.791265
  0
LINE
  8
ボルト／ビス
  6
DOT
 62
    64
 10
15.337537
 20
-60.669605
 11
15.337537
 21
-60.791265
  0
LINE
  8
ボルト／ビス
  6
DOT
 62
    64
 10
15.626212
 20
-60.669605
 11
15.626212
 21
-60.791265
  0
LINE
  8
ボルト／ビス
  6
DOT
 62
    64
 10
15.529988
 20
-60.669605
 11
15.529988
 21
-60.791265
  0
LINE
  8
ボルト／ビス
  6
DOT
 10
15.626212
 20
-60.791265
 11
15.241312
 21
-60.791265
  0
LINE
  8
ボルト／ビス
  6
DOT
 10
15.633763
 20
-60.791265
 11
15.633763
 21
-60.85793
  0
LINE
  8
ボルト／ビス
  6
DOT
 10
15.633763
 20
-60.791265
 11
15.233763
 21
-60.791265
  0
LINE
  8
ボルト／ビス
  6
DOT
 10
15.233763
 20
-60.791265
 11
15.233763
 21
-60.85793
  0
ENDBLK
  0
BLOCK
  2
*GRP_0037
 70
    65
 10
0.0
 20
0.0
  0
LINE
  8
ボルト／ビス
  6
CONTINUOUS
 10
-85.899572
 20
-79.624597
 11
-85.899572
 21
-79.157932
  0
LINE
  8
ボルト／ビス
  6
CONTINUOUS
 10
-86.266237
 20
-79.624597
 11
-86.266237
 21
-79.557932
  0
LINE
  8
ボルト／ビス
  6
CONTINUOUS
 10
-86.266237
 20
-79.557932
 11
-85.532905
 21
-79.557932
  0
LINE
  8
ボルト／ビス
  6
CONTINUOUS
 10
-85.532905
 20
-79.557932
 11
-85.532905
 21
-79.624597
  0
LINE
  8
ボルト／ビス
  6
CONTINUOUS
 10
-86.266237
 20
-79.624597
 11
-85.532905
 21
-79.624597
  0
LINE
  8
ボルト／ビス
  6
CONTINUOUS
 10
-86.199572
 20
-79.524597
 11
-86.199572
 21
-79.557932
  0
LINE
  8
ボルト／ビス
  6
CONTINUOUS
 10
-86.199572
 20
-79.524597
 11
-85.599572
 21
-79.524597
  0
LINE
  8
ボルト／ビス
  6
CONTINUOUS
 10
-85.599572
 20
-79.524597
 11
-85.599572
 21
-79.557932
  0
LINE
  8
ボルト／ビス
  6
CONTINUOUS
 62
    64
 10
-86.059947
 20
-79.324597
 11
-86.092022
 21
-79.336272
  0
ARC
  8
ボルト／ビス
  6
CONTINUOUS
 62
    64
 10
-86.043908
 20
-79.429578
 40
0.104978
 50
62.721967
 51
90.0
  0
ARC
  8
ボルト／ビス
  6
CONTINUOUS
 62
    64
 10
-85.899571
 20
-79.727002
 40
0.402402
 50
76.165002
 51
103.834985
  0
LINE
  8
ボルト／ビス
  6
CONTINUOUS
 62
    64
 10
-85.739197
 20
-79.324597
 11
-85.707122
 21
-79.336272
  0
ARC
  8
ボルト／ビス
  6
CONTINUOUS
 62
    64
 10
-85.755233
 20
-79.429578
 40
0.104978
 50
90.0
 51
117.278033
  0
LINE
  8
ボルト／ビス
  6
CONTINUOUS
 62
    64
 10
-86.059947
 20
-79.324597
 11
-85.739197
 21
-79.324597
  0
LINE
  8
ボルト／ビス
  6
CONTINUOUS
 62
    64
 10
-85.707122
 20
-79.336272
 11
-85.707122
 21
-79.457932
  0
LINE
  8
ボルト／ビス
  6
CONTINUOUS
 62
    64
 10
-85.803348
 20
-79.336272
 11
-85.803348
 21
-79.457932
  0
LINE
  8
ボルト／ビス
  6
CONTINUOUS
 62
    64
 10
-86.092022
 20
-79.336272
 11
-86.092022
 21
-79.457932
  0
LINE
  8
ボルト／ビス
  6
CONTINUOUS
 62
    64
 10
-85.995798
 20
-79.336272
 11
-85.995798
 21
-79.457932
  0
LINE
  8
ボルト／ビス
  6
CONTINUOUS
 10
-86.092022
 20
-79.457932
 11
-85.707122
 21
-79.457932
  0
LINE
  8
ボルト／ビス
  6
CONTINUOUS
 10
-86.099572
 20
-79.457932
 11
-86.099572
 21
-79.524597
  0
LINE
  8
ボルト／ビス
  6
CONTINUOUS
 10
-86.099572
 20
-79.457932
 11
-85.699572
 21
-79.457932
  0
LINE
  8
ボルト／ビス
  6
CONTINUOUS
 10
-85.699572
 20
-79.457932
 11
-85.699572
 21
-79.524597
  0
ENDBLK
  0
BLOCK
  2
*GRP_0038
 70
    65
 10
0.0
 20
0.0
  0
LINE
  8
ボルト／ビス
  6
DOT
 10
-85.899572
 20
-60.95793
 11
-85.899572
 21
-60.491265
  0
LINE
  8
ボルト／ビス
  6
DOT
 10
-86.266237
 20
-60.95793
 11
-86.266237
 21
-60.891265
  0
LINE
  8
ボルト／ビス
  6
DOT
 10
-86.266237
 20
-60.891265
 11
-85.532905
 21
-60.891265
  0
LINE
  8
ボルト／ビス
  6
DOT
 10
-85.532905
 20
-60.891265
 11
-85.532905
 21
-60.95793
  0
LINE
  8
ボルト／ビス
  6
DOT
 10
-86.266237
 20
-60.95793
 11
-85.532905
 21
-60.95793
  0
LINE
  8
ボルト／ビス
  6
DOT
 10
-86.199572
 20
-60.85793
 11
-86.199572
 21
-60.891265
  0
LINE
  8
ボルト／ビス
  6
DOT
 10
-86.199572
 20
-60.85793
 11
-85.599572
 21
-60.85793
  0
LINE
  8
ボルト／ビス
  6
DOT
 10
-85.599572
 20
-60.85793
 11
-85.599572
 21
-60.891265
  0
LINE
  8
ボルト／ビス
  6
DOT
 62
    64
 10
-86.059947
 20
-60.65793
 11
-86.092022
 21
-60.669605
  0
ARC
  8
ボルト／ビス
  6
DOT
 62
    64
 10
-86.043908
 20
-60.762911
 40
0.104978
 50
62.721967
 51
90.0
  0
ARC
  8
ボルト／ビス
  6
DOT
 62
    64
 10
-85.899571
 20
-61.060335
 40
0.402402
 50
76.165002
 51
103.834985
  0
LINE
  8
ボルト／ビス
  6
DOT
 62
    64
 10
-85.739197
 20
-60.65793
 11
-85.707122
 21
-60.669605
  0
ARC
  8
ボルト／ビス
  6
DOT
 62
    64
 10
-85.755233
 20
-60.762911
 40
0.104978
 50
90.0
 51
117.278033
  0
LINE
  8
ボルト／ビス
  6
DOT
 62
    64
 10
-86.059947
 20
-60.65793
 11
-85.739197
 21
-60.65793
  0
LINE
  8
ボルト／ビス
  6
DOT
 62
    64
 10
-85.707122
 20
-60.669605
 11
-85.707122
 21
-60.791265
  0
LINE
  8
ボルト／ビス
  6
DOT
 62
    64
 10
-85.803348
 20
-60.669605
 11
-85.803348
 21
-60.791265
  0
LINE
  8
ボルト／ビス
  6
DOT
 62
    64
 10
-86.092022
 20
-60.669605
 11
-86.092022
 21
-60.791265
  0
LINE
  8
ボルト／ビス
  6
DOT
 62
    64
 10
-85.995798
 20
-60.669605
 11
-85.995798
 21
-60.791265
  0
LINE
  8
ボルト／ビス
  6
DOT
 10
-86.092022
 20
-60.791265
 11
-85.707122
 21
-60.791265
  0
LINE
  8
ボルト／ビス
  6
DOT
 10
-86.099572
 20
-60.791265
 11
-86.099572
 21
-60.85793
  0
LINE
  8
ボルト／ビス
  6
DOT
 10
-86.099572
 20
-60.791265
 11
-85.699572
 21
-60.791265
  0
LINE
  8
ボルト／ビス
  6
DOT
 10
-85.699572
 20
-60.791265
 11
-85.699572
 21
-60.85793
  0
ENDBLK
  0
BLOCK
  2
*DIM_0039
 70
    65
 10
0.0
 20
0.0
  0
LINE
  8
寸法
  6
BYBLOCK
 62
     0
 10
-17.566237
 20
-44.291262
 11
30.736745
 21
-44.291262
  0
LINE
  8
寸法
  6
BYBLOCK
 62
     0
 10
30.736745
 20
-62.95793
 11
30.736745
 21
-44.291262
  0
POINT
  8
寸法
 62
     0
 10
30.736745
 20
-62.95793
  0
POINT
  8
寸法
 62
     0
 10
30.736745
 20
-44.291262
  0
TEXT
  7
TextStyle03
  8
寸法
  6
CONTINUOUS
 62
     0
 10
30.35
 20
-62.8125
  1
上昇高さ560
 40
3.0
 50
90.0
 72
     5
 11
30.35
 21
-44.4375
  0
ENDBLK
  0
BLOCK
  2
*DIM_0040
 70
    65
 10
0.0
 20
0.0
  0
LINE
  8
寸法
  6
BYBLOCK
 62
     0
 10
87.94052
 20
36.423293
 11
87.94052
 21
86.588402
  0
LINE
  8
寸法
  6
BYBLOCK
 62
     0
 10
69.273855
 20
36.423293
 11
69.273855
 21
86.588402
  0
LINE
  8
寸法
  6
BYBLOCK
 62
     0
 10
87.94052
 20
86.588402
 11
69.273855
 21
86.588402
  0
POINT
  8
寸法
 62
     0
 10
87.94052
 20
86.588402
  0
POINT
  8
寸法
 62
     0
 10
69.273855
 20
86.588402
  0
TEXT
  7
TextStyle03
  8
寸法
  6
CONTINUOUS
 62
     0
 10
69.4125
 20
86.95
  1
上昇高さ560
 40
3.0
 72
     5
 11
87.7875
 21
86.95
  0
ENDBLK
  0
ENDSEC
  0
SECTION
  2
ENTITIES
  0
POLYLINE
  8
通り芯
  6
CONTINUOUS
 66
     1
 70
     1
  0
VERTEX
  8
通り芯
 10
-210.0
 20
-148.5
  0
VERTEX
  8
通り芯
 10
210.0
 20
-148.5
  0
VERTEX
  8
通り芯
 10
210.0
 20
148.5
  0
VERTEX
  8
通り芯
 10
-210.0
 20
148.5
  0
SEQEND
  0
INSERT
  2
*GRP_0001
  8
型材断面
  6
CONTINUOUS
 10
0.0
 20
0.0
  0
LINE
  8
型材断面
  6
DASHDOT
 10
14.767095
 20
64.756625
 11
14.767095
 21
-87.251428
  0
LINE
  8
型材断面
  6
DASHDOT
 10
-35.232905
 20
64.756625
 11
-35.232905
 21
-87.251428
  0
LINE
  8
型材断面
  6
DASHDOT
 10
-85.232905
 20
64.756625
 11
-85.232905
 21
-87.251428
  0
LINE
  8
型材断面
  6
DASHDOT
 10
112.443858
 20
-1.910042
 11
-85.232905
 21
-1.910042
  0
LINE
  8
型材断面
  6
DASHDOT
 10
112.443858
 20
31.423293
 11
-85.232905
 21
31.423293
  0
LINE
  8
型材断面
  6
DASHDOT
 10
112.443858
 20
64.756625
 11
-85.232905
 21
64.756625
  0
LINE
  8
型材断面
  6
DOT
 10
-53.216237
 20
32.673293
 11
-85.232905
 21
32.673293
  0
LINE
  8
型材断面
  6
DOT
 10
-53.216237
 20
30.173293
 11
-85.232905
 21
30.173293
  0
LINE
  8
型材断面
  6
DOT
 10
14.767095
 20
32.673293
 11
-17.249572
 21
32.673293
  0
LINE
  8
型材断面
  6
DOT
 10
-19.749572
 20
32.673293
 11
-50.716237
 21
32.673293
  0
LINE
  8
型材断面
  6
DOT
 10
14.767095
 20
30.173293
 11
-17.249572
 21
30.173293
  0
LINE
  8
型材断面
  6
DOT
 10
-19.749572
 20
30.173293
 11
-50.716237
 21
30.173293
  0
POLYLINE
  8
型材断面
  6
CONTINUOUS
 66
     1
 70
     1
  0
VERTEX
  8
型材断面
 10
-25.594027
 20
-11.012788
  0
VERTEX
  8
型材断面
 10
-44.365957
 20
-11.012788
  0
VERTEX
  8
型材断面
 10
-44.365957
 20
-15.74963
  0
VERTEX
  8
型材断面
 10
-25.594027
 20
-15.74963
  0
SEQEND
  0
POLYLINE
  8
型材断面
  6
CONTINUOUS
 66
     1
 70
     1
  0
VERTEX
  8
型材断面
 10
-25.594027
 20
75.205727
  0
VERTEX
  8
型材断面
 10
-44.365957
 20
75.205727
  0
VERTEX
  8
型材断面
 10
-44.365957
 20
79.94257
  0
VERTEX
  8
型材断面
 10
-25.594027
 20
79.94257
  0
SEQEND
  0
LINE
  8
型材断面
  6
CONTINUOUS
 10
-126.085113
 20
102.734097
 11
-125.489058
 21
100.14359
  0
LINE
  8
型材断面
  6
CONTINUOUS
 10
-126.085113
 20
102.734097
 11
-126.68117
 21
100.14359
  0
LINE
  8
型材断面
  6
CONTINUOUS
 10
-126.68117
 20
100.14359
 11
-125.489058
 21
100.14359
  0
LINE
  8
型材断面
  6
CONTINUOUS
 10
-132.1077
 20
96.864697
 11
-85.865923
 21
96.864697
  0
LINE
  8
型材断面
  6
CONTINUOUS
 10
-126.085113
 20
109.263973
 11
-127.580743
 21
106.673465
  0
LINE
  8
型材断面
  6
CONTINUOUS
 10
-126.085113
 20
109.263973
 11
-124.589483
 21
106.673465
  0
LINE
  8
型材断面
  6
CONTINUOUS
 10
-124.589483
 20
106.673465
 11
-127.580743
 21
106.673465
  0
LINE
  8
型材断面
  6
CONTINUOUS
 10
-132.1077
 20
105.73487
 11
-85.865923
 21
105.73487
  0
LINE
  8
型材断面
  6
CONTINUOUS
 10
-132.1077
 20
91.076665
 11
-85.865923
 21
91.076665
  0
INSERT
  2
*GRP_0008
  8
型材断面
  6
CONTINUOUS
 10
0.0
 20
0.0
  0
INSERT
  2
*GRP_0009
  8
型材断面
  6
CONTINUOUS
 10
0.0
 20
0.0
  0
INSERT
  2
*GRP_0010
  8
型材断面
  6
CONTINUOUS
 10
0.0
 20
0.0
  0
INSERT
  2
*GRP_0011
  8
型材断面
  6
CONTINUOUS
 10
0.0
 20
0.0
  0
LINE
  8
型材断面
  6
CONTINUOUS
 10
-132.1077
 20
85.288632
 11
-85.865923
 21
85.288632
  0
LINE
  8
型材断面
  6
CONTINUOUS
 10
-35.232905
 20
-80.674718
 11
-86.593052
 21
-80.674718
  0
LINE
  8
型材断面
  6
CONTINUOUS
 10
-35.232905
 20
-81.824718
 11
-87.996238
 21
-81.824718
  0
LINE
  8
型材断面
  6
CONTINUOUS
 10
-35.232905
 20
-82.991385
 11
-87.996238
 21
-82.991385
  0
LINE
  8
型材断面
  6
CONTINUOUS
 10
-35.232905
 20
-80.674718
 11
16.127242
 21
-80.674718
  0
LINE
  8
型材断面
  6
CONTINUOUS
 10
-35.232905
 20
-81.824718
 11
17.530428
 21
-81.824718
  0
LINE
  8
型材断面
  6
CONTINUOUS
 10
-35.232905
 20
-82.991385
 11
17.530428
 21
-82.991385
  0
LINE
  8
型材断面
  6
CONTINUOUS
 10
17.530428
 20
67.51996
 11
17.530428
 21
-4.673375
  0
LINE
  8
型材断面
  6
CONTINUOUS
 10
17.530428
 20
-4.673375
 11
-87.996238
 21
-4.673375
  0
LINE
  8
型材断面
  6
CONTINUOUS
 10
-87.996238
 20
-4.673375
 11
-87.996238
 21
67.51996
  0
LINE
  8
型材断面
  6
CONTINUOUS
 10
17.530428
 20
67.51996
 11
-87.996238
 21
67.51996
  0
LINE
  8
型材断面
  6
CONTINUOUS
 10
-87.299572
 20
-3.97671
 11
-87.99624
 21
-4.673375
  0
LINE
  8
型材断面
  6
CONTINUOUS
 10
-87.299572
 20
66.823295
 11
-87.99624
 21
67.51996
  0
LINE
  8
型材断面
  6
CONTINUOUS
 10
16.833763
 20
66.823295
 11
17.530428
 21
67.519958
  0
LINE
  8
型材断面
  6
CONTINUOUS
 10
16.833763
 20
-3.97671
 11
17.53043
 21
-4.673375
  0
LINE
  8
型材断面
  6
CONTINUOUS
 10
-87.996238
 20
31.423293
 11
-90.586745
 21
32.918923
  0
LINE
  8
型材断面
  6
CONTINUOUS
 10
-87.996238
 20
31.423293
 11
-90.586745
 21
29.927663
  0
LINE
  8
型材断面
  6
CONTINUOUS
 10
-90.586745
 20
29.927663
 11
-90.586745
 21
32.918923
  0
LINE
  8
型材断面
  6
CONTINUOUS
 10
-87.996238
 20
61.056627
 11
-90.586748
 21
60.460575
  0
LINE
  8
型材断面
  6
CONTINUOUS
 10
-87.996238
 20
61.056627
 11
-90.586745
 21
61.652687
  0
LINE
  8
型材断面
  6
CONTINUOUS
 10
-90.586745
 20
61.652687
 11
-90.586748
 21
60.460575
  0
LINE
  8
型材断面
  6
CONTINUOUS
 10
-87.996238
 20
1.789957
 11
-90.586748
 21
2.38601
  0
LINE
  8
型材断面
  6
CONTINUOUS
 10
-87.996238
 20
1.789957
 11
-90.586745
 21
1.193897
  0
LINE
  8
型材断面
  6
CONTINUOUS
 10
-90.586745
 20
1.193897
 11
-90.586748
 21
2.38601
  0
LINE
  8
型材断面
  6
CONTINUOUS
 10
-68.566237
 20
67.51996
 11
-70.061867
 21
70.110468
  0
LINE
  8
型材断面
  6
CONTINUOUS
 10
-68.566237
 20
67.51996
 11
-67.070608
 21
70.110468
  0
LINE
  8
型材断面
  6
CONTINUOUS
 10
-67.070608
 20
70.110468
 11
-70.061867
 21
70.110468
  0
LINE
  8
型材断面
  6
CONTINUOUS
 10
-1.899572
 20
67.51996
 11
-0.403942
 21
70.110468
  0
LINE
  8
型材断面
  6
CONTINUOUS
 10
-1.899572
 20
67.51996
 11
-3.395202
 21
70.110468
  0
LINE
  8
型材断面
  6
CONTINUOUS
 10
-3.395202
 20
70.110468
 11
-0.403942
 21
70.110468
  0
LINE
  8
型材断面
  6
CONTINUOUS
 10
17.530428
 20
31.423293
 11
20.120935
 21
32.918923
  0
LINE
  8
型材断面
  6
CONTINUOUS
 10
17.530428
 20
31.423293
 11
20.120935
 21
29.927663
  0
LINE
  8
型材断面
  6
CONTINUOUS
 10
20.120935
 20
29.927663
 11
20.120935
 21
32.918923
  0
LINE
  8
型材断面
  6
CONTINUOUS
 10
17.530428
 20
61.056627
 11
20.120938
 21
60.460575
  0
LINE
  8
型材断面
  6
CONTINUOUS
 10
17.530428
 20
61.056627
 11
20.120935
 21
61.652687
  0
LINE
  8
型材断面
  6
CONTINUOUS
 10
20.120935
 20
61.652687
 11
20.120938
 21
60.460575
  0
LINE
  8
型材断面
  6
CONTINUOUS
 10
17.530428
 20
1.789957
 11
20.120938
 21
2.38601
  0
LINE
  8
型材断面
  6
CONTINUOUS
 10
17.530428
 20
1.789957
 11
20.120935
 21
1.193897
  0
LINE
  8
型材断面
  6
CONTINUOUS
 10
20.120935
 20
1.193897
 11
20.120938
 21
2.38601
  0
LINE
  8
型材断面
  6
CONTINUOUS
 10
-68.566237
 20
-4.673375
 11
-70.061867
 21
-7.263882
  0
LINE
  8
型材断面
  6
CONTINUOUS
 10
-68.566237
 20
-4.673375
 11
-67.070608
 21
-7.263882
  0
LINE
  8
型材断面
  6
CONTINUOUS
 10
-67.070608
 20
-7.263882
 11
-70.061867
 21
-7.263882
  0
LINE
  8
型材断面
  6
CONTINUOUS
 10
-1.899572
 20
-4.673375
 11
-0.403942
 21
-7.263882
  0
LINE
  8
型材断面
  6
CONTINUOUS
 10
-1.899572
 20
-4.673375
 11
-3.395202
 21
-7.263882
  0
LINE
  8
型材断面
  6
CONTINUOUS
 10
-3.395202
 20
-7.263882
 11
-0.403942
 21
-7.263882
  0
LINE
  8
型材断面
  6
DASHDOT
 10
-52.07624
 20
-1.910042
 11
-52.07624
 21
64.756625
  0
LINE
  8
型材断面
  6
DOT
 10
-50.82624
 20
-1.910042
 11
-50.82624
 21
64.756625
  0
LINE
  8
型材断面
  6
DOT
 10
-53.32624
 20
-1.910042
 11
-53.32624
 21
64.756625
  0
LINE
  8
型材断面
  6
DASHDOT
 10
-18.38957
 20
-1.910042
 11
-18.38957
 21
64.756625
  0
LINE
  8
型材断面
  6
DOT
 10
-19.63957
 20
-1.910042
 11
-19.63957
 21
64.756625
  0
LINE
  8
型材断面
  6
DOT
 10
-17.13957
 20
-1.910042
 11
-17.13957
 21
64.756625
  0
LINE
  8
型材断面
  6
CONTINUOUS
 10
105.657308
 20
31.423293
 11
105.657308
 21
-3.270187
  0
LINE
  8
型材断面
  6
CONTINUOUS
 10
106.807308
 20
31.423293
 11
106.807308
 21
-4.673373
  0
LINE
  8
型材断面
  6
CONTINUOUS
 10
107.973975
 20
31.423293
 11
107.973975
 21
-4.673373
  0
LINE
  8
型材断面
  6
CONTINUOUS
 10
105.657308
 20
31.423298
 11
105.657308
 21
66.116777
  0
LINE
  8
型材断面
  6
CONTINUOUS
 10
106.807308
 20
31.423298
 11
106.807308
 21
67.519962
  0
LINE
  8
型材断面
  6
CONTINUOUS
 10
107.973975
 20
31.423298
 11
107.973975
 21
67.519962
  0
LINE
  8
型材断面
  6
CONTINUOUS
 10
112.107193
 20
67.019962
 11
112.443858
 21
67.019962
  0
LINE
  8
型材断面
  6
CONTINUOUS
 10
112.107193
 20
67.519962
 11
112.107193
 21
67.019962
  0
LINE
  8
型材断面
  6
CONTINUOUS
 10
108.20731
 20
67.519962
 11
108.010687
 21
67.323337
  0
LINE
  8
型材断面
  6
CONTINUOUS
 10
108.20731
 20
67.519962
 11
112.107193
 21
67.519962
  0
LINE
  8
型材断面
  6
CONTINUOUS
 62
    47
 10
108.010687
 20
67.323337
 11
108.010687
 21
31.423293
  0
LINE
  8
型材断面
  6
CONTINUOUS
 10
108.20731
 20
67.519962
 11
108.20731
 21
31.423293
  0
LINE
  8
型材断面
  6
CONTINUOUS
 10
112.443858
 20
67.019962
 11
112.443858
 21
31.423293
  0
LINE
  8
型材断面
  6
CONTINUOUS
 10
112.107193
 20
67.519962
 11
112.107193
 21
31.423293
  0
LINE
  8
型材断面
  6
CONTINUOUS
 10
112.107193
 20
-4.173377
 11
112.443858
 21
-4.173377
  0
LINE
  8
型材断面
  6
CONTINUOUS
 10
112.107193
 20
-4.673377
 11
112.107193
 21
-4.173377
  0
LINE
  8
型材断面
  6
CONTINUOUS
 10
108.20731
 20
-4.673377
 11
108.010687
 21
-4.476753
  0
LINE
  8
型材断面
  6
CONTINUOUS
 10
108.20731
 20
-4.673377
 11
112.107193
 21
-4.673377
  0
LINE
  8
型材断面
  6
CONTINUOUS
 62
    47
 10
108.010687
 20
-4.476753
 11
108.010687
 21
31.423293
  0
LINE
  8
型材断面
  6
CONTINUOUS
 10
108.20731
 20
-4.673377
 11
108.20731
 21
31.423293
  0
LINE
  8
型材断面
  6
CONTINUOUS
 10
112.443858
 20
-4.173377
 11
112.443858
 21
31.423293
  0
LINE
  8
型材断面
  6
CONTINUOUS
 10
112.107193
 20
-4.673377
 11
112.107193
 21
31.423293
  0
LINE
  8
型材断面
  6
CONTINUOUS
 10
17.030428
 20
-87.124603
 11
17.030428
 21
-87.461268
  0
LINE
  8
型材断面
  6
CONTINUOUS
 10
17.530428
 20
-87.124603
 11
17.030428
 21
-87.124603
  0
LINE
  8
型材断面
  6
CONTINUOUS
 10
17.530428
 20
-83.22472
 11
17.333802
 21
-83.028097
  0
LINE
  8
型材断面
  6
CONTINUOUS
 10
17.530428
 20
-83.22472
 11
17.530428
 21
-87.124603
  0
LINE
  8
型材断面
  6
CONTINUOUS
 10
17.530428
 20
-87.124603
 11
-35.232905
 21
-87.124603
  0
LINE
  8
型材断面
  6
CONTINUOUS
 10
17.030428
 20
-87.461268
 11
-35.232905
 21
-87.461268
  0
LINE
  8
型材断面
  6
CONTINUOUS
 62
    47
 10
17.333802
 20
-83.028097
 11
-35.232905
 21
-83.028097
  0
LINE
  8
型材断面
  6
CONTINUOUS
 10
17.530428
 20
-83.22472
 11
-35.232905
 21
-83.22472
  0
LINE
  8
型材断面
  6
CONTINUOUS
 10
-87.496238
 20
-87.124603
 11
-87.496238
 21
-87.461268
  0
LINE
  8
型材断面
  6
CONTINUOUS
 10
-87.996238
 20
-87.124603
 11
-87.496238
 21
-87.124603
  0
LINE
  8
型材断面
  6
CONTINUOUS
 10
-87.996238
 20
-83.22472
 11
-87.799612
 21
-83.028097
  0
LINE
  8
型材断面
  6
CONTINUOUS
 10
-87.996238
 20
-83.22472
 11
-87.996238
 21
-87.124603
  0
LINE
  8
型材断面
  6
CONTINUOUS
 10
-87.996238
 20
-87.124603
 11
-35.232905
 21
-87.124603
  0
LINE
  8
型材断面
  6
CONTINUOUS
 10
-87.496238
 20
-87.461268
 11
-35.232905
 21
-87.461268
  0
LINE
  8
型材断面
  6
CONTINUOUS
 62
    47
 10
-87.799612
 20
-83.028097
 11
-35.232905
 21
-83.028097
  0
LINE
  8
型材断面
  6
CONTINUOUS
 10
-87.996238
 20
-83.22472
 11
-35.232905
 21
-83.22472
  0
TEXT
  7
TextStyle03
  8
文字
  6
CONTINUOUS
 10
-43.35
 20
-14.7
  1
可動装置側
 40
3.0
 72
     5
 11
-26.85
 21
-14.7
  0
TEXT
  7
TextStyle03
  8
文字
  6
CONTINUOUS
 10
-43.35
 20
75.975
  1
可動装置側
 40
3.0
 72
     5
 11
-26.85
 21
75.975
  0
TEXT
  7
TextStyle03
  8
文字
  6
CONTINUOUS
 10
-123.3
 20
101.325
  1
はケーシング位置を示す
 40
3.0
 72
     5
 11
-86.55
 21
101.325
  0
TEXT
  7
TextStyle03
  8
文字
  6
CONTINUOUS
 10
-123.3
 20
97.95
  1
４ヶ所中1ヶ所に設定
 40
3.0
 72
     5
 11
-91.6125
 21
97.95
  0
TEXT
  7
TextStyle03
  8
文字
  6
CONTINUOUS
 10
-123.3
 20
106.85
  1
は排水穴位置を示す
 40
3.0
 72
     5
 11
-93.3
 21
106.85
  0
TEXT
  7
TextStyle03
  8
文字
  6
CONTINUOUS
 10
-127.025
 20
91.975
  1
アンカー数量　１４ヶ所
 40
3.0
 72
     5
 11
-90.275
 21
91.975
  0
TEXT
  7
TextStyle03
  8
文字
  6
CONTINUOUS
 10
-123.975
 20
2.025
  1
アンカーピッチ
 40
3.0
 50
90.0
 72
     5
 11
-123.975
 21
25.275
  0
TEXT
  7
TextStyle03
  8
文字
  6
CONTINUOUS
 10
-75.25
 20
102.125
  1
アンカーピッチ
 40
3.0
 72
     5
 11
-52.0
 21
102.125
  0
TEXT
  7
TextStyle03
  8
文字
  6
CONTINUOUS
 10
-127.075
 20
86.2
  1
アームユニット数　４ヶ所
 40
3.0
 72
     5
 11
-86.95
 21
86.2
  0
LINE
  8
文字
  6
CONTINUOUS
 10
17.530428
 20
-29.63158
 11
17.530428
 21
-80.590875
  0
LINE
  8
文字
  6
CONTINUOUS
 10
-87.996238
 20
-29.63158
 11
-87.996238
 21
-80.602172
  0
TEXT
  7
TextStyle03
  8
文字
  6
CONTINUOUS
 10
91.125
 20
-80.975
  1
網入り6.8t
 40
3.0
 72
     5
 11
107.8125
 21
-80.975
  0
TEXT
  7
TextStyle03
  8
文字
  6
CONTINUOUS
 10
97.425
 20
-85.6
  1
×６枚
 40
3.0
 72
     5
 11
107.175
 21
-85.6
  0
TEXT
  7
TextStyle03
  8
文字
  6
CONTINUOUS
 10
78.1
 20
125.25
  1
シリーズ：ＴＤ１Ｌ
 40
5.0
 72
     5
 11
128.1
 21
125.25
  0
TEXT
  7
TextStyle03
  8
文字
  6
CONTINUOUS
 10
78.1
 20
119.625
  1
　　　　　（上下可動）2000×3000タイプ
 40
5.0
 72
     5
 11
184.35
 21
119.625
  0
TEXT
  7
TextStyle03
  8
文字
  6
CONTINUOUS
 10
78.1
 20
114.0
  1
図面名　：外観姿図
 40
5.0
 72
     5
 11
128.1
 21
114.0
  0
TEXT
  7
TextStyle03
  8
文字
  6
CONTINUOUS
 10
78.1
 20
108.375
  1
　　　　　　
 40
5.0
 72
     5
 11
111.225
 21
108.375
  0
TEXT
  7
TextStyle03
  8
文字
  6
CONTINUOUS
 10
78.35
 20
104.725
  1
ＮＳコード：ＮＳＤＬ
 40
5.0
 72
     5
 11
133.975
 21
104.725
  0
LINE
  8
文字
  6
CONTINUOUS
 10
51.70639
 20
67.519962
 11
105.567633
 21
67.519962
  0
LINE
  8
文字
  6
CONTINUOUS
 10
51.70639
 20
-4.673373
 11
105.61016
 21
-4.673373
  0
INSERT
  2
*DIM_0002
  8
寸法
  6
CONTINUOUS
 10
0.0
 20
0.0
  0
INSERT
  2
*DIM_0003
  8
寸法
  6
CONTINUOUS
 10
0.0
 20
0.0
  0
INSERT
  2
*DIM_0004
  8
寸法
  6
CONTINUOUS
 10
0.0
 20
0.0
  0
INSERT
  2
*DIM_0005
  8
寸法
  6
CONTINUOUS
 10
0.0
 20
0.0
  0
INSERT
  2
*DIM_0006
  8
寸法
  6
CONTINUOUS
 10
0.0
 20
0.0
  0
INSERT
  2
*DIM_0012
  8
寸法
  6
CONTINUOUS
 10
0.0
 20
0.0
  0
INSERT
  2
*DIM_0013
  8
寸法
  6
CONTINUOUS
 10
0.0
 20
0.0
  0
INSERT
  2
*DIM_0014
  8
寸法
  6
CONTINUOUS
 10
0.0
 20
0.0
  0
INSERT
  2
*DIM_0015
  8
寸法
  6
CONTINUOUS
 10
0.0
 20
0.0
  0
INSERT
  2
*DIM_0016
  8
寸法
  6
CONTINUOUS
 10
0.0
 20
0.0
  0
INSERT
  2
*DIM_0017
  8
寸法
  6
CONTINUOUS
 10
0.0
 20
0.0
  0
INSERT
  2
*DIM_0018
  8
寸法
  6
CONTINUOUS
 10
0.0
 20
0.0
  0
INSERT
  2
*DIM_0020
  8
寸法
  6
CONTINUOUS
 10
0.0
 20
0.0
  0
INSERT
  2
*DIM_0021
  8
寸法
  6
CONTINUOUS
 10
0.0
 20
0.0
  0
INSERT
  2
*DIM_0022
  8
寸法
  6
CONTINUOUS
 10
0.0
 20
0.0
  0
INSERT
  2
*DIM_0023
  8
寸法
  6
CONTINUOUS
 10
0.0
 20
0.0
  0
INSERT
  2
*DIM_0024
  8
寸法
  6
CONTINUOUS
 10
0.0
 20
0.0
  0
INSERT
  2
*DIM_0025
  8
寸法
  6
CONTINUOUS
 10
0.0
 20
0.0
  0
INSERT
  2
*DIM_0026
  8
寸法
  6
CONTINUOUS
 10
0.0
 20
0.0
  0
INSERT
  2
*DIM_0033
  8
寸法
  6
CONTINUOUS
 10
0.0
 20
0.0
  0
INSERT
  2
*DIM_0039
  8
寸法
  6
CONTINUOUS
 10
0.0
 20
0.0
  0
INSERT
  2
*DIM_0040
  8
寸法
  6
CONTINUOUS
 10
0.0
 20
0.0
  0
LINE
  8
別途部材
  6
CONTINUOUS
 10
16.833763
 20
-3.97671
 11
16.433763
 21
-3.57671
  0
LINE
  8
別途部材
  6
CONTINUOUS
 10
14.767095
 20
-1.910042
 11
6.70784
 21
6.149215
  0
LINE
  8
別途部材
  6
CONTINUOUS
 10
16.833763
 20
-3.97671
 11
16.833763
 21
31.423293
  0
LINE
  8
別途部材
  6
CONTINUOUS
 10
16.433763
 20
-3.57671
 11
16.433763
 21
31.423293
  0
LINE
  8
別途部材
  6
CONTINUOUS
 10
16.833763
 20
66.823295
 11
16.433763
 21
66.423295
  0
LINE
  8
別途部材
  6
CONTINUOUS
 10
14.767095
 20
64.756627
 11
6.70784
 21
56.69737
  0
LINE
  8
別途部材
  6
CONTINUOUS
 10
16.833763
 20
66.823295
 11
16.833763
 21
31.423293
  0
LINE
  8
別途部材
  6
CONTINUOUS
 10
16.433763
 20
66.423295
 11
16.433763
 21
31.423293
  0
LINE
  8
別途部材
  6
CONTINUOUS
 10
16.433763
 20
66.423295
 11
-35.232905
 21
66.423295
  0
LINE
  8
別途部材
  6
CONTINUOUS
 10
16.833763
 20
66.823295
 11
-35.232905
 21
66.823295
  0
LINE
  8
別途部材
  6
CONTINUOUS
 10
16.833763
 20
-3.97671
 11
-35.232905
 21
-3.97671
  0
LINE
  8
別途部材
  6
CONTINUOUS
 10
16.433763
 20
-3.57671
 11
-35.232905
 21
-3.57671
  0
LINE
  8
別途部材
  6
CONTINUOUS
 10
-87.299572
 20
-3.97671
 11
-86.899572
 21
-3.57671
  0
LINE
  8
別途部材
  6
CONTINUOUS
 10
-85.232905
 20
-1.910042
 11
-77.17365
 21
6.149215
  0
LINE
  8
別途部材
  6
CONTINUOUS
 10
-87.299572
 20
-3.97671
 11
-87.299572
 21
31.423293
  0
LINE
  8
別途部材
  6
CONTINUOUS
 10
-86.899572
 20
-3.57671
 11
-86.899572
 21
31.423293
  0
LINE
  8
別途部材
  6
CONTINUOUS
 10
-87.299572
 20
66.823295
 11
-86.899572
 21
66.423295
  0
LINE
  8
別途部材
  6
CONTINUOUS
 10
-85.232905
 20
64.756627
 11
-77.17365
 21
56.69737
  0
LINE
  8
別途部材
  6
CONTINUOUS
 10
-87.299572
 20
66.823295
 11
-87.299572
 21
31.423293
  0
LINE
  8
別途部材
  6
CONTINUOUS
 10
-86.899572
 20
66.423295
 11
-86.899572
 21
31.423293
  0
LINE
  8
別途部材
  6
CONTINUOUS
 10
-86.899572
 20
66.423295
 11
-35.232905
 21
66.423295
  0
LINE
  8
別途部材
  6
CONTINUOUS
 10
-87.299572
 20
66.823295
 11
-35.232905
 21
66.823295
  0
LINE
  8
別途部材
  6
CONTINUOUS
 10
-87.299572
 20
-3.97671
 11
-35.232905
 21
-3.97671
  0
LINE
  8
別途部材
  6
CONTINUOUS
 10
-86.899572
 20
-3.57671
 11
-35.232905
 21
-3.57671
  0
INSERT
  2
*GRP_0007
  8
別途部材
  6
CONTINUOUS
 10
0.0
 20
0.0
  0
LINE
  8
別途部材
  6
CONTINUOUS
 62
    96
 10
104.60719
 20
-3.576707
 11
105.60719
 21
-3.976707
  0
ARC
  8
別途部材
  6
CONTINUOUS
 10
129.607185
 20
31.423292
 40
41.666665
 50
180.0
 51
233.130105
  0
ARC
  8
別途部材
  6
CONTINUOUS
 10
129.607185
 20
31.423293
 40
41.666665
 50
126.869895
 51
180.0
  0
LINE
  8
別途部材
  6
CONTINUOUS
 10
105.60719
 20
-3.976707
 11
105.60719
 21
31.423293
  0
LINE
  8
別途部材
  6
CONTINUOUS
 62
    96
 10
104.60719
 20
-3.576707
 11
104.60719
 21
31.423293
  0
LINE
  8
別途部材
  6
CONTINUOUS
 62
    96
 10
104.60719
 20
66.423293
 11
105.60719
 21
66.823293
  0
LINE
  8
別途部材
  6
CONTINUOUS
 10
105.60719
 20
66.823293
 11
105.60719
 21
31.423293
  0
LINE
  8
別途部材
  6
CONTINUOUS
 62
    96
 10
104.60719
 20
66.423293
 11
104.60719
 21
31.423293
  0
INSERT
  2
*GRP_0027
  8
別途部材
  6
DOT
 10
0.0
 20
0.0
  0
INSERT
  2
*GRP_0028
  8
別途部材
  6
DOT
 10
0.0
 20
0.0
  0
INSERT
  2
*GRP_0029
  8
別途部材
  6
DOT
 10
0.0
 20
0.0
  0
INSERT
  2
*GRP_0030
  8
別途部材
  6
DOT
 10
0.0
 20
0.0
  0
INSERT
  2
*GRP_0035
  8
別途部材
  6
DOT
 10
0.0
 20
0.0
  0
INSERT
  2
*GRP_0036
  8
別途部材
  6
DOT
 10
0.0
 20
0.0
  0
INSERT
  2
*GRP_0037
  8
別途部材
  6
DOT
 10
0.0
 20
0.0
  0
INSERT
  2
*GRP_0038
  8
別途部材
  6
DOT
 10
0.0
 20
0.0
  0
POLYLINE
  8
曲げ物
  6
CONTINUOUS
 66
     1
 70
     1
  0
VERTEX
  8
曲げ物
 10
110.14475
 20
-55.387675
  0
VERTEX
  8
曲げ物
 10
77.54475
 20
-55.387675
  0
VERTEX
  8
曲げ物
 10
77.54475
 20
-88.187675
  0
VERTEX
  8
曲げ物
 10
110.14475
 20
-88.187675
  0
SEQEND
  0
INSERT
  2
*GRP_0031
  8
曲げ物
  6
CONTINUOUS
 10
0.0
 20
0.0
  0
INSERT
  2
*GRP_0034
  8
曲げ物
  6
CONTINUOUS
 10
0.0
 20
0.0
  0
LINE
  8
鉄骨等
  6
CONTINUOUS
 62
    47
 10
-87.996238
 20
-82.991385
 11
-87.996238
 21
-81.824718
  0
LINE
  8
鉄骨等
  6
CONTINUOUS
 62
    47
 10
-87.996238
 20
-81.824718
 11
-86.593052
 21
-80.674718
  0
LINE
  8
鉄骨等
  6
CONTINUOUS
 62
    47
 10
-86.593052
 20
-80.674718
 11
-86.593052
 21
-80.624597
  0
LINE
  8
鉄骨等
  6
CONTINUOUS
 62
    47
 10
17.530428
 20
-82.991385
 11
17.530428
 21
-81.824718
  0
LINE
  8
鉄骨等
  6
CONTINUOUS
 62
    47
 10
17.530428
 20
-81.824718
 11
16.127242
 21
-80.674718
  0
LINE
  8
鉄骨等
  6
CONTINUOUS
 62
    47
 10
16.127242
 20
-80.674718
 11
16.127242
 21
-80.624597
  0
LINE
  8
鉄骨等
  6
CONTINUOUS
 62
    47
 10
107.973975
 20
-4.673373
 11
106.807308
 21
-4.673373
  0
LINE
  8
鉄骨等
  6
CONTINUOUS
 62
    47
 10
106.807308
 20
-4.673373
 11
105.657308
 21
-3.270187
  0
LINE
  8
鉄骨等
  6
CONTINUOUS
 62
    47
 10
105.657308
 20
-3.270187
 11
105.607187
 21
-3.270187
  0
LINE
  8
鉄骨等
  6
CONTINUOUS
 62
    47
 10
107.973975
 20
67.519962
 11
106.807308
 21
67.519962
  0
LINE
  8
鉄骨等
  6
CONTINUOUS
 62
    47
 10
106.807308
 20
67.519962
 11
105.657308
 21
66.116777
  0
LINE
  8
鉄骨等
  6
CONTINUOUS
 62
    47
 10
105.657308
 20
66.116777
 11
105.607187
 21
66.116777
  0
ENDSEC
  0
EOF
