  0
SECTION
  2
HEADER
  9
$EXTMIN
 10
-210.0
 20
-148.5
  9
$EXTMAX
 10
210.0
 20
148.5
  9
$PDMODE
 70
    32
  9
$PDSIZE
 40
1.5
  9
$LTSCALE
 40
10.0
  0
ENDSEC
  0
SECTION
  2
TABLES
  0
TABLE
  2
LTYPE
 70
    15
  0
LTYPE
  2
CONTINUOUS
 70
    64
  3
実線
 72
    65
 73
     0
 40
0.0
  0
LTYPE
  2
DASHED
 70
    64
  3
破線A
 72
    65
 73
     2
 40
0.6
 49
0.4
 49
-0.2
  0
LTYPE
  2
DASHEDX2
 70
    64
  3
破線B
 72
    65
 73
     2
 40
1.3
 49
0.9
 49
-0.4
  0
LTYPE
  2
DASHDOT
 70
    64
  3
１点鎖線A
 72
    65
 73
     4
 40
0.5375
 49
0.375
 49
-0.05
 49
0.0625
 49
-0.05
  0
LTYPE
  2
DASHDOTX2
 70
    64
  3
１点鎖線B
 72
    65
 73
     4
 40
1.075
 49
0.75
 49
-0.1
 49
0.125
 49
-0.1
  0
LTYPE
  2
DIVIDE2
 70
    64
  3
２点鎖線A
 72
    65
 73
     6
 40
0.5125
 49
0.3
 49
-0.0375
 49
0.05
 49
-0.0375
 49
0.05
 49
-0.0375
  0
LTYPE
  2
DIVIDE
 70
    64
  3
２点鎖線B
 72
    65
 73
     6
 40
1.05
 49
0.55
 49
-0.1
 49
0.1
 49
-0.1
 49
0.1
 49
-0.1
  0
LTYPE
  2
DOT
 70
    64
  3
点線A
 72
    65
 73
     2
 40
0.1125
 49
0.0625
 49
-0.05
  0
LTYPE
  2
DOTX2
 70
    64
  3
点線B
 72
    65
 73
     2
 40
0.275
 49
0.15
 49
-0.125
  0
LTYPE
  2
CONTINUOUS
 70
    64
  3
実線
 72
    65
 73
     0
 40
0.0
  0
LTYPE
  2
CONTINUOUS
 70
    64
  3
実線
 72
    65
 73
     0
 40
0.0
  0
LTYPE
  2
CONTINUOUS
 70
    64
  3
実線
 72
    65
 73
     0
 40
0.0
  0
LTYPE
  2
CONTINUOUS
 70
    64
  3
実線
 72
    65
 73
     0
 40
0.0
  0
LTYPE
  2
CONTINUOUS
 70
    64
  3
実線
 72
    65
 73
     0
 40
0.0
  0
LTYPE
  2
CONTINUOUS
 70
    64
  3
実線
 72
    65
 73
     0
 40
0.0
  0
ENDTAB
  0
TABLE
  2
LAYER
 70
    34
  0
LAYER
  2
通り芯
 70
     0
 62
    15
  6
CONTINUOUS
  0
LAYER
  2
補助線
 70
     0
 62
    16
  6
DOT
  0
LAYER
  2
躯体
 70
     0
 62
    31
  6
CONTINUOUS
  0
LAYER
  2
型材
 70
     0
 62
    32
  6
CONTINUOUS
  0
LAYER
  2
型材断面
 70
     0
 62
    47
  6
CONTINUOUS
  0
LAYER
  2
ガラス
 70
     0
 62
    48
  6
CONTINUOUS
  0
LAYER
  2
ゴム等
 70
     0
 62
    63
  6
CONTINUOUS
  0
LAYER
  2
ボルト／ビス
 70
     0
 62
    64
  6
CONTINUOUS
  0
LAYER
  2
文字
 70
     0
 62
    79
  6
CONTINUOUS
  0
LAYER
  2
寸法
 70
     0
 62
    80
  6
CONTINUOUS
  0
LAYER
  2
ﾊｯﾁﾝｸﾞ
 70
     0
 62
    95
  6
CONTINUOUS
  0
LAYER
  2
別途部材
 70
     0
 62
    96
  6
CONTINUOUS
  0
LAYER
  2
曲げ物
 70
     0
 62
   111
  6
CONTINUOUS
  0
LAYER
  2
鉄骨等
 70
     0
 62
   112
  6
CONTINUOUS
  0
LAYER
  2
St
 70
     0
 62
   127
  6
CONTINUOUS
  0
LAYER
  2
その他部品等
 70
     0
 62
   128
  6
CONTINUOUS
  0
LAYER
  2
ｶﾞｽｹｯﾄ
 70
     0
 62
   143
  6
CONTINUOUS
  0
LAYER
  2
ｽｹｯﾁ
 70
     0
 62
    14
  6
CONTINUOUS
  0
LAYER
  2
0
 70
     0
 62
    17
  6
CONTINUOUS
  0
LAYER
  2
1
 70
     0
 62
    30
  6
CONTINUOUS
  0
LAYER
  2
4
 70
     0
 62
    33
  6
CONTINUOUS
  0
LAYER
  2
ﾚｲﾔ3
 70
     0
 62
    46
  6
CONTINUOUS
  0
LAYER
  2
外形線
 70
     0
 62
    49
  6
CONTINUOUS
  0
LAYER
  2
部品
 70
     0
 62
    14
  6
CONTINUOUS
  0
LAYER
  2
サッシ芯
 70
     0
 62
    17
  6
DASHDOTX2
  0
LAYER
  2
寸法線
 70
     0
 62
    62
  6
CONTINUOUS
  0
LAYER
  2
姿図外形線
 70
     0
 62
    65
  6
CONTINUOUS
  0
LAYER
  2
姿補助線
 70
     0
 62
    30
  6
CONTINUOUS
  0
LAYER
  2
透視線
 70
     0
 62
    78
  6
DOT
  0
LAYER
  2
用紙
 70
     0
 62
    81
  6
CONTINUOUS
  0
LAYER
  2
実線図枠
 70
     0
 62
    94
  6
CONTINUOUS
  0
LAYER
  2
補助図枠
 70
     0
 62
    97
  6
CONTINUOUS
  0
LAYER
  2
建具記号
 70
     0
 62
   110
  6
CONTINUOUS
  0
LAYER
  2
補助文字
 70
     0
 62
   113
  6
CONTINUOUS
  0
ENDTAB
  0
TABLE
  2
STYLE
 70
    10
  0
STYLE
  2
STANDARD
 70
     0
 40
1.0
 41
1.0
 42
1.0
 50
0.0
 71
     0
  3
TXT
  4
BIGFONT
  0
STYLE
  2
TATE
 70
     4
 40
1.0
 41
1.0
 42
1.0
 50
0.0
 71
     0
  3
TXT
  4
BIGFONT
  0
STYLE
  2
TextStyle03
 70
     0
 40
1.0
 41
1.0
 42
1.0
 50
0.0
 71
     0
  3
MONOTXT
  4
BIGFONT
  0
STYLE
  2
TextStyle04
 70
     0
 40
1.0
 41
1.0
 42
1.0
 50
0.0
 71
     0
  3
MONOTXT
  4
BIGFONT
  0
STYLE
  2
TextStyle05
 70
     0
 40
1.0
 41
1.0
 42
1.0
 50
0.0
 71
     0
  3
MONOTXT
  4
BIGFONT
  0
STYLE
  2
TextStyle06
 70
     0
 40
1.0
 41
1.0
 42
1.0
 50
0.0
 71
     0
  3
MONOTXT
  4
BIGFONT
  0
STYLE
  2
TextStyle07
 70
     0
 40
1.0
 41
1.0
 42
1.0
 50
0.0
 71
     0
  3
MONOTXT
  4
BIGFONT
  0
STYLE
  2
TextStyle08
 70
     0
 40
1.0
 41
1.0
 42
1.0
 50
0.0
 71
     0
  3
MONOTXT
  4
BIGFONT
  0
STYLE
  2
TextStyle09
 70
     0
 40
1.0
 41
1.0
 42
1.0
 50
0.0
 71
     0
  3
MONOTXT
  4
BIGFONT
  0
STYLE
  2
TextStyle10
 70
     0
 40
1.0
 41
1.0
 42
1.0
 50
0.0
 71
     0
  3
MONOTXT
  4
BIGFONT
  0
ENDTAB
  0
ENDSEC
  0
SECTION
  2
BLOCKS
  0
BLOCK
  2
*GRP_0001
 70
    65
 10
0.0
 20
0.0
  0
LINE
  8
型材断面
  6
CONTINUOUS
 10
195.0
 20
133.5
 11
195.0
 21
-133.5
  0
LINE
  8
型材断面
  6
CONTINUOUS
 10
195.0
 20
-133.5
 11
-185.0
 21
-133.5
  0
LINE
  8
型材断面
  6
CONTINUOUS
 10
-185.0
 20
-133.5
 11
-185.0
 21
133.5
  0
LINE
  8
型材断面
  6
CONTINUOUS
 10
195.0
 20
133.5
 11
-185.0
 21
133.5
  0
LINE
  8
型材断面
  6
CONTINUOUS
 10
145.0
 20
-133.5
 11
145.0
 21
-118.5
  0
LINE
  8
型材断面
  6
CONTINUOUS
 10
195.0
 20
-118.5
 11
145.0
 21
-118.5
  0
ENDBLK
  0
BLOCK
  2
*DIM_0002
 70
    65
 10
0.0
 20
0.0
  0
LINE
  8
寸法
  6
BYBLOCK
 62
     0
 10
37.224393
 20
-64.87628
 11
62.194043
 21
-64.87628
  0
LINE
  8
寸法
  6
BYBLOCK
 62
     0
 10
62.194043
 20
-70.209613
 11
62.194043
 21
-64.87628
  0
POINT
  8
寸法
 62
     0
 10
62.194043
 20
-70.209613
  0
POINT
  8
寸法
 62
     0
 10
62.194043
 20
-64.87628
  0
TEXT
  7
TextStyle03
  8
寸法
  6
CONTINUOUS
 62
     0
 10
61.8
 20
-69.9875
  1
160
 40
3.0
 50
90.0
 72
     5
 11
61.8
 21
-65.1125
  0
ENDBLK
  0
BLOCK
  2
*DIM_0003
 70
    65
 10
0.0
 20
0.0
  0
LINE
  8
寸法
  6
BYBLOCK
 62
     0
 10
-70.442275
 20
-16.511205
 11
-70.442275
 21
-13.121378
  0
LINE
  8
寸法
  6
BYBLOCK
 62
     0
 10
46.224393
 20
-13.121378
 11
-70.442275
 21
-13.121378
  0
POINT
  8
寸法
 62
     0
 10
46.224393
 20
-13.121378
  0
POINT
  8
寸法
 62
     0
 10
-70.442275
 20
-13.121378
  0
TEXT
  7
TextStyle03
  8
寸法
  6
CONTINUOUS
 62
     0
 10
-23.84375
 20
-12.75
  1
呼称寸法　3500
 40
3.0
 72
     5
 11
-0.40625
 21
-12.75
  0
ENDBLK
  0
BLOCK
  2
*DIM_0004
 70
    65
 10
0.0
 20
0.0
  0
LINE
  8
寸法
  6
BYBLOCK
 62
     0
 10
-53.775608
 20
19.183902
 11
-53.775608
 21
14.042105
  0
LINE
  8
寸法
  6
BYBLOCK
 62
     0
 10
29.557727
 20
19.183902
 11
29.557727
 21
14.042105
  0
LINE
  8
寸法
  6
BYBLOCK
 62
     0
 10
-53.775608
 20
14.042105
 11
29.557727
 21
14.042105
  0
POINT
  8
寸法
 62
     0
 10
-53.775608
 20
14.042105
  0
POINT
  8
寸法
 62
     0
 10
29.557727
 20
14.042105
  0
TEXT
  7
TextStyle03
  8
寸法
  6
CONTINUOUS
 62
     0
 10
-15.40625
 20
14.4
  1
2500
 40
3.0
 72
     5
 11
-8.84375
 21
14.4
  0
ENDBLK
  0
BLOCK
  2
*DIM_0005
 70
    65
 10
0.0
 20
0.0
  0
LINE
  8
寸法
  6
BYBLOCK
 62
     0
 10
47.224393
 20
42.814035
 11
56.948675
 21
42.814035
  0
LINE
  8
寸法
  6
BYBLOCK
 62
     0
 10
49.854522
 20
39.114035
 11
56.948675
 21
39.114035
  0
LINE
  8
寸法
  6
BYBLOCK
 62
     0
 10
56.948675
 20
42.814035
 11
56.948675
 21
39.114035
  0
POINT
  8
寸法
 62
     0
 10
56.948675
 20
42.814035
  0
POINT
  8
寸法
 62
     0
 10
56.948675
 20
39.114035
  0
TEXT
  7
TextStyle03
  8
寸法
  6
CONTINUOUS
 62
     0
 10
56.625
 20
43.8125
  1
111
 40
3.0
 50
90.0
 72
     5
 11
56.625
 21
48.6875
  0
ENDBLK
  0
BLOCK
  2
*DIM_0006
 70
    65
 10
0.0
 20
0.0
  0
LINE
  8
寸法
  6
BYBLOCK
 62
     0
 10
47.224393
 20
22.81403
 11
56.948675
 21
22.814027
  0
LINE
  8
寸法
  6
BYBLOCK
 62
     0
 10
49.854522
 20
26.51403
 11
56.948675
 21
26.514027
  0
LINE
  8
寸法
  6
BYBLOCK
 62
     0
 10
56.948675
 20
22.814027
 11
56.948675
 21
26.514027
  0
POINT
  8
寸法
 62
     0
 10
56.948675
 20
22.814027
  0
POINT
  8
寸法
 62
     0
 10
56.948675
 20
26.514027
  0
TEXT
  7
TextStyle03
  8
寸法
  6
CONTINUOUS
 62
     0
 10
56.95
 20
16.5625
  1
111
 40
3.0
 50
90.0
 72
     5
 11
56.95
 21
21.4375
  0
ENDBLK
  0
BLOCK
  2
*GRP_0007
 70
    65
 10
0.0
 20
0.0
  0
LINE
  8
別途部材
  6
CONTINUOUS
 62
    96
 10
-72.10894
 20
-70.209613
 11
-72.50894
 21
-71.209613
  0
ARC
  8
別途部材
  6
CONTINUOUS
 10
-60.442272
 20
-76.917946
 40
12.041668
 50
90.0
 51
146.144967
  0
LINE
  8
別途部材
  6
CONTINUOUS
 10
-72.50894
 20
-71.209613
 11
-12.10894
 21
-71.209613
  0
LINE
  8
別途部材
  6
CONTINUOUS
 62
    96
 10
-72.10894
 20
-70.209613
 11
-12.10894
 21
-70.209613
  0
LINE
  8
別途部材
  6
CONTINUOUS
 10
-12.60894
 20
-63.87628
 11
-13.60894
 21
-64.87628
  0
LINE
  8
別途部材
  6
CONTINUOUS
 10
-14.60894
 20
-64.87628
 11
-15.60894
 21
-63.87628
  0
LINE
  8
別途部材
  6
CONTINUOUS
 10
-16.60894
 20
-63.87628
 11
-17.60894
 21
-64.87628
  0
LINE
  8
別途部材
  6
CONTINUOUS
 10
-15.60894
 20
-63.87628
 11
-16.60894
 21
-63.87628
  0
LINE
  8
別途部材
  6
CONTINUOUS
 10
-12.60894
 20
-63.87628
 11
-12.10894
 21
-63.87628
  0
LINE
  8
別途部材
  6
CONTINUOUS
 10
-18.60894
 20
-64.87628
 11
-19.60894
 21
-63.87628
  0
LINE
  8
別途部材
  6
CONTINUOUS
 10
-20.60894
 20
-63.87628
 11
-21.60894
 21
-64.87628
  0
LINE
  8
別途部材
  6
CONTINUOUS
 10
-19.60894
 20
-63.87628
 11
-20.60894
 21
-63.87628
  0
LINE
  8
別途部材
  6
CONTINUOUS
 10
-22.60894
 20
-64.87628
 11
-23.60894
 21
-63.87628
  0
LINE
  8
別途部材
  6
CONTINUOUS
 10
-24.60894
 20
-63.87628
 11
-25.60894
 21
-64.87628
  0
LINE
  8
別途部材
  6
CONTINUOUS
 10
-23.60894
 20
-63.87628
 11
-24.60894
 21
-63.87628
  0
LINE
  8
別途部材
  6
CONTINUOUS
 10
-26.60894
 20
-64.87628
 11
-27.60894
 21
-63.87628
  0
LINE
  8
別途部材
  6
CONTINUOUS
 10
-28.60894
 20
-63.87628
 11
-29.60894
 21
-64.87628
  0
LINE
  8
別途部材
  6
CONTINUOUS
 10
-27.60894
 20
-63.87628
 11
-28.60894
 21
-63.87628
  0
LINE
  8
別途部材
  6
CONTINUOUS
 10
-30.60894
 20
-64.87628
 11
-31.60894
 21
-63.87628
  0
LINE
  8
別途部材
  6
CONTINUOUS
 10
-32.60894
 20
-63.87628
 11
-33.60894
 21
-64.87628
  0
LINE
  8
別途部材
  6
CONTINUOUS
 10
-31.60894
 20
-63.87628
 11
-32.60894
 21
-63.87628
  0
LINE
  8
別途部材
  6
CONTINUOUS
 10
-34.60894
 20
-64.87628
 11
-35.60894
 21
-63.87628
  0
LINE
  8
別途部材
  6
CONTINUOUS
 10
-36.60894
 20
-63.87628
 11
-37.60894
 21
-64.87628
  0
LINE
  8
別途部材
  6
CONTINUOUS
 10
-35.60894
 20
-63.87628
 11
-36.60894
 21
-63.87628
  0
LINE
  8
別途部材
  6
CONTINUOUS
 10
-38.60894
 20
-64.87628
 11
-39.60894
 21
-63.87628
  0
LINE
  8
別途部材
  6
CONTINUOUS
 10
-40.60894
 20
-63.87628
 11
-41.60894
 21
-64.87628
  0
LINE
  8
別途部材
  6
CONTINUOUS
 10
-39.60894
 20
-63.87628
 11
-40.60894
 21
-63.87628
  0
LINE
  8
別途部材
  6
CONTINUOUS
 10
-42.60894
 20
-64.87628
 11
-43.60894
 21
-63.87628
  0
LINE
  8
別途部材
  6
CONTINUOUS
 10
-44.60894
 20
-63.87628
 11
-45.60894
 21
-64.87628
  0
LINE
  8
別途部材
  6
CONTINUOUS
 10
-43.60894
 20
-63.87628
 11
-44.60894
 21
-63.87628
  0
LINE
  8
別途部材
  6
CONTINUOUS
 10
-46.60894
 20
-64.87628
 11
-47.60894
 21
-63.87628
  0
LINE
  8
別途部材
  6
CONTINUOUS
 10
-48.60894
 20
-63.87628
 11
-49.60894
 21
-64.87628
  0
LINE
  8
別途部材
  6
CONTINUOUS
 10
-47.60894
 20
-63.87628
 11
-48.60894
 21
-63.87628
  0
LINE
  8
別途部材
  6
CONTINUOUS
 10
-50.60894
 20
-64.87628
 11
-51.60894
 21
-63.87628
  0
LINE
  8
別途部材
  6
CONTINUOUS
 10
-52.60894
 20
-63.87628
 11
-53.60894
 21
-64.87628
  0
LINE
  8
別途部材
  6
CONTINUOUS
 10
-51.60894
 20
-63.87628
 11
-52.60894
 21
-63.87628
  0
LINE
  8
別途部材
  6
CONTINUOUS
 10
-54.60894
 20
-64.87628
 11
-55.60894
 21
-63.87628
  0
LINE
  8
別途部材
  6
CONTINUOUS
 10
-56.60894
 20
-63.87628
 11
-57.60894
 21
-64.87628
  0
LINE
  8
別途部材
  6
CONTINUOUS
 10
-55.60894
 20
-63.87628
 11
-56.60894
 21
-63.87628
  0
LINE
  8
別途部材
  6
CONTINUOUS
 10
-53.60894
 20
-64.87628
 11
-54.60894
 21
-64.87628
  0
LINE
  8
別途部材
  6
CONTINUOUS
 10
-49.60894
 20
-64.87628
 11
-50.60894
 21
-64.87628
  0
LINE
  8
別途部材
  6
CONTINUOUS
 10
-45.60894
 20
-64.87628
 11
-46.60894
 21
-64.87628
  0
LINE
  8
別途部材
  6
CONTINUOUS
 10
-41.60894
 20
-64.87628
 11
-42.60894
 21
-64.87628
  0
LINE
  8
別途部材
  6
CONTINUOUS
 10
-37.60894
 20
-64.87628
 11
-38.60894
 21
-64.87628
  0
LINE
  8
別途部材
  6
CONTINUOUS
 10
-33.60894
 20
-64.87628
 11
-34.60894
 21
-64.87628
  0
LINE
  8
別途部材
  6
CONTINUOUS
 10
-29.60894
 20
-64.87628
 11
-30.60894
 21
-64.87628
  0
LINE
  8
別途部材
  6
CONTINUOUS
 10
-25.60894
 20
-64.87628
 11
-26.60894
 21
-64.87628
  0
LINE
  8
別途部材
  6
CONTINUOUS
 10
-21.60894
 20
-64.87628
 11
-22.60894
 21
-64.87628
  0
LINE
  8
別途部材
  6
CONTINUOUS
 10
-17.60894
 20
-64.87628
 11
-18.60894
 21
-64.87628
  0
LINE
  8
別途部材
  6
CONTINUOUS
 10
-14.60894
 20
-64.87628
 11
-13.60894
 21
-64.87628
  0
LINE
  8
別途部材
  6
CONTINUOUS
 10
-56.60894
 20
-63.87628
 11
-56.60894
 21
-70.209613
  0
LINE
  8
別途部材
  6
CONTINUOUS
 10
-57.60894
 20
-64.87628
 11
-57.60894
 21
-70.209613
  0
LINE
  8
別途部材
  6
CONTINUOUS
 10
-55.60894
 20
-63.87628
 11
-55.60894
 21
-70.209613
  0
LINE
  8
別途部材
  6
CONTINUOUS
 10
-54.60894
 20
-64.87628
 11
-54.60894
 21
-70.209613
  0
LINE
  8
別途部材
  6
CONTINUOUS
 10
-52.60894
 20
-63.87628
 11
-52.60894
 21
-70.209613
  0
LINE
  8
別途部材
  6
CONTINUOUS
 10
-53.60894
 20
-64.87628
 11
-53.60894
 21
-70.209613
  0
LINE
  8
別途部材
  6
CONTINUOUS
 10
-49.60894
 20
-64.87628
 11
-49.60894
 21
-70.209613
  0
LINE
  8
別途部材
  6
CONTINUOUS
 10
-50.60894
 20
-64.87628
 11
-50.60894
 21
-70.209613
  0
LINE
  8
別途部材
  6
CONTINUOUS
 10
-51.60894
 20
-63.87628
 11
-51.60894
 21
-70.209613
  0
LINE
  8
別途部材
  6
CONTINUOUS
 10
-48.60894
 20
-63.87628
 11
-48.60894
 21
-70.209613
  0
LINE
  8
別途部材
  6
CONTINUOUS
 10
-47.60894
 20
-63.87628
 11
-47.60894
 21
-70.209613
  0
LINE
  8
別途部材
  6
CONTINUOUS
 10
-46.60894
 20
-64.87628
 11
-46.60894
 21
-70.209613
  0
LINE
  8
別途部材
  6
CONTINUOUS
 10
-44.60894
 20
-63.87628
 11
-44.60894
 21
-70.209613
  0
LINE
  8
別途部材
  6
CONTINUOUS
 10
-40.60894
 20
-63.87628
 11
-40.60894
 21
-70.209613
  0
LINE
  8
別途部材
  6
CONTINUOUS
 10
-41.60894
 20
-64.87628
 11
-41.60894
 21
-70.209613
  0
LINE
  8
別途部材
  6
CONTINUOUS
 10
-42.60894
 20
-64.87628
 11
-42.60894
 21
-70.209613
  0
LINE
  8
別途部材
  6
CONTINUOUS
 10
-43.60894
 20
-63.87628
 11
-43.60894
 21
-70.209613
  0
LINE
  8
別途部材
  6
CONTINUOUS
 10
-45.60894
 20
-64.87628
 11
-45.60894
 21
-70.209613
  0
LINE
  8
別途部材
  6
CONTINUOUS
 10
-38.60894
 20
-64.87628
 11
-38.60894
 21
-70.209613
  0
LINE
  8
別途部材
  6
CONTINUOUS
 10
-39.60894
 20
-63.87628
 11
-39.60894
 21
-70.209613
  0
LINE
  8
別途部材
  6
CONTINUOUS
 10
-37.60894
 20
-64.87628
 11
-37.60894
 21
-70.209613
  0
LINE
  8
別途部材
  6
CONTINUOUS
 10
-36.60894
 20
-63.87628
 11
-36.60894
 21
-70.209613
  0
LINE
  8
別途部材
  6
CONTINUOUS
 10
-32.60894
 20
-63.87628
 11
-32.60894
 21
-70.209613
  0
LINE
  8
別途部材
  6
CONTINUOUS
 10
-31.60894
 20
-63.87628
 11
-31.60894
 21
-70.209613
  0
LINE
  8
別途部材
  6
CONTINUOUS
 10
-33.60894
 20
-64.87628
 11
-33.60894
 21
-70.209613
  0
LINE
  8
別途部材
  6
CONTINUOUS
 10
-34.60894
 20
-64.87628
 11
-34.60894
 21
-70.209613
  0
LINE
  8
別途部材
  6
CONTINUOUS
 10
-35.60894
 20
-63.87628
 11
-35.60894
 21
-70.209613
  0
LINE
  8
別途部材
  6
CONTINUOUS
 10
-30.60894
 20
-64.87628
 11
-30.60894
 21
-70.209613
  0
LINE
  8
別途部材
  6
CONTINUOUS
 10
-28.60894
 20
-63.87628
 11
-28.60894
 21
-70.209613
  0
LINE
  8
別途部材
  6
CONTINUOUS
 10
-27.60894
 20
-63.87628
 11
-27.60894
 21
-70.209613
  0
LINE
  8
別途部材
  6
CONTINUOUS
 10
-26.60894
 20
-64.87628
 11
-26.60894
 21
-70.209613
  0
LINE
  8
別途部材
  6
CONTINUOUS
 10
-25.60894
 20
-64.87628
 11
-25.60894
 21
-70.209613
  0
LINE
  8
別途部材
  6
CONTINUOUS
 10
-24.60894
 20
-63.87628
 11
-24.60894
 21
-70.209613
  0
LINE
  8
別途部材
  6
CONTINUOUS
 10
-29.60894
 20
-64.87628
 11
-29.60894
 21
-70.209613
  0
LINE
  8
別途部材
  6
CONTINUOUS
 10
-23.60894
 20
-63.87628
 11
-23.60894
 21
-70.209613
  0
LINE
  8
別途部材
  6
CONTINUOUS
 10
-22.60894
 20
-64.87628
 11
-22.60894
 21
-70.209613
  0
LINE
  8
別途部材
  6
CONTINUOUS
 10
-21.60894
 20
-64.87628
 11
-21.60894
 21
-70.209613
  0
LINE
  8
別途部材
  6
CONTINUOUS
 10
-19.60894
 20
-63.87628
 11
-19.60894
 21
-70.209613
  0
LINE
  8
別途部材
  6
CONTINUOUS
 10
-17.60894
 20
-64.87628
 11
-17.60894
 21
-70.209613
  0
LINE
  8
別途部材
  6
CONTINUOUS
 10
-16.60894
 20
-63.87628
 11
-16.60894
 21
-70.209613
  0
LINE
  8
別途部材
  6
CONTINUOUS
 10
-14.60894
 20
-64.87628
 11
-14.60894
 21
-70.209613
  0
LINE
  8
別途部材
  6
CONTINUOUS
 10
-13.60894
 20
-64.87628
 11
-13.60894
 21
-70.209613
  0
LINE
  8
別途部材
  6
CONTINUOUS
 10
-12.60894
 20
-63.87628
 11
-12.60894
 21
-70.209613
  0
LINE
  8
別途部材
  6
CONTINUOUS
 10
-15.60894
 20
-63.87628
 11
-15.60894
 21
-70.209613
  0
LINE
  8
別途部材
  6
CONTINUOUS
 10
-18.60894
 20
-64.87628
 11
-18.60894
 21
-70.209613
  0
LINE
  8
別途部材
  6
CONTINUOUS
 10
-20.60894
 20
-63.87628
 11
-20.60894
 21
-70.209613
  0
LINE
  8
別途部材
  6
CONTINUOUS
 10
-57.60894
 20
-64.87628
 11
-60.442273
 21
-64.87628
  0
LINE
  8
別途部材
  6
CONTINUOUS
 62
    96
 10
47.89106
 20
-70.209613
 11
48.29106
 21
-71.209613
  0
ARC
  8
別途部材
  6
CONTINUOUS
 10
36.224392
 20
-76.917946
 40
12.041668
 50
33.855033
 51
90.0
  0
LINE
  8
別途部材
  6
CONTINUOUS
 10
48.29106
 20
-71.209613
 11
-12.10894
 21
-71.209613
  0
LINE
  8
別途部材
  6
CONTINUOUS
 62
    96
 10
47.89106
 20
-70.209613
 11
-12.10894
 21
-70.209613
  0
LINE
  8
別途部材
  6
CONTINUOUS
 10
-11.60894
 20
-63.87628
 11
-10.60894
 21
-64.87628
  0
LINE
  8
別途部材
  6
CONTINUOUS
 10
-9.60894
 20
-64.87628
 11
-8.60894
 21
-63.87628
  0
LINE
  8
別途部材
  6
CONTINUOUS
 10
-7.60894
 20
-63.87628
 11
-6.60894
 21
-64.87628
  0
LINE
  8
別途部材
  6
CONTINUOUS
 10
-8.60894
 20
-63.87628
 11
-7.60894
 21
-63.87628
  0
LINE
  8
別途部材
  6
CONTINUOUS
 10
-11.60894
 20
-63.87628
 11
-12.10894
 21
-63.87628
  0
LINE
  8
別途部材
  6
CONTINUOUS
 10
-5.60894
 20
-64.87628
 11
-4.60894
 21
-63.87628
  0
LINE
  8
別途部材
  6
CONTINUOUS
 10
-3.60894
 20
-63.87628
 11
-2.60894
 21
-64.87628
  0
LINE
  8
別途部材
  6
CONTINUOUS
 10
-4.60894
 20
-63.87628
 11
-3.60894
 21
-63.87628
  0
LINE
  8
別途部材
  6
CONTINUOUS
 10
-1.60894
 20
-64.87628
 11
-0.60894
 21
-63.87628
  0
LINE
  8
別途部材
  6
CONTINUOUS
 10
0.39106
 20
-63.87628
 11
1.39106
 21
-64.87628
  0
LINE
  8
別途部材
  6
CONTINUOUS
 10
-0.60894
 20
-63.87628
 11
0.39106
 21
-63.87628
  0
LINE
  8
別途部材
  6
CONTINUOUS
 10
2.39106
 20
-64.87628
 11
3.39106
 21
-63.87628
  0
LINE
  8
別途部材
  6
CONTINUOUS
 10
4.39106
 20
-63.87628
 11
5.39106
 21
-64.87628
  0
LINE
  8
別途部材
  6
CONTINUOUS
 10
3.39106
 20
-63.87628
 11
4.39106
 21
-63.87628
  0
LINE
  8
別途部材
  6
CONTINUOUS
 10
6.39106
 20
-64.87628
 11
7.39106
 21
-63.87628
  0
LINE
  8
別途部材
  6
CONTINUOUS
 10
8.39106
 20
-63.87628
 11
9.39106
 21
-64.87628
  0
LINE
  8
別途部材
  6
CONTINUOUS
 10
7.39106
 20
-63.87628
 11
8.39106
 21
-63.87628
  0
LINE
  8
別途部材
  6
CONTINUOUS
 10
10.39106
 20
-64.87628
 11
11.39106
 21
-63.87628
  0
LINE
  8
別途部材
  6
CONTINUOUS
 10
12.39106
 20
-63.87628
 11
13.39106
 21
-64.87628
  0
LINE
  8
別途部材
  6
CONTINUOUS
 10
11.39106
 20
-63.87628
 11
12.39106
 21
-63.87628
  0
LINE
  8
別途部材
  6
CONTINUOUS
 10
14.39106
 20
-64.87628
 11
15.39106
 21
-63.87628
  0
LINE
  8
別途部材
  6
CONTINUOUS
 10
16.39106
 20
-63.87628
 11
17.39106
 21
-64.87628
  0
LINE
  8
別途部材
  6
CONTINUOUS
 10
15.39106
 20
-63.87628
 11
16.39106
 21
-63.87628
  0
LINE
  8
別途部材
  6
CONTINUOUS
 10
18.39106
 20
-64.87628
 11
19.39106
 21
-63.87628
  0
LINE
  8
別途部材
  6
CONTINUOUS
 10
20.39106
 20
-63.87628
 11
21.39106
 21
-64.87628
  0
LINE
  8
別途部材
  6
CONTINUOUS
 10
19.39106
 20
-63.87628
 11
20.39106
 21
-63.87628
  0
LINE
  8
別途部材
  6
CONTINUOUS
 10
22.39106
 20
-64.87628
 11
23.39106
 21
-63.87628
  0
LINE
  8
別途部材
  6
CONTINUOUS
 10
24.39106
 20
-63.87628
 11
25.39106
 21
-64.87628
  0
LINE
  8
別途部材
  6
CONTINUOUS
 10
23.39106
 20
-63.87628
 11
24.39106
 21
-63.87628
  0
LINE
  8
別途部材
  6
CONTINUOUS
 10
26.39106
 20
-64.87628
 11
27.39106
 21
-63.87628
  0
LINE
  8
別途部材
  6
CONTINUOUS
 10
28.39106
 20
-63.87628
 11
29.39106
 21
-64.87628
  0
LINE
  8
別途部材
  6
CONTINUOUS
 10
27.39106
 20
-63.87628
 11
28.39106
 21
-63.87628
  0
LINE
  8
別途部材
  6
CONTINUOUS
 10
30.39106
 20
-64.87628
 11
31.39106
 21
-63.87628
  0
LINE
  8
別途部材
  6
CONTINUOUS
 10
32.39106
 20
-63.87628
 11
33.39106
 21
-64.87628
  0
LINE
  8
別途部材
  6
CONTINUOUS
 10
31.39106
 20
-63.87628
 11
32.39106
 21
-63.87628
  0
LINE
  8
別途部材
  6
CONTINUOUS
 10
29.39106
 20
-64.87628
 11
30.39106
 21
-64.87628
  0
LINE
  8
別途部材
  6
CONTINUOUS
 10
25.39106
 20
-64.87628
 11
26.39106
 21
-64.87628
  0
LINE
  8
別途部材
  6
CONTINUOUS
 10
21.39106
 20
-64.87628
 11
22.39106
 21
-64.87628
  0
LINE
  8
別途部材
  6
CONTINUOUS
 10
17.39106
 20
-64.87628
 11
18.39106
 21
-64.87628
  0
LINE
  8
別途部材
  6
CONTINUOUS
 10
13.39106
 20
-64.87628
 11
14.39106
 21
-64.87628
  0
LINE
  8
別途部材
  6
CONTINUOUS
 10
9.39106
 20
-64.87628
 11
10.39106
 21
-64.87628
  0
LINE
  8
別途部材
  6
CONTINUOUS
 10
5.39106
 20
-64.87628
 11
6.39106
 21
-64.87628
  0
LINE
  8
別途部材
  6
CONTINUOUS
 10
1.39106
 20
-64.87628
 11
2.39106
 21
-64.87628
  0
LINE
  8
別途部材
  6
CONTINUOUS
 10
-2.60894
 20
-64.87628
 11
-1.60894
 21
-64.87628
  0
LINE
  8
別途部材
  6
CONTINUOUS
 10
-6.60894
 20
-64.87628
 11
-5.60894
 21
-64.87628
  0
LINE
  8
別途部材
  6
CONTINUOUS
 10
-9.60894
 20
-64.87628
 11
-10.60894
 21
-64.87628
  0
LINE
  8
別途部材
  6
CONTINUOUS
 10
32.39106
 20
-63.87628
 11
32.39106
 21
-70.209613
  0
LINE
  8
別途部材
  6
CONTINUOUS
 10
33.39106
 20
-64.87628
 11
33.39106
 21
-70.209613
  0
LINE
  8
別途部材
  6
CONTINUOUS
 10
31.39106
 20
-63.87628
 11
31.39106
 21
-70.209613
  0
LINE
  8
別途部材
  6
CONTINUOUS
 10
30.39106
 20
-64.87628
 11
30.39106
 21
-70.209613
  0
LINE
  8
別途部材
  6
CONTINUOUS
 10
28.39106
 20
-63.87628
 11
28.39106
 21
-70.209613
  0
LINE
  8
別途部材
  6
CONTINUOUS
 10
29.39106
 20
-64.87628
 11
29.39106
 21
-70.209613
  0
LINE
  8
別途部材
  6
CONTINUOUS
 10
25.39106
 20
-64.87628
 11
25.39106
 21
-70.209613
  0
LINE
  8
別途部材
  6
CONTINUOUS
 10
26.39106
 20
-64.87628
 11
26.39106
 21
-70.209613
  0
LINE
  8
別途部材
  6
CONTINUOUS
 10
27.39106
 20
-63.87628
 11
27.39106
 21
-70.209613
  0
LINE
  8
別途部材
  6
CONTINUOUS
 10
24.39106
 20
-63.87628
 11
24.39106
 21
-70.209613
  0
LINE
  8
別途部材
  6
CONTINUOUS
 10
23.39106
 20
-63.87628
 11
23.39106
 21
-70.209613
  0
LINE
  8
別途部材
  6
CONTINUOUS
 10
22.39106
 20
-64.87628
 11
22.39106
 21
-70.209613
  0
LINE
  8
別途部材
  6
CONTINUOUS
 10
20.39106
 20
-63.87628
 11
20.39106
 21
-70.209613
  0
LINE
  8
別途部材
  6
CONTINUOUS
 10
16.39106
 20
-63.87628
 11
16.39106
 21
-70.209613
  0
LINE
  8
別途部材
  6
CONTINUOUS
 10
17.39106
 20
-64.87628
 11
17.39106
 21
-70.209613
  0
LINE
  8
別途部材
  6
CONTINUOUS
 10
18.39106
 20
-64.87628
 11
18.39106
 21
-70.209613
  0
LINE
  8
別途部材
  6
CONTINUOUS
 10
19.39106
 20
-63.87628
 11
19.39106
 21
-70.209613
  0
LINE
  8
別途部材
  6
CONTINUOUS
 10
21.39106
 20
-64.87628
 11
21.39106
 21
-70.209613
  0
LINE
  8
別途部材
  6
CONTINUOUS
 10
14.39106
 20
-64.87628
 11
14.39106
 21
-70.209613
  0
LINE
  8
別途部材
  6
CONTINUOUS
 10
15.39106
 20
-63.87628
 11
15.39106
 21
-70.209613
  0
LINE
  8
別途部材
  6
CONTINUOUS
 10
13.39106
 20
-64.87628
 11
13.39106
 21
-70.209613
  0
LINE
  8
別途部材
  6
CONTINUOUS
 10
12.39106
 20
-63.87628
 11
12.39106
 21
-70.209613
  0
LINE
  8
別途部材
  6
CONTINUOUS
 10
8.39106
 20
-63.87628
 11
8.39106
 21
-70.209613
  0
LINE
  8
別途部材
  6
CONTINUOUS
 10
7.39106
 20
-63.87628
 11
7.39106
 21
-70.209613
  0
LINE
  8
別途部材
  6
CONTINUOUS
 10
9.39106
 20
-64.87628
 11
9.39106
 21
-70.209613
  0
LINE
  8
別途部材
  6
CONTINUOUS
 10
10.39106
 20
-64.87628
 11
10.39106
 21
-70.209613
  0
LINE
  8
別途部材
  6
CONTINUOUS
 10
11.39106
 20
-63.87628
 11
11.39106
 21
-70.209613
  0
LINE
  8
別途部材
  6
CONTINUOUS
 10
6.39106
 20
-64.87628
 11
6.39106
 21
-70.209613
  0
LINE
  8
別途部材
  6
CONTINUOUS
 10
4.39106
 20
-63.87628
 11
4.39106
 21
-70.209613
  0
LINE
  8
別途部材
  6
CONTINUOUS
 10
3.39106
 20
-63.87628
 11
3.39106
 21
-70.209613
  0
LINE
  8
別途部材
  6
CONTINUOUS
 10
2.39106
 20
-64.87628
 11
2.39106
 21
-70.209613
  0
LINE
  8
別途部材
  6
CONTINUOUS
 10
1.39106
 20
-64.87628
 11
1.39106
 21
-70.209613
  0
LINE
  8
別途部材
  6
CONTINUOUS
 10
0.39106
 20
-63.87628
 11
0.39106
 21
-70.209613
  0
LINE
  8
別途部材
  6
CONTINUOUS
 10
5.39106
 20
-64.87628
 11
5.39106
 21
-70.209613
  0
LINE
  8
別途部材
  6
CONTINUOUS
 10
-0.60894
 20
-63.87628
 11
-0.60894
 21
-70.209613
  0
LINE
  8
別途部材
  6
CONTINUOUS
 10
-1.60894
 20
-64.87628
 11
-1.60894
 21
-70.209613
  0
LINE
  8
別途部材
  6
CONTINUOUS
 10
-2.60894
 20
-64.87628
 11
-2.60894
 21
-70.209613
  0
LINE
  8
別途部材
  6
CONTINUOUS
 10
-4.60894
 20
-63.87628
 11
-4.60894
 21
-70.209613
  0
LINE
  8
別途部材
  6
CONTINUOUS
 10
-6.60894
 20
-64.87628
 11
-6.60894
 21
-70.209613
  0
LINE
  8
別途部材
  6
CONTINUOUS
 10
-7.60894
 20
-63.87628
 11
-7.60894
 21
-70.209613
  0
LINE
  8
別途部材
  6
CONTINUOUS
 10
-9.60894
 20
-64.87628
 11
-9.60894
 21
-70.209613
  0
LINE
  8
別途部材
  6
CONTINUOUS
 10
-10.60894
 20
-64.87628
 11
-10.60894
 21
-70.209613
  0
LINE
  8
別途部材
  6
CONTINUOUS
 10
-11.60894
 20
-63.87628
 11
-11.60894
 21
-70.209613
  0
LINE
  8
別途部材
  6
CONTINUOUS
 10
-8.60894
 20
-63.87628
 11
-8.60894
 21
-70.209613
  0
LINE
  8
別途部材
  6
CONTINUOUS
 10
-5.60894
 20
-64.87628
 11
-5.60894
 21
-70.209613
  0
LINE
  8
別途部材
  6
CONTINUOUS
 10
-3.60894
 20
-63.87628
 11
-3.60894
 21
-70.209613
  0
LINE
  8
別途部材
  6
CONTINUOUS
 10
33.39106
 20
-64.87628
 11
36.224393
 21
-64.87628
  0
ENDBLK
  0
BLOCK
  2
*GRP_0008
 70
    65
 10
0.0
 20
0.0
  0
LINE
  8
補助線
  6
BYBLOCK
 62
    64
 10
-58.701145
 20
-75.132365
 11
-58.85007
 21
-75.20719
  0
LINE
  8
補助線
  6
BYBLOCK
 62
    64
 10
-58.81302
 20
-75.095313
 11
-58.738195
 21
-75.24424
  0
LINE
  8
補助線
  6
BYBLOCK
 62
    64
 10
-48.782665
 20
-70.149007
 11
-48.931592
 21
-70.223833
  0
LINE
  8
補助線
  6
BYBLOCK
 62
    64
 10
-48.894542
 20
-70.111955
 11
-48.819718
 21
-70.260883
  0
LINE
  8
補助線
  6
BYBLOCK
 62
    64
 10
-39.013115
 20
-65.240475
 11
-38.864188
 21
-65.16565
  0
LINE
  8
補助線
  6
BYBLOCK
 62
    64
 10
-38.976065
 20
-65.128597
 11
-38.90124
 21
-65.277525
  0
LINE
  8
型材断面
  6
CONTINUOUS
 10
-59.447585
 20
-74.5748
 11
-59.669888
 21
-75.246053
  0
LINE
  8
型材断面
  6
CONTINUOUS
 10
-59.669888
 20
-75.246053
 11
-59.370585
 21
-75.841758
  0
LINE
  8
型材断面
  6
CONTINUOUS
 10
-59.370585
 20
-75.841758
 11
-58.699333
 21
-76.06406
  0
LINE
  8
型材断面
  6
CONTINUOUS
 10
-39.014927
 20
-64.308782
 11
-38.343672
 21
-64.531085
  0
LINE
  8
型材断面
  6
CONTINUOUS
 10
-38.343672
 20
-64.531085
 11
-38.04437
 21
-65.12679
  0
LINE
  8
型材断面
  6
CONTINUOUS
 10
-38.04437
 20
-65.12679
 11
-38.266675
 21
-65.798042
  0
LINE
  8
型材断面
  6
CONTINUOUS
 10
-59.447585
 20
-74.5748
 11
-39.014927
 21
-64.308782
  0
LINE
  8
型材断面
  6
CONTINUOUS
 10
-58.699333
 20
-76.06406
 11
-38.266675
 21
-65.798042
  0
CIRCLE
  8
ボルト／ビス
  6
CONTINUOUS
 10
-58.775608
 20
-75.169777
 40
0.250185
  0
CIRCLE
  8
ボルト／ビス
  6
CONTINUOUS
 10
-58.775608
 20
-75.169777
 40
0.301025
  0
LINE
  8
ボルト／ビス
  6
CONTINUOUS
 62
    64
 10
-59.025372
 20
-75.155275
 11
-58.887928
 21
-74.946225
  0
LINE
  8
ボルト／ビス
  6
CONTINUOUS
 62
    64
 10
-58.638163
 20
-74.960728
 11
-58.887928
 21
-74.946225
  0
LINE
  8
ボルト／ビス
  6
CONTINUOUS
 62
    64
 10
-58.913052
 20
-75.378827
 11
-58.663288
 21
-75.39333
  0
LINE
  8
ボルト／ビス
  6
CONTINUOUS
 62
    64
 10
-58.525842
 20
-75.18428
 11
-58.663288
 21
-75.39333
  0
LINE
  8
ボルト／ビス
  6
CONTINUOUS
 62
    64
 10
-59.025372
 20
-75.155275
 11
-58.913052
 21
-75.378827
  0
LINE
  8
ボルト／ビス
  6
CONTINUOUS
 62
    64
 10
-58.638163
 20
-74.960728
 11
-58.525842
 21
-75.18428
  0
CIRCLE
  8
ボルト／ビス
  6
CONTINUOUS
 62
    64
 10
-58.775608
 20
-75.169777
 40
0.216668
  0
CIRCLE
  8
ボルト／ビス
  6
CONTINUOUS
 10
-48.85713
 20
-70.18642
 40
0.250185
  0
CIRCLE
  8
ボルト／ビス
  6
CONTINUOUS
 10
-48.85713
 20
-70.18642
 40
0.301025
  0
LINE
  8
ボルト／ビス
  6
CONTINUOUS
 62
    64
 10
-49.106895
 20
-70.171915
 11
-48.96945
 21
-69.962865
  0
LINE
  8
ボルト／ビス
  6
CONTINUOUS
 62
    64
 10
-48.719685
 20
-69.977368
 11
-48.96945
 21
-69.962865
  0
LINE
  8
ボルト／ビス
  6
CONTINUOUS
 62
    64
 10
-48.994575
 20
-70.39547
 11
-48.744808
 21
-70.409975
  0
LINE
  8
ボルト／ビス
  6
CONTINUOUS
 62
    64
 10
-48.607365
 20
-70.200925
 11
-48.744808
 21
-70.409975
  0
LINE
  8
ボルト／ビス
  6
CONTINUOUS
 62
    64
 10
-49.106895
 20
-70.171915
 11
-48.994575
 21
-70.39547
  0
LINE
  8
ボルト／ビス
  6
CONTINUOUS
 62
    64
 10
-48.719685
 20
-69.977368
 11
-48.607365
 21
-70.200925
  0
CIRCLE
  8
ボルト／ビス
  6
CONTINUOUS
 62
    64
 10
-48.85713
 20
-70.18642
 40
0.216668
  0
CIRCLE
  8
ボルト／ビス
  6
CONTINUOUS
 10
-38.938652
 20
-65.203063
 40
0.250185
  0
CIRCLE
  8
ボルト／ビス
  6
CONTINUOUS
 10
-38.938652
 20
-65.203063
 40
0.301025
  0
LINE
  8
ボルト／ビス
  6
CONTINUOUS
 62
    64
 10
-38.801207
 20
-64.994013
 11
-39.050972
 21
-64.97951
  0
LINE
  8
ボルト／ビス
  6
CONTINUOUS
 62
    64
 10
-39.188418
 20
-65.18856
 11
-39.050972
 21
-64.97951
  0
LINE
  8
ボルト／ビス
  6
CONTINUOUS
 62
    64
 10
-38.688887
 20
-65.217568
 11
-38.82633
 21
-65.426615
  0
LINE
  8
ボルト／ビス
  6
CONTINUOUS
 62
    64
 10
-39.076098
 20
-65.412112
 11
-38.82633
 21
-65.426615
  0
LINE
  8
ボルト／ビス
  6
CONTINUOUS
 62
    64
 10
-38.801207
 20
-64.994013
 11
-38.688887
 21
-65.217568
  0
LINE
  8
ボルト／ビス
  6
CONTINUOUS
 62
    64
 10
-39.188418
 20
-65.18856
 11
-39.076098
 21
-65.412112
  0
CIRCLE
  8
ボルト／ビス
  6
CONTINUOUS
 62
    64
 10
-38.938652
 20
-65.203063
 40
0.216668
  0
ENDBLK
  0
BLOCK
  2
*GRP_0009
 70
    65
 10
0.0
 20
0.0
  0
LINE
  8
補助線
  6
BYBLOCK
 62
    64
 10
-39.013115
 20
-75.132365
 11
-38.86419
 21
-75.20719
  0
LINE
  8
補助線
  6
BYBLOCK
 62
    64
 10
-38.90124
 20
-75.095313
 11
-38.976065
 21
-75.24424
  0
LINE
  8
補助線
  6
BYBLOCK
 62
    64
 10
-48.931595
 20
-70.149007
 11
-48.782668
 21
-70.223833
  0
LINE
  8
補助線
  6
BYBLOCK
 62
    64
 10
-48.819718
 20
-70.111955
 11
-48.894542
 21
-70.260883
  0
LINE
  8
補助線
  6
BYBLOCK
 62
    64
 10
-58.701145
 20
-65.240475
 11
-58.850072
 21
-65.16565
  0
LINE
  8
補助線
  6
BYBLOCK
 62
    64
 10
-58.738195
 20
-65.128597
 11
-58.81302
 21
-65.277525
  0
LINE
  8
型材断面
  6
CONTINUOUS
 10
-38.266675
 20
-74.5748
 11
-38.044373
 21
-75.246053
  0
LINE
  8
型材断面
  6
CONTINUOUS
 10
-38.044373
 20
-75.246053
 11
-38.343675
 21
-75.841758
  0
LINE
  8
型材断面
  6
CONTINUOUS
 10
-38.343675
 20
-75.841758
 11
-39.014927
 21
-76.06406
  0
LINE
  8
型材断面
  6
CONTINUOUS
 10
-58.699333
 20
-64.308782
 11
-59.370587
 21
-64.531085
  0
LINE
  8
型材断面
  6
CONTINUOUS
 10
-59.370587
 20
-64.531085
 11
-59.66989
 21
-65.12679
  0
LINE
  8
型材断面
  6
CONTINUOUS
 10
-59.66989
 20
-65.12679
 11
-59.447585
 21
-65.798042
  0
LINE
  8
型材断面
  6
CONTINUOUS
 10
-38.266675
 20
-74.5748
 11
-58.699333
 21
-64.308782
  0
LINE
  8
型材断面
  6
CONTINUOUS
 10
-39.014927
 20
-76.06406
 11
-59.447585
 21
-65.798042
  0
CIRCLE
  8
ボルト／ビス
  6
CONTINUOUS
 10
-38.938652
 20
-75.169777
 40
0.250185
  0
CIRCLE
  8
ボルト／ビス
  6
CONTINUOUS
 10
-38.938652
 20
-75.169777
 40
0.301025
  0
LINE
  8
ボルト／ビス
  6
CONTINUOUS
 62
    64
 10
-38.688887
 20
-75.155275
 11
-38.826332
 21
-74.946225
  0
LINE
  8
ボルト／ビス
  6
CONTINUOUS
 62
    64
 10
-39.076098
 20
-74.960728
 11
-38.826332
 21
-74.946225
  0
LINE
  8
ボルト／ビス
  6
CONTINUOUS
 62
    64
 10
-38.801207
 20
-75.378827
 11
-39.050972
 21
-75.39333
  0
LINE
  8
ボルト／ビス
  6
CONTINUOUS
 62
    64
 10
-39.188418
 20
-75.18428
 11
-39.050972
 21
-75.39333
  0
LINE
  8
ボルト／ビス
  6
CONTINUOUS
 62
    64
 10
-38.688887
 20
-75.155275
 11
-38.801207
 21
-75.378827
  0
LINE
  8
ボルト／ビス
  6
CONTINUOUS
 62
    64
 10
-39.076098
 20
-74.960728
 11
-39.188418
 21
-75.18428
  0
CIRCLE
  8
ボルト／ビス
  6
CONTINUOUS
 62
    64
 10
-38.938652
 20
-75.169777
 40
0.216668
  0
CIRCLE
  8
ボルト／ビス
  6
CONTINUOUS
 10
-48.85713
 20
-70.18642
 40
0.250185
  0
CIRCLE
  8
ボルト／ビス
  6
CONTINUOUS
 10
-48.85713
 20
-70.18642
 40
0.301025
  0
LINE
  8
ボルト／ビス
  6
CONTINUOUS
 62
    64
 10
-48.607365
 20
-70.171915
 11
-48.74481
 21
-69.962865
  0
LINE
  8
ボルト／ビス
  6
CONTINUOUS
 62
    64
 10
-48.994575
 20
-69.977368
 11
-48.74481
 21
-69.962865
  0
LINE
  8
ボルト／ビス
  6
CONTINUOUS
 62
    64
 10
-48.719685
 20
-70.39547
 11
-48.969452
 21
-70.409975
  0
LINE
  8
ボルト／ビス
  6
CONTINUOUS
 62
    64
 10
-49.106895
 20
-70.200925
 11
-48.969452
 21
-70.409975
  0
LINE
  8
ボルト／ビス
  6
CONTINUOUS
 62
    64
 10
-48.607365
 20
-70.171915
 11
-48.719685
 21
-70.39547
  0
LINE
  8
ボルト／ビス
  6
CONTINUOUS
 62
    64
 10
-48.994575
 20
-69.977368
 11
-49.106895
 21
-70.200925
  0
CIRCLE
  8
ボルト／ビス
  6
CONTINUOUS
 62
    64
 10
-48.85713
 20
-70.18642
 40
0.216668
  0
CIRCLE
  8
ボルト／ビス
  6
CONTINUOUS
 10
-58.775608
 20
-65.203063
 40
0.250185
  0
CIRCLE
  8
ボルト／ビス
  6
CONTINUOUS
 10
-58.775608
 20
-65.203063
 40
0.301025
  0
LINE
  8
ボルト／ビス
  6
CONTINUOUS
 62
    64
 10
-58.913052
 20
-64.994013
 11
-58.663288
 21
-64.97951
  0
LINE
  8
ボルト／ビス
  6
CONTINUOUS
 62
    64
 10
-58.525842
 20
-65.18856
 11
-58.663288
 21
-64.97951
  0
LINE
  8
ボルト／ビス
  6
CONTINUOUS
 62
    64
 10
-59.025372
 20
-65.217568
 11
-58.88793
 21
-65.426615
  0
LINE
  8
ボルト／ビス
  6
CONTINUOUS
 62
    64
 10
-58.638163
 20
-65.412112
 11
-58.88793
 21
-65.426615
  0
LINE
  8
ボルト／ビス
  6
CONTINUOUS
 62
    64
 10
-58.913052
 20
-64.994013
 11
-59.025372
 21
-65.217568
  0
LINE
  8
ボルト／ビス
  6
CONTINUOUS
 62
    64
 10
-58.525842
 20
-65.18856
 11
-58.638163
 21
-65.412112
  0
CIRCLE
  8
ボルト／ビス
  6
CONTINUOUS
 62
    64
 10
-58.775608
 20
-65.203063
 40
0.216668
  0
ENDBLK
  0
BLOCK
  2
*GRP_0010
 70
    65
 10
0.0
 20
0.0
  0
LINE
  8
補助線
  6
BYBLOCK
 62
    64
 10
34.483265
 20
-75.132365
 11
34.63219
 21
-75.20719
  0
LINE
  8
補助線
  6
BYBLOCK
 62
    64
 10
34.59514
 20
-75.095313
 11
34.520315
 21
-75.24424
  0
LINE
  8
補助線
  6
BYBLOCK
 62
    64
 10
24.564785
 20
-70.149007
 11
24.713712
 21
-70.223833
  0
LINE
  8
補助線
  6
BYBLOCK
 62
    64
 10
24.676663
 20
-70.111955
 11
24.601837
 21
-70.260883
  0
LINE
  8
補助線
  6
BYBLOCK
 62
    64
 10
14.795235
 20
-65.240475
 11
14.646307
 21
-65.16565
  0
LINE
  8
補助線
  6
BYBLOCK
 62
    64
 10
14.758185
 20
-65.128597
 11
14.68336
 21
-65.277525
  0
LINE
  8
型材断面
  6
CONTINUOUS
 10
35.229705
 20
-74.5748
 11
35.452008
 21
-75.246053
  0
LINE
  8
型材断面
  6
CONTINUOUS
 10
35.452008
 20
-75.246053
 11
35.152705
 21
-75.841758
  0
LINE
  8
型材断面
  6
CONTINUOUS
 10
35.152705
 20
-75.841758
 11
34.481452
 21
-76.06406
  0
LINE
  8
型材断面
  6
CONTINUOUS
 10
14.797048
 20
-64.308782
 11
14.125792
 21
-64.531085
  0
LINE
  8
型材断面
  6
CONTINUOUS
 10
14.125792
 20
-64.531085
 11
13.82649
 21
-65.12679
  0
LINE
  8
型材断面
  6
CONTINUOUS
 10
13.82649
 20
-65.12679
 11
14.048795
 21
-65.798042
  0
LINE
  8
型材断面
  6
CONTINUOUS
 10
35.229705
 20
-74.5748
 11
14.797048
 21
-64.308782
  0
LINE
  8
型材断面
  6
CONTINUOUS
 10
34.481452
 20
-76.06406
 11
14.048795
 21
-65.798042
  0
CIRCLE
  8
ボルト／ビス
  6
CONTINUOUS
 10
34.557727
 20
-75.169777
 40
0.250185
  0
CIRCLE
  8
ボルト／ビス
  6
CONTINUOUS
 10
34.557727
 20
-75.169777
 40
0.301025
  0
LINE
  8
ボルト／ビス
  6
CONTINUOUS
 62
    64
 10
34.807493
 20
-75.155275
 11
34.670047
 21
-74.946225
  0
LINE
  8
ボルト／ビス
  6
CONTINUOUS
 62
    64
 10
34.420283
 20
-74.960728
 11
34.670047
 21
-74.946225
  0
LINE
  8
ボルト／ビス
  6
CONTINUOUS
 62
    64
 10
34.695173
 20
-75.378827
 11
34.445407
 21
-75.39333
  0
LINE
  8
ボルト／ビス
  6
CONTINUOUS
 62
    64
 10
34.307963
 20
-75.18428
 11
34.445407
 21
-75.39333
  0
LINE
  8
ボルト／ビス
  6
CONTINUOUS
 62
    64
 10
34.807493
 20
-75.155275
 11
34.695173
 21
-75.378827
  0
LINE
  8
ボルト／ビス
  6
CONTINUOUS
 62
    64
 10
34.420283
 20
-74.960728
 11
34.307963
 21
-75.18428
  0
CIRCLE
  8
ボルト／ビス
  6
CONTINUOUS
 62
    64
 10
34.557727
 20
-75.169777
 40
0.216668
  0
CIRCLE
  8
ボルト／ビス
  6
CONTINUOUS
 10
24.63925
 20
-70.18642
 40
0.250185
  0
CIRCLE
  8
ボルト／ビス
  6
CONTINUOUS
 10
24.63925
 20
-70.18642
 40
0.301025
  0
LINE
  8
ボルト／ビス
  6
CONTINUOUS
 62
    64
 10
24.889015
 20
-70.171915
 11
24.75157
 21
-69.962865
  0
LINE
  8
ボルト／ビス
  6
CONTINUOUS
 62
    64
 10
24.501805
 20
-69.977368
 11
24.75157
 21
-69.962865
  0
LINE
  8
ボルト／ビス
  6
CONTINUOUS
 62
    64
 10
24.776695
 20
-70.39547
 11
24.526928
 21
-70.409975
  0
LINE
  8
ボルト／ビス
  6
CONTINUOUS
 62
    64
 10
24.389485
 20
-70.200925
 11
24.526928
 21
-70.409975
  0
LINE
  8
ボルト／ビス
  6
CONTINUOUS
 62
    64
 10
24.889015
 20
-70.171915
 11
24.776695
 21
-70.39547
  0
LINE
  8
ボルト／ビス
  6
CONTINUOUS
 62
    64
 10
24.501805
 20
-69.977368
 11
24.389485
 21
-70.200925
  0
CIRCLE
  8
ボルト／ビス
  6
CONTINUOUS
 62
    64
 10
24.63925
 20
-70.18642
 40
0.216668
  0
CIRCLE
  8
ボルト／ビス
  6
CONTINUOUS
 10
14.720773
 20
-65.203063
 40
0.250185
  0
CIRCLE
  8
ボルト／ビス
  6
CONTINUOUS
 10
14.720773
 20
-65.203063
 40
0.301025
  0
LINE
  8
ボルト／ビス
  6
CONTINUOUS
 62
    64
 10
14.583328
 20
-64.994013
 11
14.833093
 21
-64.97951
  0
LINE
  8
ボルト／ビス
  6
CONTINUOUS
 62
    64
 10
14.970537
 20
-65.18856
 11
14.833093
 21
-64.97951
  0
LINE
  8
ボルト／ビス
  6
CONTINUOUS
 62
    64
 10
14.471008
 20
-65.217568
 11
14.60845
 21
-65.426615
  0
LINE
  8
ボルト／ビス
  6
CONTINUOUS
 62
    64
 10
14.858217
 20
-65.412112
 11
14.60845
 21
-65.426615
  0
LINE
  8
ボルト／ビス
  6
CONTINUOUS
 62
    64
 10
14.583328
 20
-64.994013
 11
14.471008
 21
-65.217568
  0
LINE
  8
ボルト／ビス
  6
CONTINUOUS
 62
    64
 10
14.970537
 20
-65.18856
 11
14.858217
 21
-65.412112
  0
CIRCLE
  8
ボルト／ビス
  6
CONTINUOUS
 62
    64
 10
14.720773
 20
-65.203063
 40
0.216668
  0
ENDBLK
  0
BLOCK
  2
*GRP_0011
 70
    65
 10
0.0
 20
0.0
  0
LINE
  8
補助線
  6
BYBLOCK
 62
    64
 10
14.795235
 20
-75.132365
 11
14.64631
 21
-75.20719
  0
LINE
  8
補助線
  6
BYBLOCK
 62
    64
 10
14.68336
 20
-75.095313
 11
14.758185
 21
-75.24424
  0
LINE
  8
補助線
  6
BYBLOCK
 62
    64
 10
24.713715
 20
-70.149007
 11
24.564788
 21
-70.223833
  0
LINE
  8
補助線
  6
BYBLOCK
 62
    64
 10
24.601837
 20
-70.111955
 11
24.676663
 21
-70.260883
  0
LINE
  8
補助線
  6
BYBLOCK
 62
    64
 10
34.483265
 20
-65.240475
 11
34.632193
 21
-65.16565
  0
LINE
  8
補助線
  6
BYBLOCK
 62
    64
 10
34.520315
 20
-65.128597
 11
34.59514
 21
-65.277525
  0
LINE
  8
型材断面
  6
CONTINUOUS
 10
14.048795
 20
-74.5748
 11
13.826492
 21
-75.246053
  0
LINE
  8
型材断面
  6
CONTINUOUS
 10
13.826492
 20
-75.246053
 11
14.125795
 21
-75.841758
  0
LINE
  8
型材断面
  6
CONTINUOUS
 10
14.125795
 20
-75.841758
 11
14.797048
 21
-76.06406
  0
LINE
  8
型材断面
  6
CONTINUOUS
 10
34.481452
 20
-64.308782
 11
35.152707
 21
-64.531085
  0
LINE
  8
型材断面
  6
CONTINUOUS
 10
35.152707
 20
-64.531085
 11
35.45201
 21
-65.12679
  0
LINE
  8
型材断面
  6
CONTINUOUS
 10
35.45201
 20
-65.12679
 11
35.229705
 21
-65.798042
  0
LINE
  8
型材断面
  6
CONTINUOUS
 10
14.048795
 20
-74.5748
 11
34.481452
 21
-64.308782
  0
LINE
  8
型材断面
  6
CONTINUOUS
 10
14.797048
 20
-76.06406
 11
35.229705
 21
-65.798042
  0
CIRCLE
  8
ボルト／ビス
  6
CONTINUOUS
 10
14.720773
 20
-75.169777
 40
0.250185
  0
CIRCLE
  8
ボルト／ビス
  6
CONTINUOUS
 10
14.720773
 20
-75.169777
 40
0.301025
  0
LINE
  8
ボルト／ビス
  6
CONTINUOUS
 62
    64
 10
14.471008
 20
-75.155275
 11
14.608453
 21
-74.946225
  0
LINE
  8
ボルト／ビス
  6
CONTINUOUS
 62
    64
 10
14.858217
 20
-74.960728
 11
14.608453
 21
-74.946225
  0
LINE
  8
ボルト／ビス
  6
CONTINUOUS
 62
    64
 10
14.583328
 20
-75.378827
 11
14.833093
 21
-75.39333
  0
LINE
  8
ボルト／ビス
  6
CONTINUOUS
 62
    64
 10
14.970537
 20
-75.18428
 11
14.833093
 21
-75.39333
  0
LINE
  8
ボルト／ビス
  6
CONTINUOUS
 62
    64
 10
14.471008
 20
-75.155275
 11
14.583328
 21
-75.378827
  0
LINE
  8
ボルト／ビス
  6
CONTINUOUS
 62
    64
 10
14.858217
 20
-74.960728
 11
14.970537
 21
-75.18428
  0
CIRCLE
  8
ボルト／ビス
  6
CONTINUOUS
 62
    64
 10
14.720773
 20
-75.169777
 40
0.216668
  0
CIRCLE
  8
ボルト／ビス
  6
CONTINUOUS
 10
24.63925
 20
-70.18642
 40
0.250185
  0
CIRCLE
  8
ボルト／ビス
  6
CONTINUOUS
 10
24.63925
 20
-70.18642
 40
0.301025
  0
LINE
  8
ボルト／ビス
  6
CONTINUOUS
 62
    64
 10
24.389485
 20
-70.171915
 11
24.52693
 21
-69.962865
  0
LINE
  8
ボルト／ビス
  6
CONTINUOUS
 62
    64
 10
24.776695
 20
-69.977368
 11
24.52693
 21
-69.962865
  0
LINE
  8
ボルト／ビス
  6
CONTINUOUS
 62
    64
 10
24.501805
 20
-70.39547
 11
24.751572
 21
-70.409975
  0
LINE
  8
ボルト／ビス
  6
CONTINUOUS
 62
    64
 10
24.889015
 20
-70.200925
 11
24.751572
 21
-70.409975
  0
LINE
  8
ボルト／ビス
  6
CONTINUOUS
 62
    64
 10
24.389485
 20
-70.171915
 11
24.501805
 21
-70.39547
  0
LINE
  8
ボルト／ビス
  6
CONTINUOUS
 62
    64
 10
24.776695
 20
-69.977368
 11
24.889015
 21
-70.200925
  0
CIRCLE
  8
ボルト／ビス
  6
CONTINUOUS
 62
    64
 10
24.63925
 20
-70.18642
 40
0.216668
  0
CIRCLE
  8
ボルト／ビス
  6
CONTINUOUS
 10
34.557727
 20
-65.203063
 40
0.250185
  0
CIRCLE
  8
ボルト／ビス
  6
CONTINUOUS
 10
34.557727
 20
-65.203063
 40
0.301025
  0
LINE
  8
ボルト／ビス
  6
CONTINUOUS
 62
    64
 10
34.695173
 20
-64.994013
 11
34.445407
 21
-64.97951
  0
LINE
  8
ボルト／ビス
  6
CONTINUOUS
 62
    64
 10
34.307963
 20
-65.18856
 11
34.445407
 21
-64.97951
  0
LINE
  8
ボルト／ビス
  6
CONTINUOUS
 62
    64
 10
34.807493
 20
-65.217568
 11
34.67005
 21
-65.426615
  0
LINE
  8
ボルト／ビス
  6
CONTINUOUS
 62
    64
 10
34.420283
 20
-65.412112
 11
34.67005
 21
-65.426615
  0
LINE
  8
ボルト／ビス
  6
CONTINUOUS
 62
    64
 10
34.695173
 20
-64.994013
 11
34.807493
 21
-65.217568
  0
LINE
  8
ボルト／ビス
  6
CONTINUOUS
 62
    64
 10
34.307963
 20
-65.18856
 11
34.420283
 21
-65.412112
  0
CIRCLE
  8
ボルト／ビス
  6
CONTINUOUS
 62
    64
 10
34.557727
 20
-65.203063
 40
0.216668
  0
ENDBLK
  0
BLOCK
  2
*DIM_0012
 70
    65
 10
0.0
 20
0.0
  0
LINE
  8
寸法
  6
BYBLOCK
 62
     0
 10
-73.442275
 20
39.4807
 11
-86.735113
 21
39.4807
  0
LINE
  8
寸法
  6
BYBLOCK
 62
     0
 10
-73.442275
 20
26.147365
 11
-86.735113
 21
26.147365
  0
LINE
  8
寸法
  6
BYBLOCK
 62
     0
 10
-86.735113
 20
39.4807
 11
-86.735113
 21
26.147365
  0
POINT
  8
寸法
 62
     0
 10
-86.735113
 20
39.4807
  0
POINT
  8
寸法
 62
     0
 10
-86.735113
 20
26.147365
  0
TEXT
  7
TextStyle03
  8
寸法
  6
CONTINUOUS
 62
     0
 10
-87.15
 20
30.3625
  1
400
 40
3.0
 50
90.0
 72
     5
 11
-87.15
 21
35.2375
  0
ENDBLK
  0
BLOCK
  2
*DIM_0013
 70
    65
 10
0.0
 20
0.0
  0
LINE
  8
寸法
  6
BYBLOCK
 62
     0
 10
-65.442273
 20
45.814033
 11
-65.442273
 21
74.922105
  0
LINE
  8
寸法
  6
BYBLOCK
 62
     0
 10
-38.775608
 20
45.814033
 11
-38.775608
 21
74.922105
  0
LINE
  8
寸法
  6
BYBLOCK
 62
     0
 10
-65.442273
 20
74.922105
 11
-38.775608
 21
74.922105
  0
POINT
  8
寸法
 62
     0
 10
-65.442273
 20
74.922105
  0
POINT
  8
寸法
 62
     0
 10
-38.775608
 20
74.922105
  0
TEXT
  7
TextStyle03
  8
寸法
  6
CONTINUOUS
 62
     0
 10
-54.5625
 20
75.3
  1
800
 40
3.0
 72
     5
 11
-49.6875
 21
75.3
  0
ENDBLK
  0
BLOCK
  2
*DIM_0014
 70
    65
 10
0.0
 20
0.0
  0
LINE
  8
寸法
  6
BYBLOCK
 62
     0
 10
-12.10894
 20
45.814033
 11
-12.10894
 21
74.922105
  0
LINE
  8
寸法
  6
BYBLOCK
 62
     0
 10
-38.775608
 20
74.922105
 11
-12.10894
 21
74.922105
  0
POINT
  8
寸法
 62
     0
 10
-12.10894
 20
74.922105
  0
TEXT
  7
TextStyle03
  8
寸法
  6
CONTINUOUS
 62
     0
 10
-27.9125
 20
75.3
  1
800
 40
3.0
 72
     5
 11
-23.0375
 21
75.3
  0
ENDBLK
  0
BLOCK
  2
*DIM_0015
 70
    65
 10
0.0
 20
0.0
  0
LINE
  8
寸法
  6
BYBLOCK
 62
     0
 10
14.557727
 20
45.814033
 11
14.557727
 21
74.922105
  0
LINE
  8
寸法
  6
BYBLOCK
 62
     0
 10
-12.10894
 20
74.922105
 11
14.557727
 21
74.922105
  0
POINT
  8
寸法
 62
     0
 10
14.557727
 20
74.922105
  0
TEXT
  7
TextStyle03
  8
寸法
  6
CONTINUOUS
 62
     0
 10
-1.2375
 20
75.3
  1
800
 40
3.0
 72
     5
 11
3.6375
 21
75.3
  0
ENDBLK
  0
BLOCK
  2
*DIM_0016
 70
    65
 10
0.0
 20
0.0
  0
LINE
  8
寸法
  6
BYBLOCK
 62
     0
 10
41.224393
 20
45.814033
 11
41.224393
 21
74.922105
  0
LINE
  8
寸法
  6
BYBLOCK
 62
     0
 10
14.557727
 20
74.922105
 11
41.224393
 21
74.922105
  0
POINT
  8
寸法
 62
     0
 10
41.224393
 20
74.922105
  0
TEXT
  7
TextStyle03
  8
寸法
  6
CONTINUOUS
 62
     0
 10
25.4375
 20
75.3
  1
800
 40
3.0
 72
     5
 11
30.3125
 21
75.3
  0
ENDBLK
  0
BLOCK
  2
*DIM_0017
 70
    65
 10
0.0
 20
0.0
  0
LINE
  8
寸法
  6
CONTINUOUS
 10
142.310947
 20
-63.785395
 11
150.422478
 21
-63.785395
  0
LINE
  8
寸法
  6
CONTINUOUS
 10
142.310947
 20
-83.118728
 11
150.422478
 21
-83.118728
  0
LINE
  8
寸法
  6
CONTINUOUS
 10
150.422478
 20
-63.785395
 11
150.422478
 21
-83.118728
  0
POINT
  8
寸法
 10
150.422478
 20
-63.785395
  0
POINT
  8
寸法
 10
150.422478
 20
-83.118728
  0
TEXT
  7
TextStyle03
  8
寸法
  6
CONTINUOUS
 10
150.025
 20
-75.9125
  1
600
 40
3.0
 50
90.0
 72
     5
 11
150.025
 21
-71.0375
  0
ENDBLK
  0
BLOCK
  2
*DIM_0018
 70
    65
 10
0.0
 20
0.0
  0
LINE
  8
寸法
  6
BYBLOCK
 62
     0
 10
88.38754
 20
22.814033
 11
88.38754
 21
42.814033
  0
POINT
  8
寸法
 62
     0
 10
88.38754
 20
22.814033
  0
POINT
  8
寸法
 62
     0
 10
88.38754
 20
42.814033
  0
TEXT
  7
TextStyle03
  8
寸法
  6
CONTINUOUS
 62
     0
 10
88.0
 20
21.925
  1
呼称寸法　600
 40
3.0
 50
90.0
 72
     5
 11
88.0
 21
43.675
  0
ENDBLK
  0
BLOCK
  2
*DIM_0019
 70
    65
 10
0.0
 20
0.0
  0
LINE
  8
寸法
  6
BYBLOCK
 62
     0
 10
138.567822
 20
33.814033
 11
138.567822
 21
60.666798
  0
LINE
  8
寸法
  6
BYBLOCK
 62
     0
 10
143.901155
 20
60.666798
 11
138.567822
 21
60.666798
  0
POINT
  8
寸法
 62
     0
 10
143.901155
 20
60.666798
  0
POINT
  8
寸法
 62
     0
 10
138.567822
 20
60.666798
  0
TEXT
  7
TextStyle03
  8
寸法
  6
CONTINUOUS
 62
     0
 10
138.7875
 20
61.025
  1
160
 40
3.0
 72
     5
 11
143.6625
 21
61.025
  0
ENDBLK
  0
BLOCK
  2
*DIM_0020
 70
    65
 10
0.0
 20
0.0
  0
LINE
  8
寸法
  6
CONTINUOUS
 10
88.38754
 20
22.814033
 11
88.38754
 21
20.0507
  0
POINT
  8
寸法
 10
88.38754
 20
22.814033
  0
POINT
  8
寸法
 10
88.38754
 20
20.0507
  0
TEXT
  7
TextStyle03
  8
寸法
  6
CONTINUOUS
 10
87.5
 20
12.89375
  1
82.9
 40
3.0
 50
90.0
 72
     5
 11
87.5
 21
19.45625
  0
ENDBLK
  0
BLOCK
  2
*DIM_0021
 70
    65
 10
0.0
 20
0.0
  0
LINE
  8
寸法
  6
CONTINUOUS
 10
88.38754
 20
42.814033
 11
88.38754
 21
45.577365
  0
POINT
  8
寸法
 10
88.38754
 20
42.814033
  0
POINT
  8
寸法
 10
88.38754
 20
45.577365
  0
TEXT
  7
TextStyle03
  8
寸法
  6
CONTINUOUS
 10
87.25
 20
45.46875
  1
82.9
 40
3.0
 50
90.0
 72
     5
 11
87.25
 21
52.03125
  0
ENDBLK
  0
BLOCK
  2
*DIM_0022
 70
    65
 10
0.0
 20
0.0
  0
LINE
  8
寸法
  6
CONTINUOUS
 10
46.224393
 20
-13.121378
 11
48.987725
 21
-13.121378
  0
POINT
  8
寸法
 10
46.224393
 20
-13.121378
  0
POINT
  8
寸法
 10
48.987725
 20
-13.121378
  0
TEXT
  7
TextStyle03
  8
寸法
  6
CONTINUOUS
 10
47.19375
 20
-12.2
  1
82.9
 40
3.0
 72
     5
 11
53.75625
 21
-12.2
  0
ENDBLK
  0
BLOCK
  2
*DIM_0023
 70
    65
 10
0.0
 20
0.0
  0
LINE
  8
寸法
  6
CONTINUOUS
 10
-70.442275
 20
-13.121378
 11
-73.205605
 21
-13.121378
  0
POINT
  8
寸法
 10
-70.442275
 20
-13.121378
  0
POINT
  8
寸法
 10
-73.205605
 20
-13.121378
  0
TEXT
  7
TextStyle03
  8
寸法
  6
CONTINUOUS
 10
-77.85625
 20
-12.4
  1
82.9
 40
3.0
 72
     5
 11
-71.29375
 21
-12.4
  0
ENDBLK
  0
BLOCK
  2
*DIM_0026
 70
    65
 10
0.0
 20
0.0
  0
LINE
  8
寸法
  6
CONTINUOUS
 10
141.310947
 20
-58.785395
 11
141.310947
 21
-52.78329
  0
LINE
  8
寸法
  6
CONTINUOUS
 10
103.14428
 20
-58.785395
 11
103.14428
 21
-52.78329
  0
LINE
  8
寸法
  6
CONTINUOUS
 10
141.310947
 20
-52.78329
 11
103.14428
 21
-52.78329
  0
POINT
  8
寸法
 10
141.310947
 20
-52.78329
  0
POINT
  8
寸法
 10
103.14428
 20
-52.78329
  0
TEXT
  7
TextStyle03
  8
寸法
  6
CONTINUOUS
 10
118.94375
 20
-52.425
  1
1145
 40
3.0
 72
     5
 11
125.50625
 21
-52.425
  0
ENDBLK
  0
BLOCK
  2
*GRP_0027
 70
    65
 10
0.0
 20
0.0
  0
LINE
  8
ボルト／ビス
  6
CONTINUOUS
 10
143.901155
 20
43.4807
 11
143.43449
 21
43.4807
  0
LINE
  8
ボルト／ビス
  6
CONTINUOUS
 10
143.901155
 20
43.114035
 11
143.83449
 21
43.114035
  0
LINE
  8
ボルト／ビス
  6
CONTINUOUS
 10
143.83449
 20
43.114035
 11
143.83449
 21
43.847367
  0
LINE
  8
ボルト／ビス
  6
CONTINUOUS
 10
143.83449
 20
43.847367
 11
143.901155
 21
43.847367
  0
LINE
  8
ボルト／ビス
  6
CONTINUOUS
 10
143.901155
 20
43.114035
 11
143.901155
 21
43.847367
  0
LINE
  8
ボルト／ビス
  6
CONTINUOUS
 10
143.801155
 20
43.1807
 11
143.83449
 21
43.1807
  0
LINE
  8
ボルト／ビス
  6
CONTINUOUS
 10
143.801155
 20
43.1807
 11
143.801155
 21
43.7807
  0
LINE
  8
ボルト／ビス
  6
CONTINUOUS
 10
143.801155
 20
43.7807
 11
143.83449
 21
43.7807
  0
LINE
  8
ボルト／ビス
  6
CONTINUOUS
 62
    64
 10
143.601155
 20
43.320325
 11
143.61283
 21
43.28825
  0
ARC
  8
ボルト／ビス
  6
CONTINUOUS
 62
    64
 10
143.706133
 20
43.336365
 40
0.104978
 50
152.721967
 51
180.0
  0
ARC
  8
ボルト／ビス
  6
CONTINUOUS
 62
    64
 10
144.003557
 20
43.480703
 40
0.402402
 50
166.165002
 51
193.834985
  0
LINE
  8
ボルト／ビス
  6
CONTINUOUS
 62
    64
 10
143.601155
 20
43.641075
 11
143.61283
 21
43.67315
  0
ARC
  8
ボルト／ビス
  6
CONTINUOUS
 62
    64
 10
143.706133
 20
43.62504
 40
0.104978
 50
180.0
 51
207.278033
  0
LINE
  8
ボルト／ビス
  6
CONTINUOUS
 62
    64
 10
143.601155
 20
43.320325
 11
143.601155
 21
43.641075
  0
LINE
  8
ボルト／ビス
  6
CONTINUOUS
 62
    64
 10
143.61283
 20
43.67315
 11
143.73449
 21
43.67315
  0
LINE
  8
ボルト／ビス
  6
CONTINUOUS
 62
    64
 10
143.61283
 20
43.576925
 11
143.73449
 21
43.576925
  0
LINE
  8
ボルト／ビス
  6
CONTINUOUS
 62
    64
 10
143.61283
 20
43.28825
 11
143.73449
 21
43.28825
  0
LINE
  8
ボルト／ビス
  6
CONTINUOUS
 62
    64
 10
143.61283
 20
43.384475
 11
143.73449
 21
43.384475
  0
LINE
  8
ボルト／ビス
  6
CONTINUOUS
 10
143.73449
 20
43.28825
 11
143.73449
 21
43.67315
  0
LINE
  8
ボルト／ビス
  6
CONTINUOUS
 10
143.73449
 20
43.2807
 11
143.801155
 21
43.2807
  0
LINE
  8
ボルト／ビス
  6
CONTINUOUS
 10
143.73449
 20
43.2807
 11
143.73449
 21
43.6807
  0
LINE
  8
ボルト／ビス
  6
CONTINUOUS
 10
143.73449
 20
43.6807
 11
143.801155
 21
43.6807
  0
ENDBLK
  0
BLOCK
  2
*GRP_0028
 70
    65
 10
0.0
 20
0.0
  0
LINE
  8
ボルト／ビス
  6
CONTINUOUS
 10
143.901155
 20
22.147365
 11
143.43449
 21
22.147365
  0
LINE
  8
ボルト／ビス
  6
CONTINUOUS
 10
143.901155
 20
22.51403
 11
143.83449
 21
22.51403
  0
LINE
  8
ボルト／ビス
  6
CONTINUOUS
 10
143.83449
 20
22.51403
 11
143.83449
 21
21.780697
  0
LINE
  8
ボルト／ビス
  6
CONTINUOUS
 10
143.83449
 20
21.780697
 11
143.901155
 21
21.780697
  0
LINE
  8
ボルト／ビス
  6
CONTINUOUS
 10
143.901155
 20
22.51403
 11
143.901155
 21
21.780697
  0
LINE
  8
ボルト／ビス
  6
CONTINUOUS
 10
143.801155
 20
22.447365
 11
143.83449
 21
22.447365
  0
LINE
  8
ボルト／ビス
  6
CONTINUOUS
 10
143.801155
 20
22.447365
 11
143.801155
 21
21.847365
  0
LINE
  8
ボルト／ビス
  6
CONTINUOUS
 10
143.801155
 20
21.847365
 11
143.83449
 21
21.847365
  0
LINE
  8
ボルト／ビス
  6
CONTINUOUS
 62
    64
 10
143.601155
 20
22.30774
 11
143.61283
 21
22.339815
  0
ARC
  8
ボルト／ビス
  6
CONTINUOUS
 62
    64
 10
143.706133
 20
22.2917
 40
0.104978
 50
180.0
 51
207.278033
  0
ARC
  8
ボルト／ビス
  6
CONTINUOUS
 62
    64
 10
144.003557
 20
22.147362
 40
0.402402
 50
166.165015
 51
193.834998
  0
LINE
  8
ボルト／ビス
  6
CONTINUOUS
 62
    64
 10
143.601155
 20
21.98699
 11
143.61283
 21
21.954915
  0
ARC
  8
ボルト／ビス
  6
CONTINUOUS
 62
    64
 10
143.706133
 20
22.003025
 40
0.104978
 50
152.721967
 51
180.0
  0
LINE
  8
ボルト／ビス
  6
CONTINUOUS
 62
    64
 10
143.601155
 20
22.30774
 11
143.601155
 21
21.98699
  0
LINE
  8
ボルト／ビス
  6
CONTINUOUS
 62
    64
 10
143.61283
 20
21.954915
 11
143.73449
 21
21.954915
  0
LINE
  8
ボルト／ビス
  6
CONTINUOUS
 62
    64
 10
143.61283
 20
22.05114
 11
143.73449
 21
22.05114
  0
LINE
  8
ボルト／ビス
  6
CONTINUOUS
 62
    64
 10
143.61283
 20
22.339815
 11
143.73449
 21
22.339815
  0
LINE
  8
ボルト／ビス
  6
CONTINUOUS
 62
    64
 10
143.61283
 20
22.24359
 11
143.73449
 21
22.24359
  0
LINE
  8
ボルト／ビス
  6
CONTINUOUS
 10
143.73449
 20
22.339815
 11
143.73449
 21
21.954915
  0
LINE
  8
ボルト／ビス
  6
CONTINUOUS
 10
143.73449
 20
22.347365
 11
143.801155
 21
22.347365
  0
LINE
  8
ボルト／ビス
  6
CONTINUOUS
 10
143.73449
 20
22.347365
 11
143.73449
 21
21.947365
  0
LINE
  8
ボルト／ビス
  6
CONTINUOUS
 10
143.73449
 20
21.947365
 11
143.801155
 21
21.947365
  0
ENDBLK
  0
BLOCK
  2
*GRP_0029
 70
    65
 10
0.0
 20
0.0
  0
LINE
  8
型材断面
  6
DOT
 10
137.617945
 20
32.814033
 11
137.617945
 21
21.453885
  0
LINE
  8
型材断面
  6
DOT
 10
138.767945
 20
32.814033
 11
138.767945
 21
20.0507
  0
LINE
  8
型材断面
  6
DOT
 10
139.934613
 20
32.814033
 11
139.934613
 21
20.0507
  0
LINE
  8
型材断面
  6
DOT
 10
137.617945
 20
32.814033
 11
137.617945
 21
44.17418
  0
LINE
  8
型材断面
  6
DOT
 10
138.767945
 20
32.814033
 11
138.767945
 21
45.577365
  0
LINE
  8
型材断面
  6
DOT
 10
139.934613
 20
32.814033
 11
139.934613
 21
45.577365
  0
LINE
  8
別途部材
  6
DOT
 62
    96
 10
136.567822
 20
21.147365
 11
137.567822
 21
20.747365
  0
LINE
  8
別途部材
  6
DOT
 62
    96
 10
136.567822
 20
21.147365
 11
136.567822
 21
32.814033
  0
LINE
  8
別途部材
  6
DOT
 10
137.567822
 20
20.747365
 11
137.567822
 21
32.814033
  0
LINE
  8
別途部材
  6
DOT
 62
    96
 10
136.567822
 20
44.4807
 11
137.567822
 21
44.8807
  0
LINE
  8
別途部材
  6
DOT
 62
    96
 10
136.567822
 20
44.4807
 11
136.567822
 21
32.814033
  0
LINE
  8
別途部材
  6
DOT
 10
137.567822
 20
44.8807
 11
137.567822
 21
32.814033
  0
ARC
  8
別途部材
  6
DOT
 10
143.276157
 20
32.814033
 40
12.041667
 50
123.855033
 51
236.144967
  0
LINE
  8
鉄骨等
  6
DOT
 62
    47
 10
139.934613
 20
20.0507
 11
138.767945
 21
20.0507
  0
LINE
  8
鉄骨等
  6
DOT
 62
    47
 10
138.767945
 20
20.0507
 11
137.617945
 21
21.453885
  0
LINE
  8
鉄骨等
  6
DOT
 62
    47
 10
137.617945
 20
21.453885
 11
137.567825
 21
21.453885
  0
LINE
  8
鉄骨等
  6
DOT
 62
    47
 10
139.934613
 20
45.577365
 11
138.767945
 21
45.577365
  0
LINE
  8
鉄骨等
  6
DOT
 62
    47
 10
138.767945
 20
45.577365
 11
137.617945
 21
44.17418
  0
LINE
  8
鉄骨等
  6
DOT
 62
    47
 10
137.617945
 20
44.17418
 11
137.567825
 21
44.17418
  0
ENDBLK
  0
BLOCK
  2
*GRP_0030
 70
    65
 10
0.0
 20
0.0
  0
LINE
  8
ボルト／ビス
  6
DOT
 10
136.567822
 20
43.4807
 11
136.101158
 21
43.4807
  0
LINE
  8
ボルト／ビス
  6
DOT
 10
136.567822
 20
43.114035
 11
136.501158
 21
43.114035
  0
LINE
  8
ボルト／ビス
  6
DOT
 10
136.501158
 20
43.114035
 11
136.501158
 21
43.847367
  0
LINE
  8
ボルト／ビス
  6
DOT
 10
136.501158
 20
43.847367
 11
136.567822
 21
43.847367
  0
LINE
  8
ボルト／ビス
  6
DOT
 10
136.567822
 20
43.114035
 11
136.567822
 21
43.847367
  0
LINE
  8
ボルト／ビス
  6
DOT
 10
136.467822
 20
43.1807
 11
136.501158
 21
43.1807
  0
LINE
  8
ボルト／ビス
  6
DOT
 10
136.467822
 20
43.1807
 11
136.467822
 21
43.7807
  0
LINE
  8
ボルト／ビス
  6
DOT
 10
136.467822
 20
43.7807
 11
136.501158
 21
43.7807
  0
LINE
  8
ボルト／ビス
  6
DOT
 62
    64
 10
136.267822
 20
43.320325
 11
136.279498
 21
43.28825
  0
ARC
  8
ボルト／ビス
  6
DOT
 62
    64
 10
136.372801
 20
43.336365
 40
0.104978
 50
152.721967
 51
180.0
  0
ARC
  8
ボルト／ビス
  6
DOT
 62
    64
 10
136.670224
 20
43.480703
 40
0.402402
 50
166.165002
 51
193.834985
  0
LINE
  8
ボルト／ビス
  6
DOT
 62
    64
 10
136.267822
 20
43.641075
 11
136.279498
 21
43.67315
  0
ARC
  8
ボルト／ビス
  6
DOT
 62
    64
 10
136.372801
 20
43.62504
 40
0.104978
 50
180.0
 51
207.278033
  0
LINE
  8
ボルト／ビス
  6
DOT
 62
    64
 10
136.267822
 20
43.320325
 11
136.267822
 21
43.641075
  0
LINE
  8
ボルト／ビス
  6
DOT
 62
    64
 10
136.279498
 20
43.67315
 11
136.401158
 21
43.67315
  0
LINE
  8
ボルト／ビス
  6
DOT
 62
    64
 10
136.279498
 20
43.576925
 11
136.401158
 21
43.576925
  0
LINE
  8
ボルト／ビス
  6
DOT
 62
    64
 10
136.279498
 20
43.28825
 11
136.401158
 21
43.28825
  0
LINE
  8
ボルト／ビス
  6
DOT
 62
    64
 10
136.279498
 20
43.384475
 11
136.401158
 21
43.384475
  0
LINE
  8
ボルト／ビス
  6
DOT
 10
136.401158
 20
43.28825
 11
136.401158
 21
43.67315
  0
LINE
  8
ボルト／ビス
  6
DOT
 10
136.401158
 20
43.2807
 11
136.467822
 21
43.2807
  0
LINE
  8
ボルト／ビス
  6
DOT
 10
136.401158
 20
43.2807
 11
136.401158
 21
43.6807
  0
LINE
  8
ボルト／ビス
  6
DOT
 10
136.401158
 20
43.6807
 11
136.467822
 21
43.6807
  0
ENDBLK
  0
BLOCK
  2
*GRP_0031
 70
    65
 10
0.0
 20
0.0
  0
LINE
  8
ボルト／ビス
  6
DOT
 10
136.567822
 20
22.147365
 11
136.101158
 21
22.147365
  0
LINE
  8
ボルト／ビス
  6
DOT
 10
136.567822
 20
22.51403
 11
136.501158
 21
22.51403
  0
LINE
  8
ボルト／ビス
  6
DOT
 10
136.501158
 20
22.51403
 11
136.501158
 21
21.780697
  0
LINE
  8
ボルト／ビス
  6
DOT
 10
136.501158
 20
21.780697
 11
136.567822
 21
21.780697
  0
LINE
  8
ボルト／ビス
  6
DOT
 10
136.567822
 20
22.51403
 11
136.567822
 21
21.780697
  0
LINE
  8
ボルト／ビス
  6
DOT
 10
136.467822
 20
22.447365
 11
136.501158
 21
22.447365
  0
LINE
  8
ボルト／ビス
  6
DOT
 10
136.467822
 20
22.447365
 11
136.467822
 21
21.847365
  0
LINE
  8
ボルト／ビス
  6
DOT
 10
136.467822
 20
21.847365
 11
136.501158
 21
21.847365
  0
LINE
  8
ボルト／ビス
  6
DOT
 62
    64
 10
136.267822
 20
22.30774
 11
136.279498
 21
22.339815
  0
ARC
  8
ボルト／ビス
  6
DOT
 62
    64
 10
136.372801
 20
22.2917
 40
0.104978
 50
180.0
 51
207.278033
  0
ARC
  8
ボルト／ビス
  6
DOT
 62
    64
 10
136.670224
 20
22.147362
 40
0.402402
 50
166.165015
 51
193.834998
  0
LINE
  8
ボルト／ビス
  6
DOT
 62
    64
 10
136.267822
 20
21.98699
 11
136.279498
 21
21.954915
  0
ARC
  8
ボルト／ビス
  6
DOT
 62
    64
 10
136.372801
 20
22.003025
 40
0.104978
 50
152.721967
 51
180.0
  0
LINE
  8
ボルト／ビス
  6
DOT
 62
    64
 10
136.267822
 20
22.30774
 11
136.267822
 21
21.98699
  0
LINE
  8
ボルト／ビス
  6
DOT
 62
    64
 10
136.279498
 20
21.954915
 11
136.401158
 21
21.954915
  0
LINE
  8
ボルト／ビス
  6
DOT
 62
    64
 10
136.279498
 20
22.05114
 11
136.401158
 21
22.05114
  0
LINE
  8
ボルト／ビス
  6
DOT
 62
    64
 10
136.279498
 20
22.339815
 11
136.401158
 21
22.339815
  0
LINE
  8
ボルト／ビス
  6
DOT
 62
    64
 10
136.279498
 20
22.24359
 11
136.401158
 21
22.24359
  0
LINE
  8
ボルト／ビス
  6
DOT
 10
136.401158
 20
22.339815
 11
136.401158
 21
21.954915
  0
LINE
  8
ボルト／ビス
  6
DOT
 10
136.401158
 20
22.347365
 11
136.467822
 21
22.347365
  0
LINE
  8
ボルト／ビス
  6
DOT
 10
136.401158
 20
22.347365
 11
136.401158
 21
21.947365
  0
LINE
  8
ボルト／ビス
  6
DOT
 10
136.401158
 20
21.947365
 11
136.467822
 21
21.947365
  0
ENDBLK
  0
BLOCK
  2
*GRP_0032
 70
    65
 10
0.0
 20
0.0
  0
LINE
  8
ボルト／ビス
  6
CONTINUOUS
 10
46.891057
 20
-70.209608
 11
46.891057
 21
-69.742943
  0
LINE
  8
ボルト／ビス
  6
CONTINUOUS
 10
46.524393
 20
-70.209608
 11
46.524393
 21
-70.142943
  0
LINE
  8
ボルト／ビス
  6
CONTINUOUS
 10
46.524393
 20
-70.142943
 11
47.257725
 21
-70.142943
  0
LINE
  8
ボルト／ビス
  6
CONTINUOUS
 10
47.257725
 20
-70.142943
 11
47.257725
 21
-70.209608
  0
LINE
  8
ボルト／ビス
  6
CONTINUOUS
 10
46.524393
 20
-70.209608
 11
47.257725
 21
-70.209608
  0
LINE
  8
ボルト／ビス
  6
CONTINUOUS
 10
46.591057
 20
-70.109608
 11
46.591057
 21
-70.142943
  0
LINE
  8
ボルト／ビス
  6
CONTINUOUS
 10
46.591057
 20
-70.109608
 11
47.191057
 21
-70.109608
  0
LINE
  8
ボルト／ビス
  6
CONTINUOUS
 10
47.191057
 20
-70.109608
 11
47.191057
 21
-70.142943
  0
LINE
  8
ボルト／ビス
  6
CONTINUOUS
 62
    64
 10
46.730682
 20
-69.909608
 11
46.698608
 21
-69.921282
  0
ARC
  8
ボルト／ビス
  6
CONTINUOUS
 62
    64
 10
46.746721
 20
-70.014585
 40
0.104978
 50
62.721967
 51
90.0
  0
ARC
  8
ボルト／ビス
  6
CONTINUOUS
 62
    64
 10
46.891059
 20
-70.312009
 40
0.402402
 50
76.165002
 51
103.834985
  0
LINE
  8
ボルト／ビス
  6
CONTINUOUS
 62
    64
 10
47.051433
 20
-69.909608
 11
47.083508
 21
-69.921282
  0
ARC
  8
ボルト／ビス
  6
CONTINUOUS
 62
    64
 10
47.035397
 20
-70.014585
 40
0.104978
 50
90.0
 51
117.278033
  0
LINE
  8
ボルト／ビス
  6
CONTINUOUS
 62
    64
 10
46.730682
 20
-69.909608
 11
47.051433
 21
-69.909608
  0
LINE
  8
ボルト／ビス
  6
CONTINUOUS
 62
    64
 10
47.083508
 20
-69.921282
 11
47.083508
 21
-70.042943
  0
LINE
  8
ボルト／ビス
  6
CONTINUOUS
 62
    64
 10
46.987283
 20
-69.921282
 11
46.987283
 21
-70.042943
  0
LINE
  8
ボルト／ビス
  6
CONTINUOUS
 62
    64
 10
46.698608
 20
-69.921282
 11
46.698608
 21
-70.042943
  0
LINE
  8
ボルト／ビス
  6
CONTINUOUS
 62
    64
 10
46.794832
 20
-69.921282
 11
46.794832
 21
-70.042943
  0
LINE
  8
ボルト／ビス
  6
CONTINUOUS
 10
46.698608
 20
-70.042943
 11
47.083508
 21
-70.042943
  0
LINE
  8
ボルト／ビス
  6
CONTINUOUS
 10
46.691057
 20
-70.042943
 11
46.691057
 21
-70.109608
  0
LINE
  8
ボルト／ビス
  6
CONTINUOUS
 10
46.691057
 20
-70.042943
 11
47.091057
 21
-70.042943
  0
LINE
  8
ボルト／ビス
  6
CONTINUOUS
 10
47.091057
 20
-70.042943
 11
47.091057
 21
-70.109608
  0
ENDBLK
  0
BLOCK
  2
*GRP_0033
 70
    65
 10
0.0
 20
0.0
  0
LINE
  8
ボルト／ビス
  6
DOT
 10
46.891057
 20
-62.876275
 11
46.891057
 21
-62.40961
  0
LINE
  8
ボルト／ビス
  6
DOT
 10
46.524393
 20
-62.876275
 11
46.524393
 21
-62.80961
  0
LINE
  8
ボルト／ビス
  6
DOT
 10
46.524393
 20
-62.80961
 11
47.257725
 21
-62.80961
  0
LINE
  8
ボルト／ビス
  6
DOT
 10
47.257725
 20
-62.80961
 11
47.257725
 21
-62.876275
  0
LINE
  8
ボルト／ビス
  6
DOT
 10
46.524393
 20
-62.876275
 11
47.257725
 21
-62.876275
  0
LINE
  8
ボルト／ビス
  6
DOT
 10
46.591057
 20
-62.776275
 11
46.591057
 21
-62.80961
  0
LINE
  8
ボルト／ビス
  6
DOT
 10
46.591057
 20
-62.776275
 11
47.191057
 21
-62.776275
  0
LINE
  8
ボルト／ビス
  6
DOT
 10
47.191057
 20
-62.776275
 11
47.191057
 21
-62.80961
  0
LINE
  8
ボルト／ビス
  6
DOT
 62
    64
 10
46.730682
 20
-62.576275
 11
46.698608
 21
-62.58795
  0
ARC
  8
ボルト／ビス
  6
DOT
 62
    64
 10
46.746721
 20
-62.681252
 40
0.104978
 50
62.721967
 51
90.0
  0
ARC
  8
ボルト／ビス
  6
DOT
 62
    64
 10
46.891059
 20
-62.978676
 40
0.402402
 50
76.165002
 51
103.834985
  0
LINE
  8
ボルト／ビス
  6
DOT
 62
    64
 10
47.051433
 20
-62.576275
 11
47.083508
 21
-62.58795
  0
ARC
  8
ボルト／ビス
  6
DOT
 62
    64
 10
47.035397
 20
-62.681252
 40
0.104978
 50
90.0
 51
117.278033
  0
LINE
  8
ボルト／ビス
  6
DOT
 62
    64
 10
46.730682
 20
-62.576275
 11
47.051433
 21
-62.576275
  0
LINE
  8
ボルト／ビス
  6
DOT
 62
    64
 10
47.083508
 20
-62.58795
 11
47.083508
 21
-62.70961
  0
LINE
  8
ボルト／ビス
  6
DOT
 62
    64
 10
46.987283
 20
-62.58795
 11
46.987283
 21
-62.70961
  0
LINE
  8
ボルト／ビス
  6
DOT
 62
    64
 10
46.698608
 20
-62.58795
 11
46.698608
 21
-62.70961
  0
LINE
  8
ボルト／ビス
  6
DOT
 62
    64
 10
46.794832
 20
-62.58795
 11
46.794832
 21
-62.70961
  0
LINE
  8
ボルト／ビス
  6
DOT
 10
46.698608
 20
-62.70961
 11
47.083508
 21
-62.70961
  0
LINE
  8
ボルト／ビス
  6
DOT
 10
46.691057
 20
-62.70961
 11
46.691057
 21
-62.776275
  0
LINE
  8
ボルト／ビス
  6
DOT
 10
46.691057
 20
-62.70961
 11
47.091057
 21
-62.70961
  0
LINE
  8
ボルト／ビス
  6
DOT
 10
47.091057
 20
-62.70961
 11
47.091057
 21
-62.776275
  0
ENDBLK
  0
BLOCK
  2
*DIM_0034
 70
    65
 10
0.0
 20
0.0
  0
LINE
  8
寸法
  6
CONTINUOUS
 10
143.901155
 20
49.4807
 11
143.901155
 21
60.666798
  0
LINE
  8
寸法
  6
CONTINUOUS
 10
151.401162
 20
50.577365
 11
151.401162
 21
60.666798
  0
LINE
  8
寸法
  6
CONTINUOUS
 10
143.901155
 20
60.666798
 11
151.401162
 21
60.666798
  0
POINT
  8
寸法
 10
143.901155
 20
60.666798
  0
POINT
  8
寸法
 10
151.401162
 20
60.666798
  0
TEXT
  7
TextStyle03
  8
寸法
  6
CONTINUOUS
 10
145.2125
 20
61.025
  1
225
 40
3.0
 72
     5
 11
150.0875
 21
61.025
  0
ENDBLK
  0
BLOCK
  2
*GRP_0035
 70
    65
 10
0.0
 20
0.0
  0
LINE
  8
型材断面
  6
DOT
 10
-12.10894
 20
-63.926403
 11
-71.80242
 21
-63.926403
  0
LINE
  8
型材断面
  6
DOT
 10
-12.10894
 20
-65.076403
 11
-73.205605
 21
-65.076403
  0
LINE
  8
型材断面
  6
DOT
 10
-12.10894
 20
-66.24307
 11
-73.205605
 21
-66.24307
  0
LINE
  8
型材断面
  6
DOT
 10
-12.10894
 20
-63.926403
 11
47.58454
 21
-63.926403
  0
LINE
  8
型材断面
  6
DOT
 10
-12.10894
 20
-65.076403
 11
48.987725
 21
-65.076403
  0
LINE
  8
型材断面
  6
DOT
 10
-12.10894
 20
-66.24307
 11
48.987725
 21
-66.24307
  0
LINE
  8
別途部材
  6
DOT
 62
    96
 10
-72.10894
 20
-62.87628
 11
-72.50894
 21
-63.87628
  0
ARC
  8
別途部材
  6
DOT
 10
-60.442272
 20
-69.584613
 40
12.041668
 50
90.0
 51
146.144967
  0
LINE
  8
別途部材
  6
DOT
 10
-72.50894
 20
-63.87628
 11
-12.10894
 21
-63.87628
  0
LINE
  8
別途部材
  6
DOT
 62
    96
 10
-72.10894
 20
-62.87628
 11
-12.10894
 21
-62.87628
  0
LINE
  8
別途部材
  6
DOT
 10
-57.60894
 20
-57.542947
 11
-60.442273
 21
-57.542947
  0
LINE
  8
別途部材
  6
DOT
 62
    96
 10
47.89106
 20
-62.87628
 11
48.29106
 21
-63.87628
  0
ARC
  8
別途部材
  6
DOT
 10
36.224392
 20
-69.584613
 40
12.041668
 50
33.855033
 51
90.0
  0
LINE
  8
別途部材
  6
DOT
 10
48.29106
 20
-63.87628
 11
-12.10894
 21
-63.87628
  0
LINE
  8
別途部材
  6
DOT
 62
    96
 10
47.89106
 20
-62.87628
 11
-12.10894
 21
-62.87628
  0
LINE
  8
別途部材
  6
DOT
 10
33.39106
 20
-57.542947
 11
36.224393
 21
-57.542947
  0
LINE
  8
別途部材
  6
DOT
 10
-57.60894
 20
-57.542947
 11
-12.10894
 21
-57.542947
  0
LINE
  8
別途部材
  6
DOT
 10
33.39106
 20
-57.542947
 11
-12.10894
 21
-57.542947
  0
LINE
  8
鉄骨等
  6
DOT
 62
    47
 10
-73.205605
 20
-66.24307
 11
-73.205605
 21
-65.076403
  0
LINE
  8
鉄骨等
  6
DOT
 62
    47
 10
-73.205605
 20
-65.076403
 11
-71.80242
 21
-63.926403
  0
LINE
  8
鉄骨等
  6
DOT
 62
    47
 10
-71.80242
 20
-63.926403
 11
-71.80242
 21
-63.876282
  0
LINE
  8
鉄骨等
  6
DOT
 62
    47
 10
48.987725
 20
-66.24307
 11
48.987725
 21
-65.076403
  0
LINE
  8
鉄骨等
  6
DOT
 62
    47
 10
48.987725
 20
-65.076403
 11
47.58454
 21
-63.926403
  0
LINE
  8
鉄骨等
  6
DOT
 62
    47
 10
47.58454
 20
-63.926403
 11
47.58454
 21
-63.876282
  0
ENDBLK
  0
BLOCK
  2
*GRP_0036
 70
    65
 10
0.0
 20
0.0
  0
LINE
  8
ボルト／ビス
  6
CONTINUOUS
 10
-71.108937
 20
-70.209608
 11
-71.108937
 21
-69.742943
  0
LINE
  8
ボルト／ビス
  6
CONTINUOUS
 10
-70.742273
 20
-70.209608
 11
-70.742273
 21
-70.142943
  0
LINE
  8
ボルト／ビス
  6
CONTINUOUS
 10
-70.742273
 20
-70.142943
 11
-71.475605
 21
-70.142943
  0
LINE
  8
ボルト／ビス
  6
CONTINUOUS
 10
-71.475605
 20
-70.142943
 11
-71.475605
 21
-70.209608
  0
LINE
  8
ボルト／ビス
  6
CONTINUOUS
 10
-70.742273
 20
-70.209608
 11
-71.475605
 21
-70.209608
  0
LINE
  8
ボルト／ビス
  6
CONTINUOUS
 10
-70.808937
 20
-70.109608
 11
-70.808937
 21
-70.142943
  0
LINE
  8
ボルト／ビス
  6
CONTINUOUS
 10
-70.808937
 20
-70.109608
 11
-71.408937
 21
-70.109608
  0
LINE
  8
ボルト／ビス
  6
CONTINUOUS
 10
-71.408937
 20
-70.109608
 11
-71.408937
 21
-70.142943
  0
LINE
  8
ボルト／ビス
  6
CONTINUOUS
 62
    64
 10
-70.948563
 20
-69.909608
 11
-70.916488
 21
-69.921282
  0
ARC
  8
ボルト／ビス
  6
CONTINUOUS
 62
    64
 10
-70.964601
 20
-70.014585
 40
0.104978
 50
90.0
 51
117.278033
  0
ARC
  8
ボルト／ビス
  6
CONTINUOUS
 62
    64
 10
-71.108939
 20
-70.312009
 40
0.402402
 50
76.165015
 51
103.834998
  0
LINE
  8
ボルト／ビス
  6
CONTINUOUS
 62
    64
 10
-71.269312
 20
-69.909608
 11
-71.301387
 21
-69.921282
  0
ARC
  8
ボルト／ビス
  6
CONTINUOUS
 62
    64
 10
-71.253277
 20
-70.014585
 40
0.104978
 50
62.721967
 51
90.0
  0
LINE
  8
ボルト／ビス
  6
CONTINUOUS
 62
    64
 10
-70.948563
 20
-69.909608
 11
-71.269312
 21
-69.909608
  0
LINE
  8
ボルト／ビス
  6
CONTINUOUS
 62
    64
 10
-71.301387
 20
-69.921282
 11
-71.301387
 21
-70.042943
  0
LINE
  8
ボルト／ビス
  6
CONTINUOUS
 62
    64
 10
-71.205163
 20
-69.921282
 11
-71.205163
 21
-70.042943
  0
LINE
  8
ボルト／ビス
  6
CONTINUOUS
 62
    64
 10
-70.916488
 20
-69.921282
 11
-70.916488
 21
-70.042943
  0
LINE
  8
ボルト／ビス
  6
CONTINUOUS
 62
    64
 10
-71.012712
 20
-69.921282
 11
-71.012712
 21
-70.042943
  0
LINE
  8
ボルト／ビス
  6
CONTINUOUS
 10
-70.916488
 20
-70.042943
 11
-71.301387
 21
-70.042943
  0
LINE
  8
ボルト／ビス
  6
CONTINUOUS
 10
-70.908937
 20
-70.042943
 11
-70.908937
 21
-70.109608
  0
LINE
  8
ボルト／ビス
  6
CONTINUOUS
 10
-70.908937
 20
-70.042943
 11
-71.308937
 21
-70.042943
  0
LINE
  8
ボルト／ビス
  6
CONTINUOUS
 10
-71.308937
 20
-70.042943
 11
-71.308937
 21
-70.109608
  0
ENDBLK
  0
BLOCK
  2
*GRP_0037
 70
    65
 10
0.0
 20
0.0
  0
LINE
  8
ボルト／ビス
  6
DOT
 10
-71.108937
 20
-62.876275
 11
-71.108937
 21
-62.40961
  0
LINE
  8
ボルト／ビス
  6
DOT
 10
-70.742273
 20
-62.876275
 11
-70.742273
 21
-62.80961
  0
LINE
  8
ボルト／ビス
  6
DOT
 10
-70.742273
 20
-62.80961
 11
-71.475605
 21
-62.80961
  0
LINE
  8
ボルト／ビス
  6
DOT
 10
-71.475605
 20
-62.80961
 11
-71.475605
 21
-62.876275
  0
LINE
  8
ボルト／ビス
  6
DOT
 10
-70.742273
 20
-62.876275
 11
-71.475605
 21
-62.876275
  0
LINE
  8
ボルト／ビス
  6
DOT
 10
-70.808937
 20
-62.776275
 11
-70.808937
 21
-62.80961
  0
LINE
  8
ボルト／ビス
  6
DOT
 10
-70.808937
 20
-62.776275
 11
-71.408937
 21
-62.776275
  0
LINE
  8
ボルト／ビス
  6
DOT
 10
-71.408937
 20
-62.776275
 11
-71.408937
 21
-62.80961
  0
LINE
  8
ボルト／ビス
  6
DOT
 62
    64
 10
-70.948563
 20
-62.576275
 11
-70.916488
 21
-62.58795
  0
ARC
  8
ボルト／ビス
  6
DOT
 62
    64
 10
-70.964601
 20
-62.681252
 40
0.104978
 50
90.0
 51
117.278033
  0
ARC
  8
ボルト／ビス
  6
DOT
 62
    64
 10
-71.108939
 20
-62.978676
 40
0.402402
 50
76.165015
 51
103.834998
  0
LINE
  8
ボルト／ビス
  6
DOT
 62
    64
 10
-71.269312
 20
-62.576275
 11
-71.301387
 21
-62.58795
  0
ARC
  8
ボルト／ビス
  6
DOT
 62
    64
 10
-71.253277
 20
-62.681252
 40
0.104978
 50
62.721967
 51
90.0
  0
LINE
  8
ボルト／ビス
  6
DOT
 62
    64
 10
-70.948563
 20
-62.576275
 11
-71.269312
 21
-62.576275
  0
LINE
  8
ボルト／ビス
  6
DOT
 62
    64
 10
-71.301387
 20
-62.58795
 11
-71.301387
 21
-62.70961
  0
LINE
  8
ボルト／ビス
  6
DOT
 62
    64
 10
-71.205163
 20
-62.58795
 11
-71.205163
 21
-62.70961
  0
LINE
  8
ボルト／ビス
  6
DOT
 62
    64
 10
-70.916488
 20
-62.58795
 11
-70.916488
 21
-62.70961
  0
LINE
  8
ボルト／ビス
  6
DOT
 62
    64
 10
-71.012712
 20
-62.58795
 11
-71.012712
 21
-62.70961
  0
LINE
  8
ボルト／ビス
  6
DOT
 10
-70.916488
 20
-62.70961
 11
-71.301387
 21
-62.70961
  0
LINE
  8
ボルト／ビス
  6
DOT
 10
-70.908937
 20
-62.70961
 11
-70.908937
 21
-62.776275
  0
LINE
  8
ボルト／ビス
  6
DOT
 10
-70.908937
 20
-62.70961
 11
-71.308937
 21
-62.70961
  0
LINE
  8
ボルト／ビス
  6
DOT
 10
-71.308937
 20
-62.70961
 11
-71.308937
 21
-62.776275
  0
ENDBLK
  0
BLOCK
  2
*DIM_0038
 70
    65
 10
0.0
 20
0.0
  0
LINE
  8
寸法
  6
CONTINUOUS
 10
52.89106
 20
-70.209613
 11
62.194043
 21
-70.209613
  0
LINE
  8
寸法
  6
CONTINUOUS
 10
53.987725
 20
-77.70962
 11
62.194043
 21
-77.70962
  0
LINE
  8
寸法
  6
CONTINUOUS
 10
62.194043
 20
-70.209613
 11
62.194043
 21
-77.70962
  0
POINT
  8
寸法
 10
62.194043
 20
-70.209613
  0
POINT
  8
寸法
 10
62.194043
 20
-77.70962
  0
TEXT
  7
TextStyle03
  8
寸法
  6
CONTINUOUS
 10
61.8
 20
-76.4125
  1
225
 40
3.0
 50
90.0
 72
     5
 11
61.8
 21
-71.5375
  0
ENDBLK
  0
BLOCK
  2
*DIM_0039
 70
    65
 10
0.0
 20
0.0
  0
LINE
  8
寸法
  6
BYBLOCK
 62
     0
 10
39.224393
 20
-57.542947
 11
62.194043
 21
-57.542947
  0
LINE
  8
寸法
  6
BYBLOCK
 62
     0
 10
62.194043
 20
-64.87628
 11
62.194043
 21
-57.542947
  0
POINT
  8
寸法
 62
     0
 10
62.194043
 20
-64.87628
  0
POINT
  8
寸法
 62
     0
 10
62.194043
 20
-57.542947
  0
TEXT
  7
TextStyle03
  8
寸法
  6
CONTINUOUS
 62
     0
 10
61.325
 20
-55.6625
  1
上昇高さ220
 40
3.0
 50
90.0
 72
     5
 11
61.325
 21
-37.2875
  0
ENDBLK
  0
BLOCK
  2
*DIM_0040
 70
    65
 10
0.0
 20
0.0
  0
LINE
  8
寸法
  6
BYBLOCK
 62
     0
 10
131.23449
 20
35.814033
 11
131.23449
 21
60.666798
  0
LINE
  8
寸法
  6
BYBLOCK
 62
     0
 10
138.567822
 20
60.666798
 11
131.23449
 21
60.666798
  0
POINT
  8
寸法
 62
     0
 10
138.567822
 20
60.666798
  0
POINT
  8
寸法
 62
     0
 10
131.23449
 20
60.666798
  0
TEXT
  7
TextStyle03
  8
寸法
  6
CONTINUOUS
 62
     0
 10
110.0625
 20
57.7
  1
上昇高さ220
 40
3.0
 72
     5
 11
128.4375
 21
57.7
  0
ENDBLK
  0
ENDSEC
  0
SECTION
  2
ENTITIES
  0
POLYLINE
  8
通り芯
  6
CONTINUOUS
 66
     1
 70
     1
  0
VERTEX
  8
通り芯
 10
-210.0
 20
-148.5
  0
VERTEX
  8
通り芯
 10
210.0
 20
-148.5
  0
VERTEX
  8
通り芯
 10
210.0
 20
148.5
  0
VERTEX
  8
通り芯
 10
-210.0
 20
148.5
  0
SEQEND
  0
INSERT
  2
*GRP_0001
  8
型材断面
  6
CONTINUOUS
 10
0.0
 20
0.0
  0
LINE
  8
型材断面
  6
DASHDOT
 10
46.224393
 20
-77.836442
 11
46.224393
 21
42.814033
  0
LINE
  8
型材断面
  6
DASHDOT
 10
-12.10894
 20
-77.836442
 11
-12.10894
 21
42.814033
  0
LINE
  8
型材断面
  6
DASHDOT
 10
-70.442275
 20
-77.836442
 11
-70.442275
 21
42.814033
  0
LINE
  8
型材断面
  6
DASHDOT
 10
143.901155
 20
42.814033
 11
-70.442275
 21
42.814033
  0
LINE
  8
型材断面
  6
DASHDOT
 10
143.901155
 20
32.814033
 11
-70.442275
 21
32.814033
  0
LINE
  8
型材断面
  6
DASHDOT
 10
143.901155
 20
22.814033
 11
-70.442275
 21
22.814033
  0
POLYLINE
  8
型材断面
  6
CONTINUOUS
 66
     1
 70
     1
  0
VERTEX
  8
型材断面
 10
-2.750177
 20
13.03811
  0
VERTEX
  8
型材断面
 10
-21.522108
 20
13.03811
  0
VERTEX
  8
型材断面
 10
-21.522108
 20
8.301267
  0
VERTEX
  8
型材断面
 10
-2.750177
 20
8.301267
  0
SEQEND
  0
POLYLINE
  8
型材断面
  6
CONTINUOUS
 66
     1
 70
     1
  0
VERTEX
  8
型材断面
 10
-2.750177
 20
52.589955
  0
VERTEX
  8
型材断面
 10
-21.522108
 20
52.589955
  0
VERTEX
  8
型材断面
 10
-21.522108
 20
57.326798
  0
VERTEX
  8
型材断面
 10
-2.750177
 20
57.326798
  0
SEQEND
  0
LINE
  8
型材断面
  6
CONTINUOUS
 10
-111.294482
 20
80.791505
 11
-110.698427
 21
78.200998
  0
LINE
  8
型材断面
  6
CONTINUOUS
 10
-111.294482
 20
80.791505
 11
-111.89054
 21
78.200998
  0
LINE
  8
型材断面
  6
CONTINUOUS
 10
-111.89054
 20
78.200998
 11
-110.698427
 21
78.200998
  0
LINE
  8
型材断面
  6
CONTINUOUS
 10
-117.31707
 20
74.922105
 11
-71.075292
 21
74.922105
  0
LINE
  8
型材断面
  6
CONTINUOUS
 10
-111.294482
 20
87.32138
 11
-112.790113
 21
84.730873
  0
LINE
  8
型材断面
  6
CONTINUOUS
 10
-111.294482
 20
87.32138
 11
-109.798852
 21
84.730873
  0
LINE
  8
型材断面
  6
CONTINUOUS
 10
-109.798852
 20
84.730873
 11
-112.790113
 21
84.730873
  0
LINE
  8
型材断面
  6
CONTINUOUS
 10
-117.31707
 20
83.792277
 11
-71.075292
 21
83.792277
  0
LINE
  8
型材断面
  6
CONTINUOUS
 10
-117.31707
 20
69.134073
 11
-71.075292
 21
69.134073
  0
LINE
  8
型材断面
  6
CONTINUOUS
 10
48.854522
 20
39.114035
 11
51.445032
 21
38.517982
  0
LINE
  8
型材断面
  6
CONTINUOUS
 10
48.854522
 20
39.114035
 11
51.44503
 21
39.710095
  0
LINE
  8
型材断面
  6
CONTINUOUS
 10
51.44503
 20
39.710095
 11
51.445032
 21
38.517982
  0
LINE
  8
型材断面
  6
CONTINUOUS
 10
48.854522
 20
26.51403
 11
51.445032
 21
27.110082
  0
LINE
  8
型材断面
  6
CONTINUOUS
 10
48.854522
 20
26.51403
 11
51.44503
 21
25.91797
  0
LINE
  8
型材断面
  6
CONTINUOUS
 10
51.44503
 20
25.91797
 11
51.445032
 21
27.110082
  0
INSERT
  2
*GRP_0008
  8
型材断面
  6
CONTINUOUS
 10
0.0
 20
0.0
  0
INSERT
  2
*GRP_0009
  8
型材断面
  6
CONTINUOUS
 10
0.0
 20
0.0
  0
INSERT
  2
*GRP_0010
  8
型材断面
  6
CONTINUOUS
 10
0.0
 20
0.0
  0
INSERT
  2
*GRP_0011
  8
型材断面
  6
CONTINUOUS
 10
0.0
 20
0.0
  0
LINE
  8
型材断面
  6
CONTINUOUS
 10
-117.31707
 20
63.34604
 11
-71.075292
 21
63.34604
  0
LINE
  8
型材断面
  6
CONTINUOUS
 10
144.951277
 20
32.814033
 11
144.951277
 21
21.453885
  0
LINE
  8
型材断面
  6
CONTINUOUS
 10
146.101277
 20
32.814033
 11
146.101277
 21
20.0507
  0
LINE
  8
型材断面
  6
CONTINUOUS
 10
147.267945
 20
32.814033
 11
147.267945
 21
20.0507
  0
LINE
  8
型材断面
  6
CONTINUOUS
 10
144.951277
 20
32.814033
 11
144.951277
 21
44.17418
  0
LINE
  8
型材断面
  6
CONTINUOUS
 10
146.101277
 20
32.814033
 11
146.101277
 21
45.577365
  0
LINE
  8
型材断面
  6
CONTINUOUS
 10
147.267945
 20
32.814033
 11
147.267945
 21
45.577365
  0
LINE
  8
型材断面
  6
CONTINUOUS
 10
-12.10894
 20
-71.259735
 11
-71.80242
 21
-71.259735
  0
LINE
  8
型材断面
  6
CONTINUOUS
 10
-12.10894
 20
-72.409735
 11
-73.205605
 21
-72.409735
  0
LINE
  8
型材断面
  6
CONTINUOUS
 10
-12.10894
 20
-73.576403
 11
-73.205605
 21
-73.576403
  0
LINE
  8
型材断面
  6
CONTINUOUS
 10
-12.10894
 20
-71.259735
 11
47.58454
 21
-71.259735
  0
LINE
  8
型材断面
  6
CONTINUOUS
 10
-12.10894
 20
-72.409735
 11
48.987725
 21
-72.409735
  0
LINE
  8
型材断面
  6
CONTINUOUS
 10
-12.10894
 20
-73.576403
 11
48.987725
 21
-73.576403
  0
LINE
  8
型材断面
  6
CONTINUOUS
 10
48.29106
 20
44.8807
 11
48.987725
 21
45.577362
  0
LINE
  8
型材断面
  6
CONTINUOUS
 10
48.987725
 20
45.577365
 11
48.987725
 21
20.0507
  0
LINE
  8
型材断面
  6
CONTINUOUS
 10
48.29106
 20
20.747365
 11
48.987728
 21
20.0507
  0
LINE
  8
型材断面
  6
CONTINUOUS
 10
48.987725
 20
20.0507
 11
-73.205605
 21
20.0507
  0
LINE
  8
型材断面
  6
CONTINUOUS
 10
-72.50894
 20
20.747365
 11
-73.205608
 21
20.0507
  0
LINE
  8
型材断面
  6
CONTINUOUS
 10
-73.205605
 20
20.0507
 11
-73.205605
 21
45.577365
  0
LINE
  8
型材断面
  6
CONTINUOUS
 10
48.987725
 20
45.577365
 11
-73.205605
 21
45.577365
  0
LINE
  8
型材断面
  6
CONTINUOUS
 10
-72.50894
 20
44.8807
 11
-73.205608
 21
45.577365
  0
LINE
  8
型材断面
  6
CONTINUOUS
 10
-53.775608
 20
45.577365
 11
-55.271238
 21
48.167872
  0
LINE
  8
型材断面
  6
CONTINUOUS
 10
-53.775608
 20
45.577365
 11
-52.279978
 21
48.167872
  0
LINE
  8
型材断面
  6
CONTINUOUS
 10
-52.279978
 20
48.167872
 11
-55.271238
 21
48.167872
  0
LINE
  8
型材断面
  6
CONTINUOUS
 10
29.557727
 20
45.577365
 11
31.053357
 21
48.167872
  0
LINE
  8
型材断面
  6
CONTINUOUS
 10
29.557727
 20
45.577365
 11
28.062097
 21
48.167872
  0
LINE
  8
型材断面
  6
CONTINUOUS
 10
28.062097
 20
48.167872
 11
31.053357
 21
48.167872
  0
LINE
  8
型材断面
  6
CONTINUOUS
 10
48.987725
 20
32.814033
 11
51.578233
 21
34.309663
  0
LINE
  8
型材断面
  6
CONTINUOUS
 10
48.987725
 20
32.814033
 11
51.578233
 21
31.318403
  0
LINE
  8
型材断面
  6
CONTINUOUS
 10
51.578233
 20
31.318403
 11
51.578233
 21
34.309663
  0
LINE
  8
型材断面
  6
CONTINUOUS
 10
-53.775608
 20
20.0507
 11
-55.271238
 21
17.460193
  0
LINE
  8
型材断面
  6
CONTINUOUS
 10
-53.775608
 20
20.0507
 11
-52.279978
 21
17.460193
  0
LINE
  8
型材断面
  6
CONTINUOUS
 10
-52.279978
 20
17.460193
 11
-55.271238
 21
17.460193
  0
LINE
  8
型材断面
  6
CONTINUOUS
 10
29.557727
 20
20.0507
 11
31.053357
 21
17.460193
  0
LINE
  8
型材断面
  6
CONTINUOUS
 10
29.557727
 20
20.0507
 11
28.062097
 21
17.460193
  0
LINE
  8
型材断面
  6
CONTINUOUS
 10
28.062097
 20
17.460193
 11
31.053357
 21
17.460193
  0
LINE
  8
型材断面
  6
CONTINUOUS
 10
-73.205608
 20
32.814033
 11
-75.796115
 21
34.309663
  0
LINE
  8
型材断面
  6
CONTINUOUS
 10
-73.205608
 20
32.814033
 11
-75.796115
 21
31.318403
  0
LINE
  8
型材断面
  6
CONTINUOUS
 10
-75.796115
 20
31.318403
 11
-75.796115
 21
34.309663
  0
LINE
  8
型材断面
  6
CONTINUOUS
 10
-73.205605
 20
39.114035
 11
-75.796115
 21
38.517982
  0
LINE
  8
型材断面
  6
CONTINUOUS
 10
-73.205605
 20
39.114035
 11
-75.796112
 21
39.710095
  0
LINE
  8
型材断面
  6
CONTINUOUS
 10
-75.796112
 20
39.710095
 11
-75.796115
 21
38.517982
  0
LINE
  8
型材断面
  6
CONTINUOUS
 10
-73.205605
 20
26.51403
 11
-75.796115
 21
27.110082
  0
LINE
  8
型材断面
  6
CONTINUOUS
 10
-73.205605
 20
26.51403
 11
-75.796112
 21
25.91797
  0
LINE
  8
型材断面
  6
CONTINUOUS
 10
-75.796112
 20
25.91797
 11
-75.796115
 21
27.110082
  0
LINE
  8
型材断面
  6
DOT
 10
-30.482275
 20
22.814033
 11
-30.482275
 21
42.814033
  0
LINE
  8
型材断面
  6
DASHDOT
 10
-31.732275
 20
22.814033
 11
-31.732275
 21
42.814033
  0
LINE
  8
型材断面
  6
DOT
 10
-32.982275
 20
22.814033
 11
-32.982275
 21
42.814033
  0
LINE
  8
型材断面
  6
DOT
 10
6.264395
 20
22.814033
 11
6.264395
 21
42.814033
  0
LINE
  8
型材断面
  6
DASHDOT
 10
7.514395
 20
22.814033
 11
7.514395
 21
42.814033
  0
LINE
  8
型材断面
  6
DOT
 10
8.764395
 20
22.814033
 11
8.764395
 21
42.814033
  0
LINE
  8
型材断面
  6
CONTINUOUS
 10
151.401162
 20
20.5507
 11
151.737827
 21
20.5507
  0
LINE
  8
型材断面
  6
CONTINUOUS
 10
151.401162
 20
20.0507
 11
151.401162
 21
20.5507
  0
LINE
  8
型材断面
  6
CONTINUOUS
 10
147.50128
 20
20.0507
 11
147.304658
 21
20.247325
  0
LINE
  8
型材断面
  6
CONTINUOUS
 10
147.50128
 20
20.0507
 11
151.401162
 21
20.0507
  0
LINE
  8
型材断面
  6
CONTINUOUS
 62
    47
 10
147.304658
 20
20.247325
 11
147.304658
 21
32.814033
  0
LINE
  8
型材断面
  6
CONTINUOUS
 10
147.50128
 20
20.0507
 11
147.50128
 21
32.814033
  0
LINE
  8
型材断面
  6
CONTINUOUS
 10
151.737827
 20
20.5507
 11
151.737827
 21
32.814033
  0
LINE
  8
型材断面
  6
CONTINUOUS
 10
151.401162
 20
20.0507
 11
151.401162
 21
32.814033
  0
LINE
  8
型材断面
  6
CONTINUOUS
 10
151.401162
 20
45.077365
 11
151.737827
 21
45.077365
  0
LINE
  8
型材断面
  6
CONTINUOUS
 10
151.401162
 20
45.577365
 11
151.401162
 21
45.077365
  0
LINE
  8
型材断面
  6
CONTINUOUS
 10
147.50128
 20
45.577365
 11
147.304658
 21
45.38074
  0
LINE
  8
型材断面
  6
CONTINUOUS
 10
147.50128
 20
45.577365
 11
151.401162
 21
45.577365
  0
LINE
  8
型材断面
  6
CONTINUOUS
 62
    47
 10
147.304658
 20
45.38074
 11
147.304658
 21
32.814033
  0
LINE
  8
型材断面
  6
CONTINUOUS
 10
147.50128
 20
45.577365
 11
147.50128
 21
32.814033
  0
LINE
  8
型材断面
  6
CONTINUOUS
 10
151.737827
 20
45.077365
 11
151.737827
 21
32.814033
  0
LINE
  8
型材断面
  6
CONTINUOUS
 10
151.401162
 20
45.577365
 11
151.401162
 21
32.814033
  0
INSERT
  2
*GRP_0029
  8
型材断面
  6
CONTINUOUS
 10
0.0
 20
0.0
  0
LINE
  8
型材断面
  6
CONTINUOUS
 10
48.487725
 20
-77.70962
 11
48.487725
 21
-78.046285
  0
LINE
  8
型材断面
  6
CONTINUOUS
 10
48.987725
 20
-77.70962
 11
48.487725
 21
-77.70962
  0
LINE
  8
型材断面
  6
CONTINUOUS
 10
48.987725
 20
-73.809738
 11
48.7911
 21
-73.613115
  0
LINE
  8
型材断面
  6
CONTINUOUS
 10
48.987725
 20
-73.809738
 11
48.987725
 21
-77.70962
  0
INSERT
  2
*GRP_0035
  8
型材断面
  6
CONTINUOUS
 10
0.0
 20
0.0
  0
LINE
  8
型材断面
  6
CONTINUOUS
 62
    47
 10
48.7911
 20
-73.613115
 11
-12.10894
 21
-73.613115
  0
LINE
  8
型材断面
  6
CONTINUOUS
 10
48.987725
 20
-77.70962
 11
-12.10894
 21
-77.70962
  0
LINE
  8
型材断面
  6
CONTINUOUS
 10
48.487725
 20
-78.046285
 11
-12.10894
 21
-78.046285
  0
LINE
  8
型材断面
  6
CONTINUOUS
 10
48.987725
 20
-73.809738
 11
-12.10894
 21
-73.809738
  0
LINE
  8
型材断面
  6
CONTINUOUS
 10
-72.705605
 20
-77.70962
 11
-72.705605
 21
-78.046285
  0
LINE
  8
型材断面
  6
CONTINUOUS
 10
-73.205605
 20
-77.70962
 11
-72.705605
 21
-77.70962
  0
LINE
  8
型材断面
  6
CONTINUOUS
 10
-73.205605
 20
-73.809738
 11
-73.00898
 21
-73.613115
  0
LINE
  8
型材断面
  6
CONTINUOUS
 10
-73.205605
 20
-73.809738
 11
-73.205605
 21
-77.70962
  0
LINE
  8
型材断面
  6
CONTINUOUS
 62
    47
 10
-73.00898
 20
-73.613115
 11
-12.10894
 21
-73.613115
  0
LINE
  8
型材断面
  6
CONTINUOUS
 10
-73.205605
 20
-77.70962
 11
-12.10894
 21
-77.70962
  0
LINE
  8
型材断面
  6
CONTINUOUS
 10
-72.705605
 20
-78.046285
 11
-12.10894
 21
-78.046285
  0
LINE
  8
型材断面
  6
CONTINUOUS
 10
-73.205605
 20
-73.809738
 11
-12.10894
 21
-73.809738
  0
TEXT
  7
TextStyle03
  8
文字
  6
CONTINUOUS
 10
122.775
 20
-76.7
  1
網入り6.8t
 40
3.0
 72
     5
 11
139.4625
 21
-76.7
  0
TEXT
  7
TextStyle03
  8
文字
  6
CONTINUOUS
 10
-20.525
 20
9.325
  1
可動装置側
 40
3.0
 72
     5
 11
-4.025
 21
9.325
  0
TEXT
  7
TextStyle03
  8
文字
  6
CONTINUOUS
 10
-20.525
 20
53.3
  1
可動装置側
 40
3.0
 72
     5
 11
-4.025
 21
53.3
  0
TEXT
  7
TextStyle03
  8
文字
  6
CONTINUOUS
 10
129.45
 20
-81.375
  1
×３枚
 40
3.0
 72
     5
 11
139.2
 21
-81.375
  0
TEXT
  7
TextStyle03
  8
文字
  6
CONTINUOUS
 10
-108.5
 20
79.425
  1
はケーシング位置を示す
 40
3.0
 72
     5
 11
-71.75
 21
79.425
  0
TEXT
  7
TextStyle03
  8
文字
  6
CONTINUOUS
 10
-108.5
 20
76.05
  1
４ヶ所中1ヶ所に設定
 40
3.0
 72
     5
 11
-76.8125
 21
76.05
  0
TEXT
  7
TextStyle03
  8
文字
  6
CONTINUOUS
 10
-108.5
 20
84.95
  1
は排水穴位置を示す
 40
3.0
 72
     5
 11
-78.5
 21
84.95
  0
TEXT
  7
TextStyle03
  8
文字
  6
CONTINUOUS
 10
-91.5
 20
11.275
  1
アンカーピッチ
 40
3.0
 50
90.0
 72
     5
 11
-91.5
 21
34.525
  0
TEXT
  7
TextStyle03
  8
文字
  6
CONTINUOUS
 10
-59.3
 20
79.775
  1
アンカーピッチ
 40
3.0
 72
     5
 11
-36.05
 21
79.775
  0
TEXT
  7
TextStyle03
  8
文字
  6
CONTINUOUS
 10
-112.225
 20
70.075
  1
アンカー数量　１４ヶ所
 40
3.0
 72
     5
 11
-75.475
 21
70.075
  0
TEXT
  7
TextStyle03
  8
文字
  6
CONTINUOUS
 10
-112.275
 20
64.3
  1
アームユニット数　４ヶ所
 40
3.0
 72
     5
 11
-72.15
 21
64.3
  0
LINE
  8
文字
  6
CONTINUOUS
 10
88.38754
 20
45.577365
 11
144.57949
 21
45.577365
  0
LINE
  8
文字
  6
CONTINUOUS
 10
88.38754
 20
20.0507
 11
144.57949
 21
20.0507
  0
LINE
  8
文字
  6
CONTINUOUS
 10
-73.205605
 20
-13.121378
 11
-73.205605
 21
-71.122965
  0
LINE
  8
文字
  6
CONTINUOUS
 10
48.987725
 20
-13.121378
 11
48.987725
 21
-71.136618
  0
TEXT
  7
TextStyle03
  8
文字
  6
CONTINUOUS
 10
78.1
 20
125.25
  1
シリーズ：ＴＤ１Ｌ
 40
5.0
 72
     5
 11
128.1
 21
125.25
  0
TEXT
  7
TextStyle03
  8
文字
  6
CONTINUOUS
 10
78.1
 20
119.625
  1
　　　　　（上下可動）600×3500タイプ
 40
5.0
 72
     5
 11
181.5375
 21
119.625
  0
TEXT
  7
TextStyle03
  8
文字
  6
CONTINUOUS
 10
78.1
 20
114.0
  1
図面名　：外観姿図
 40
5.0
 72
     5
 11
128.1
 21
114.0
  0
TEXT
  7
TextStyle03
  8
文字
  6
CONTINUOUS
 10
78.1
 20
108.375
  1
　　　　　　
 40
5.0
 72
     5
 11
111.225
 21
108.375
  0
TEXT
  7
TextStyle03
  8
文字
  6
CONTINUOUS
 10
77.1
 20
102.275
  1
ＮＳコード：ＮＳＤＬ
 40
5.0
 72
     5
 11
132.725
 21
102.275
  0
INSERT
  2
*DIM_0002
  8
寸法
  6
CONTINUOUS
 10
0.0
 20
0.0
  0
INSERT
  2
*DIM_0003
  8
寸法
  6
CONTINUOUS
 10
0.0
 20
0.0
  0
INSERT
  2
*DIM_0004
  8
寸法
  6
CONTINUOUS
 10
0.0
 20
0.0
  0
INSERT
  2
*DIM_0005
  8
寸法
  6
CONTINUOUS
 10
0.0
 20
0.0
  0
INSERT
  2
*DIM_0006
  8
寸法
  6
CONTINUOUS
 10
0.0
 20
0.0
  0
INSERT
  2
*DIM_0012
  8
寸法
  6
CONTINUOUS
 10
0.0
 20
0.0
  0
INSERT
  2
*DIM_0013
  8
寸法
  6
CONTINUOUS
 10
0.0
 20
0.0
  0
INSERT
  2
*DIM_0014
  8
寸法
  6
CONTINUOUS
 10
0.0
 20
0.0
  0
INSERT
  2
*DIM_0015
  8
寸法
  6
CONTINUOUS
 10
0.0
 20
0.0
  0
INSERT
  2
*DIM_0016
  8
寸法
  6
CONTINUOUS
 10
0.0
 20
0.0
  0
INSERT
  2
*DIM_0017
  8
寸法
  6
CONTINUOUS
 10
0.0
 20
0.0
  0
INSERT
  2
*DIM_0018
  8
寸法
  6
CONTINUOUS
 10
0.0
 20
0.0
  0
INSERT
  2
*DIM_0019
  8
寸法
  6
CONTINUOUS
 10
0.0
 20
0.0
  0
INSERT
  2
*DIM_0020
  8
寸法
  6
CONTINUOUS
 10
0.0
 20
0.0
  0
INSERT
  2
*DIM_0021
  8
寸法
  6
CONTINUOUS
 10
0.0
 20
0.0
  0
INSERT
  2
*DIM_0022
  8
寸法
  6
CONTINUOUS
 10
0.0
 20
0.0
  0
INSERT
  2
*DIM_0023
  8
寸法
  6
CONTINUOUS
 10
0.0
 20
0.0
  0
INSERT
  2
*DIM_0026
  8
寸法
  6
CONTINUOUS
 10
0.0
 20
0.0
  0
INSERT
  2
*DIM_0034
  8
寸法
  6
CONTINUOUS
 10
0.0
 20
0.0
  0
INSERT
  2
*DIM_0038
  8
寸法
  6
CONTINUOUS
 10
0.0
 20
0.0
  0
INSERT
  2
*DIM_0039
  8
寸法
  6
CONTINUOUS
 10
0.0
 20
0.0
  0
INSERT
  2
*DIM_0040
  8
寸法
  6
CONTINUOUS
 10
0.0
 20
0.0
  0
LINE
  8
別途部材
  6
CONTINUOUS
 10
48.29106
 20
20.747365
 11
47.89106
 21
21.147365
  0
LINE
  8
別途部材
  6
CONTINUOUS
 10
46.224393
 20
22.814033
 11
38.165137
 21
30.87329
  0
LINE
  8
別途部材
  6
CONTINUOUS
 10
47.89106
 20
21.147365
 11
47.89106
 21
32.814033
  0
LINE
  8
別途部材
  6
CONTINUOUS
 10
48.29106
 20
20.747365
 11
48.29106
 21
32.814033
  0
LINE
  8
別途部材
  6
CONTINUOUS
 10
48.29106
 20
44.8807
 11
47.89106
 21
44.4807
  0
LINE
  8
別途部材
  6
CONTINUOUS
 10
46.224393
 20
42.814033
 11
38.165137
 21
34.754775
  0
LINE
  8
別途部材
  6
CONTINUOUS
 10
47.89106
 20
44.4807
 11
47.89106
 21
32.814033
  0
LINE
  8
別途部材
  6
CONTINUOUS
 10
48.29106
 20
44.8807
 11
48.29106
 21
32.814033
  0
LINE
  8
別途部材
  6
CONTINUOUS
 10
47.89106
 20
44.4807
 11
-12.10894
 21
44.4807
  0
LINE
  8
別途部材
  6
CONTINUOUS
 10
48.29106
 20
44.8807
 11
-12.10894
 21
44.8807
  0
LINE
  8
別途部材
  6
CONTINUOUS
 10
48.29106
 20
20.747365
 11
-12.10894
 21
20.747365
  0
LINE
  8
別途部材
  6
CONTINUOUS
 10
47.89106
 20
21.147365
 11
-12.10894
 21
21.147365
  0
LINE
  8
別途部材
  6
CONTINUOUS
 10
-72.50894
 20
20.747365
 11
-72.10894
 21
21.147365
  0
LINE
  8
別途部材
  6
CONTINUOUS
 10
-70.442273
 20
22.814033
 11
-62.383018
 21
30.87329
  0
LINE
  8
別途部材
  6
CONTINUOUS
 10
-72.10894
 20
21.147365
 11
-72.10894
 21
32.814033
  0
LINE
  8
別途部材
  6
CONTINUOUS
 10
-72.50894
 20
20.747365
 11
-72.50894
 21
32.814033
  0
LINE
  8
別途部材
  6
CONTINUOUS
 10
-72.50894
 20
44.8807
 11
-72.10894
 21
44.4807
  0
LINE
  8
別途部材
  6
CONTINUOUS
 10
-70.442273
 20
42.814033
 11
-62.383018
 21
34.754775
  0
LINE
  8
別途部材
  6
CONTINUOUS
 10
-72.10894
 20
44.4807
 11
-72.10894
 21
32.814033
  0
LINE
  8
別途部材
  6
CONTINUOUS
 10
-72.50894
 20
44.8807
 11
-72.50894
 21
32.814033
  0
LINE
  8
別途部材
  6
CONTINUOUS
 10
-72.10894
 20
44.4807
 11
-12.10894
 21
44.4807
  0
LINE
  8
別途部材
  6
CONTINUOUS
 10
-72.50894
 20
44.8807
 11
-12.10894
 21
44.8807
  0
LINE
  8
別途部材
  6
CONTINUOUS
 10
-72.50894
 20
20.747365
 11
-12.10894
 21
20.747365
  0
LINE
  8
別途部材
  6
CONTINUOUS
 10
-72.10894
 20
21.147365
 11
-12.10894
 21
21.147365
  0
INSERT
  2
*GRP_0007
  8
別途部材
  6
CONTINUOUS
 10
0.0
 20
0.0
  0
LINE
  8
別途部材
  6
CONTINUOUS
 62
    96
 10
143.901155
 20
21.147365
 11
144.901155
 21
20.747365
  0
LINE
  8
別途部材
  6
CONTINUOUS
 62
    96
 10
143.901155
 20
21.147365
 11
143.901155
 21
32.814033
  0
LINE
  8
別途部材
  6
CONTINUOUS
 10
144.901155
 20
20.747365
 11
144.901155
 21
32.814033
  0
LINE
  8
別途部材
  6
CONTINUOUS
 62
    96
 10
143.901155
 20
44.4807
 11
144.901155
 21
44.8807
  0
LINE
  8
別途部材
  6
CONTINUOUS
 62
    96
 10
143.901155
 20
44.4807
 11
143.901155
 21
32.814033
  0
LINE
  8
別途部材
  6
CONTINUOUS
 10
144.901155
 20
44.8807
 11
144.901155
 21
32.814033
  0
ARC
  8
別途部材
  6
CONTINUOUS
 10
150.609489
 20
32.814033
 40
12.041667
 50
123.855033
 51
236.144967
  0
INSERT
  2
*GRP_0027
  8
別途部材
  6
DOT
 10
0.0
 20
0.0
  0
INSERT
  2
*GRP_0028
  8
別途部材
  6
DOT
 10
0.0
 20
0.0
  0
INSERT
  2
*GRP_0030
  8
別途部材
  6
DOT
 10
0.0
 20
0.0
  0
INSERT
  2
*GRP_0031
  8
別途部材
  6
DOT
 10
0.0
 20
0.0
  0
INSERT
  2
*GRP_0032
  8
別途部材
  6
DOT
 10
0.0
 20
0.0
  0
INSERT
  2
*GRP_0033
  8
別途部材
  6
DOT
 10
0.0
 20
0.0
  0
INSERT
  2
*GRP_0036
  8
別途部材
  6
DOT
 10
0.0
 20
0.0
  0
INSERT
  2
*GRP_0037
  8
別途部材
  6
DOT
 10
0.0
 20
0.0
  0
LINE
  8
曲げ物
  6
CONTINUOUS
 10
141.310947
 20
-83.118728
 11
141.310947
 21
-63.785395
  0
LINE
  8
曲げ物
  6
CONTINUOUS
 10
141.310947
 20
-83.118728
 11
103.14428
 21
-83.118728
  0
LINE
  8
曲げ物
  6
CONTINUOUS
 10
103.14428
 20
-83.118728
 11
103.14428
 21
-63.785395
  0
LINE
  8
曲げ物
  6
CONTINUOUS
 10
141.310947
 20
-63.785395
 11
103.14428
 21
-63.785395
  0
LINE
  8
鉄骨等
  6
CONTINUOUS
 62
    47
 10
147.267945
 20
20.0507
 11
146.101277
 21
20.0507
  0
LINE
  8
鉄骨等
  6
CONTINUOUS
 62
    47
 10
146.101277
 20
20.0507
 11
144.951277
 21
21.453885
  0
LINE
  8
鉄骨等
  6
CONTINUOUS
 62
    47
 10
144.951277
 20
21.453885
 11
144.901158
 21
21.453885
  0
LINE
  8
鉄骨等
  6
CONTINUOUS
 62
    47
 10
147.267945
 20
45.577365
 11
146.101277
 21
45.577365
  0
LINE
  8
鉄骨等
  6
CONTINUOUS
 62
    47
 10
146.101277
 20
45.577365
 11
144.951277
 21
44.17418
  0
LINE
  8
鉄骨等
  6
CONTINUOUS
 62
    47
 10
144.951277
 20
44.17418
 11
144.901158
 21
44.17418
  0
LINE
  8
鉄骨等
  6
CONTINUOUS
 62
    47
 10
-73.205605
 20
-73.576403
 11
-73.205605
 21
-72.409735
  0
LINE
  8
鉄骨等
  6
CONTINUOUS
 62
    47
 10
-73.205605
 20
-72.409735
 11
-71.80242
 21
-71.259735
  0
LINE
  8
鉄骨等
  6
CONTINUOUS
 62
    47
 10
-71.80242
 20
-71.259735
 11
-71.80242
 21
-71.209615
  0
LINE
  8
鉄骨等
  6
CONTINUOUS
 62
    47
 10
48.987725
 20
-73.576403
 11
48.987725
 21
-72.409735
  0
LINE
  8
鉄骨等
  6
CONTINUOUS
 62
    47
 10
48.987725
 20
-72.409735
 11
47.58454
 21
-71.259735
  0
LINE
  8
鉄骨等
  6
CONTINUOUS
 62
    47
 10
47.58454
 20
-71.259735
 11
47.58454
 21
-71.209615
  0
ENDSEC
  0
EOF
