  0
SECTION
  2
HEADER
  9
$EXTMIN
 10
-210.0
 20
-148.5
  9
$EXTMAX
 10
210.0
 20
148.5
  9
$PDMODE
 70
    32
  9
$PDSIZE
 40
1.5
  9
$LTSCALE
 40
10.0
  0
ENDSEC
  0
SECTION
  2
TABLES
  0
TABLE
  2
LTYPE
 70
    15
  0
LTYPE
  2
CONTINUOUS
 70
    64
  3
実線
 72
    65
 73
     0
 40
0.0
  0
LTYPE
  2
DASHED
 70
    64
  3
破線A
 72
    65
 73
     2
 40
0.6
 49
0.4
 49
-0.2
  0
LTYPE
  2
DASHEDX2
 70
    64
  3
破線B
 72
    65
 73
     2
 40
1.3
 49
0.9
 49
-0.4
  0
LTYPE
  2
DASHDOT
 70
    64
  3
１点鎖線A
 72
    65
 73
     4
 40
0.5375
 49
0.375
 49
-0.05
 49
0.0625
 49
-0.05
  0
LTYPE
  2
DASHDOTX2
 70
    64
  3
１点鎖線B
 72
    65
 73
     4
 40
1.075
 49
0.75
 49
-0.1
 49
0.125
 49
-0.1
  0
LTYPE
  2
DIVIDE2
 70
    64
  3
２点鎖線A
 72
    65
 73
     6
 40
0.5125
 49
0.3
 49
-0.0375
 49
0.05
 49
-0.0375
 49
0.05
 49
-0.0375
  0
LTYPE
  2
DIVIDE
 70
    64
  3
２点鎖線B
 72
    65
 73
     6
 40
1.05
 49
0.55
 49
-0.1
 49
0.1
 49
-0.1
 49
0.1
 49
-0.1
  0
LTYPE
  2
DOT
 70
    64
  3
点線A
 72
    65
 73
     2
 40
0.1125
 49
0.0625
 49
-0.05
  0
LTYPE
  2
DOTX2
 70
    64
  3
点線B
 72
    65
 73
     2
 40
0.275
 49
0.15
 49
-0.125
  0
LTYPE
  2
CONTINUOUS
 70
    64
  3
実線
 72
    65
 73
     0
 40
0.0
  0
LTYPE
  2
CONTINUOUS
 70
    64
  3
実線
 72
    65
 73
     0
 40
0.0
  0
LTYPE
  2
CONTINUOUS
 70
    64
  3
実線
 72
    65
 73
     0
 40
0.0
  0
LTYPE
  2
CONTINUOUS
 70
    64
  3
実線
 72
    65
 73
     0
 40
0.0
  0
LTYPE
  2
CONTINUOUS
 70
    64
  3
実線
 72
    65
 73
     0
 40
0.0
  0
LTYPE
  2
CONTINUOUS
 70
    64
  3
実線
 72
    65
 73
     0
 40
0.0
  0
ENDTAB
  0
TABLE
  2
LAYER
 70
    34
  0
LAYER
  2
通り芯
 70
     0
 62
    15
  6
CONTINUOUS
  0
LAYER
  2
補助線
 70
     0
 62
    16
  6
DOT
  0
LAYER
  2
躯体
 70
     0
 62
    31
  6
CONTINUOUS
  0
LAYER
  2
型材
 70
     0
 62
    32
  6
CONTINUOUS
  0
LAYER
  2
型材断面
 70
     0
 62
    47
  6
CONTINUOUS
  0
LAYER
  2
ガラス
 70
     0
 62
    48
  6
CONTINUOUS
  0
LAYER
  2
ゴム等
 70
     0
 62
    63
  6
CONTINUOUS
  0
LAYER
  2
ボルト／ビス
 70
     0
 62
    64
  6
CONTINUOUS
  0
LAYER
  2
文字
 70
     0
 62
    79
  6
CONTINUOUS
  0
LAYER
  2
寸法
 70
     0
 62
    80
  6
CONTINUOUS
  0
LAYER
  2
ﾊｯﾁﾝｸﾞ
 70
     0
 62
    95
  6
CONTINUOUS
  0
LAYER
  2
別途部材
 70
     0
 62
    96
  6
CONTINUOUS
  0
LAYER
  2
曲げ物
 70
     0
 62
   111
  6
CONTINUOUS
  0
LAYER
  2
鉄骨等
 70
     0
 62
   112
  6
CONTINUOUS
  0
LAYER
  2
St
 70
     0
 62
   127
  6
CONTINUOUS
  0
LAYER
  2
その他部品等
 70
     0
 62
   128
  6
CONTINUOUS
  0
LAYER
  2
ｶﾞｽｹｯﾄ
 70
     0
 62
   143
  6
CONTINUOUS
  0
LAYER
  2
ｽｹｯﾁ
 70
     0
 62
    14
  6
CONTINUOUS
  0
LAYER
  2
0
 70
     0
 62
    17
  6
CONTINUOUS
  0
LAYER
  2
1
 70
     0
 62
    30
  6
CONTINUOUS
  0
LAYER
  2
4
 70
     0
 62
    33
  6
CONTINUOUS
  0
LAYER
  2
ﾚｲﾔ3
 70
     0
 62
    46
  6
CONTINUOUS
  0
LAYER
  2
外形線
 70
     0
 62
    49
  6
CONTINUOUS
  0
LAYER
  2
部品
 70
     0
 62
    14
  6
CONTINUOUS
  0
LAYER
  2
サッシ芯
 70
     0
 62
    17
  6
DASHDOTX2
  0
LAYER
  2
寸法線
 70
     0
 62
    62
  6
CONTINUOUS
  0
LAYER
  2
姿図外形線
 70
     0
 62
    65
  6
CONTINUOUS
  0
LAYER
  2
姿補助線
 70
     0
 62
    30
  6
CONTINUOUS
  0
LAYER
  2
透視線
 70
     0
 62
    78
  6
DOT
  0
LAYER
  2
用紙
 70
     0
 62
    81
  6
CONTINUOUS
  0
LAYER
  2
実線図枠
 70
     0
 62
    94
  6
CONTINUOUS
  0
LAYER
  2
補助図枠
 70
     0
 62
    97
  6
CONTINUOUS
  0
LAYER
  2
建具記号
 70
     0
 62
   110
  6
CONTINUOUS
  0
LAYER
  2
補助文字
 70
     0
 62
   113
  6
CONTINUOUS
  0
ENDTAB
  0
TABLE
  2
STYLE
 70
    10
  0
STYLE
  2
STANDARD
 70
     0
 40
1.0
 41
1.0
 42
1.0
 50
0.0
 71
     0
  3
TXT
  4
BIGFONT
  0
STYLE
  2
TATE
 70
     4
 40
1.0
 41
1.0
 42
1.0
 50
0.0
 71
     0
  3
TXT
  4
BIGFONT
  0
STYLE
  2
TextStyle03
 70
     0
 40
1.0
 41
1.0
 42
1.0
 50
0.0
 71
     0
  3
MONOTXT
  4
BIGFONT
  0
STYLE
  2
TextStyle04
 70
     0
 40
1.0
 41
1.0
 42
1.0
 50
0.0
 71
     0
  3
MONOTXT
  4
BIGFONT
  0
STYLE
  2
TextStyle05
 70
     0
 40
1.0
 41
1.0
 42
1.0
 50
0.0
 71
     0
  3
MONOTXT
  4
BIGFONT
  0
STYLE
  2
TextStyle06
 70
     0
 40
1.0
 41
1.0
 42
1.0
 50
0.0
 71
     0
  3
MONOTXT
  4
BIGFONT
  0
STYLE
  2
TextStyle07
 70
     0
 40
1.0
 41
1.0
 42
1.0
 50
0.0
 71
     0
  3
MONOTXT
  4
BIGFONT
  0
STYLE
  2
TextStyle08
 70
     0
 40
1.0
 41
1.0
 42
1.0
 50
0.0
 71
     0
  3
MONOTXT
  4
BIGFONT
  0
STYLE
  2
TextStyle09
 70
     0
 40
1.0
 41
1.0
 42
1.0
 50
0.0
 71
     0
  3
MONOTXT
  4
BIGFONT
  0
STYLE
  2
TextStyle10
 70
     0
 40
1.0
 41
1.0
 42
1.0
 50
0.0
 71
     0
  3
MONOTXT
  4
BIGFONT
  0
ENDTAB
  0
ENDSEC
  0
SECTION
  2
BLOCKS
  0
BLOCK
  2
*DIM_0001
 70
    65
 10
0.0
 20
0.0
  0
LINE
  8
寸法
  6
BYBLOCK
 62
     0
 10
37.224393
 20
-64.87628
 11
62.194043
 21
-64.87628
  0
LINE
  8
寸法
  6
BYBLOCK
 62
     0
 10
62.194043
 20
-70.209613
 11
62.194043
 21
-64.87628
  0
POINT
  8
寸法
 62
     0
 10
62.194043
 20
-70.209613
  0
POINT
  8
寸法
 62
     0
 10
62.194043
 20
-64.87628
  0
TEXT
  7
TextStyle03
  8
寸法
  6
CONTINUOUS
 62
     0
 10
61.8
 20
-69.9875
  1
160
 40
3.0
 50
90.0
 72
     5
 11
61.8
 21
-65.1125
  0
ENDBLK
  0
BLOCK
  2
*DIM_0002
 70
    65
 10
0.0
 20
0.0
  0
LINE
  8
寸法
  6
BYBLOCK
 62
     0
 10
46.224393
 20
-13.121378
 11
-120.442275
 21
-13.121378
  0
POINT
  8
寸法
 62
     0
 10
46.224393
 20
-13.121378
  0
POINT
  8
寸法
 62
     0
 10
-120.442275
 20
-13.121378
  0
TEXT
  7
TextStyle03
  8
寸法
  6
CONTINUOUS
 62
     0
 10
-48.84375
 20
-12.75
  1
呼称寸法　5000
 40
3.0
 72
     5
 11
-25.40625
 21
-12.75
  0
ENDBLK
  0
BLOCK
  2
*DIM_0003
 70
    65
 10
0.0
 20
0.0
  0
LINE
  8
寸法
  6
BYBLOCK
 62
     0
 10
-103.775608
 20
19.183902
 11
-103.775608
 21
14.041447
  0
LINE
  8
寸法
  6
BYBLOCK
 62
     0
 10
-37.10894
 20
19.183905
 11
-37.10894
 21
14.041447
  0
LINE
  8
寸法
  6
BYBLOCK
 62
     0
 10
-103.775608
 20
14.041447
 11
-37.10894
 21
14.041447
  0
POINT
  8
寸法
 62
     0
 10
-103.775608
 20
14.041447
  0
POINT
  8
寸法
 62
     0
 10
-37.10894
 20
14.041447
  0
TEXT
  7
TextStyle03
  8
寸法
  6
CONTINUOUS
 62
     0
 10
-73.73125
 20
14.4
  1
2000
 40
3.0
 72
     5
 11
-67.16875
 21
14.4
  0
ENDBLK
  0
BLOCK
  2
*DIM_0004
 70
    65
 10
0.0
 20
0.0
  0
LINE
  8
寸法
  6
BYBLOCK
 62
     0
 10
29.557727
 20
19.183902
 11
29.557727
 21
14.041447
  0
LINE
  8
寸法
  6
BYBLOCK
 62
     0
 10
-37.10894
 20
14.041447
 11
29.557727
 21
14.041447
  0
POINT
  8
寸法
 62
     0
 10
29.557727
 20
14.041447
  0
TEXT
  7
TextStyle03
  8
寸法
  6
CONTINUOUS
 62
     0
 10
-7.08125
 20
14.4
  1
2000
 40
3.0
 72
     5
 11
-0.51875
 21
14.4
  0
ENDBLK
  0
BLOCK
  2
*DIM_0005
 70
    65
 10
0.0
 20
0.0
  0
LINE
  8
寸法
  6
BYBLOCK
 62
     0
 10
47.224393
 20
42.814035
 11
56.948675
 21
42.814035
  0
LINE
  8
寸法
  6
BYBLOCK
 62
     0
 10
49.854522
 20
39.114035
 11
56.948675
 21
39.114035
  0
LINE
  8
寸法
  6
BYBLOCK
 62
     0
 10
56.948675
 20
42.814035
 11
56.948675
 21
39.114035
  0
POINT
  8
寸法
 62
     0
 10
56.948675
 20
42.814035
  0
POINT
  8
寸法
 62
     0
 10
56.948675
 20
39.114035
  0
TEXT
  7
TextStyle03
  8
寸法
  6
CONTINUOUS
 62
     0
 10
56.625
 20
43.8125
  1
111
 40
3.0
 50
90.0
 72
     5
 11
56.625
 21
48.6875
  0
ENDBLK
  0
BLOCK
  2
*DIM_0006
 70
    65
 10
0.0
 20
0.0
  0
LINE
  8
寸法
  6
BYBLOCK
 62
     0
 10
47.224393
 20
22.81403
 11
56.948675
 21
22.814027
  0
LINE
  8
寸法
  6
BYBLOCK
 62
     0
 10
49.854522
 20
26.51403
 11
56.948675
 21
26.514027
  0
LINE
  8
寸法
  6
BYBLOCK
 62
     0
 10
56.948675
 20
22.814027
 11
56.948675
 21
26.514027
  0
POINT
  8
寸法
 62
     0
 10
56.948675
 20
22.814027
  0
POINT
  8
寸法
 62
     0
 10
56.948675
 20
26.514027
  0
TEXT
  7
TextStyle03
  8
寸法
  6
CONTINUOUS
 62
     0
 10
56.95
 20
16.5625
  1
111
 40
3.0
 50
90.0
 72
     5
 11
56.95
 21
21.4375
  0
ENDBLK
  0
BLOCK
  2
*GRP_0007
 70
    65
 10
0.0
 20
0.0
  0
LINE
  8
別途部材
  6
CONTINUOUS
 62
    96
 10
-122.10894
 20
-70.209613
 11
-122.50894
 21
-71.209613
  0
ARC
  8
別途部材
  6
CONTINUOUS
 10
-110.442273
 20
-76.917944
 40
12.041668
 50
90.0
 51
146.144967
  0
LINE
  8
別途部材
  6
CONTINUOUS
 62
    96
 10
-122.10894
 20
-70.209613
 11
-37.10894
 21
-70.209613
  0
LINE
  8
別途部材
  6
CONTINUOUS
 10
-122.50894
 20
-71.209613
 11
-37.10894
 21
-71.209613
  0
LINE
  8
別途部材
  6
CONTINUOUS
 10
-37.60894
 20
-63.87628
 11
-38.60894
 21
-64.87628
  0
LINE
  8
別途部材
  6
CONTINUOUS
 10
-39.60894
 20
-64.87628
 11
-40.60894
 21
-63.87628
  0
LINE
  8
別途部材
  6
CONTINUOUS
 10
-41.60894
 20
-63.87628
 11
-42.60894
 21
-64.87628
  0
LINE
  8
別途部材
  6
CONTINUOUS
 10
-40.60894
 20
-63.87628
 11
-41.60894
 21
-63.87628
  0
LINE
  8
別途部材
  6
CONTINUOUS
 10
-37.60894
 20
-63.87628
 11
-37.10894
 21
-63.87628
  0
LINE
  8
別途部材
  6
CONTINUOUS
 10
-43.60894
 20
-64.87628
 11
-44.60894
 21
-63.87628
  0
LINE
  8
別途部材
  6
CONTINUOUS
 10
-45.60894
 20
-63.87628
 11
-46.60894
 21
-64.87628
  0
LINE
  8
別途部材
  6
CONTINUOUS
 10
-44.60894
 20
-63.87628
 11
-45.60894
 21
-63.87628
  0
LINE
  8
別途部材
  6
CONTINUOUS
 10
-47.60894
 20
-64.87628
 11
-48.60894
 21
-63.87628
  0
LINE
  8
別途部材
  6
CONTINUOUS
 10
-49.60894
 20
-63.87628
 11
-50.60894
 21
-64.87628
  0
LINE
  8
別途部材
  6
CONTINUOUS
 10
-48.60894
 20
-63.87628
 11
-49.60894
 21
-63.87628
  0
LINE
  8
別途部材
  6
CONTINUOUS
 10
-51.60894
 20
-64.87628
 11
-52.60894
 21
-63.87628
  0
LINE
  8
別途部材
  6
CONTINUOUS
 10
-53.60894
 20
-63.87628
 11
-54.60894
 21
-64.87628
  0
LINE
  8
別途部材
  6
CONTINUOUS
 10
-52.60894
 20
-63.87628
 11
-53.60894
 21
-63.87628
  0
LINE
  8
別途部材
  6
CONTINUOUS
 10
-55.60894
 20
-64.87628
 11
-56.60894
 21
-63.87628
  0
LINE
  8
別途部材
  6
CONTINUOUS
 10
-57.60894
 20
-63.87628
 11
-58.60894
 21
-64.87628
  0
LINE
  8
別途部材
  6
CONTINUOUS
 10
-56.60894
 20
-63.87628
 11
-57.60894
 21
-63.87628
  0
LINE
  8
別途部材
  6
CONTINUOUS
 10
-59.60894
 20
-64.87628
 11
-60.60894
 21
-63.87628
  0
LINE
  8
別途部材
  6
CONTINUOUS
 10
-61.60894
 20
-63.87628
 11
-62.60894
 21
-64.87628
  0
LINE
  8
別途部材
  6
CONTINUOUS
 10
-60.60894
 20
-63.87628
 11
-61.60894
 21
-63.87628
  0
LINE
  8
別途部材
  6
CONTINUOUS
 10
-63.60894
 20
-64.87628
 11
-64.60894
 21
-63.87628
  0
LINE
  8
別途部材
  6
CONTINUOUS
 10
-65.60894
 20
-63.87628
 11
-66.60894
 21
-64.87628
  0
LINE
  8
別途部材
  6
CONTINUOUS
 10
-64.60894
 20
-63.87628
 11
-65.60894
 21
-63.87628
  0
LINE
  8
別途部材
  6
CONTINUOUS
 10
-67.60894
 20
-64.87628
 11
-68.60894
 21
-63.87628
  0
LINE
  8
別途部材
  6
CONTINUOUS
 10
-69.60894
 20
-63.87628
 11
-70.60894
 21
-64.87628
  0
LINE
  8
別途部材
  6
CONTINUOUS
 10
-68.60894
 20
-63.87628
 11
-69.60894
 21
-63.87628
  0
LINE
  8
別途部材
  6
CONTINUOUS
 10
-71.60894
 20
-64.87628
 11
-72.60894
 21
-63.87628
  0
LINE
  8
別途部材
  6
CONTINUOUS
 10
-73.60894
 20
-63.87628
 11
-74.60894
 21
-64.87628
  0
LINE
  8
別途部材
  6
CONTINUOUS
 10
-72.60894
 20
-63.87628
 11
-73.60894
 21
-63.87628
  0
LINE
  8
別途部材
  6
CONTINUOUS
 10
-75.60894
 20
-64.87628
 11
-76.60894
 21
-63.87628
  0
LINE
  8
別途部材
  6
CONTINUOUS
 10
-77.60894
 20
-63.87628
 11
-78.60894
 21
-64.87628
  0
LINE
  8
別途部材
  6
CONTINUOUS
 10
-76.60894
 20
-63.87628
 11
-77.60894
 21
-63.87628
  0
LINE
  8
別途部材
  6
CONTINUOUS
 10
-79.60894
 20
-64.87628
 11
-80.60894
 21
-63.87628
  0
LINE
  8
別途部材
  6
CONTINUOUS
 10
-81.60894
 20
-63.87628
 11
-82.60894
 21
-64.87628
  0
LINE
  8
別途部材
  6
CONTINUOUS
 10
-80.60894
 20
-63.87628
 11
-81.60894
 21
-63.87628
  0
LINE
  8
別途部材
  6
CONTINUOUS
 10
-78.60894
 20
-64.87628
 11
-79.60894
 21
-64.87628
  0
LINE
  8
別途部材
  6
CONTINUOUS
 10
-74.60894
 20
-64.87628
 11
-75.60894
 21
-64.87628
  0
LINE
  8
別途部材
  6
CONTINUOUS
 10
-70.60894
 20
-64.87628
 11
-71.60894
 21
-64.87628
  0
LINE
  8
別途部材
  6
CONTINUOUS
 10
-66.60894
 20
-64.87628
 11
-67.60894
 21
-64.87628
  0
LINE
  8
別途部材
  6
CONTINUOUS
 10
-62.60894
 20
-64.87628
 11
-63.60894
 21
-64.87628
  0
LINE
  8
別途部材
  6
CONTINUOUS
 10
-58.60894
 20
-64.87628
 11
-59.60894
 21
-64.87628
  0
LINE
  8
別途部材
  6
CONTINUOUS
 10
-54.60894
 20
-64.87628
 11
-55.60894
 21
-64.87628
  0
LINE
  8
別途部材
  6
CONTINUOUS
 10
-50.60894
 20
-64.87628
 11
-51.60894
 21
-64.87628
  0
LINE
  8
別途部材
  6
CONTINUOUS
 10
-46.60894
 20
-64.87628
 11
-47.60894
 21
-64.87628
  0
LINE
  8
別途部材
  6
CONTINUOUS
 10
-42.60894
 20
-64.87628
 11
-43.60894
 21
-64.87628
  0
LINE
  8
別途部材
  6
CONTINUOUS
 10
-39.60894
 20
-64.87628
 11
-38.60894
 21
-64.87628
  0
LINE
  8
別途部材
  6
CONTINUOUS
 10
-83.60894
 20
-64.87628
 11
-84.60894
 21
-63.87628
  0
LINE
  8
別途部材
  6
CONTINUOUS
 10
-85.60894
 20
-63.87628
 11
-86.60894
 21
-64.87628
  0
LINE
  8
別途部材
  6
CONTINUOUS
 10
-84.60894
 20
-63.87628
 11
-85.60894
 21
-63.87628
  0
LINE
  8
別途部材
  6
CONTINUOUS
 10
-87.60894
 20
-64.87628
 11
-88.60894
 21
-63.87628
  0
LINE
  8
別途部材
  6
CONTINUOUS
 10
-89.60894
 20
-63.87628
 11
-90.60894
 21
-64.87628
  0
LINE
  8
別途部材
  6
CONTINUOUS
 10
-88.60894
 20
-63.87628
 11
-89.60894
 21
-63.87628
  0
LINE
  8
別途部材
  6
CONTINUOUS
 10
-91.60894
 20
-64.87628
 11
-92.60894
 21
-63.87628
  0
LINE
  8
別途部材
  6
CONTINUOUS
 10
-93.60894
 20
-63.87628
 11
-94.60894
 21
-64.87628
  0
LINE
  8
別途部材
  6
CONTINUOUS
 10
-92.60894
 20
-63.87628
 11
-93.60894
 21
-63.87628
  0
LINE
  8
別途部材
  6
CONTINUOUS
 10
-95.60894
 20
-64.87628
 11
-96.60894
 21
-63.87628
  0
LINE
  8
別途部材
  6
CONTINUOUS
 10
-97.60894
 20
-63.87628
 11
-98.60894
 21
-64.87628
  0
LINE
  8
別途部材
  6
CONTINUOUS
 10
-96.60894
 20
-63.87628
 11
-97.60894
 21
-63.87628
  0
LINE
  8
別途部材
  6
CONTINUOUS
 10
-99.60894
 20
-64.87628
 11
-100.60894
 21
-63.87628
  0
LINE
  8
別途部材
  6
CONTINUOUS
 10
-101.60894
 20
-63.87628
 11
-102.60894
 21
-64.87628
  0
LINE
  8
別途部材
  6
CONTINUOUS
 10
-100.60894
 20
-63.87628
 11
-101.60894
 21
-63.87628
  0
LINE
  8
別途部材
  6
CONTINUOUS
 10
-103.60894
 20
-64.87628
 11
-104.60894
 21
-63.87628
  0
LINE
  8
別途部材
  6
CONTINUOUS
 10
-105.60894
 20
-63.87628
 11
-106.60894
 21
-64.87628
  0
LINE
  8
別途部材
  6
CONTINUOUS
 10
-104.60894
 20
-63.87628
 11
-105.60894
 21
-63.87628
  0
LINE
  8
別途部材
  6
CONTINUOUS
 10
-107.60894
 20
-64.87628
 11
-108.60894
 21
-63.87628
  0
LINE
  8
別途部材
  6
CONTINUOUS
 10
-109.60894
 20
-63.87628
 11
-110.60894
 21
-64.87628
  0
LINE
  8
別途部材
  6
CONTINUOUS
 10
-108.60894
 20
-63.87628
 11
-109.60894
 21
-63.87628
  0
LINE
  8
別途部材
  6
CONTINUOUS
 10
-106.60894
 20
-64.87628
 11
-107.60894
 21
-64.87628
  0
LINE
  8
別途部材
  6
CONTINUOUS
 10
-102.60894
 20
-64.87628
 11
-103.60894
 21
-64.87628
  0
LINE
  8
別途部材
  6
CONTINUOUS
 10
-98.60894
 20
-64.87628
 11
-99.60894
 21
-64.87628
  0
LINE
  8
別途部材
  6
CONTINUOUS
 10
-94.60894
 20
-64.87628
 11
-95.60894
 21
-64.87628
  0
LINE
  8
別途部材
  6
CONTINUOUS
 10
-90.60894
 20
-64.87628
 11
-91.60894
 21
-64.87628
  0
LINE
  8
別途部材
  6
CONTINUOUS
 10
-86.60894
 20
-64.87628
 11
-87.60894
 21
-64.87628
  0
LINE
  8
別途部材
  6
CONTINUOUS
 10
-82.60894
 20
-64.87628
 11
-83.60894
 21
-64.87628
  0
LINE
  8
別途部材
  6
CONTINUOUS
 10
-110.60894
 20
-64.87628
 11
-110.60894
 21
-70.209613
  0
LINE
  8
別途部材
  6
CONTINUOUS
 10
-109.60894
 20
-63.87628
 11
-109.60894
 21
-70.209613
  0
LINE
  8
別途部材
  6
CONTINUOUS
 10
-107.60894
 20
-64.87628
 11
-107.60894
 21
-70.209613
  0
LINE
  8
別途部材
  6
CONTINUOUS
 10
-108.60894
 20
-63.87628
 11
-108.60894
 21
-70.209613
  0
LINE
  8
別途部材
  6
CONTINUOUS
 10
-105.60894
 20
-63.87628
 11
-105.60894
 21
-70.209613
  0
LINE
  8
別途部材
  6
CONTINUOUS
 10
-106.60894
 20
-64.87628
 11
-106.60894
 21
-70.209613
  0
LINE
  8
別途部材
  6
CONTINUOUS
 10
-104.60894
 20
-63.87628
 11
-104.60894
 21
-70.209613
  0
LINE
  8
別途部材
  6
CONTINUOUS
 10
-103.60894
 20
-64.87628
 11
-103.60894
 21
-70.209613
  0
LINE
  8
別途部材
  6
CONTINUOUS
 10
-101.60894
 20
-63.87628
 11
-101.60894
 21
-70.209613
  0
LINE
  8
別途部材
  6
CONTINUOUS
 10
-102.60894
 20
-64.87628
 11
-102.60894
 21
-70.209613
  0
LINE
  8
別途部材
  6
CONTINUOUS
 10
-99.60894
 20
-64.87628
 11
-99.60894
 21
-70.209613
  0
LINE
  8
別途部材
  6
CONTINUOUS
 10
-100.60894
 20
-63.87628
 11
-100.60894
 21
-70.209613
  0
LINE
  8
別途部材
  6
CONTINUOUS
 10
-98.60894
 20
-64.87628
 11
-98.60894
 21
-70.209613
  0
LINE
  8
別途部材
  6
CONTINUOUS
 10
-96.60894
 20
-63.87628
 11
-96.60894
 21
-70.209613
  0
LINE
  8
別途部材
  6
CONTINUOUS
 10
-97.60894
 20
-63.87628
 11
-97.60894
 21
-70.209613
  0
LINE
  8
別途部材
  6
CONTINUOUS
 10
-95.60894
 20
-64.87628
 11
-95.60894
 21
-70.209613
  0
LINE
  8
別途部材
  6
CONTINUOUS
 10
-94.60894
 20
-64.87628
 11
-94.60894
 21
-70.209613
  0
LINE
  8
別途部材
  6
CONTINUOUS
 10
-93.60894
 20
-63.87628
 11
-93.60894
 21
-70.209613
  0
LINE
  8
別途部材
  6
CONTINUOUS
 10
-92.60894
 20
-63.87628
 11
-92.60894
 21
-70.209613
  0
LINE
  8
別途部材
  6
CONTINUOUS
 10
-89.60894
 20
-63.87628
 11
-89.60894
 21
-70.209613
  0
LINE
  8
別途部材
  6
CONTINUOUS
 10
-87.60894
 20
-64.87628
 11
-87.60894
 21
-70.209613
  0
LINE
  8
別途部材
  6
CONTINUOUS
 10
-88.60894
 20
-63.87628
 11
-88.60894
 21
-70.209613
  0
LINE
  8
別途部材
  6
CONTINUOUS
 10
-90.60894
 20
-64.87628
 11
-90.60894
 21
-70.209613
  0
LINE
  8
別途部材
  6
CONTINUOUS
 10
-91.60894
 20
-64.87628
 11
-91.60894
 21
-70.209613
  0
LINE
  8
別途部材
  6
CONTINUOUS
 10
-86.60894
 20
-64.87628
 11
-86.60894
 21
-70.209613
  0
LINE
  8
別途部材
  6
CONTINUOUS
 10
-84.60894
 20
-63.87628
 11
-84.60894
 21
-70.209613
  0
LINE
  8
別途部材
  6
CONTINUOUS
 10
-85.60894
 20
-63.87628
 11
-85.60894
 21
-70.209613
  0
LINE
  8
別途部材
  6
CONTINUOUS
 10
-83.60894
 20
-64.87628
 11
-83.60894
 21
-70.209613
  0
LINE
  8
別途部材
  6
CONTINUOUS
 10
-81.60894
 20
-63.87628
 11
-81.60894
 21
-70.209613
  0
LINE
  8
別途部材
  6
CONTINUOUS
 10
-82.60894
 20
-64.87628
 11
-82.60894
 21
-70.209613
  0
LINE
  8
別途部材
  6
CONTINUOUS
 10
-80.60894
 20
-63.87628
 11
-80.60894
 21
-70.209613
  0
LINE
  8
別途部材
  6
CONTINUOUS
 10
-79.60894
 20
-64.87628
 11
-79.60894
 21
-70.209613
  0
LINE
  8
別途部材
  6
CONTINUOUS
 10
-77.60894
 20
-63.87628
 11
-77.60894
 21
-70.209613
  0
LINE
  8
別途部材
  6
CONTINUOUS
 10
-78.60894
 20
-64.87628
 11
-78.60894
 21
-70.209613
  0
LINE
  8
別途部材
  6
CONTINUOUS
 10
-74.60894
 20
-64.87628
 11
-74.60894
 21
-70.209613
  0
LINE
  8
別途部材
  6
CONTINUOUS
 10
-75.60894
 20
-64.87628
 11
-75.60894
 21
-70.209613
  0
LINE
  8
別途部材
  6
CONTINUOUS
 10
-76.60894
 20
-63.87628
 11
-76.60894
 21
-70.209613
  0
LINE
  8
別途部材
  6
CONTINUOUS
 10
-73.60894
 20
-63.87628
 11
-73.60894
 21
-70.209613
  0
LINE
  8
別途部材
  6
CONTINUOUS
 10
-72.60894
 20
-63.87628
 11
-72.60894
 21
-70.209613
  0
LINE
  8
別途部材
  6
CONTINUOUS
 10
-71.60894
 20
-64.87628
 11
-71.60894
 21
-70.209613
  0
LINE
  8
別途部材
  6
CONTINUOUS
 10
-69.60894
 20
-63.87628
 11
-69.60894
 21
-70.209613
  0
LINE
  8
別途部材
  6
CONTINUOUS
 10
-65.60894
 20
-63.87628
 11
-65.60894
 21
-70.209613
  0
LINE
  8
別途部材
  6
CONTINUOUS
 10
-66.60894
 20
-64.87628
 11
-66.60894
 21
-70.209613
  0
LINE
  8
別途部材
  6
CONTINUOUS
 10
-67.60894
 20
-64.87628
 11
-67.60894
 21
-70.209613
  0
LINE
  8
別途部材
  6
CONTINUOUS
 10
-68.60894
 20
-63.87628
 11
-68.60894
 21
-70.209613
  0
LINE
  8
別途部材
  6
CONTINUOUS
 10
-70.60894
 20
-64.87628
 11
-70.60894
 21
-70.209613
  0
LINE
  8
別途部材
  6
CONTINUOUS
 10
-63.60894
 20
-64.87628
 11
-63.60894
 21
-70.209613
  0
LINE
  8
別途部材
  6
CONTINUOUS
 10
-64.60894
 20
-63.87628
 11
-64.60894
 21
-70.209613
  0
LINE
  8
別途部材
  6
CONTINUOUS
 10
-62.60894
 20
-64.87628
 11
-62.60894
 21
-70.209613
  0
LINE
  8
別途部材
  6
CONTINUOUS
 10
-61.60894
 20
-63.87628
 11
-61.60894
 21
-70.209613
  0
LINE
  8
別途部材
  6
CONTINUOUS
 10
-57.60894
 20
-63.87628
 11
-57.60894
 21
-70.209613
  0
LINE
  8
別途部材
  6
CONTINUOUS
 10
-56.60894
 20
-63.87628
 11
-56.60894
 21
-70.209613
  0
LINE
  8
別途部材
  6
CONTINUOUS
 10
-58.60894
 20
-64.87628
 11
-58.60894
 21
-70.209613
  0
LINE
  8
別途部材
  6
CONTINUOUS
 10
-59.60894
 20
-64.87628
 11
-59.60894
 21
-70.209613
  0
LINE
  8
別途部材
  6
CONTINUOUS
 10
-60.60894
 20
-63.87628
 11
-60.60894
 21
-70.209613
  0
LINE
  8
別途部材
  6
CONTINUOUS
 10
-55.60894
 20
-64.87628
 11
-55.60894
 21
-70.209613
  0
LINE
  8
別途部材
  6
CONTINUOUS
 10
-53.60894
 20
-63.87628
 11
-53.60894
 21
-70.209613
  0
LINE
  8
別途部材
  6
CONTINUOUS
 10
-52.60894
 20
-63.87628
 11
-52.60894
 21
-70.209613
  0
LINE
  8
別途部材
  6
CONTINUOUS
 10
-51.60894
 20
-64.87628
 11
-51.60894
 21
-70.209613
  0
LINE
  8
別途部材
  6
CONTINUOUS
 10
-50.60894
 20
-64.87628
 11
-50.60894
 21
-70.209613
  0
LINE
  8
別途部材
  6
CONTINUOUS
 10
-49.60894
 20
-63.87628
 11
-49.60894
 21
-70.209613
  0
LINE
  8
別途部材
  6
CONTINUOUS
 10
-54.60894
 20
-64.87628
 11
-54.60894
 21
-70.209613
  0
LINE
  8
別途部材
  6
CONTINUOUS
 10
-48.60894
 20
-63.87628
 11
-48.60894
 21
-70.209613
  0
LINE
  8
別途部材
  6
CONTINUOUS
 10
-47.60894
 20
-64.87628
 11
-47.60894
 21
-70.209613
  0
LINE
  8
別途部材
  6
CONTINUOUS
 10
-46.60894
 20
-64.87628
 11
-46.60894
 21
-70.209613
  0
LINE
  8
別途部材
  6
CONTINUOUS
 10
-44.60894
 20
-63.87628
 11
-44.60894
 21
-70.209613
  0
LINE
  8
別途部材
  6
CONTINUOUS
 10
-42.60894
 20
-64.87628
 11
-42.60894
 21
-70.209613
  0
LINE
  8
別途部材
  6
CONTINUOUS
 10
-41.60894
 20
-63.87628
 11
-41.60894
 21
-70.209613
  0
LINE
  8
別途部材
  6
CONTINUOUS
 10
-39.60894
 20
-64.87628
 11
-39.60894
 21
-70.209613
  0
LINE
  8
別途部材
  6
CONTINUOUS
 10
-38.60894
 20
-64.87628
 11
-38.60894
 21
-70.209613
  0
LINE
  8
別途部材
  6
CONTINUOUS
 10
-37.60894
 20
-63.87628
 11
-37.60894
 21
-70.209613
  0
LINE
  8
別途部材
  6
CONTINUOUS
 10
-40.60894
 20
-63.87628
 11
-40.60894
 21
-70.209613
  0
LINE
  8
別途部材
  6
CONTINUOUS
 10
-43.60894
 20
-64.87628
 11
-43.60894
 21
-70.209613
  0
LINE
  8
別途部材
  6
CONTINUOUS
 10
-45.60894
 20
-63.87628
 11
-45.60894
 21
-70.209613
  0
LINE
  8
別途部材
  6
CONTINUOUS
 62
    96
 10
47.89106
 20
-70.209613
 11
48.29106
 21
-71.209613
  0
ARC
  8
別途部材
  6
CONTINUOUS
 10
36.224393
 20
-76.917944
 40
12.041668
 50
33.855033
 51
90.0
  0
LINE
  8
別途部材
  6
CONTINUOUS
 62
    96
 10
47.89106
 20
-70.209613
 11
-37.10894
 21
-70.209613
  0
LINE
  8
別途部材
  6
CONTINUOUS
 10
48.29106
 20
-71.209613
 11
-37.10894
 21
-71.209613
  0
LINE
  8
別途部材
  6
CONTINUOUS
 10
-36.60894
 20
-63.87628
 11
-35.60894
 21
-64.87628
  0
LINE
  8
別途部材
  6
CONTINUOUS
 10
-34.60894
 20
-64.87628
 11
-33.60894
 21
-63.87628
  0
LINE
  8
別途部材
  6
CONTINUOUS
 10
-32.60894
 20
-63.87628
 11
-31.60894
 21
-64.87628
  0
LINE
  8
別途部材
  6
CONTINUOUS
 10
-33.60894
 20
-63.87628
 11
-32.60894
 21
-63.87628
  0
LINE
  8
別途部材
  6
CONTINUOUS
 10
-36.60894
 20
-63.87628
 11
-37.10894
 21
-63.87628
  0
LINE
  8
別途部材
  6
CONTINUOUS
 10
-30.60894
 20
-64.87628
 11
-29.60894
 21
-63.87628
  0
LINE
  8
別途部材
  6
CONTINUOUS
 10
-28.60894
 20
-63.87628
 11
-27.60894
 21
-64.87628
  0
LINE
  8
別途部材
  6
CONTINUOUS
 10
-29.60894
 20
-63.87628
 11
-28.60894
 21
-63.87628
  0
LINE
  8
別途部材
  6
CONTINUOUS
 10
-26.60894
 20
-64.87628
 11
-25.60894
 21
-63.87628
  0
LINE
  8
別途部材
  6
CONTINUOUS
 10
-24.60894
 20
-63.87628
 11
-23.60894
 21
-64.87628
  0
LINE
  8
別途部材
  6
CONTINUOUS
 10
-25.60894
 20
-63.87628
 11
-24.60894
 21
-63.87628
  0
LINE
  8
別途部材
  6
CONTINUOUS
 10
-22.60894
 20
-64.87628
 11
-21.60894
 21
-63.87628
  0
LINE
  8
別途部材
  6
CONTINUOUS
 10
-20.60894
 20
-63.87628
 11
-19.60894
 21
-64.87628
  0
LINE
  8
別途部材
  6
CONTINUOUS
 10
-21.60894
 20
-63.87628
 11
-20.60894
 21
-63.87628
  0
LINE
  8
別途部材
  6
CONTINUOUS
 10
-18.60894
 20
-64.87628
 11
-17.60894
 21
-63.87628
  0
LINE
  8
別途部材
  6
CONTINUOUS
 10
-16.60894
 20
-63.87628
 11
-15.60894
 21
-64.87628
  0
LINE
  8
別途部材
  6
CONTINUOUS
 10
-17.60894
 20
-63.87628
 11
-16.60894
 21
-63.87628
  0
LINE
  8
別途部材
  6
CONTINUOUS
 10
-14.60894
 20
-64.87628
 11
-13.60894
 21
-63.87628
  0
LINE
  8
別途部材
  6
CONTINUOUS
 10
-12.60894
 20
-63.87628
 11
-11.60894
 21
-64.87628
  0
LINE
  8
別途部材
  6
CONTINUOUS
 10
-13.60894
 20
-63.87628
 11
-12.60894
 21
-63.87628
  0
LINE
  8
別途部材
  6
CONTINUOUS
 10
-10.60894
 20
-64.87628
 11
-9.60894
 21
-63.87628
  0
LINE
  8
別途部材
  6
CONTINUOUS
 10
-8.60894
 20
-63.87628
 11
-7.60894
 21
-64.87628
  0
LINE
  8
別途部材
  6
CONTINUOUS
 10
-9.60894
 20
-63.87628
 11
-8.60894
 21
-63.87628
  0
LINE
  8
別途部材
  6
CONTINUOUS
 10
-6.60894
 20
-64.87628
 11
-5.60894
 21
-63.87628
  0
LINE
  8
別途部材
  6
CONTINUOUS
 10
-4.60894
 20
-63.87628
 11
-3.60894
 21
-64.87628
  0
LINE
  8
別途部材
  6
CONTINUOUS
 10
-5.60894
 20
-63.87628
 11
-4.60894
 21
-63.87628
  0
LINE
  8
別途部材
  6
CONTINUOUS
 10
-2.60894
 20
-64.87628
 11
-1.60894
 21
-63.87628
  0
LINE
  8
別途部材
  6
CONTINUOUS
 10
-0.60894
 20
-63.87628
 11
0.39106
 21
-64.87628
  0
LINE
  8
別途部材
  6
CONTINUOUS
 10
-1.60894
 20
-63.87628
 11
-0.60894
 21
-63.87628
  0
LINE
  8
別途部材
  6
CONTINUOUS
 10
1.39106
 20
-64.87628
 11
2.39106
 21
-63.87628
  0
LINE
  8
別途部材
  6
CONTINUOUS
 10
3.39106
 20
-63.87628
 11
4.39106
 21
-64.87628
  0
LINE
  8
別途部材
  6
CONTINUOUS
 10
2.39106
 20
-63.87628
 11
3.39106
 21
-63.87628
  0
LINE
  8
別途部材
  6
CONTINUOUS
 10
5.39106
 20
-64.87628
 11
6.39106
 21
-63.87628
  0
LINE
  8
別途部材
  6
CONTINUOUS
 10
7.39106
 20
-63.87628
 11
8.39106
 21
-64.87628
  0
LINE
  8
別途部材
  6
CONTINUOUS
 10
6.39106
 20
-63.87628
 11
7.39106
 21
-63.87628
  0
LINE
  8
別途部材
  6
CONTINUOUS
 10
4.39106
 20
-64.87628
 11
5.39106
 21
-64.87628
  0
LINE
  8
別途部材
  6
CONTINUOUS
 10
0.39106
 20
-64.87628
 11
1.39106
 21
-64.87628
  0
LINE
  8
別途部材
  6
CONTINUOUS
 10
-3.60894
 20
-64.87628
 11
-2.60894
 21
-64.87628
  0
LINE
  8
別途部材
  6
CONTINUOUS
 10
-7.60894
 20
-64.87628
 11
-6.60894
 21
-64.87628
  0
LINE
  8
別途部材
  6
CONTINUOUS
 10
-11.60894
 20
-64.87628
 11
-10.60894
 21
-64.87628
  0
LINE
  8
別途部材
  6
CONTINUOUS
 10
-15.60894
 20
-64.87628
 11
-14.60894
 21
-64.87628
  0
LINE
  8
別途部材
  6
CONTINUOUS
 10
-19.60894
 20
-64.87628
 11
-18.60894
 21
-64.87628
  0
LINE
  8
別途部材
  6
CONTINUOUS
 10
-23.60894
 20
-64.87628
 11
-22.60894
 21
-64.87628
  0
LINE
  8
別途部材
  6
CONTINUOUS
 10
-27.60894
 20
-64.87628
 11
-26.60894
 21
-64.87628
  0
LINE
  8
別途部材
  6
CONTINUOUS
 10
-31.60894
 20
-64.87628
 11
-30.60894
 21
-64.87628
  0
LINE
  8
別途部材
  6
CONTINUOUS
 10
-34.60894
 20
-64.87628
 11
-35.60894
 21
-64.87628
  0
LINE
  8
別途部材
  6
CONTINUOUS
 10
9.39106
 20
-64.87628
 11
10.39106
 21
-63.87628
  0
LINE
  8
別途部材
  6
CONTINUOUS
 10
11.39106
 20
-63.87628
 11
12.39106
 21
-64.87628
  0
LINE
  8
別途部材
  6
CONTINUOUS
 10
10.39106
 20
-63.87628
 11
11.39106
 21
-63.87628
  0
LINE
  8
別途部材
  6
CONTINUOUS
 10
13.39106
 20
-64.87628
 11
14.39106
 21
-63.87628
  0
LINE
  8
別途部材
  6
CONTINUOUS
 10
15.39106
 20
-63.87628
 11
16.39106
 21
-64.87628
  0
LINE
  8
別途部材
  6
CONTINUOUS
 10
14.39106
 20
-63.87628
 11
15.39106
 21
-63.87628
  0
LINE
  8
別途部材
  6
CONTINUOUS
 10
17.39106
 20
-64.87628
 11
18.39106
 21
-63.87628
  0
LINE
  8
別途部材
  6
CONTINUOUS
 10
19.39106
 20
-63.87628
 11
20.39106
 21
-64.87628
  0
LINE
  8
別途部材
  6
CONTINUOUS
 10
18.39106
 20
-63.87628
 11
19.39106
 21
-63.87628
  0
LINE
  8
別途部材
  6
CONTINUOUS
 10
21.39106
 20
-64.87628
 11
22.39106
 21
-63.87628
  0
LINE
  8
別途部材
  6
CONTINUOUS
 10
23.39106
 20
-63.87628
 11
24.39106
 21
-64.87628
  0
LINE
  8
別途部材
  6
CONTINUOUS
 10
22.39106
 20
-63.87628
 11
23.39106
 21
-63.87628
  0
LINE
  8
別途部材
  6
CONTINUOUS
 10
25.39106
 20
-64.87628
 11
26.39106
 21
-63.87628
  0
LINE
  8
別途部材
  6
CONTINUOUS
 10
27.39106
 20
-63.87628
 11
28.39106
 21
-64.87628
  0
LINE
  8
別途部材
  6
CONTINUOUS
 10
26.39106
 20
-63.87628
 11
27.39106
 21
-63.87628
  0
LINE
  8
別途部材
  6
CONTINUOUS
 10
29.39106
 20
-64.87628
 11
30.39106
 21
-63.87628
  0
LINE
  8
別途部材
  6
CONTINUOUS
 10
31.39106
 20
-63.87628
 11
32.39106
 21
-64.87628
  0
LINE
  8
別途部材
  6
CONTINUOUS
 10
30.39106
 20
-63.87628
 11
31.39106
 21
-63.87628
  0
LINE
  8
別途部材
  6
CONTINUOUS
 10
33.39106
 20
-64.87628
 11
34.39106
 21
-63.87628
  0
LINE
  8
別途部材
  6
CONTINUOUS
 10
35.39106
 20
-63.87628
 11
36.39106
 21
-64.87628
  0
LINE
  8
別途部材
  6
CONTINUOUS
 10
34.39106
 20
-63.87628
 11
35.39106
 21
-63.87628
  0
LINE
  8
別途部材
  6
CONTINUOUS
 10
32.39106
 20
-64.87628
 11
33.39106
 21
-64.87628
  0
LINE
  8
別途部材
  6
CONTINUOUS
 10
28.39106
 20
-64.87628
 11
29.39106
 21
-64.87628
  0
LINE
  8
別途部材
  6
CONTINUOUS
 10
24.39106
 20
-64.87628
 11
25.39106
 21
-64.87628
  0
LINE
  8
別途部材
  6
CONTINUOUS
 10
20.39106
 20
-64.87628
 11
21.39106
 21
-64.87628
  0
LINE
  8
別途部材
  6
CONTINUOUS
 10
16.39106
 20
-64.87628
 11
17.39106
 21
-64.87628
  0
LINE
  8
別途部材
  6
CONTINUOUS
 10
12.39106
 20
-64.87628
 11
13.39106
 21
-64.87628
  0
LINE
  8
別途部材
  6
CONTINUOUS
 10
8.39106
 20
-64.87628
 11
9.39106
 21
-64.87628
  0
LINE
  8
別途部材
  6
CONTINUOUS
 10
36.39106
 20
-64.87628
 11
36.39106
 21
-70.209613
  0
LINE
  8
別途部材
  6
CONTINUOUS
 10
35.39106
 20
-63.87628
 11
35.39106
 21
-70.209613
  0
LINE
  8
別途部材
  6
CONTINUOUS
 10
33.39106
 20
-64.87628
 11
33.39106
 21
-70.209613
  0
LINE
  8
別途部材
  6
CONTINUOUS
 10
34.39106
 20
-63.87628
 11
34.39106
 21
-70.209613
  0
LINE
  8
別途部材
  6
CONTINUOUS
 10
31.39106
 20
-63.87628
 11
31.39106
 21
-70.209613
  0
LINE
  8
別途部材
  6
CONTINUOUS
 10
32.39106
 20
-64.87628
 11
32.39106
 21
-70.209613
  0
LINE
  8
別途部材
  6
CONTINUOUS
 10
30.39106
 20
-63.87628
 11
30.39106
 21
-70.209613
  0
LINE
  8
別途部材
  6
CONTINUOUS
 10
29.39106
 20
-64.87628
 11
29.39106
 21
-70.209613
  0
LINE
  8
別途部材
  6
CONTINUOUS
 10
27.39106
 20
-63.87628
 11
27.39106
 21
-70.209613
  0
LINE
  8
別途部材
  6
CONTINUOUS
 10
28.39106
 20
-64.87628
 11
28.39106
 21
-70.209613
  0
LINE
  8
別途部材
  6
CONTINUOUS
 10
25.39106
 20
-64.87628
 11
25.39106
 21
-70.209613
  0
LINE
  8
別途部材
  6
CONTINUOUS
 10
26.39106
 20
-63.87628
 11
26.39106
 21
-70.209613
  0
LINE
  8
別途部材
  6
CONTINUOUS
 10
24.39106
 20
-64.87628
 11
24.39106
 21
-70.209613
  0
LINE
  8
別途部材
  6
CONTINUOUS
 10
22.39106
 20
-63.87628
 11
22.39106
 21
-70.209613
  0
LINE
  8
別途部材
  6
CONTINUOUS
 10
23.39106
 20
-63.87628
 11
23.39106
 21
-70.209613
  0
LINE
  8
別途部材
  6
CONTINUOUS
 10
21.39106
 20
-64.87628
 11
21.39106
 21
-70.209613
  0
LINE
  8
別途部材
  6
CONTINUOUS
 10
20.39106
 20
-64.87628
 11
20.39106
 21
-70.209613
  0
LINE
  8
別途部材
  6
CONTINUOUS
 10
19.39106
 20
-63.87628
 11
19.39106
 21
-70.209613
  0
LINE
  8
別途部材
  6
CONTINUOUS
 10
18.39106
 20
-63.87628
 11
18.39106
 21
-70.209613
  0
LINE
  8
別途部材
  6
CONTINUOUS
 10
15.39106
 20
-63.87628
 11
15.39106
 21
-70.209613
  0
LINE
  8
別途部材
  6
CONTINUOUS
 10
13.39106
 20
-64.87628
 11
13.39106
 21
-70.209613
  0
LINE
  8
別途部材
  6
CONTINUOUS
 10
14.39106
 20
-63.87628
 11
14.39106
 21
-70.209613
  0
LINE
  8
別途部材
  6
CONTINUOUS
 10
16.39106
 20
-64.87628
 11
16.39106
 21
-70.209613
  0
LINE
  8
別途部材
  6
CONTINUOUS
 10
17.39106
 20
-64.87628
 11
17.39106
 21
-70.209613
  0
LINE
  8
別途部材
  6
CONTINUOUS
 10
12.39106
 20
-64.87628
 11
12.39106
 21
-70.209613
  0
LINE
  8
別途部材
  6
CONTINUOUS
 10
10.39106
 20
-63.87628
 11
10.39106
 21
-70.209613
  0
LINE
  8
別途部材
  6
CONTINUOUS
 10
11.39106
 20
-63.87628
 11
11.39106
 21
-70.209613
  0
LINE
  8
別途部材
  6
CONTINUOUS
 10
9.39106
 20
-64.87628
 11
9.39106
 21
-70.209613
  0
LINE
  8
別途部材
  6
CONTINUOUS
 10
7.39106
 20
-63.87628
 11
7.39106
 21
-70.209613
  0
LINE
  8
別途部材
  6
CONTINUOUS
 10
8.39106
 20
-64.87628
 11
8.39106
 21
-70.209613
  0
LINE
  8
別途部材
  6
CONTINUOUS
 10
6.39106
 20
-63.87628
 11
6.39106
 21
-70.209613
  0
LINE
  8
別途部材
  6
CONTINUOUS
 10
5.39106
 20
-64.87628
 11
5.39106
 21
-70.209613
  0
LINE
  8
別途部材
  6
CONTINUOUS
 10
3.39106
 20
-63.87628
 11
3.39106
 21
-70.209613
  0
LINE
  8
別途部材
  6
CONTINUOUS
 10
4.39106
 20
-64.87628
 11
4.39106
 21
-70.209613
  0
LINE
  8
別途部材
  6
CONTINUOUS
 10
0.39106
 20
-64.87628
 11
0.39106
 21
-70.209613
  0
LINE
  8
別途部材
  6
CONTINUOUS
 10
1.39106
 20
-64.87628
 11
1.39106
 21
-70.209613
  0
LINE
  8
別途部材
  6
CONTINUOUS
 10
2.39106
 20
-63.87628
 11
2.39106
 21
-70.209613
  0
LINE
  8
別途部材
  6
CONTINUOUS
 10
-0.60894
 20
-63.87628
 11
-0.60894
 21
-70.209613
  0
LINE
  8
別途部材
  6
CONTINUOUS
 10
-1.60894
 20
-63.87628
 11
-1.60894
 21
-70.209613
  0
LINE
  8
別途部材
  6
CONTINUOUS
 10
-2.60894
 20
-64.87628
 11
-2.60894
 21
-70.209613
  0
LINE
  8
別途部材
  6
CONTINUOUS
 10
-4.60894
 20
-63.87628
 11
-4.60894
 21
-70.209613
  0
LINE
  8
別途部材
  6
CONTINUOUS
 10
-8.60894
 20
-63.87628
 11
-8.60894
 21
-70.209613
  0
LINE
  8
別途部材
  6
CONTINUOUS
 10
-7.60894
 20
-64.87628
 11
-7.60894
 21
-70.209613
  0
LINE
  8
別途部材
  6
CONTINUOUS
 10
-6.60894
 20
-64.87628
 11
-6.60894
 21
-70.209613
  0
LINE
  8
別途部材
  6
CONTINUOUS
 10
-5.60894
 20
-63.87628
 11
-5.60894
 21
-70.209613
  0
LINE
  8
別途部材
  6
CONTINUOUS
 10
-3.60894
 20
-64.87628
 11
-3.60894
 21
-70.209613
  0
LINE
  8
別途部材
  6
CONTINUOUS
 10
-10.60894
 20
-64.87628
 11
-10.60894
 21
-70.209613
  0
LINE
  8
別途部材
  6
CONTINUOUS
 10
-9.60894
 20
-63.87628
 11
-9.60894
 21
-70.209613
  0
LINE
  8
別途部材
  6
CONTINUOUS
 10
-11.60894
 20
-64.87628
 11
-11.60894
 21
-70.209613
  0
LINE
  8
別途部材
  6
CONTINUOUS
 10
-12.60894
 20
-63.87628
 11
-12.60894
 21
-70.209613
  0
LINE
  8
別途部材
  6
CONTINUOUS
 10
-16.60894
 20
-63.87628
 11
-16.60894
 21
-70.209613
  0
LINE
  8
別途部材
  6
CONTINUOUS
 10
-17.60894
 20
-63.87628
 11
-17.60894
 21
-70.209613
  0
LINE
  8
別途部材
  6
CONTINUOUS
 10
-15.60894
 20
-64.87628
 11
-15.60894
 21
-70.209613
  0
LINE
  8
別途部材
  6
CONTINUOUS
 10
-14.60894
 20
-64.87628
 11
-14.60894
 21
-70.209613
  0
LINE
  8
別途部材
  6
CONTINUOUS
 10
-13.60894
 20
-63.87628
 11
-13.60894
 21
-70.209613
  0
LINE
  8
別途部材
  6
CONTINUOUS
 10
-18.60894
 20
-64.87628
 11
-18.60894
 21
-70.209613
  0
LINE
  8
別途部材
  6
CONTINUOUS
 10
-20.60894
 20
-63.87628
 11
-20.60894
 21
-70.209613
  0
LINE
  8
別途部材
  6
CONTINUOUS
 10
-21.60894
 20
-63.87628
 11
-21.60894
 21
-70.209613
  0
LINE
  8
別途部材
  6
CONTINUOUS
 10
-22.60894
 20
-64.87628
 11
-22.60894
 21
-70.209613
  0
LINE
  8
別途部材
  6
CONTINUOUS
 10
-23.60894
 20
-64.87628
 11
-23.60894
 21
-70.209613
  0
LINE
  8
別途部材
  6
CONTINUOUS
 10
-24.60894
 20
-63.87628
 11
-24.60894
 21
-70.209613
  0
LINE
  8
別途部材
  6
CONTINUOUS
 10
-19.60894
 20
-64.87628
 11
-19.60894
 21
-70.209613
  0
LINE
  8
別途部材
  6
CONTINUOUS
 10
-25.60894
 20
-63.87628
 11
-25.60894
 21
-70.209613
  0
LINE
  8
別途部材
  6
CONTINUOUS
 10
-26.60894
 20
-64.87628
 11
-26.60894
 21
-70.209613
  0
LINE
  8
別途部材
  6
CONTINUOUS
 10
-27.60894
 20
-64.87628
 11
-27.60894
 21
-70.209613
  0
LINE
  8
別途部材
  6
CONTINUOUS
 10
-29.60894
 20
-63.87628
 11
-29.60894
 21
-70.209613
  0
LINE
  8
別途部材
  6
CONTINUOUS
 10
-31.60894
 20
-64.87628
 11
-31.60894
 21
-70.209613
  0
LINE
  8
別途部材
  6
CONTINUOUS
 10
-32.60894
 20
-63.87628
 11
-32.60894
 21
-70.209613
  0
LINE
  8
別途部材
  6
CONTINUOUS
 10
-34.60894
 20
-64.87628
 11
-34.60894
 21
-70.209613
  0
LINE
  8
別途部材
  6
CONTINUOUS
 10
-35.60894
 20
-64.87628
 11
-35.60894
 21
-70.209613
  0
LINE
  8
別途部材
  6
CONTINUOUS
 10
-36.60894
 20
-63.87628
 11
-36.60894
 21
-70.209613
  0
LINE
  8
別途部材
  6
CONTINUOUS
 10
-33.60894
 20
-63.87628
 11
-33.60894
 21
-70.209613
  0
LINE
  8
別途部材
  6
CONTINUOUS
 10
-30.60894
 20
-64.87628
 11
-30.60894
 21
-70.209613
  0
LINE
  8
別途部材
  6
CONTINUOUS
 10
-28.60894
 20
-63.87628
 11
-28.60894
 21
-70.209613
  0
ENDBLK
  0
BLOCK
  2
*GRP_0008
 70
    65
 10
0.0
 20
0.0
  0
LINE
  8
補助線
  6
BYBLOCK
 62
    64
 10
-100.367813
 20
-75.132358
 11
-100.516738
 21
-75.207183
  0
LINE
  8
補助線
  6
BYBLOCK
 62
    64
 10
-100.479688
 20
-75.095305
 11
-100.404863
 21
-75.244232
  0
LINE
  8
補助線
  6
BYBLOCK
 62
    64
 10
-90.449333
 20
-70.149
 11
-90.59826
 21
-70.223825
  0
LINE
  8
補助線
  6
BYBLOCK
 62
    64
 10
-90.56121
 20
-70.111948
 11
-90.486385
 21
-70.260875
  0
LINE
  8
補助線
  6
BYBLOCK
 62
    64
 10
-80.679782
 20
-65.240467
 11
-80.530855
 21
-65.165643
  0
LINE
  8
補助線
  6
BYBLOCK
 62
    64
 10
-80.642732
 20
-65.12859
 11
-80.567908
 21
-65.277517
  0
LINE
  8
型材断面
  6
CONTINUOUS
 10
-101.114253
 20
-74.574792
 11
-101.336555
 21
-75.246045
  0
LINE
  8
型材断面
  6
CONTINUOUS
 10
-101.336555
 20
-75.246045
 11
-101.037252
 21
-75.84175
  0
LINE
  8
型材断面
  6
CONTINUOUS
 10
-101.037252
 20
-75.84175
 11
-100.366
 21
-76.064052
  0
LINE
  8
型材断面
  6
CONTINUOUS
 10
-80.681595
 20
-64.308775
 11
-80.01034
 21
-64.531077
  0
LINE
  8
型材断面
  6
CONTINUOUS
 10
-80.01034
 20
-64.531077
 11
-79.711038
 21
-65.126782
  0
LINE
  8
型材断面
  6
CONTINUOUS
 10
-79.711038
 20
-65.126782
 11
-79.933342
 21
-65.798035
  0
LINE
  8
型材断面
  6
CONTINUOUS
 10
-101.114253
 20
-74.574792
 11
-80.681595
 21
-64.308775
  0
LINE
  8
型材断面
  6
CONTINUOUS
 10
-100.366
 20
-76.064052
 11
-79.933342
 21
-65.798035
  0
CIRCLE
  8
ボルト／ビス
  6
CONTINUOUS
 10
-100.442275
 20
-75.16977
 40
0.250185
  0
CIRCLE
  8
ボルト／ビス
  6
CONTINUOUS
 10
-100.442275
 20
-75.16977
 40
0.301025
  0
LINE
  8
ボルト／ビス
  6
CONTINUOUS
 62
    64
 10
-100.69204
 20
-75.155267
 11
-100.554595
 21
-74.946217
  0
LINE
  8
ボルト／ビス
  6
CONTINUOUS
 62
    64
 10
-100.30483
 20
-74.96072
 11
-100.554595
 21
-74.946217
  0
LINE
  8
ボルト／ビス
  6
CONTINUOUS
 62
    64
 10
-100.57972
 20
-75.37882
 11
-100.329955
 21
-75.393322
  0
LINE
  8
ボルト／ビス
  6
CONTINUOUS
 62
    64
 10
-100.19251
 20
-75.184273
 11
-100.329955
 21
-75.393322
  0
LINE
  8
ボルト／ビス
  6
CONTINUOUS
 62
    64
 10
-100.69204
 20
-75.155267
 11
-100.57972
 21
-75.37882
  0
LINE
  8
ボルト／ビス
  6
CONTINUOUS
 62
    64
 10
-100.30483
 20
-74.96072
 11
-100.19251
 21
-75.184273
  0
CIRCLE
  8
ボルト／ビス
  6
CONTINUOUS
 62
    64
 10
-100.442275
 20
-75.16977
 40
0.216668
  0
CIRCLE
  8
ボルト／ビス
  6
CONTINUOUS
 10
-90.523798
 20
-70.186413
 40
0.250185
  0
CIRCLE
  8
ボルト／ビス
  6
CONTINUOUS
 10
-90.523798
 20
-70.186413
 40
0.301025
  0
LINE
  8
ボルト／ビス
  6
CONTINUOUS
 62
    64
 10
-90.773563
 20
-70.171908
 11
-90.636117
 21
-69.962857
  0
LINE
  8
ボルト／ビス
  6
CONTINUOUS
 62
    64
 10
-90.386352
 20
-69.97736
 11
-90.636117
 21
-69.962857
  0
LINE
  8
ボルト／ビス
  6
CONTINUOUS
 62
    64
 10
-90.661243
 20
-70.395463
 11
-90.411475
 21
-70.409968
  0
LINE
  8
ボルト／ビス
  6
CONTINUOUS
 62
    64
 10
-90.274032
 20
-70.200918
 11
-90.411475
 21
-70.409968
  0
LINE
  8
ボルト／ビス
  6
CONTINUOUS
 62
    64
 10
-90.773563
 20
-70.171908
 11
-90.661243
 21
-70.395463
  0
LINE
  8
ボルト／ビス
  6
CONTINUOUS
 62
    64
 10
-90.386352
 20
-69.97736
 11
-90.274032
 21
-70.200918
  0
CIRCLE
  8
ボルト／ビス
  6
CONTINUOUS
 62
    64
 10
-90.523798
 20
-70.186413
 40
0.216668
  0
CIRCLE
  8
ボルト／ビス
  6
CONTINUOUS
 10
-80.60532
 20
-65.203055
 40
0.250185
  0
CIRCLE
  8
ボルト／ビス
  6
CONTINUOUS
 10
-80.60532
 20
-65.203055
 40
0.301025
  0
LINE
  8
ボルト／ビス
  6
CONTINUOUS
 62
    64
 10
-80.467875
 20
-64.994005
 11
-80.71764
 21
-64.979503
  0
LINE
  8
ボルト／ビス
  6
CONTINUOUS
 62
    64
 10
-80.855085
 20
-65.188552
 11
-80.71764
 21
-64.979503
  0
LINE
  8
ボルト／ビス
  6
CONTINUOUS
 62
    64
 10
-80.355555
 20
-65.21756
 11
-80.492998
 21
-65.426607
  0
LINE
  8
ボルト／ビス
  6
CONTINUOUS
 62
    64
 10
-80.742765
 20
-65.412105
 11
-80.492998
 21
-65.426607
  0
LINE
  8
ボルト／ビス
  6
CONTINUOUS
 62
    64
 10
-80.467875
 20
-64.994005
 11
-80.355555
 21
-65.21756
  0
LINE
  8
ボルト／ビス
  6
CONTINUOUS
 62
    64
 10
-80.855085
 20
-65.188552
 11
-80.742765
 21
-65.412105
  0
CIRCLE
  8
ボルト／ビス
  6
CONTINUOUS
 62
    64
 10
-80.60532
 20
-65.203055
 40
0.216668
  0
ENDBLK
  0
BLOCK
  2
*GRP_0009
 70
    65
 10
0.0
 20
0.0
  0
LINE
  8
補助線
  6
BYBLOCK
 62
    64
 10
-80.679782
 20
-75.132358
 11
-80.530857
 21
-75.207183
  0
LINE
  8
補助線
  6
BYBLOCK
 62
    64
 10
-80.567908
 20
-75.095305
 11
-80.642732
 21
-75.244232
  0
LINE
  8
補助線
  6
BYBLOCK
 62
    64
 10
-90.598262
 20
-70.149
 11
-90.449335
 21
-70.223825
  0
LINE
  8
補助線
  6
BYBLOCK
 62
    64
 10
-90.486385
 20
-70.111948
 11
-90.56121
 21
-70.260875
  0
LINE
  8
補助線
  6
BYBLOCK
 62
    64
 10
-100.367813
 20
-65.240467
 11
-100.51674
 21
-65.165643
  0
LINE
  8
補助線
  6
BYBLOCK
 62
    64
 10
-100.404863
 20
-65.12859
 11
-100.479688
 21
-65.277517
  0
LINE
  8
型材断面
  6
CONTINUOUS
 10
-79.933342
 20
-74.574792
 11
-79.71104
 21
-75.246045
  0
LINE
  8
型材断面
  6
CONTINUOUS
 10
-79.71104
 20
-75.246045
 11
-80.010343
 21
-75.84175
  0
LINE
  8
型材断面
  6
CONTINUOUS
 10
-80.010343
 20
-75.84175
 11
-80.681595
 21
-76.064052
  0
LINE
  8
型材断面
  6
CONTINUOUS
 10
-100.366
 20
-64.308775
 11
-101.037255
 21
-64.531077
  0
LINE
  8
型材断面
  6
CONTINUOUS
 10
-101.037255
 20
-64.531077
 11
-101.336557
 21
-65.126782
  0
LINE
  8
型材断面
  6
CONTINUOUS
 10
-101.336557
 20
-65.126782
 11
-101.114253
 21
-65.798035
  0
LINE
  8
型材断面
  6
CONTINUOUS
 10
-79.933342
 20
-74.574792
 11
-100.366
 21
-64.308775
  0
LINE
  8
型材断面
  6
CONTINUOUS
 10
-80.681595
 20
-76.064052
 11
-101.114253
 21
-65.798035
  0
CIRCLE
  8
ボルト／ビス
  6
CONTINUOUS
 10
-80.60532
 20
-75.16977
 40
0.250185
  0
CIRCLE
  8
ボルト／ビス
  6
CONTINUOUS
 10
-80.60532
 20
-75.16977
 40
0.301025
  0
LINE
  8
ボルト／ビス
  6
CONTINUOUS
 62
    64
 10
-80.355555
 20
-75.155267
 11
-80.493
 21
-74.946217
  0
LINE
  8
ボルト／ビス
  6
CONTINUOUS
 62
    64
 10
-80.742765
 20
-74.96072
 11
-80.493
 21
-74.946217
  0
LINE
  8
ボルト／ビス
  6
CONTINUOUS
 62
    64
 10
-80.467875
 20
-75.37882
 11
-80.71764
 21
-75.393322
  0
LINE
  8
ボルト／ビス
  6
CONTINUOUS
 62
    64
 10
-80.855085
 20
-75.184273
 11
-80.71764
 21
-75.393322
  0
LINE
  8
ボルト／ビス
  6
CONTINUOUS
 62
    64
 10
-80.355555
 20
-75.155267
 11
-80.467875
 21
-75.37882
  0
LINE
  8
ボルト／ビス
  6
CONTINUOUS
 62
    64
 10
-80.742765
 20
-74.96072
 11
-80.855085
 21
-75.184273
  0
CIRCLE
  8
ボルト／ビス
  6
CONTINUOUS
 62
    64
 10
-80.60532
 20
-75.16977
 40
0.216668
  0
CIRCLE
  8
ボルト／ビス
  6
CONTINUOUS
 10
-90.523798
 20
-70.186413
 40
0.250185
  0
CIRCLE
  8
ボルト／ビス
  6
CONTINUOUS
 10
-90.523798
 20
-70.186413
 40
0.301025
  0
LINE
  8
ボルト／ビス
  6
CONTINUOUS
 62
    64
 10
-90.274032
 20
-70.171908
 11
-90.411478
 21
-69.962857
  0
LINE
  8
ボルト／ビス
  6
CONTINUOUS
 62
    64
 10
-90.661243
 20
-69.97736
 11
-90.411478
 21
-69.962857
  0
LINE
  8
ボルト／ビス
  6
CONTINUOUS
 62
    64
 10
-90.386352
 20
-70.395463
 11
-90.63612
 21
-70.409968
  0
LINE
  8
ボルト／ビス
  6
CONTINUOUS
 62
    64
 10
-90.773563
 20
-70.200918
 11
-90.63612
 21
-70.409968
  0
LINE
  8
ボルト／ビス
  6
CONTINUOUS
 62
    64
 10
-90.274032
 20
-70.171908
 11
-90.386352
 21
-70.395463
  0
LINE
  8
ボルト／ビス
  6
CONTINUOUS
 62
    64
 10
-90.661243
 20
-69.97736
 11
-90.773563
 21
-70.200918
  0
CIRCLE
  8
ボルト／ビス
  6
CONTINUOUS
 62
    64
 10
-90.523798
 20
-70.186413
 40
0.216668
  0
CIRCLE
  8
ボルト／ビス
  6
CONTINUOUS
 10
-100.442275
 20
-65.203055
 40
0.250185
  0
CIRCLE
  8
ボルト／ビス
  6
CONTINUOUS
 10
-100.442275
 20
-65.203055
 40
0.301025
  0
LINE
  8
ボルト／ビス
  6
CONTINUOUS
 62
    64
 10
-100.57972
 20
-64.994005
 11
-100.329955
 21
-64.979503
  0
LINE
  8
ボルト／ビス
  6
CONTINUOUS
 62
    64
 10
-100.19251
 20
-65.188552
 11
-100.329955
 21
-64.979503
  0
LINE
  8
ボルト／ビス
  6
CONTINUOUS
 62
    64
 10
-100.69204
 20
-65.21756
 11
-100.554598
 21
-65.426607
  0
LINE
  8
ボルト／ビス
  6
CONTINUOUS
 62
    64
 10
-100.30483
 20
-65.412105
 11
-100.554598
 21
-65.426607
  0
LINE
  8
ボルト／ビス
  6
CONTINUOUS
 62
    64
 10
-100.57972
 20
-64.994005
 11
-100.69204
 21
-65.21756
  0
LINE
  8
ボルト／ビス
  6
CONTINUOUS
 62
    64
 10
-100.19251
 20
-65.188552
 11
-100.30483
 21
-65.412105
  0
CIRCLE
  8
ボルト／ビス
  6
CONTINUOUS
 62
    64
 10
-100.442275
 20
-65.203055
 40
0.216668
  0
ENDBLK
  0
BLOCK
  2
*GRP_0010
 70
    65
 10
0.0
 20
0.0
  0
LINE
  8
補助線
  6
BYBLOCK
 62
    64
 10
26.149933
 20
-75.132358
 11
26.298857
 21
-75.207183
  0
LINE
  8
補助線
  6
BYBLOCK
 62
    64
 10
26.261808
 20
-75.095305
 11
26.186982
 21
-75.244232
  0
LINE
  8
補助線
  6
BYBLOCK
 62
    64
 10
16.231452
 20
-70.149
 11
16.38038
 21
-70.223825
  0
LINE
  8
補助線
  6
BYBLOCK
 62
    64
 10
16.34333
 20
-70.111948
 11
16.268505
 21
-70.260875
  0
LINE
  8
補助線
  6
BYBLOCK
 62
    64
 10
6.461902
 20
-65.240467
 11
6.312975
 21
-65.165643
  0
LINE
  8
補助線
  6
BYBLOCK
 62
    64
 10
6.424853
 20
-65.12859
 11
6.350028
 21
-65.277517
  0
LINE
  8
型材断面
  6
CONTINUOUS
 10
26.896372
 20
-74.574792
 11
27.118675
 21
-75.246045
  0
LINE
  8
型材断面
  6
CONTINUOUS
 10
27.118675
 20
-75.246045
 11
26.819372
 21
-75.84175
  0
LINE
  8
型材断面
  6
CONTINUOUS
 10
26.819372
 20
-75.84175
 11
26.14812
 21
-76.064052
  0
LINE
  8
型材断面
  6
CONTINUOUS
 10
6.463715
 20
-64.308775
 11
5.79246
 21
-64.531077
  0
LINE
  8
型材断面
  6
CONTINUOUS
 10
5.79246
 20
-64.531077
 11
5.493158
 21
-65.126782
  0
LINE
  8
型材断面
  6
CONTINUOUS
 10
5.493158
 20
-65.126782
 11
5.715462
 21
-65.798035
  0
LINE
  8
型材断面
  6
CONTINUOUS
 10
26.896372
 20
-74.574792
 11
6.463715
 21
-64.308775
  0
LINE
  8
型材断面
  6
CONTINUOUS
 10
26.14812
 20
-76.064052
 11
5.715462
 21
-65.798035
  0
CIRCLE
  8
ボルト／ビス
  6
CONTINUOUS
 10
26.224395
 20
-75.16977
 40
0.250185
  0
CIRCLE
  8
ボルト／ビス
  6
CONTINUOUS
 10
26.224395
 20
-75.16977
 40
0.301025
  0
LINE
  8
ボルト／ビス
  6
CONTINUOUS
 62
    64
 10
26.47416
 20
-75.155267
 11
26.336715
 21
-74.946217
  0
LINE
  8
ボルト／ビス
  6
CONTINUOUS
 62
    64
 10
26.08695
 20
-74.96072
 11
26.336715
 21
-74.946217
  0
LINE
  8
ボルト／ビス
  6
CONTINUOUS
 62
    64
 10
26.36184
 20
-75.37882
 11
26.112075
 21
-75.393322
  0
LINE
  8
ボルト／ビス
  6
CONTINUOUS
 62
    64
 10
25.97463
 20
-75.184273
 11
26.112075
 21
-75.393322
  0
LINE
  8
ボルト／ビス
  6
CONTINUOUS
 62
    64
 10
26.47416
 20
-75.155267
 11
26.36184
 21
-75.37882
  0
LINE
  8
ボルト／ビス
  6
CONTINUOUS
 62
    64
 10
26.08695
 20
-74.96072
 11
25.97463
 21
-75.184273
  0
CIRCLE
  8
ボルト／ビス
  6
CONTINUOUS
 62
    64
 10
26.224395
 20
-75.16977
 40
0.216668
  0
CIRCLE
  8
ボルト／ビス
  6
CONTINUOUS
 10
16.305918
 20
-70.186413
 40
0.250185
  0
CIRCLE
  8
ボルト／ビス
  6
CONTINUOUS
 10
16.305918
 20
-70.186413
 40
0.301025
  0
LINE
  8
ボルト／ビス
  6
CONTINUOUS
 62
    64
 10
16.555682
 20
-70.171908
 11
16.418238
 21
-69.962857
  0
LINE
  8
ボルト／ビス
  6
CONTINUOUS
 62
    64
 10
16.168472
 20
-69.97736
 11
16.418238
 21
-69.962857
  0
LINE
  8
ボルト／ビス
  6
CONTINUOUS
 62
    64
 10
16.443362
 20
-70.395463
 11
16.193595
 21
-70.409968
  0
LINE
  8
ボルト／ビス
  6
CONTINUOUS
 62
    64
 10
16.056152
 20
-70.200918
 11
16.193595
 21
-70.409968
  0
LINE
  8
ボルト／ビス
  6
CONTINUOUS
 62
    64
 10
16.555682
 20
-70.171908
 11
16.443362
 21
-70.395463
  0
LINE
  8
ボルト／ビス
  6
CONTINUOUS
 62
    64
 10
16.168472
 20
-69.97736
 11
16.056152
 21
-70.200918
  0
CIRCLE
  8
ボルト／ビス
  6
CONTINUOUS
 62
    64
 10
16.305918
 20
-70.186413
 40
0.216668
  0
CIRCLE
  8
ボルト／ビス
  6
CONTINUOUS
 10
6.38744
 20
-65.203055
 40
0.250185
  0
CIRCLE
  8
ボルト／ビス
  6
CONTINUOUS
 10
6.38744
 20
-65.203055
 40
0.301025
  0
LINE
  8
ボルト／ビス
  6
CONTINUOUS
 62
    64
 10
6.249995
 20
-64.994005
 11
6.49976
 21
-64.979503
  0
LINE
  8
ボルト／ビス
  6
CONTINUOUS
 62
    64
 10
6.637205
 20
-65.188552
 11
6.49976
 21
-64.979503
  0
LINE
  8
ボルト／ビス
  6
CONTINUOUS
 62
    64
 10
6.137675
 20
-65.21756
 11
6.275117
 21
-65.426607
  0
LINE
  8
ボルト／ビス
  6
CONTINUOUS
 62
    64
 10
6.524885
 20
-65.412105
 11
6.275117
 21
-65.426607
  0
LINE
  8
ボルト／ビス
  6
CONTINUOUS
 62
    64
 10
6.249995
 20
-64.994005
 11
6.137675
 21
-65.21756
  0
LINE
  8
ボルト／ビス
  6
CONTINUOUS
 62
    64
 10
6.637205
 20
-65.188552
 11
6.524885
 21
-65.412105
  0
CIRCLE
  8
ボルト／ビス
  6
CONTINUOUS
 62
    64
 10
6.38744
 20
-65.203055
 40
0.216668
  0
ENDBLK
  0
BLOCK
  2
*GRP_0011
 70
    65
 10
0.0
 20
0.0
  0
LINE
  8
補助線
  6
BYBLOCK
 62
    64
 10
6.461902
 20
-75.132358
 11
6.312977
 21
-75.207183
  0
LINE
  8
補助線
  6
BYBLOCK
 62
    64
 10
6.350028
 20
-75.095305
 11
6.424853
 21
-75.244232
  0
LINE
  8
補助線
  6
BYBLOCK
 62
    64
 10
16.380383
 20
-70.149
 11
16.231455
 21
-70.223825
  0
LINE
  8
補助線
  6
BYBLOCK
 62
    64
 10
16.268505
 20
-70.111948
 11
16.34333
 21
-70.260875
  0
LINE
  8
補助線
  6
BYBLOCK
 62
    64
 10
26.149933
 20
-65.240467
 11
26.29886
 21
-65.165643
  0
LINE
  8
補助線
  6
BYBLOCK
 62
    64
 10
26.186982
 20
-65.12859
 11
26.261808
 21
-65.277517
  0
LINE
  8
型材断面
  6
CONTINUOUS
 10
5.715462
 20
-74.574792
 11
5.49316
 21
-75.246045
  0
LINE
  8
型材断面
  6
CONTINUOUS
 10
5.49316
 20
-75.246045
 11
5.792462
 21
-75.84175
  0
LINE
  8
型材断面
  6
CONTINUOUS
 10
5.792462
 20
-75.84175
 11
6.463715
 21
-76.064052
  0
LINE
  8
型材断面
  6
CONTINUOUS
 10
26.14812
 20
-64.308775
 11
26.819375
 21
-64.531077
  0
LINE
  8
型材断面
  6
CONTINUOUS
 10
26.819375
 20
-64.531077
 11
27.118678
 21
-65.126782
  0
LINE
  8
型材断面
  6
CONTINUOUS
 10
27.118678
 20
-65.126782
 11
26.896372
 21
-65.798035
  0
LINE
  8
型材断面
  6
CONTINUOUS
 10
5.715462
 20
-74.574792
 11
26.14812
 21
-64.308775
  0
LINE
  8
型材断面
  6
CONTINUOUS
 10
6.463715
 20
-76.064052
 11
26.896372
 21
-65.798035
  0
CIRCLE
  8
ボルト／ビス
  6
CONTINUOUS
 10
6.38744
 20
-75.16977
 40
0.250185
  0
CIRCLE
  8
ボルト／ビス
  6
CONTINUOUS
 10
6.38744
 20
-75.16977
 40
0.301025
  0
LINE
  8
ボルト／ビス
  6
CONTINUOUS
 62
    64
 10
6.137675
 20
-75.155267
 11
6.27512
 21
-74.946217
  0
LINE
  8
ボルト／ビス
  6
CONTINUOUS
 62
    64
 10
6.524885
 20
-74.96072
 11
6.27512
 21
-74.946217
  0
LINE
  8
ボルト／ビス
  6
CONTINUOUS
 62
    64
 10
6.249995
 20
-75.37882
 11
6.49976
 21
-75.393322
  0
LINE
  8
ボルト／ビス
  6
CONTINUOUS
 62
    64
 10
6.637205
 20
-75.184273
 11
6.49976
 21
-75.393322
  0
LINE
  8
ボルト／ビス
  6
CONTINUOUS
 62
    64
 10
6.137675
 20
-75.155267
 11
6.249995
 21
-75.37882
  0
LINE
  8
ボルト／ビス
  6
CONTINUOUS
 62
    64
 10
6.524885
 20
-74.96072
 11
6.637205
 21
-75.184273
  0
CIRCLE
  8
ボルト／ビス
  6
CONTINUOUS
 62
    64
 10
6.38744
 20
-75.16977
 40
0.216668
  0
CIRCLE
  8
ボルト／ビス
  6
CONTINUOUS
 10
16.305918
 20
-70.186413
 40
0.250185
  0
CIRCLE
  8
ボルト／ビス
  6
CONTINUOUS
 10
16.305918
 20
-70.186413
 40
0.301025
  0
LINE
  8
ボルト／ビス
  6
CONTINUOUS
 62
    64
 10
16.056152
 20
-70.171908
 11
16.193598
 21
-69.962857
  0
LINE
  8
ボルト／ビス
  6
CONTINUOUS
 62
    64
 10
16.443362
 20
-69.97736
 11
16.193598
 21
-69.962857
  0
LINE
  8
ボルト／ビス
  6
CONTINUOUS
 62
    64
 10
16.168472
 20
-70.395463
 11
16.41824
 21
-70.409968
  0
LINE
  8
ボルト／ビス
  6
CONTINUOUS
 62
    64
 10
16.555682
 20
-70.200918
 11
16.41824
 21
-70.409968
  0
LINE
  8
ボルト／ビス
  6
CONTINUOUS
 62
    64
 10
16.056152
 20
-70.171908
 11
16.168472
 21
-70.395463
  0
LINE
  8
ボルト／ビス
  6
CONTINUOUS
 62
    64
 10
16.443362
 20
-69.97736
 11
16.555682
 21
-70.200918
  0
CIRCLE
  8
ボルト／ビス
  6
CONTINUOUS
 62
    64
 10
16.305918
 20
-70.186413
 40
0.216668
  0
CIRCLE
  8
ボルト／ビス
  6
CONTINUOUS
 10
26.224395
 20
-65.203055
 40
0.250185
  0
CIRCLE
  8
ボルト／ビス
  6
CONTINUOUS
 10
26.224395
 20
-65.203055
 40
0.301025
  0
LINE
  8
ボルト／ビス
  6
CONTINUOUS
 62
    64
 10
26.36184
 20
-64.994005
 11
26.112075
 21
-64.979503
  0
LINE
  8
ボルト／ビス
  6
CONTINUOUS
 62
    64
 10
25.97463
 20
-65.188552
 11
26.112075
 21
-64.979503
  0
LINE
  8
ボルト／ビス
  6
CONTINUOUS
 62
    64
 10
26.47416
 20
-65.21756
 11
26.336717
 21
-65.426607
  0
LINE
  8
ボルト／ビス
  6
CONTINUOUS
 62
    64
 10
26.08695
 20
-65.412105
 11
26.336717
 21
-65.426607
  0
LINE
  8
ボルト／ビス
  6
CONTINUOUS
 62
    64
 10
26.36184
 20
-64.994005
 11
26.47416
 21
-65.21756
  0
LINE
  8
ボルト／ビス
  6
CONTINUOUS
 62
    64
 10
25.97463
 20
-65.188552
 11
26.08695
 21
-65.412105
  0
CIRCLE
  8
ボルト／ビス
  6
CONTINUOUS
 62
    64
 10
26.224395
 20
-65.203055
 40
0.216668
  0
ENDBLK
  0
BLOCK
  2
*DIM_0012
 70
    65
 10
0.0
 20
0.0
  0
LINE
  8
寸法
  6
BYBLOCK
 62
     0
 10
-123.442275
 20
39.4807
 11
-136.735113
 21
39.4807
  0
LINE
  8
寸法
  6
BYBLOCK
 62
     0
 10
-123.442275
 20
26.147365
 11
-136.735113
 21
26.147365
  0
LINE
  8
寸法
  6
BYBLOCK
 62
     0
 10
-136.735113
 20
39.4807
 11
-136.735113
 21
26.147365
  0
POINT
  8
寸法
 62
     0
 10
-136.735113
 20
39.4807
  0
POINT
  8
寸法
 62
     0
 10
-136.735113
 20
26.147365
  0
TEXT
  7
TextStyle03
  8
寸法
  6
CONTINUOUS
 62
     0
 10
-137.1
 20
30.3625
  1
400
 40
3.0
 50
90.0
 72
     5
 11
-137.1
 21
35.2375
  0
ENDBLK
  0
BLOCK
  2
*DIM_0013
 70
    65
 10
0.0
 20
0.0
  0
LINE
  8
寸法
  6
BYBLOCK
 62
     0
 10
-112.10894
 20
45.814033
 11
-112.10894
 21
74.922105
  0
LINE
  8
寸法
  6
BYBLOCK
 62
     0
 10
-87.10894
 20
45.814033
 11
-87.10894
 21
74.922105
  0
LINE
  8
寸法
  6
BYBLOCK
 62
     0
 10
-112.10894
 20
74.922105
 11
-87.10894
 21
74.922105
  0
POINT
  8
寸法
 62
     0
 10
-112.10894
 20
74.922105
  0
POINT
  8
寸法
 62
     0
 10
-87.10894
 20
74.922105
  0
TEXT
  7
TextStyle03
  8
寸法
  6
CONTINUOUS
 62
     0
 10
-102.0625
 20
75.3
  1
750
 40
3.0
 72
     5
 11
-97.1875
 21
75.3
  0
ENDBLK
  0
BLOCK
  2
*DIM_0014
 70
    65
 10
0.0
 20
0.0
  0
LINE
  8
寸法
  6
BYBLOCK
 62
     0
 10
-62.10894
 20
45.814033
 11
-62.10894
 21
74.922105
  0
LINE
  8
寸法
  6
BYBLOCK
 62
     0
 10
-87.10894
 20
74.922105
 11
-62.10894
 21
74.922105
  0
POINT
  8
寸法
 62
     0
 10
-62.10894
 20
74.922105
  0
TEXT
  7
TextStyle03
  8
寸法
  6
CONTINUOUS
 62
     0
 10
-77.0625
 20
75.3
  1
750
 40
3.0
 72
     5
 11
-72.1875
 21
75.3
  0
ENDBLK
  0
BLOCK
  2
*DIM_0015
 70
    65
 10
0.0
 20
0.0
  0
LINE
  8
寸法
  6
BYBLOCK
 62
     0
 10
-37.10894
 20
45.814033
 11
-37.10894
 21
74.922105
  0
LINE
  8
寸法
  6
BYBLOCK
 62
     0
 10
-62.10894
 20
74.922105
 11
-37.10894
 21
74.922105
  0
POINT
  8
寸法
 62
     0
 10
-37.10894
 20
74.922105
  0
TEXT
  7
TextStyle03
  8
寸法
  6
CONTINUOUS
 62
     0
 10
-52.0625
 20
75.3
  1
750
 40
3.0
 72
     5
 11
-47.1875
 21
75.3
  0
ENDBLK
  0
BLOCK
  2
*DIM_0016
 70
    65
 10
0.0
 20
0.0
  0
LINE
  8
寸法
  6
BYBLOCK
 62
     0
 10
-12.10894
 20
45.814033
 11
-12.10894
 21
74.922105
  0
LINE
  8
寸法
  6
BYBLOCK
 62
     0
 10
-37.10894
 20
74.922105
 11
-12.10894
 21
74.922105
  0
POINT
  8
寸法
 62
     0
 10
-12.10894
 20
74.922105
  0
TEXT
  7
TextStyle03
  8
寸法
  6
CONTINUOUS
 62
     0
 10
-27.0625
 20
75.3
  1
750
 40
3.0
 72
     5
 11
-22.1875
 21
75.3
  0
ENDBLK
  0
BLOCK
  2
*DIM_0017
 70
    65
 10
0.0
 20
0.0
  0
LINE
  8
寸法
  6
BYBLOCK
 62
     0
 10
12.89106
 20
45.814033
 11
12.89106
 21
74.922105
  0
LINE
  8
寸法
  6
BYBLOCK
 62
     0
 10
-12.10894
 20
74.922105
 11
12.89106
 21
74.922105
  0
POINT
  8
寸法
 62
     0
 10
12.89106
 20
74.922105
  0
TEXT
  7
TextStyle03
  8
寸法
  6
CONTINUOUS
 62
     0
 10
-2.0625
 20
75.3
  1
750
 40
3.0
 72
     5
 11
2.8125
 21
75.3
  0
ENDBLK
  0
BLOCK
  2
*DIM_0018
 70
    65
 10
0.0
 20
0.0
  0
LINE
  8
寸法
  6
BYBLOCK
 62
     0
 10
37.89106
 20
45.814033
 11
37.89106
 21
74.922105
  0
LINE
  8
寸法
  6
BYBLOCK
 62
     0
 10
12.89106
 20
74.922105
 11
37.89106
 21
74.922105
  0
POINT
  8
寸法
 62
     0
 10
37.89106
 20
74.922105
  0
TEXT
  7
TextStyle03
  8
寸法
  6
CONTINUOUS
 62
     0
 10
22.9375
 20
75.3
  1
750
 40
3.0
 72
     5
 11
27.8125
 21
75.3
  0
ENDBLK
  0
BLOCK
  2
*DIM_0019
 70
    65
 10
0.0
 20
0.0
  0
LINE
  8
寸法
  6
BYBLOCK
 62
     0
 10
88.387543
 20
22.814033
 11
88.387543
 21
42.814033
  0
POINT
  8
寸法
 62
     0
 10
88.387543
 20
22.814033
  0
POINT
  8
寸法
 62
     0
 10
88.387543
 20
42.814033
  0
TEXT
  7
TextStyle03
  8
寸法
  6
CONTINUOUS
 62
     0
 10
87.95
 20
21.925
  1
呼称寸法　600
 40
3.0
 50
90.0
 72
     5
 11
87.95
 21
43.675
  0
ENDBLK
  0
BLOCK
  2
*DIM_0020
 70
    65
 10
0.0
 20
0.0
  0
LINE
  8
寸法
  6
BYBLOCK
 62
     0
 10
138.567825
 20
33.814033
 11
138.567825
 21
60.666798
  0
LINE
  8
寸法
  6
BYBLOCK
 62
     0
 10
143.901158
 20
60.666798
 11
138.567825
 21
60.666798
  0
POINT
  8
寸法
 62
     0
 10
143.901158
 20
60.666798
  0
POINT
  8
寸法
 62
     0
 10
138.567825
 20
60.666798
  0
TEXT
  7
TextStyle03
  8
寸法
  6
CONTINUOUS
 62
     0
 10
138.7375
 20
61.025
  1
160
 40
3.0
 72
     5
 11
143.6125
 21
61.025
  0
ENDBLK
  0
BLOCK
  2
*DIM_0021
 70
    65
 10
0.0
 20
0.0
  0
LINE
  8
寸法
  6
CONTINUOUS
 10
88.387543
 20
22.814033
 11
88.387543
 21
20.0507
  0
POINT
  8
寸法
 10
88.387543
 20
22.814033
  0
POINT
  8
寸法
 10
88.387543
 20
20.0507
  0
TEXT
  7
TextStyle03
  8
寸法
  6
CONTINUOUS
 10
87.45
 20
12.89375
  1
82.9
 40
3.0
 50
90.0
 72
     5
 11
87.45
 21
19.45625
  0
ENDBLK
  0
BLOCK
  2
*DIM_0022
 70
    65
 10
0.0
 20
0.0
  0
LINE
  8
寸法
  6
CONTINUOUS
 10
88.387543
 20
42.814033
 11
88.387543
 21
45.577365
  0
POINT
  8
寸法
 10
88.387543
 20
42.814033
  0
POINT
  8
寸法
 10
88.387543
 20
45.577365
  0
TEXT
  7
TextStyle03
  8
寸法
  6
CONTINUOUS
 10
87.2
 20
45.46875
  1
82.9
 40
3.0
 50
90.0
 72
     5
 11
87.2
 21
52.03125
  0
ENDBLK
  0
BLOCK
  2
*DIM_0023
 70
    65
 10
0.0
 20
0.0
  0
LINE
  8
寸法
  6
CONTINUOUS
 10
-120.442275
 20
-13.121378
 11
-123.205605
 21
-13.121378
  0
POINT
  8
寸法
 10
-120.442275
 20
-13.121378
  0
POINT
  8
寸法
 10
-123.205605
 20
-13.121378
  0
TEXT
  7
TextStyle03
  8
寸法
  6
CONTINUOUS
 10
-127.48125
 20
-12.425
  1
82.9
 40
3.0
 72
     5
 11
-120.91875
 21
-12.425
  0
ENDBLK
  0
BLOCK
  2
*DIM_0024
 70
    65
 10
0.0
 20
0.0
  0
LINE
  8
寸法
  6
CONTINUOUS
 10
46.224393
 20
-13.121378
 11
48.987725
 21
-13.121378
  0
POINT
  8
寸法
 10
46.224393
 20
-13.121378
  0
POINT
  8
寸法
 10
48.987725
 20
-13.121378
  0
TEXT
  7
TextStyle03
  8
寸法
  6
CONTINUOUS
 10
46.81875
 20
-12.125
  1
82.9
 40
3.0
 72
     5
 11
53.38125
 21
-12.125
  0
ENDBLK
  0
BLOCK
  2
*DIM_0027
 70
    65
 10
0.0
 20
0.0
  0
LINE
  8
寸法
  6
CONTINUOUS
 10
108.851247
 20
-50.713055
 11
108.851247
 21
-46.094772
  0
LINE
  8
寸法
  6
CONTINUOUS
 10
141.317915
 20
-50.713055
 11
141.317915
 21
-46.094772
  0
LINE
  8
寸法
  6
CONTINUOUS
 10
108.851247
 20
-46.094772
 11
141.317915
 21
-46.094772
  0
POINT
  8
寸法
 10
108.851247
 20
-46.094772
  0
POINT
  8
寸法
 10
141.317915
 20
-46.094772
  0
TEXT
  7
TextStyle03
  8
寸法
  6
CONTINUOUS
 10
122.6625
 20
-45.725
  1
974
 40
3.0
 72
     5
 11
127.5375
 21
-45.725
  0
ENDBLK
  0
BLOCK
  2
*DIM_0028
 70
    65
 10
0.0
 20
0.0
  0
LINE
  8
寸法
  6
CONTINUOUS
 10
146.317915
 20
-55.713055
 11
152.401707
 21
-55.713055
  0
LINE
  8
寸法
  6
CONTINUOUS
 10
146.317915
 20
-75.713055
 11
152.401707
 21
-75.713055
  0
LINE
  8
寸法
  6
CONTINUOUS
 10
152.401707
 20
-55.713055
 11
152.401707
 21
-75.713055
  0
POINT
  8
寸法
 10
152.401707
 20
-55.713055
  0
POINT
  8
寸法
 10
152.401707
 20
-75.713055
  0
TEXT
  7
TextStyle03
  8
寸法
  6
CONTINUOUS
 10
152.05
 20
-68.1625
  1
600
 40
3.0
 50
90.0
 72
     5
 11
152.05
 21
-63.2875
  0
ENDBLK
  0
BLOCK
  2
*GRP_0029
 70
    65
 10
0.0
 20
0.0
  0
LINE
  8
ボルト／ビス
  6
CONTINUOUS
 10
143.901158
 20
43.4807
 11
143.434492
 21
43.4807
  0
LINE
  8
ボルト／ビス
  6
CONTINUOUS
 10
143.901158
 20
43.114035
 11
143.834492
 21
43.114035
  0
LINE
  8
ボルト／ビス
  6
CONTINUOUS
 10
143.834492
 20
43.114035
 11
143.834492
 21
43.847367
  0
LINE
  8
ボルト／ビス
  6
CONTINUOUS
 10
143.834492
 20
43.847367
 11
143.901158
 21
43.847367
  0
LINE
  8
ボルト／ビス
  6
CONTINUOUS
 10
143.901158
 20
43.114035
 11
143.901158
 21
43.847367
  0
LINE
  8
ボルト／ビス
  6
CONTINUOUS
 10
143.801158
 20
43.1807
 11
143.834492
 21
43.1807
  0
LINE
  8
ボルト／ビス
  6
CONTINUOUS
 10
143.801158
 20
43.1807
 11
143.801158
 21
43.7807
  0
LINE
  8
ボルト／ビス
  6
CONTINUOUS
 10
143.801158
 20
43.7807
 11
143.834492
 21
43.7807
  0
LINE
  8
ボルト／ビス
  6
CONTINUOUS
 62
    64
 10
143.601158
 20
43.320325
 11
143.612832
 21
43.28825
  0
ARC
  8
ボルト／ビス
  6
CONTINUOUS
 62
    64
 10
143.706136
 20
43.336365
 40
0.104978
 50
152.721967
 51
180.0
  0
ARC
  8
ボルト／ビス
  6
CONTINUOUS
 62
    64
 10
144.003559
 20
43.480703
 40
0.402402
 50
166.165002
 51
193.834985
  0
LINE
  8
ボルト／ビス
  6
CONTINUOUS
 62
    64
 10
143.601158
 20
43.641075
 11
143.612832
 21
43.67315
  0
ARC
  8
ボルト／ビス
  6
CONTINUOUS
 62
    64
 10
143.706136
 20
43.62504
 40
0.104978
 50
180.0
 51
207.278033
  0
LINE
  8
ボルト／ビス
  6
CONTINUOUS
 62
    64
 10
143.601158
 20
43.320325
 11
143.601158
 21
43.641075
  0
LINE
  8
ボルト／ビス
  6
CONTINUOUS
 62
    64
 10
143.612832
 20
43.67315
 11
143.734492
 21
43.67315
  0
LINE
  8
ボルト／ビス
  6
CONTINUOUS
 62
    64
 10
143.612832
 20
43.576925
 11
143.734492
 21
43.576925
  0
LINE
  8
ボルト／ビス
  6
CONTINUOUS
 62
    64
 10
143.612832
 20
43.28825
 11
143.734492
 21
43.28825
  0
LINE
  8
ボルト／ビス
  6
CONTINUOUS
 62
    64
 10
143.612832
 20
43.384475
 11
143.734492
 21
43.384475
  0
LINE
  8
ボルト／ビス
  6
CONTINUOUS
 10
143.734492
 20
43.28825
 11
143.734492
 21
43.67315
  0
LINE
  8
ボルト／ビス
  6
CONTINUOUS
 10
143.734492
 20
43.2807
 11
143.801158
 21
43.2807
  0
LINE
  8
ボルト／ビス
  6
CONTINUOUS
 10
143.734492
 20
43.2807
 11
143.734492
 21
43.6807
  0
LINE
  8
ボルト／ビス
  6
CONTINUOUS
 10
143.734492
 20
43.6807
 11
143.801158
 21
43.6807
  0
ENDBLK
  0
BLOCK
  2
*GRP_0030
 70
    65
 10
0.0
 20
0.0
  0
LINE
  8
ボルト／ビス
  6
CONTINUOUS
 10
143.901158
 20
22.147365
 11
143.434492
 21
22.147365
  0
LINE
  8
ボルト／ビス
  6
CONTINUOUS
 10
143.901158
 20
22.51403
 11
143.834492
 21
22.51403
  0
LINE
  8
ボルト／ビス
  6
CONTINUOUS
 10
143.834492
 20
22.51403
 11
143.834492
 21
21.780697
  0
LINE
  8
ボルト／ビス
  6
CONTINUOUS
 10
143.834492
 20
21.780697
 11
143.901158
 21
21.780697
  0
LINE
  8
ボルト／ビス
  6
CONTINUOUS
 10
143.901158
 20
22.51403
 11
143.901158
 21
21.780697
  0
LINE
  8
ボルト／ビス
  6
CONTINUOUS
 10
143.801158
 20
22.447365
 11
143.834492
 21
22.447365
  0
LINE
  8
ボルト／ビス
  6
CONTINUOUS
 10
143.801158
 20
22.447365
 11
143.801158
 21
21.847365
  0
LINE
  8
ボルト／ビス
  6
CONTINUOUS
 10
143.801158
 20
21.847365
 11
143.834492
 21
21.847365
  0
LINE
  8
ボルト／ビス
  6
CONTINUOUS
 62
    64
 10
143.601158
 20
22.30774
 11
143.612832
 21
22.339815
  0
ARC
  8
ボルト／ビス
  6
CONTINUOUS
 62
    64
 10
143.706136
 20
22.2917
 40
0.104978
 50
180.0
 51
207.278033
  0
ARC
  8
ボルト／ビス
  6
CONTINUOUS
 62
    64
 10
144.003559
 20
22.147362
 40
0.402402
 50
166.165015
 51
193.834998
  0
LINE
  8
ボルト／ビス
  6
CONTINUOUS
 62
    64
 10
143.601158
 20
21.98699
 11
143.612832
 21
21.954915
  0
ARC
  8
ボルト／ビス
  6
CONTINUOUS
 62
    64
 10
143.706136
 20
22.003025
 40
0.104978
 50
152.721967
 51
180.0
  0
LINE
  8
ボルト／ビス
  6
CONTINUOUS
 62
    64
 10
143.601158
 20
22.30774
 11
143.601158
 21
21.98699
  0
LINE
  8
ボルト／ビス
  6
CONTINUOUS
 62
    64
 10
143.612832
 20
21.954915
 11
143.734492
 21
21.954915
  0
LINE
  8
ボルト／ビス
  6
CONTINUOUS
 62
    64
 10
143.612832
 20
22.05114
 11
143.734492
 21
22.05114
  0
LINE
  8
ボルト／ビス
  6
CONTINUOUS
 62
    64
 10
143.612832
 20
22.339815
 11
143.734492
 21
22.339815
  0
LINE
  8
ボルト／ビス
  6
CONTINUOUS
 62
    64
 10
143.612832
 20
22.24359
 11
143.734492
 21
22.24359
  0
LINE
  8
ボルト／ビス
  6
CONTINUOUS
 10
143.734492
 20
22.339815
 11
143.734492
 21
21.954915
  0
LINE
  8
ボルト／ビス
  6
CONTINUOUS
 10
143.734492
 20
22.347365
 11
143.801158
 21
22.347365
  0
LINE
  8
ボルト／ビス
  6
CONTINUOUS
 10
143.734492
 20
22.347365
 11
143.734492
 21
21.947365
  0
LINE
  8
ボルト／ビス
  6
CONTINUOUS
 10
143.734492
 20
21.947365
 11
143.801158
 21
21.947365
  0
ENDBLK
  0
BLOCK
  2
*GRP_0031
 70
    65
 10
0.0
 20
0.0
  0
LINE
  8
ボルト／ビス
  6
CONTINUOUS
 10
136.567825
 20
43.4807
 11
136.10116
 21
43.4807
  0
LINE
  8
ボルト／ビス
  6
CONTINUOUS
 10
136.567825
 20
43.114035
 11
136.50116
 21
43.114035
  0
LINE
  8
ボルト／ビス
  6
CONTINUOUS
 10
136.50116
 20
43.114035
 11
136.50116
 21
43.847367
  0
LINE
  8
ボルト／ビス
  6
CONTINUOUS
 10
136.50116
 20
43.847367
 11
136.567825
 21
43.847367
  0
LINE
  8
ボルト／ビス
  6
CONTINUOUS
 10
136.567825
 20
43.114035
 11
136.567825
 21
43.847367
  0
LINE
  8
ボルト／ビス
  6
CONTINUOUS
 10
136.467825
 20
43.1807
 11
136.50116
 21
43.1807
  0
LINE
  8
ボルト／ビス
  6
CONTINUOUS
 10
136.467825
 20
43.1807
 11
136.467825
 21
43.7807
  0
LINE
  8
ボルト／ビス
  6
CONTINUOUS
 10
136.467825
 20
43.7807
 11
136.50116
 21
43.7807
  0
LINE
  8
ボルト／ビス
  6
CONTINUOUS
 62
    64
 10
136.267825
 20
43.320325
 11
136.2795
 21
43.28825
  0
ARC
  8
ボルト／ビス
  6
CONTINUOUS
 62
    64
 10
136.372803
 20
43.336365
 40
0.104978
 50
152.721967
 51
180.0
  0
ARC
  8
ボルト／ビス
  6
CONTINUOUS
 62
    64
 10
136.670227
 20
43.480703
 40
0.402402
 50
166.165002
 51
193.834985
  0
LINE
  8
ボルト／ビス
  6
CONTINUOUS
 62
    64
 10
136.267825
 20
43.641075
 11
136.2795
 21
43.67315
  0
ARC
  8
ボルト／ビス
  6
CONTINUOUS
 62
    64
 10
136.372803
 20
43.62504
 40
0.104978
 50
180.0
 51
207.278033
  0
LINE
  8
ボルト／ビス
  6
CONTINUOUS
 62
    64
 10
136.267825
 20
43.320325
 11
136.267825
 21
43.641075
  0
LINE
  8
ボルト／ビス
  6
CONTINUOUS
 62
    64
 10
136.2795
 20
43.67315
 11
136.40116
 21
43.67315
  0
LINE
  8
ボルト／ビス
  6
CONTINUOUS
 62
    64
 10
136.2795
 20
43.576925
 11
136.40116
 21
43.576925
  0
LINE
  8
ボルト／ビス
  6
CONTINUOUS
 62
    64
 10
136.2795
 20
43.28825
 11
136.40116
 21
43.28825
  0
LINE
  8
ボルト／ビス
  6
CONTINUOUS
 62
    64
 10
136.2795
 20
43.384475
 11
136.40116
 21
43.384475
  0
LINE
  8
ボルト／ビス
  6
CONTINUOUS
 10
136.40116
 20
43.28825
 11
136.40116
 21
43.67315
  0
LINE
  8
ボルト／ビス
  6
CONTINUOUS
 10
136.40116
 20
43.2807
 11
136.467825
 21
43.2807
  0
LINE
  8
ボルト／ビス
  6
CONTINUOUS
 10
136.40116
 20
43.2807
 11
136.40116
 21
43.6807
  0
LINE
  8
ボルト／ビス
  6
CONTINUOUS
 10
136.40116
 20
43.6807
 11
136.467825
 21
43.6807
  0
ENDBLK
  0
BLOCK
  2
*GRP_0032
 70
    65
 10
0.0
 20
0.0
  0
LINE
  8
ボルト／ビス
  6
CONTINUOUS
 10
136.567825
 20
22.147365
 11
136.10116
 21
22.147365
  0
LINE
  8
ボルト／ビス
  6
CONTINUOUS
 10
136.567825
 20
22.51403
 11
136.50116
 21
22.51403
  0
LINE
  8
ボルト／ビス
  6
CONTINUOUS
 10
136.50116
 20
22.51403
 11
136.50116
 21
21.780697
  0
LINE
  8
ボルト／ビス
  6
CONTINUOUS
 10
136.50116
 20
21.780697
 11
136.567825
 21
21.780697
  0
LINE
  8
ボルト／ビス
  6
CONTINUOUS
 10
136.567825
 20
22.51403
 11
136.567825
 21
21.780697
  0
LINE
  8
ボルト／ビス
  6
CONTINUOUS
 10
136.467825
 20
22.447365
 11
136.50116
 21
22.447365
  0
LINE
  8
ボルト／ビス
  6
CONTINUOUS
 10
136.467825
 20
22.447365
 11
136.467825
 21
21.847365
  0
LINE
  8
ボルト／ビス
  6
CONTINUOUS
 10
136.467825
 20
21.847365
 11
136.50116
 21
21.847365
  0
LINE
  8
ボルト／ビス
  6
CONTINUOUS
 62
    64
 10
136.267825
 20
22.30774
 11
136.2795
 21
22.339815
  0
ARC
  8
ボルト／ビス
  6
CONTINUOUS
 62
    64
 10
136.372803
 20
22.2917
 40
0.104978
 50
180.0
 51
207.278033
  0
ARC
  8
ボルト／ビス
  6
CONTINUOUS
 62
    64
 10
136.670227
 20
22.147362
 40
0.402402
 50
166.165015
 51
193.834998
  0
LINE
  8
ボルト／ビス
  6
CONTINUOUS
 62
    64
 10
136.267825
 20
21.98699
 11
136.2795
 21
21.954915
  0
ARC
  8
ボルト／ビス
  6
CONTINUOUS
 62
    64
 10
136.372803
 20
22.003025
 40
0.104978
 50
152.721967
 51
180.0
  0
LINE
  8
ボルト／ビス
  6
CONTINUOUS
 62
    64
 10
136.267825
 20
22.30774
 11
136.267825
 21
21.98699
  0
LINE
  8
ボルト／ビス
  6
CONTINUOUS
 62
    64
 10
136.2795
 20
21.954915
 11
136.40116
 21
21.954915
  0
LINE
  8
ボルト／ビス
  6
CONTINUOUS
 62
    64
 10
136.2795
 20
22.05114
 11
136.40116
 21
22.05114
  0
LINE
  8
ボルト／ビス
  6
CONTINUOUS
 62
    64
 10
136.2795
 20
22.339815
 11
136.40116
 21
22.339815
  0
LINE
  8
ボルト／ビス
  6
CONTINUOUS
 62
    64
 10
136.2795
 20
22.24359
 11
136.40116
 21
22.24359
  0
LINE
  8
ボルト／ビス
  6
CONTINUOUS
 10
136.40116
 20
22.339815
 11
136.40116
 21
21.954915
  0
LINE
  8
ボルト／ビス
  6
CONTINUOUS
 10
136.40116
 20
22.347365
 11
136.467825
 21
22.347365
  0
LINE
  8
ボルト／ビス
  6
CONTINUOUS
 10
136.40116
 20
22.347365
 11
136.40116
 21
21.947365
  0
LINE
  8
ボルト／ビス
  6
CONTINUOUS
 10
136.40116
 20
21.947365
 11
136.467825
 21
21.947365
  0
ENDBLK
  0
BLOCK
  2
*GRP_0033
 70
    65
 10
0.0
 20
0.0
  0
LINE
  8
型材断面
  6
DOT
 10
137.617948
 20
32.814033
 11
137.617948
 21
21.453885
  0
LINE
  8
型材断面
  6
DOT
 10
138.767948
 20
32.814033
 11
138.767948
 21
20.0507
  0
LINE
  8
型材断面
  6
DOT
 10
139.934615
 20
32.814033
 11
139.934615
 21
20.0507
  0
LINE
  8
型材断面
  6
DOT
 10
137.617948
 20
32.814033
 11
137.617948
 21
44.17418
  0
LINE
  8
型材断面
  6
DOT
 10
138.767948
 20
32.814033
 11
138.767948
 21
45.577365
  0
LINE
  8
型材断面
  6
DOT
 10
139.934615
 20
32.814033
 11
139.934615
 21
45.577365
  0
LINE
  8
別途部材
  6
DOT
 62
    96
 10
136.567825
 20
21.147365
 11
137.567825
 21
20.747365
  0
LINE
  8
別途部材
  6
DOT
 62
    96
 10
136.567825
 20
21.147365
 11
136.567825
 21
32.814033
  0
LINE
  8
別途部材
  6
DOT
 10
137.567825
 20
20.747365
 11
137.567825
 21
32.814033
  0
LINE
  8
別途部材
  6
DOT
 62
    96
 10
136.567825
 20
44.4807
 11
137.567825
 21
44.8807
  0
LINE
  8
別途部材
  6
DOT
 62
    96
 10
136.567825
 20
44.4807
 11
136.567825
 21
32.814033
  0
LINE
  8
別途部材
  6
DOT
 10
137.567825
 20
44.8807
 11
137.567825
 21
32.814033
  0
ARC
  8
別途部材
  6
DOT
 10
143.276158
 20
32.814033
 40
12.041667
 50
123.855033
 51
236.144967
  0
LINE
  8
鉄骨等
  6
DOT
 62
    47
 10
139.934615
 20
20.0507
 11
138.767948
 21
20.0507
  0
LINE
  8
鉄骨等
  6
DOT
 62
    47
 10
138.767948
 20
20.0507
 11
137.617948
 21
21.453885
  0
LINE
  8
鉄骨等
  6
DOT
 62
    47
 10
137.617948
 20
21.453885
 11
137.567828
 21
21.453885
  0
LINE
  8
鉄骨等
  6
DOT
 62
    47
 10
139.934615
 20
45.577365
 11
138.767948
 21
45.577365
  0
LINE
  8
鉄骨等
  6
DOT
 62
    47
 10
138.767948
 20
45.577365
 11
137.617948
 21
44.17418
  0
LINE
  8
鉄骨等
  6
DOT
 62
    47
 10
137.617948
 20
44.17418
 11
137.567828
 21
44.17418
  0
ENDBLK
  0
BLOCK
  2
*GRP_0034
 70
    65
 10
0.0
 20
0.0
  0
LINE
  8
ボルト／ビス
  6
CONTINUOUS
 10
46.891057
 20
-70.209605
 11
46.891057
 21
-69.74294
  0
LINE
  8
ボルト／ビス
  6
CONTINUOUS
 10
46.524393
 20
-70.209605
 11
46.524393
 21
-70.14294
  0
LINE
  8
ボルト／ビス
  6
CONTINUOUS
 10
46.524393
 20
-70.14294
 11
47.257725
 21
-70.14294
  0
LINE
  8
ボルト／ビス
  6
CONTINUOUS
 10
47.257725
 20
-70.14294
 11
47.257725
 21
-70.209605
  0
LINE
  8
ボルト／ビス
  6
CONTINUOUS
 10
46.524393
 20
-70.209605
 11
47.257725
 21
-70.209605
  0
LINE
  8
ボルト／ビス
  6
CONTINUOUS
 10
46.591057
 20
-70.109605
 11
46.591057
 21
-70.14294
  0
LINE
  8
ボルト／ビス
  6
CONTINUOUS
 10
46.591057
 20
-70.109605
 11
47.191057
 21
-70.109605
  0
LINE
  8
ボルト／ビス
  6
CONTINUOUS
 10
47.191057
 20
-70.109605
 11
47.191057
 21
-70.14294
  0
LINE
  8
ボルト／ビス
  6
CONTINUOUS
 62
    64
 10
46.730682
 20
-69.909605
 11
46.698608
 21
-69.92128
  0
ARC
  8
ボルト／ビス
  6
CONTINUOUS
 62
    64
 10
46.746721
 20
-70.014582
 40
0.104978
 50
62.721967
 51
90.0
  0
ARC
  8
ボルト／ビス
  6
CONTINUOUS
 62
    64
 10
46.891059
 20
-70.312006
 40
0.402402
 50
76.165002
 51
103.834985
  0
LINE
  8
ボルト／ビス
  6
CONTINUOUS
 62
    64
 10
47.051433
 20
-69.909605
 11
47.083508
 21
-69.92128
  0
ARC
  8
ボルト／ビス
  6
CONTINUOUS
 62
    64
 10
47.035397
 20
-70.014582
 40
0.104978
 50
90.0
 51
117.278033
  0
LINE
  8
ボルト／ビス
  6
CONTINUOUS
 62
    64
 10
46.730682
 20
-69.909605
 11
47.051433
 21
-69.909605
  0
LINE
  8
ボルト／ビス
  6
CONTINUOUS
 62
    64
 10
47.083508
 20
-69.92128
 11
47.083508
 21
-70.04294
  0
LINE
  8
ボルト／ビス
  6
CONTINUOUS
 62
    64
 10
46.987283
 20
-69.92128
 11
46.987283
 21
-70.04294
  0
LINE
  8
ボルト／ビス
  6
CONTINUOUS
 62
    64
 10
46.698608
 20
-69.92128
 11
46.698608
 21
-70.04294
  0
LINE
  8
ボルト／ビス
  6
CONTINUOUS
 62
    64
 10
46.794832
 20
-69.92128
 11
46.794832
 21
-70.04294
  0
LINE
  8
ボルト／ビス
  6
CONTINUOUS
 10
46.698608
 20
-70.04294
 11
47.083508
 21
-70.04294
  0
LINE
  8
ボルト／ビス
  6
CONTINUOUS
 10
46.691057
 20
-70.04294
 11
46.691057
 21
-70.109605
  0
LINE
  8
ボルト／ビス
  6
CONTINUOUS
 10
46.691057
 20
-70.04294
 11
47.091057
 21
-70.04294
  0
LINE
  8
ボルト／ビス
  6
CONTINUOUS
 10
47.091057
 20
-70.04294
 11
47.091057
 21
-70.109605
  0
ENDBLK
  0
BLOCK
  2
*GRP_0035
 70
    65
 10
0.0
 20
0.0
  0
LINE
  8
ボルト／ビス
  6
DOT
 10
46.891057
 20
-62.876272
 11
46.891057
 21
-62.409608
  0
LINE
  8
ボルト／ビス
  6
DOT
 10
46.524393
 20
-62.876272
 11
46.524393
 21
-62.809608
  0
LINE
  8
ボルト／ビス
  6
DOT
 10
46.524393
 20
-62.809608
 11
47.257725
 21
-62.809608
  0
LINE
  8
ボルト／ビス
  6
DOT
 10
47.257725
 20
-62.809608
 11
47.257725
 21
-62.876272
  0
LINE
  8
ボルト／ビス
  6
DOT
 10
46.524393
 20
-62.876272
 11
47.257725
 21
-62.876272
  0
LINE
  8
ボルト／ビス
  6
DOT
 10
46.591057
 20
-62.776272
 11
46.591057
 21
-62.809608
  0
LINE
  8
ボルト／ビス
  6
DOT
 10
46.591057
 20
-62.776272
 11
47.191057
 21
-62.776272
  0
LINE
  8
ボルト／ビス
  6
DOT
 10
47.191057
 20
-62.776272
 11
47.191057
 21
-62.809608
  0
LINE
  8
ボルト／ビス
  6
DOT
 62
    64
 10
46.730682
 20
-62.576272
 11
46.698608
 21
-62.587947
  0
ARC
  8
ボルト／ビス
  6
DOT
 62
    64
 10
46.746721
 20
-62.68125
 40
0.104978
 50
62.721967
 51
90.0
  0
ARC
  8
ボルト／ビス
  6
DOT
 62
    64
 10
46.891059
 20
-62.978674
 40
0.402402
 50
76.165002
 51
103.834985
  0
LINE
  8
ボルト／ビス
  6
DOT
 62
    64
 10
47.051433
 20
-62.576272
 11
47.083508
 21
-62.587947
  0
ARC
  8
ボルト／ビス
  6
DOT
 62
    64
 10
47.035397
 20
-62.68125
 40
0.104978
 50
90.0
 51
117.278033
  0
LINE
  8
ボルト／ビス
  6
DOT
 62
    64
 10
46.730682
 20
-62.576272
 11
47.051433
 21
-62.576272
  0
LINE
  8
ボルト／ビス
  6
DOT
 62
    64
 10
47.083508
 20
-62.587947
 11
47.083508
 21
-62.709608
  0
LINE
  8
ボルト／ビス
  6
DOT
 62
    64
 10
46.987283
 20
-62.587947
 11
46.987283
 21
-62.709608
  0
LINE
  8
ボルト／ビス
  6
DOT
 62
    64
 10
46.698608
 20
-62.587947
 11
46.698608
 21
-62.709608
  0
LINE
  8
ボルト／ビス
  6
DOT
 62
    64
 10
46.794832
 20
-62.587947
 11
46.794832
 21
-62.709608
  0
LINE
  8
ボルト／ビス
  6
DOT
 10
46.698608
 20
-62.709608
 11
47.083508
 21
-62.709608
  0
LINE
  8
ボルト／ビス
  6
DOT
 10
46.691057
 20
-62.709608
 11
46.691057
 21
-62.776272
  0
LINE
  8
ボルト／ビス
  6
DOT
 10
46.691057
 20
-62.709608
 11
47.091057
 21
-62.709608
  0
LINE
  8
ボルト／ビス
  6
DOT
 10
47.091057
 20
-62.709608
 11
47.091057
 21
-62.776272
  0
ENDBLK
  0
BLOCK
  2
*DIM_0036
 70
    65
 10
0.0
 20
0.0
  0
LINE
  8
寸法
  6
CONTINUOUS
 10
143.901158
 20
49.4807
 11
143.901158
 21
60.666798
  0
LINE
  8
寸法
  6
CONTINUOUS
 10
151.401165
 20
50.577365
 11
151.401165
 21
60.666798
  0
LINE
  8
寸法
  6
CONTINUOUS
 10
143.901158
 20
60.666798
 11
151.401165
 21
60.666798
  0
POINT
  8
寸法
 10
143.901158
 20
60.666798
  0
POINT
  8
寸法
 10
151.401165
 20
60.666798
  0
TEXT
  7
TextStyle03
  8
寸法
  6
CONTINUOUS
 10
145.2125
 20
61.025
  1
225
 40
3.0
 72
     5
 11
150.0875
 21
61.025
  0
ENDBLK
  0
BLOCK
  2
*GRP_0037
 70
    65
 10
0.0
 20
0.0
  0
LINE
  8
型材断面
  6
CONTINUOUS
 10
193.553255
 20
133.5
 11
193.553255
 21
-133.5
  0
LINE
  8
型材断面
  6
CONTINUOUS
 10
193.553255
 20
-133.5
 11
-186.446745
 21
-133.5
  0
LINE
  8
型材断面
  6
CONTINUOUS
 10
-186.446745
 20
-133.5
 11
-186.446745
 21
133.5
  0
LINE
  8
型材断面
  6
CONTINUOUS
 10
193.553255
 20
133.5
 11
-186.446745
 21
133.5
  0
LINE
  8
型材断面
  6
CONTINUOUS
 10
143.553255
 20
-133.5
 11
143.553255
 21
-118.5
  0
LINE
  8
型材断面
  6
CONTINUOUS
 10
193.553255
 20
-118.5
 11
143.553255
 21
-118.5
  0
ENDBLK
  0
BLOCK
  2
*DIM_0038
 70
    65
 10
0.0
 20
0.0
  0
LINE
  8
寸法
  6
CONTINUOUS
 10
52.89106
 20
-70.209613
 11
62.194043
 21
-70.209613
  0
LINE
  8
寸法
  6
CONTINUOUS
 10
53.987725
 20
-77.709617
 11
62.194043
 21
-77.709617
  0
LINE
  8
寸法
  6
CONTINUOUS
 10
62.194043
 20
-70.209613
 11
62.194043
 21
-77.709617
  0
POINT
  8
寸法
 10
62.194043
 20
-70.209613
  0
POINT
  8
寸法
 10
62.194043
 20
-77.709617
  0
TEXT
  7
TextStyle03
  8
寸法
  6
CONTINUOUS
 10
61.8
 20
-76.4125
  1
225
 40
3.0
 50
90.0
 72
     5
 11
61.8
 21
-71.5375
  0
ENDBLK
  0
BLOCK
  2
*GRP_0039
 70
    65
 10
0.0
 20
0.0
  0
LINE
  8
型材断面
  6
DOT
 10
-37.10894
 20
-63.9264
 11
-121.80242
 21
-63.9264
  0
LINE
  8
型材断面
  6
DOT
 10
-37.10894
 20
-65.0764
 11
-123.205605
 21
-65.0764
  0
LINE
  8
型材断面
  6
DOT
 10
-37.10894
 20
-66.243067
 11
-123.205605
 21
-66.243067
  0
LINE
  8
型材断面
  6
DOT
 10
-37.10894
 20
-63.9264
 11
47.58454
 21
-63.9264
  0
LINE
  8
型材断面
  6
DOT
 10
-37.10894
 20
-65.0764
 11
48.987725
 21
-65.0764
  0
LINE
  8
型材断面
  6
DOT
 10
-37.10894
 20
-66.243067
 11
48.987725
 21
-66.243067
  0
LINE
  8
別途部材
  6
DOT
 62
    96
 10
-122.10894
 20
-62.87628
 11
-122.50894
 21
-63.87628
  0
ARC
  8
別途部材
  6
DOT
 10
-110.442273
 20
-69.584611
 40
12.041668
 50
90.0
 51
146.144967
  0
LINE
  8
別途部材
  6
DOT
 62
    96
 10
-122.10894
 20
-62.87628
 11
-37.10894
 21
-62.87628
  0
LINE
  8
別途部材
  6
DOT
 10
-122.50894
 20
-63.87628
 11
-37.10894
 21
-63.87628
  0
LINE
  8
別途部材
  6
DOT
 62
    96
 10
47.89106
 20
-62.87628
 11
48.29106
 21
-63.87628
  0
ARC
  8
別途部材
  6
DOT
 10
36.224393
 20
-69.584611
 40
12.041668
 50
33.855033
 51
90.0
  0
LINE
  8
別途部材
  6
DOT
 62
    96
 10
47.89106
 20
-62.87628
 11
-37.10894
 21
-62.87628
  0
LINE
  8
別途部材
  6
DOT
 10
48.29106
 20
-63.87628
 11
-37.10894
 21
-63.87628
  0
LINE
  8
別途部材
  6
DOT
 10
-110.60894
 20
-57.542947
 11
-37.10894
 21
-57.542947
  0
LINE
  8
別途部材
  6
DOT
 10
36.39106
 20
-57.542947
 11
-37.10894
 21
-57.542947
  0
LINE
  8
鉄骨等
  6
DOT
 62
    47
 10
-123.205605
 20
-66.243067
 11
-123.205605
 21
-65.0764
  0
LINE
  8
鉄骨等
  6
DOT
 62
    47
 10
-123.205605
 20
-65.0764
 11
-121.80242
 21
-63.9264
  0
LINE
  8
鉄骨等
  6
DOT
 62
    47
 10
-121.80242
 20
-63.9264
 11
-121.80242
 21
-63.87628
  0
LINE
  8
鉄骨等
  6
DOT
 62
    47
 10
48.987725
 20
-66.243067
 11
48.987725
 21
-65.0764
  0
LINE
  8
鉄骨等
  6
DOT
 62
    47
 10
48.987725
 20
-65.0764
 11
47.58454
 21
-63.9264
  0
LINE
  8
鉄骨等
  6
DOT
 62
    47
 10
47.58454
 20
-63.9264
 11
47.58454
 21
-63.87628
  0
ENDBLK
  0
BLOCK
  2
*GRP_0040
 70
    65
 10
0.0
 20
0.0
  0
LINE
  8
ボルト／ビス
  6
CONTINUOUS
 10
-121.108937
 20
-70.209605
 11
-121.108937
 21
-69.74294
  0
LINE
  8
ボルト／ビス
  6
CONTINUOUS
 10
-120.742273
 20
-70.209605
 11
-120.742273
 21
-70.14294
  0
LINE
  8
ボルト／ビス
  6
CONTINUOUS
 10
-120.742273
 20
-70.14294
 11
-121.475605
 21
-70.14294
  0
LINE
  8
ボルト／ビス
  6
CONTINUOUS
 10
-121.475605
 20
-70.14294
 11
-121.475605
 21
-70.209605
  0
LINE
  8
ボルト／ビス
  6
CONTINUOUS
 10
-120.742273
 20
-70.209605
 11
-121.475605
 21
-70.209605
  0
LINE
  8
ボルト／ビス
  6
CONTINUOUS
 10
-120.808937
 20
-70.109605
 11
-120.808937
 21
-70.14294
  0
LINE
  8
ボルト／ビス
  6
CONTINUOUS
 10
-120.808937
 20
-70.109605
 11
-121.408937
 21
-70.109605
  0
LINE
  8
ボルト／ビス
  6
CONTINUOUS
 10
-121.408937
 20
-70.109605
 11
-121.408937
 21
-70.14294
  0
LINE
  8
ボルト／ビス
  6
CONTINUOUS
 62
    64
 10
-120.948563
 20
-69.909605
 11
-120.916488
 21
-69.92128
  0
ARC
  8
ボルト／ビス
  6
CONTINUOUS
 62
    64
 10
-120.964601
 20
-70.014582
 40
0.104978
 50
90.0
 51
117.278033
  0
ARC
  8
ボルト／ビス
  6
CONTINUOUS
 62
    64
 10
-121.108939
 20
-70.312006
 40
0.402402
 50
76.165015
 51
103.834998
  0
LINE
  8
ボルト／ビス
  6
CONTINUOUS
 62
    64
 10
-121.269312
 20
-69.909605
 11
-121.301387
 21
-69.92128
  0
ARC
  8
ボルト／ビス
  6
CONTINUOUS
 62
    64
 10
-121.253277
 20
-70.014582
 40
0.104978
 50
62.721967
 51
90.0
  0
LINE
  8
ボルト／ビス
  6
CONTINUOUS
 62
    64
 10
-120.948563
 20
-69.909605
 11
-121.269312
 21
-69.909605
  0
LINE
  8
ボルト／ビス
  6
CONTINUOUS
 62
    64
 10
-121.301387
 20
-69.92128
 11
-121.301387
 21
-70.04294
  0
LINE
  8
ボルト／ビス
  6
CONTINUOUS
 62
    64
 10
-121.205163
 20
-69.92128
 11
-121.205163
 21
-70.04294
  0
LINE
  8
ボルト／ビス
  6
CONTINUOUS
 62
    64
 10
-120.916488
 20
-69.92128
 11
-120.916488
 21
-70.04294
  0
LINE
  8
ボルト／ビス
  6
CONTINUOUS
 62
    64
 10
-121.012712
 20
-69.92128
 11
-121.012712
 21
-70.04294
  0
LINE
  8
ボルト／ビス
  6
CONTINUOUS
 10
-120.916488
 20
-70.04294
 11
-121.301387
 21
-70.04294
  0
LINE
  8
ボルト／ビス
  6
CONTINUOUS
 10
-120.908937
 20
-70.04294
 11
-120.908937
 21
-70.109605
  0
LINE
  8
ボルト／ビス
  6
CONTINUOUS
 10
-120.908937
 20
-70.04294
 11
-121.308937
 21
-70.04294
  0
LINE
  8
ボルト／ビス
  6
CONTINUOUS
 10
-121.308937
 20
-70.04294
 11
-121.308937
 21
-70.109605
  0
ENDBLK
  0
BLOCK
  2
*GRP_0041
 70
    65
 10
0.0
 20
0.0
  0
LINE
  8
ボルト／ビス
  6
DOT
 10
-121.108937
 20
-62.876272
 11
-121.108937
 21
-62.409608
  0
LINE
  8
ボルト／ビス
  6
DOT
 10
-120.742273
 20
-62.876272
 11
-120.742273
 21
-62.809608
  0
LINE
  8
ボルト／ビス
  6
DOT
 10
-120.742273
 20
-62.809608
 11
-121.475605
 21
-62.809608
  0
LINE
  8
ボルト／ビス
  6
DOT
 10
-121.475605
 20
-62.809608
 11
-121.475605
 21
-62.876272
  0
LINE
  8
ボルト／ビス
  6
DOT
 10
-120.742273
 20
-62.876272
 11
-121.475605
 21
-62.876272
  0
LINE
  8
ボルト／ビス
  6
DOT
 10
-120.808937
 20
-62.776272
 11
-120.808937
 21
-62.809608
  0
LINE
  8
ボルト／ビス
  6
DOT
 10
-120.808937
 20
-62.776272
 11
-121.408937
 21
-62.776272
  0
LINE
  8
ボルト／ビス
  6
DOT
 10
-121.408937
 20
-62.776272
 11
-121.408937
 21
-62.809608
  0
LINE
  8
ボルト／ビス
  6
DOT
 62
    64
 10
-120.948563
 20
-62.576272
 11
-120.916488
 21
-62.587947
  0
ARC
  8
ボルト／ビス
  6
DOT
 62
    64
 10
-120.964601
 20
-62.68125
 40
0.104978
 50
90.0
 51
117.278033
  0
ARC
  8
ボルト／ビス
  6
DOT
 62
    64
 10
-121.108939
 20
-62.978674
 40
0.402402
 50
76.165015
 51
103.834998
  0
LINE
  8
ボルト／ビス
  6
DOT
 62
    64
 10
-121.269312
 20
-62.576272
 11
-121.301387
 21
-62.587947
  0
ARC
  8
ボルト／ビス
  6
DOT
 62
    64
 10
-121.253277
 20
-62.68125
 40
0.104978
 50
62.721967
 51
90.0
  0
LINE
  8
ボルト／ビス
  6
DOT
 62
    64
 10
-120.948563
 20
-62.576272
 11
-121.269312
 21
-62.576272
  0
LINE
  8
ボルト／ビス
  6
DOT
 62
    64
 10
-121.301387
 20
-62.587947
 11
-121.301387
 21
-62.709608
  0
LINE
  8
ボルト／ビス
  6
DOT
 62
    64
 10
-121.205163
 20
-62.587947
 11
-121.205163
 21
-62.709608
  0
LINE
  8
ボルト／ビス
  6
DOT
 62
    64
 10
-120.916488
 20
-62.587947
 11
-120.916488
 21
-62.709608
  0
LINE
  8
ボルト／ビス
  6
DOT
 62
    64
 10
-121.012712
 20
-62.587947
 11
-121.012712
 21
-62.709608
  0
LINE
  8
ボルト／ビス
  6
DOT
 10
-120.916488
 20
-62.709608
 11
-121.301387
 21
-62.709608
  0
LINE
  8
ボルト／ビス
  6
DOT
 10
-120.908937
 20
-62.709608
 11
-120.908937
 21
-62.776272
  0
LINE
  8
ボルト／ビス
  6
DOT
 10
-120.908937
 20
-62.709608
 11
-121.308937
 21
-62.709608
  0
LINE
  8
ボルト／ビス
  6
DOT
 10
-121.308937
 20
-62.709608
 11
-121.308937
 21
-62.776272
  0
ENDBLK
  0
BLOCK
  2
*DIM_0042
 70
    65
 10
0.0
 20
0.0
  0
LINE
  8
寸法
  6
BYBLOCK
 62
     0
 10
39.224393
 20
-57.542947
 11
62.194043
 21
-57.542947
  0
LINE
  8
寸法
  6
BYBLOCK
 62
     0
 10
62.194043
 20
-64.87628
 11
62.194043
 21
-57.542947
  0
POINT
  8
寸法
 62
     0
 10
62.194043
 20
-64.87628
  0
POINT
  8
寸法
 62
     0
 10
62.194043
 20
-57.542947
  0
TEXT
  7
TextStyle03
  8
寸法
  6
CONTINUOUS
 62
     0
 10
62.0
 20
-55.8625
  1
上昇高さ220
 40
3.0
 50
90.0
 72
     5
 11
62.0
 21
-37.4875
  0
ENDBLK
  0
BLOCK
  2
*DIM_0043
 70
    65
 10
0.0
 20
0.0
  0
LINE
  8
寸法
  6
BYBLOCK
 62
     0
 10
131.234492
 20
35.814033
 11
131.234492
 21
60.666798
  0
LINE
  8
寸法
  6
BYBLOCK
 62
     0
 10
138.567825
 20
60.666798
 11
131.234492
 21
60.666798
  0
POINT
  8
寸法
 62
     0
 10
138.567825
 20
60.666798
  0
POINT
  8
寸法
 62
     0
 10
131.234492
 20
60.666798
  0
TEXT
  7
TextStyle03
  8
寸法
  6
CONTINUOUS
 62
     0
 10
110.6125
 20
57.825
  1
上昇高さ220
 40
3.0
 72
     5
 11
128.9875
 21
57.825
  0
ENDBLK
  0
ENDSEC
  0
SECTION
  2
ENTITIES
  0
POLYLINE
  8
通り芯
  6
CONTINUOUS
 66
     1
 70
     1
  0
VERTEX
  8
通り芯
 10
-210.0
 20
-148.5
  0
VERTEX
  8
通り芯
 10
210.0
 20
-148.5
  0
VERTEX
  8
通り芯
 10
210.0
 20
148.5
  0
VERTEX
  8
通り芯
 10
-210.0
 20
148.5
  0
SEQEND
  0
LINE
  8
型材断面
  6
DASHDOT
 10
46.224393
 20
-77.836442
 11
46.224393
 21
42.814033
  0
LINE
  8
型材断面
  6
DASHDOT
 10
-37.10894
 20
-77.836442
 11
-37.10894
 21
42.814033
  0
LINE
  8
型材断面
  6
DASHDOT
 10
-120.442275
 20
-77.836442
 11
-120.442275
 21
42.814033
  0
LINE
  8
型材断面
  6
DASHDOT
 10
143.901155
 20
22.814033
 11
-120.442275
 21
22.814033
  0
LINE
  8
型材断面
  6
DASHDOT
 10
143.901155
 20
32.814033
 11
-120.442275
 21
32.814033
  0
LINE
  8
型材断面
  6
DASHDOT
 10
143.901155
 20
42.814033
 11
-120.442275
 21
42.814033
  0
POLYLINE
  8
型材断面
  6
CONTINUOUS
 66
     1
 70
     1
  0
VERTEX
  8
型材断面
 10
-27.309977
 20
13.03811
  0
VERTEX
  8
型材断面
 10
-46.081908
 20
13.03811
  0
VERTEX
  8
型材断面
 10
-46.081908
 20
8.301267
  0
VERTEX
  8
型材断面
 10
-27.309977
 20
8.301267
  0
SEQEND
  0
POLYLINE
  8
型材断面
  6
CONTINUOUS
 66
     1
 70
     1
  0
VERTEX
  8
型材断面
 10
-27.309977
 20
52.589955
  0
VERTEX
  8
型材断面
 10
-46.081908
 20
52.589955
  0
VERTEX
  8
型材断面
 10
-46.081908
 20
57.326798
  0
VERTEX
  8
型材断面
 10
-27.309977
 20
57.326798
  0
SEQEND
  0
LINE
  8
型材断面
  6
CONTINUOUS
 10
-161.294482
 20
80.791505
 11
-160.698427
 21
78.200998
  0
LINE
  8
型材断面
  6
CONTINUOUS
 10
-161.294482
 20
80.791505
 11
-161.89054
 21
78.200998
  0
LINE
  8
型材断面
  6
CONTINUOUS
 10
-161.89054
 20
78.200998
 11
-160.698427
 21
78.200998
  0
LINE
  8
型材断面
  6
CONTINUOUS
 10
-167.31707
 20
74.922105
 11
-121.075292
 21
74.922105
  0
LINE
  8
型材断面
  6
CONTINUOUS
 10
-161.294482
 20
87.32138
 11
-162.790113
 21
84.730873
  0
LINE
  8
型材断面
  6
CONTINUOUS
 10
-161.294482
 20
87.32138
 11
-159.798852
 21
84.730873
  0
LINE
  8
型材断面
  6
CONTINUOUS
 10
-159.798852
 20
84.730873
 11
-162.790113
 21
84.730873
  0
LINE
  8
型材断面
  6
CONTINUOUS
 10
-167.31707
 20
83.792277
 11
-121.075292
 21
83.792277
  0
LINE
  8
型材断面
  6
CONTINUOUS
 10
-167.31707
 20
69.134073
 11
-121.075292
 21
69.134073
  0
INSERT
  2
*GRP_0008
  8
型材断面
  6
CONTINUOUS
 10
0.0
 20
0.0
  0
INSERT
  2
*GRP_0009
  8
型材断面
  6
CONTINUOUS
 10
0.0
 20
0.0
  0
INSERT
  2
*GRP_0010
  8
型材断面
  6
CONTINUOUS
 10
0.0
 20
0.0
  0
INSERT
  2
*GRP_0011
  8
型材断面
  6
CONTINUOUS
 10
0.0
 20
0.0
  0
LINE
  8
型材断面
  6
CONTINUOUS
 10
-167.31707
 20
63.34604
 11
-121.075292
 21
63.34604
  0
LINE
  8
型材断面
  6
CONTINUOUS
 10
144.95128
 20
32.814033
 11
144.95128
 21
21.453885
  0
LINE
  8
型材断面
  6
CONTINUOUS
 10
146.10128
 20
32.814033
 11
146.10128
 21
20.0507
  0
LINE
  8
型材断面
  6
CONTINUOUS
 10
147.267948
 20
32.814033
 11
147.267948
 21
20.0507
  0
LINE
  8
型材断面
  6
CONTINUOUS
 10
144.95128
 20
32.814033
 11
144.95128
 21
44.17418
  0
LINE
  8
型材断面
  6
CONTINUOUS
 10
146.10128
 20
32.814033
 11
146.10128
 21
45.577365
  0
LINE
  8
型材断面
  6
CONTINUOUS
 10
147.267948
 20
32.814033
 11
147.267948
 21
45.577365
  0
LINE
  8
型材断面
  6
CONTINUOUS
 10
-37.10894
 20
-71.259732
 11
-121.80242
 21
-71.259732
  0
LINE
  8
型材断面
  6
CONTINUOUS
 10
-37.10894
 20
-72.409732
 11
-123.205605
 21
-72.409732
  0
LINE
  8
型材断面
  6
CONTINUOUS
 10
-37.10894
 20
-73.5764
 11
-123.205605
 21
-73.5764
  0
LINE
  8
型材断面
  6
CONTINUOUS
 10
-37.10894
 20
-71.259732
 11
47.58454
 21
-71.259732
  0
LINE
  8
型材断面
  6
CONTINUOUS
 10
-37.10894
 20
-72.409732
 11
48.987725
 21
-72.409732
  0
LINE
  8
型材断面
  6
CONTINUOUS
 10
-37.10894
 20
-73.5764
 11
48.987725
 21
-73.5764
  0
LINE
  8
型材断面
  6
CONTINUOUS
 10
-122.50894
 20
44.8807
 11
-123.205608
 21
45.577365
  0
LINE
  8
型材断面
  6
CONTINUOUS
 10
-123.205605
 20
45.577365
 11
-123.205605
 21
20.0507
  0
LINE
  8
型材断面
  6
CONTINUOUS
 10
-122.50894
 20
20.747365
 11
-123.205608
 21
20.0507
  0
LINE
  8
型材断面
  6
CONTINUOUS
 10
-123.205605
 20
20.0507
 11
48.987725
 21
20.0507
  0
LINE
  8
型材断面
  6
CONTINUOUS
 10
48.29106
 20
20.747365
 11
48.987728
 21
20.0507
  0
LINE
  8
型材断面
  6
CONTINUOUS
 10
48.987725
 20
20.0507
 11
48.987725
 21
45.577365
  0
LINE
  8
型材断面
  6
CONTINUOUS
 10
-123.205605
 20
45.577365
 11
48.987725
 21
45.577365
  0
LINE
  8
型材断面
  6
CONTINUOUS
 10
48.29106
 20
44.8807
 11
48.987725
 21
45.577362
  0
LINE
  8
型材断面
  6
CONTINUOUS
 10
-123.205605
 20
32.814033
 11
-125.796112
 21
34.309663
  0
LINE
  8
型材断面
  6
CONTINUOUS
 10
-123.205605
 20
32.814033
 11
-125.796112
 21
31.318403
  0
LINE
  8
型材断面
  6
CONTINUOUS
 10
-125.796112
 20
31.318403
 11
-125.796112
 21
34.309663
  0
LINE
  8
型材断面
  6
CONTINUOUS
 10
-123.205602
 20
39.114035
 11
-125.796112
 21
38.517982
  0
LINE
  8
型材断面
  6
CONTINUOUS
 10
-123.205602
 20
39.114035
 11
-125.79611
 21
39.710095
  0
LINE
  8
型材断面
  6
CONTINUOUS
 10
-125.79611
 20
39.710095
 11
-125.796112
 21
38.517982
  0
LINE
  8
型材断面
  6
CONTINUOUS
 10
-123.205602
 20
26.51403
 11
-125.796112
 21
27.110082
  0
LINE
  8
型材断面
  6
CONTINUOUS
 10
-123.205602
 20
26.51403
 11
-125.79611
 21
25.91797
  0
LINE
  8
型材断面
  6
CONTINUOUS
 10
-125.79611
 20
25.91797
 11
-125.796112
 21
27.110082
  0
LINE
  8
型材断面
  6
CONTINUOUS
 10
-103.775608
 20
45.577365
 11
-105.271238
 21
48.167872
  0
LINE
  8
型材断面
  6
CONTINUOUS
 10
-103.775608
 20
45.577365
 11
-102.279978
 21
48.167872
  0
LINE
  8
型材断面
  6
CONTINUOUS
 10
-102.279978
 20
48.167872
 11
-105.271238
 21
48.167872
  0
LINE
  8
型材断面
  6
CONTINUOUS
 10
29.557727
 20
45.577365
 11
31.053357
 21
48.167872
  0
LINE
  8
型材断面
  6
CONTINUOUS
 10
29.557727
 20
45.577365
 11
28.062097
 21
48.167872
  0
LINE
  8
型材断面
  6
CONTINUOUS
 10
28.062097
 20
48.167872
 11
31.053357
 21
48.167872
  0
LINE
  8
型材断面
  6
CONTINUOUS
 10
-37.10894
 20
45.577362
 11
-35.61331
 21
48.16787
  0
LINE
  8
型材断面
  6
CONTINUOUS
 10
-37.10894
 20
45.577362
 11
-38.60457
 21
48.16787
  0
LINE
  8
型材断面
  6
CONTINUOUS
 10
-38.60457
 20
48.16787
 11
-35.61331
 21
48.16787
  0
LINE
  8
型材断面
  6
CONTINUOUS
 10
48.987725
 20
32.814033
 11
51.578233
 21
34.309663
  0
LINE
  8
型材断面
  6
CONTINUOUS
 10
48.987725
 20
32.814033
 11
51.578233
 21
31.318403
  0
LINE
  8
型材断面
  6
CONTINUOUS
 10
51.578233
 20
31.318403
 11
51.578233
 21
34.309663
  0
LINE
  8
型材断面
  6
CONTINUOUS
 10
48.987723
 20
39.114035
 11
51.578233
 21
38.517982
  0
LINE
  8
型材断面
  6
CONTINUOUS
 10
48.987723
 20
39.114035
 11
51.57823
 21
39.710095
  0
LINE
  8
型材断面
  6
CONTINUOUS
 10
51.57823
 20
39.710095
 11
51.578233
 21
38.517982
  0
LINE
  8
型材断面
  6
CONTINUOUS
 10
48.987723
 20
26.51403
 11
51.578233
 21
27.110082
  0
LINE
  8
型材断面
  6
CONTINUOUS
 10
48.987723
 20
26.51403
 11
51.57823
 21
25.91797
  0
LINE
  8
型材断面
  6
CONTINUOUS
 10
51.57823
 20
25.91797
 11
51.578233
 21
27.110082
  0
LINE
  8
型材断面
  6
CONTINUOUS
 10
-103.775608
 20
20.0507
 11
-105.271238
 21
17.460193
  0
LINE
  8
型材断面
  6
CONTINUOUS
 10
-103.775608
 20
20.0507
 11
-102.279978
 21
17.460193
  0
LINE
  8
型材断面
  6
CONTINUOUS
 10
-102.279978
 20
17.460193
 11
-105.271238
 21
17.460193
  0
LINE
  8
型材断面
  6
CONTINUOUS
 10
29.557727
 20
20.0507
 11
31.053357
 21
17.460193
  0
LINE
  8
型材断面
  6
CONTINUOUS
 10
29.557727
 20
20.0507
 11
28.062097
 21
17.460193
  0
LINE
  8
型材断面
  6
CONTINUOUS
 10
28.062097
 20
17.460193
 11
31.053357
 21
17.460193
  0
LINE
  8
型材断面
  6
CONTINUOUS
 10
-37.10894
 20
20.050698
 11
-35.61331
 21
17.46019
  0
LINE
  8
型材断面
  6
CONTINUOUS
 10
-37.10894
 20
20.050698
 11
-38.60457
 21
17.46019
  0
LINE
  8
型材断面
  6
CONTINUOUS
 10
-38.60457
 20
17.46019
 11
-35.61331
 21
17.46019
  0
LINE
  8
型材断面
  6
DOT
 10
-86.178942
 20
22.814033
 11
-86.178942
 21
42.814033
  0
LINE
  8
型材断面
  6
DASHDOT
 10
-87.428942
 20
22.814033
 11
-87.428942
 21
42.814033
  0
LINE
  8
型材断面
  6
DOT
 10
-88.678942
 20
22.814033
 11
-88.678942
 21
42.814033
  0
LINE
  8
型材断面
  6
DOT
 10
-52.632275
 20
22.814033
 11
-52.632275
 21
42.814033
  0
LINE
  8
型材断面
  6
DASHDOT
 10
-53.882275
 20
22.814033
 11
-53.882275
 21
42.814033
  0
LINE
  8
型材断面
  6
DOT
 10
-55.132275
 20
22.814033
 11
-55.132275
 21
42.814033
  0
LINE
  8
型材断面
  6
DOT
 10
11.961062
 20
22.814033
 11
11.961062
 21
42.814033
  0
LINE
  8
型材断面
  6
DASHDOT
 10
13.211062
 20
22.814033
 11
13.211062
 21
42.814033
  0
LINE
  8
型材断面
  6
DOT
 10
14.461062
 20
22.814033
 11
14.461062
 21
42.814033
  0
LINE
  8
型材断面
  6
DOT
 10
-21.585605
 20
22.814033
 11
-21.585605
 21
42.814033
  0
LINE
  8
型材断面
  6
DASHDOT
 10
-20.335605
 20
22.814033
 11
-20.335605
 21
42.814033
  0
LINE
  8
型材断面
  6
DOT
 10
-19.085605
 20
22.814033
 11
-19.085605
 21
42.814033
  0
LINE
  8
型材断面
  6
CONTINUOUS
 10
151.401165
 20
20.5507
 11
151.73783
 21
20.5507
  0
LINE
  8
型材断面
  6
CONTINUOUS
 10
151.401165
 20
20.0507
 11
151.401165
 21
20.5507
  0
LINE
  8
型材断面
  6
CONTINUOUS
 10
147.501282
 20
20.0507
 11
147.30466
 21
20.247325
  0
LINE
  8
型材断面
  6
CONTINUOUS
 10
147.501282
 20
20.0507
 11
151.401165
 21
20.0507
  0
LINE
  8
型材断面
  6
CONTINUOUS
 62
    47
 10
147.30466
 20
20.247325
 11
147.30466
 21
32.814033
  0
LINE
  8
型材断面
  6
CONTINUOUS
 10
147.501282
 20
20.0507
 11
147.501282
 21
32.814033
  0
LINE
  8
型材断面
  6
CONTINUOUS
 10
151.73783
 20
20.5507
 11
151.73783
 21
32.814033
  0
LINE
  8
型材断面
  6
CONTINUOUS
 10
151.401165
 20
20.0507
 11
151.401165
 21
32.814033
  0
LINE
  8
型材断面
  6
CONTINUOUS
 10
151.401165
 20
45.077365
 11
151.73783
 21
45.077365
  0
LINE
  8
型材断面
  6
CONTINUOUS
 10
151.401165
 20
45.577365
 11
151.401165
 21
45.077365
  0
LINE
  8
型材断面
  6
CONTINUOUS
 10
147.501282
 20
45.577365
 11
147.30466
 21
45.38074
  0
LINE
  8
型材断面
  6
CONTINUOUS
 10
147.501282
 20
45.577365
 11
151.401165
 21
45.577365
  0
LINE
  8
型材断面
  6
CONTINUOUS
 62
    47
 10
147.30466
 20
45.38074
 11
147.30466
 21
32.814033
  0
LINE
  8
型材断面
  6
CONTINUOUS
 10
147.501282
 20
45.577365
 11
147.501282
 21
32.814033
  0
LINE
  8
型材断面
  6
CONTINUOUS
 10
151.73783
 20
45.077365
 11
151.73783
 21
32.814033
  0
LINE
  8
型材断面
  6
CONTINUOUS
 10
151.401165
 20
45.577365
 11
151.401165
 21
32.814033
  0
LINE
  8
型材断面
  6
CONTINUOUS
 10
48.487725
 20
-77.709617
 11
48.487725
 21
-78.046282
  0
LINE
  8
型材断面
  6
CONTINUOUS
 10
48.987725
 20
-77.709617
 11
48.487725
 21
-77.709617
  0
LINE
  8
型材断面
  6
CONTINUOUS
 10
48.987725
 20
-73.809735
 11
48.7911
 21
-73.613112
  0
LINE
  8
型材断面
  6
CONTINUOUS
 10
48.987725
 20
-73.809735
 11
48.987725
 21
-77.709617
  0
LINE
  8
型材断面
  6
CONTINUOUS
 10
48.987725
 20
-73.809735
 11
-37.10894
 21
-73.809735
  0
LINE
  8
型材断面
  6
CONTINUOUS
 62
    47
 10
48.7911
 20
-73.613112
 11
-37.10894
 21
-73.613112
  0
LINE
  8
型材断面
  6
CONTINUOUS
 10
48.987725
 20
-77.709617
 11
-37.10894
 21
-77.709617
  0
LINE
  8
型材断面
  6
CONTINUOUS
 10
48.487725
 20
-78.046282
 11
-37.10894
 21
-78.046282
  0
INSERT
  2
*GRP_0037
  8
型材断面
  6
CONTINUOUS
 10
0.0
 20
0.0
  0
LINE
  8
型材断面
  6
CONTINUOUS
 10
-122.705605
 20
-77.709617
 11
-122.705605
 21
-78.046282
  0
LINE
  8
型材断面
  6
CONTINUOUS
 10
-123.205605
 20
-77.709617
 11
-122.705605
 21
-77.709617
  0
LINE
  8
型材断面
  6
CONTINUOUS
 10
-123.205605
 20
-73.809735
 11
-123.00898
 21
-73.613112
  0
LINE
  8
型材断面
  6
CONTINUOUS
 10
-123.205605
 20
-73.809735
 11
-123.205605
 21
-77.709617
  0
LINE
  8
型材断面
  6
CONTINUOUS
 10
-123.205605
 20
-73.809735
 11
-37.10894
 21
-73.809735
  0
LINE
  8
型材断面
  6
CONTINUOUS
 62
    47
 10
-123.00898
 20
-73.613112
 11
-37.10894
 21
-73.613112
  0
LINE
  8
型材断面
  6
CONTINUOUS
 10
-123.205605
 20
-77.709617
 11
-37.10894
 21
-77.709617
  0
LINE
  8
型材断面
  6
CONTINUOUS
 10
-122.705605
 20
-78.046282
 11
-37.10894
 21
-78.046282
  0
TEXT
  7
TextStyle03
  8
文字
  6
CONTINUOUS
 10
-45.025
 20
9.325
  1
可動装置側
 40
3.0
 72
     5
 11
-28.525
 21
9.325
  0
TEXT
  7
TextStyle03
  8
文字
  6
CONTINUOUS
 10
-45.025
 20
53.3
  1
可動装置側
 40
3.0
 72
     5
 11
-28.525
 21
53.3
  0
TEXT
  7
TextStyle03
  8
文字
  6
CONTINUOUS
 10
-158.45
 20
79.425
  1
はケーシング位置を示す
 40
3.0
 72
     5
 11
-121.7
 21
79.425
  0
TEXT
  7
TextStyle03
  8
文字
  6
CONTINUOUS
 10
-158.45
 20
76.05
  1
４ヶ所中1ヶ所に設定
 40
3.0
 72
     5
 11
-126.7625
 21
76.05
  0
TEXT
  7
TextStyle03
  8
文字
  6
CONTINUOUS
 10
-158.45
 20
84.95
  1
は排水穴位置を示す
 40
3.0
 72
     5
 11
-128.45
 21
84.95
  0
TEXT
  7
TextStyle03
  8
文字
  6
CONTINUOUS
 10
-141.45
 20
11.275
  1
アンカーピッチ
 40
3.0
 50
90.0
 72
     5
 11
-141.45
 21
34.525
  0
TEXT
  7
TextStyle03
  8
文字
  6
CONTINUOUS
 10
-109.7
 20
80.275
  1
アンカーピッチ
 40
3.0
 72
     5
 11
-86.45
 21
80.275
  0
TEXT
  7
TextStyle03
  8
文字
  6
CONTINUOUS
 10
-162.175
 20
70.075
  1
アンカー数量　１８ヶ所
 40
3.0
 72
     5
 11
-125.425
 21
70.075
  0
TEXT
  7
TextStyle03
  8
文字
  6
CONTINUOUS
 10
-162.225
 20
64.3
  1
アームユニット数　４ヶ所
 40
3.0
 72
     5
 11
-122.1
 21
64.3
  0
LINE
  8
文字
  6
CONTINUOUS
 10
88.387543
 20
45.577365
 11
144.579493
 21
45.577365
  0
LINE
  8
文字
  6
CONTINUOUS
 10
88.387543
 20
20.0507
 11
144.579493
 21
20.0507
  0
LINE
  8
文字
  6
CONTINUOUS
 10
-123.205605
 20
-13.121378
 11
-123.205605
 21
-71.228128
  0
LINE
  8
文字
  6
CONTINUOUS
 10
48.987725
 20
-13.121378
 11
48.987725
 21
-71.193048
  0
TEXT
  7
TextStyle03
  8
文字
  6
CONTINUOUS
 10
122.175
 20
-68.525
  1
網入り6.8t
 40
3.0
 72
     5
 11
138.8625
 21
-68.525
  0
TEXT
  7
TextStyle03
  8
文字
  6
CONTINUOUS
 10
128.85
 20
-73.2
  1
×５枚
 40
3.0
 72
     5
 11
138.6
 21
-73.2
  0
TEXT
  7
TextStyle03
  8
文字
  6
CONTINUOUS
 10
78.1
 20
125.25
  1
シリーズ：ＴＤ１Ｌ
 40
5.0
 72
     5
 11
128.1
 21
125.25
  0
TEXT
  7
TextStyle03
  8
文字
  6
CONTINUOUS
 10
78.1
 20
119.625
  1
　　　　　（上下可動）600×5000タイプ
 40
5.0
 72
     5
 11
181.5375
 21
119.625
  0
TEXT
  7
TextStyle03
  8
文字
  6
CONTINUOUS
 10
78.1
 20
114.0
  1
図面名　：外観姿図
 40
5.0
 72
     5
 11
128.1
 21
114.0
  0
TEXT
  7
TextStyle03
  8
文字
  6
CONTINUOUS
 10
78.1
 20
108.375
  1
　　　　　　
 40
5.0
 72
     5
 11
111.225
 21
108.375
  0
TEXT
  7
TextStyle03
  8
文字
  6
CONTINUOUS
 10
77.925
 20
102.675
  1
ＮＳコード：ＮＳＤＬ
 40
5.0
 72
     5
 11
133.55
 21
102.675
  0
INSERT
  2
*DIM_0001
  8
寸法
  6
CONTINUOUS
 10
0.0
 20
0.0
  0
INSERT
  2
*DIM_0002
  8
寸法
  6
CONTINUOUS
 10
0.0
 20
0.0
  0
INSERT
  2
*DIM_0003
  8
寸法
  6
CONTINUOUS
 10
0.0
 20
0.0
  0
INSERT
  2
*DIM_0004
  8
寸法
  6
CONTINUOUS
 10
0.0
 20
0.0
  0
INSERT
  2
*DIM_0005
  8
寸法
  6
CONTINUOUS
 10
0.0
 20
0.0
  0
INSERT
  2
*DIM_0006
  8
寸法
  6
CONTINUOUS
 10
0.0
 20
0.0
  0
INSERT
  2
*DIM_0012
  8
寸法
  6
CONTINUOUS
 10
0.0
 20
0.0
  0
INSERT
  2
*DIM_0013
  8
寸法
  6
CONTINUOUS
 10
0.0
 20
0.0
  0
INSERT
  2
*DIM_0014
  8
寸法
  6
CONTINUOUS
 10
0.0
 20
0.0
  0
INSERT
  2
*DIM_0015
  8
寸法
  6
CONTINUOUS
 10
0.0
 20
0.0
  0
INSERT
  2
*DIM_0016
  8
寸法
  6
CONTINUOUS
 10
0.0
 20
0.0
  0
INSERT
  2
*DIM_0017
  8
寸法
  6
CONTINUOUS
 10
0.0
 20
0.0
  0
INSERT
  2
*DIM_0018
  8
寸法
  6
CONTINUOUS
 10
0.0
 20
0.0
  0
INSERT
  2
*DIM_0019
  8
寸法
  6
CONTINUOUS
 10
0.0
 20
0.0
  0
INSERT
  2
*DIM_0020
  8
寸法
  6
CONTINUOUS
 10
0.0
 20
0.0
  0
INSERT
  2
*DIM_0021
  8
寸法
  6
CONTINUOUS
 10
0.0
 20
0.0
  0
INSERT
  2
*DIM_0022
  8
寸法
  6
CONTINUOUS
 10
0.0
 20
0.0
  0
INSERT
  2
*DIM_0023
  8
寸法
  6
CONTINUOUS
 10
0.0
 20
0.0
  0
INSERT
  2
*DIM_0024
  8
寸法
  6
CONTINUOUS
 10
0.0
 20
0.0
  0
INSERT
  2
*DIM_0027
  8
寸法
  6
CONTINUOUS
 10
0.0
 20
0.0
  0
INSERT
  2
*DIM_0028
  8
寸法
  6
CONTINUOUS
 10
0.0
 20
0.0
  0
INSERT
  2
*DIM_0036
  8
寸法
  6
CONTINUOUS
 10
0.0
 20
0.0
  0
INSERT
  2
*DIM_0038
  8
寸法
  6
CONTINUOUS
 10
0.0
 20
0.0
  0
INSERT
  2
*DIM_0042
  8
寸法
  6
CONTINUOUS
 10
0.0
 20
0.0
  0
INSERT
  2
*DIM_0043
  8
寸法
  6
CONTINUOUS
 10
0.0
 20
0.0
  0
LINE
  8
別途部材
  6
CONTINUOUS
 10
48.29106
 20
20.747365
 11
47.89106
 21
21.147365
  0
LINE
  8
別途部材
  6
CONTINUOUS
 10
46.224393
 20
22.814033
 11
38.165137
 21
30.87329
  0
LINE
  8
別途部材
  6
CONTINUOUS
 10
47.89106
 20
21.147365
 11
47.89106
 21
32.814033
  0
LINE
  8
別途部材
  6
CONTINUOUS
 10
48.29106
 20
20.747365
 11
48.29106
 21
32.814033
  0
LINE
  8
別途部材
  6
CONTINUOUS
 10
48.29106
 20
44.8807
 11
47.89106
 21
44.4807
  0
LINE
  8
別途部材
  6
CONTINUOUS
 10
46.224393
 20
42.814033
 11
38.165137
 21
34.754775
  0
LINE
  8
別途部材
  6
CONTINUOUS
 10
47.89106
 20
44.4807
 11
47.89106
 21
32.814033
  0
LINE
  8
別途部材
  6
CONTINUOUS
 10
48.29106
 20
44.8807
 11
48.29106
 21
32.814033
  0
LINE
  8
別途部材
  6
CONTINUOUS
 10
47.89106
 20
44.4807
 11
-37.10894
 21
44.4807
  0
LINE
  8
別途部材
  6
CONTINUOUS
 10
48.29106
 20
44.8807
 11
-37.10894
 21
44.8807
  0
LINE
  8
別途部材
  6
CONTINUOUS
 10
48.29106
 20
20.747365
 11
-37.10894
 21
20.747365
  0
LINE
  8
別途部材
  6
CONTINUOUS
 10
47.89106
 20
21.147365
 11
-37.10894
 21
21.147365
  0
LINE
  8
別途部材
  6
CONTINUOUS
 10
-122.50894
 20
20.747365
 11
-122.10894
 21
21.147365
  0
LINE
  8
別途部材
  6
CONTINUOUS
 10
-120.442273
 20
22.814033
 11
-112.383018
 21
30.87329
  0
LINE
  8
別途部材
  6
CONTINUOUS
 10
-122.10894
 20
21.147365
 11
-122.10894
 21
32.814033
  0
LINE
  8
別途部材
  6
CONTINUOUS
 10
-122.50894
 20
20.747365
 11
-122.50894
 21
32.814033
  0
LINE
  8
別途部材
  6
CONTINUOUS
 10
-122.50894
 20
44.8807
 11
-122.10894
 21
44.4807
  0
LINE
  8
別途部材
  6
CONTINUOUS
 10
-120.442273
 20
42.814033
 11
-112.383018
 21
34.754775
  0
LINE
  8
別途部材
  6
CONTINUOUS
 10
-122.10894
 20
44.4807
 11
-122.10894
 21
32.814033
  0
LINE
  8
別途部材
  6
CONTINUOUS
 10
-122.50894
 20
44.8807
 11
-122.50894
 21
32.814033
  0
LINE
  8
別途部材
  6
CONTINUOUS
 10
-122.10894
 20
44.4807
 11
-37.10894
 21
44.4807
  0
LINE
  8
別途部材
  6
CONTINUOUS
 10
-122.50894
 20
44.8807
 11
-37.10894
 21
44.8807
  0
LINE
  8
別途部材
  6
CONTINUOUS
 10
-122.50894
 20
20.747365
 11
-37.10894
 21
20.747365
  0
LINE
  8
別途部材
  6
CONTINUOUS
 10
-122.10894
 20
21.147365
 11
-37.10894
 21
21.147365
  0
INSERT
  2
*GRP_0007
  8
別途部材
  6
CONTINUOUS
 10
0.0
 20
0.0
  0
LINE
  8
別途部材
  6
CONTINUOUS
 62
    96
 10
143.901158
 20
21.147365
 11
144.901158
 21
20.747365
  0
LINE
  8
別途部材
  6
CONTINUOUS
 62
    96
 10
143.901158
 20
21.147365
 11
143.901158
 21
32.814033
  0
LINE
  8
別途部材
  6
CONTINUOUS
 10
144.901158
 20
20.747365
 11
144.901158
 21
32.814033
  0
LINE
  8
別途部材
  6
CONTINUOUS
 62
    96
 10
143.901158
 20
44.4807
 11
144.901158
 21
44.8807
  0
LINE
  8
別途部材
  6
CONTINUOUS
 62
    96
 10
143.901158
 20
44.4807
 11
143.901158
 21
32.814033
  0
LINE
  8
別途部材
  6
CONTINUOUS
 10
144.901158
 20
44.8807
 11
144.901158
 21
32.814033
  0
ARC
  8
別途部材
  6
CONTINUOUS
 10
150.60949
 20
32.814033
 40
12.041667
 50
123.855033
 51
236.144967
  0
INSERT
  2
*GRP_0029
  8
別途部材
  6
DOT
 10
0.0
 20
0.0
  0
INSERT
  2
*GRP_0030
  8
別途部材
  6
DOT
 10
0.0
 20
0.0
  0
INSERT
  2
*GRP_0031
  8
別途部材
  6
DOT
 10
0.0
 20
0.0
  0
INSERT
  2
*GRP_0032
  8
別途部材
  6
DOT
 10
0.0
 20
0.0
  0
INSERT
  2
*GRP_0034
  8
別途部材
  6
DOT
 10
0.0
 20
0.0
  0
INSERT
  2
*GRP_0035
  8
別途部材
  6
DOT
 10
0.0
 20
0.0
  0
INSERT
  2
*GRP_0040
  8
別途部材
  6
DOT
 10
0.0
 20
0.0
  0
INSERT
  2
*GRP_0041
  8
別途部材
  6
DOT
 10
0.0
 20
0.0
  0
POLYLINE
  8
曲げ物
  6
CONTINUOUS
 66
     1
 70
     1
  0
VERTEX
  8
曲げ物
 10
141.317915
 20
-55.713055
  0
VERTEX
  8
曲げ物
 10
108.851247
 20
-55.713055
  0
VERTEX
  8
曲げ物
 10
108.851247
 20
-75.713055
  0
VERTEX
  8
曲げ物
 10
141.317915
 20
-75.713055
  0
SEQEND
  0
INSERT
  2
*GRP_0033
  8
曲げ物
  6
CONTINUOUS
 10
0.0
 20
0.0
  0
INSERT
  2
*GRP_0039
  8
曲げ物
  6
CONTINUOUS
 10
0.0
 20
0.0
  0
LINE
  8
鉄骨等
  6
CONTINUOUS
 62
    47
 10
147.267948
 20
20.0507
 11
146.10128
 21
20.0507
  0
LINE
  8
鉄骨等
  6
CONTINUOUS
 62
    47
 10
146.10128
 20
20.0507
 11
144.95128
 21
21.453885
  0
LINE
  8
鉄骨等
  6
CONTINUOUS
 62
    47
 10
144.95128
 20
21.453885
 11
144.90116
 21
21.453885
  0
LINE
  8
鉄骨等
  6
CONTINUOUS
 62
    47
 10
147.267948
 20
45.577365
 11
146.10128
 21
45.577365
  0
LINE
  8
鉄骨等
  6
CONTINUOUS
 62
    47
 10
146.10128
 20
45.577365
 11
144.95128
 21
44.17418
  0
LINE
  8
鉄骨等
  6
CONTINUOUS
 62
    47
 10
144.95128
 20
44.17418
 11
144.90116
 21
44.17418
  0
LINE
  8
鉄骨等
  6
CONTINUOUS
 62
    47
 10
-123.205605
 20
-73.5764
 11
-123.205605
 21
-72.409732
  0
LINE
  8
鉄骨等
  6
CONTINUOUS
 62
    47
 10
-123.205605
 20
-72.409732
 11
-121.80242
 21
-71.259732
  0
LINE
  8
鉄骨等
  6
CONTINUOUS
 62
    47
 10
-121.80242
 20
-71.259732
 11
-121.80242
 21
-71.209613
  0
LINE
  8
鉄骨等
  6
CONTINUOUS
 62
    47
 10
48.987725
 20
-73.5764
 11
48.987725
 21
-72.409732
  0
LINE
  8
鉄骨等
  6
CONTINUOUS
 62
    47
 10
48.987725
 20
-72.409732
 11
47.58454
 21
-71.259732
  0
LINE
  8
鉄骨等
  6
CONTINUOUS
 62
    47
 10
47.58454
 20
-71.259732
 11
47.58454
 21
-71.209613
  0
ENDSEC
  0
EOF
