  0
SECTION
  2
HEADER
  9
$EXTMIN
 10
-210.0
 20
-148.5
  9
$EXTMAX
 10
210.0
 20
148.5
  9
$PDMODE
 70
    32
  9
$PDSIZE
 40
1.5
  9
$LTSCALE
 40
10.0
  0
ENDSEC
  0
SECTION
  2
TABLES
  0
TABLE
  2
LTYPE
 70
    15
  0
LTYPE
  2
CONTINUOUS
 70
    64
  3
実線
 72
    65
 73
     0
 40
0.0
  0
LTYPE
  2
DASHED
 70
    64
  3
破線A
 72
    65
 73
     2
 40
0.6
 49
0.4
 49
-0.2
  0
LTYPE
  2
DASHEDX2
 70
    64
  3
破線B
 72
    65
 73
     2
 40
1.3
 49
0.9
 49
-0.4
  0
LTYPE
  2
DASHDOT
 70
    64
  3
１点鎖線A
 72
    65
 73
     4
 40
0.5375
 49
0.375
 49
-0.05
 49
0.0625
 49
-0.05
  0
LTYPE
  2
DASHDOTX2
 70
    64
  3
１点鎖線B
 72
    65
 73
     4
 40
1.075
 49
0.75
 49
-0.1
 49
0.125
 49
-0.1
  0
LTYPE
  2
DIVIDE2
 70
    64
  3
２点鎖線A
 72
    65
 73
     6
 40
0.5125
 49
0.3
 49
-0.0375
 49
0.05
 49
-0.0375
 49
0.05
 49
-0.0375
  0
LTYPE
  2
DIVIDE
 70
    64
  3
２点鎖線B
 72
    65
 73
     6
 40
1.05
 49
0.55
 49
-0.1
 49
0.1
 49
-0.1
 49
0.1
 49
-0.1
  0
LTYPE
  2
DOT
 70
    64
  3
点線A
 72
    65
 73
     2
 40
0.1125
 49
0.0625
 49
-0.05
  0
LTYPE
  2
DOTX2
 70
    64
  3
点線B
 72
    65
 73
     2
 40
0.275
 49
0.15
 49
-0.125
  0
LTYPE
  2
CONTINUOUS
 70
    64
  3
実線
 72
    65
 73
     0
 40
0.0
  0
LTYPE
  2
CONTINUOUS
 70
    64
  3
実線
 72
    65
 73
     0
 40
0.0
  0
LTYPE
  2
CONTINUOUS
 70
    64
  3
実線
 72
    65
 73
     0
 40
0.0
  0
LTYPE
  2
CONTINUOUS
 70
    64
  3
実線
 72
    65
 73
     0
 40
0.0
  0
LTYPE
  2
CONTINUOUS
 70
    64
  3
実線
 72
    65
 73
     0
 40
0.0
  0
LTYPE
  2
CONTINUOUS
 70
    64
  3
実線
 72
    65
 73
     0
 40
0.0
  0
ENDTAB
  0
TABLE
  2
LAYER
 70
    34
  0
LAYER
  2
通り芯
 70
     0
 62
    15
  6
CONTINUOUS
  0
LAYER
  2
補助線
 70
     0
 62
    16
  6
DOT
  0
LAYER
  2
躯体
 70
     0
 62
    31
  6
CONTINUOUS
  0
LAYER
  2
型材
 70
     0
 62
    32
  6
CONTINUOUS
  0
LAYER
  2
型材断面
 70
     0
 62
    47
  6
CONTINUOUS
  0
LAYER
  2
ガラス
 70
     0
 62
    48
  6
CONTINUOUS
  0
LAYER
  2
ゴム等
 70
     0
 62
    63
  6
CONTINUOUS
  0
LAYER
  2
ボルト／ビス
 70
     0
 62
    64
  6
CONTINUOUS
  0
LAYER
  2
文字
 70
     0
 62
    79
  6
CONTINUOUS
  0
LAYER
  2
寸法
 70
     0
 62
    80
  6
CONTINUOUS
  0
LAYER
  2
ﾊｯﾁﾝｸﾞ
 70
     0
 62
    95
  6
CONTINUOUS
  0
LAYER
  2
別途部材
 70
     0
 62
    96
  6
CONTINUOUS
  0
LAYER
  2
曲げ物
 70
     0
 62
   111
  6
CONTINUOUS
  0
LAYER
  2
鉄骨等
 70
     0
 62
   112
  6
CONTINUOUS
  0
LAYER
  2
St
 70
     0
 62
   127
  6
CONTINUOUS
  0
LAYER
  2
その他部品等
 70
     0
 62
   128
  6
CONTINUOUS
  0
LAYER
  2
ｶﾞｽｹｯﾄ
 70
     0
 62
   143
  6
CONTINUOUS
  0
LAYER
  2
ｽｹｯﾁ
 70
     0
 62
    14
  6
CONTINUOUS
  0
LAYER
  2
0
 70
     0
 62
    17
  6
CONTINUOUS
  0
LAYER
  2
1
 70
     0
 62
    30
  6
CONTINUOUS
  0
LAYER
  2
4
 70
     0
 62
    33
  6
CONTINUOUS
  0
LAYER
  2
ﾚｲﾔ3
 70
     0
 62
    46
  6
CONTINUOUS
  0
LAYER
  2
外形線
 70
     0
 62
    49
  6
CONTINUOUS
  0
LAYER
  2
部品
 70
     0
 62
    14
  6
CONTINUOUS
  0
LAYER
  2
サッシ芯
 70
     0
 62
    17
  6
DASHDOTX2
  0
LAYER
  2
寸法線
 70
     0
 62
    62
  6
CONTINUOUS
  0
LAYER
  2
姿図外形線
 70
     0
 62
    65
  6
CONTINUOUS
  0
LAYER
  2
姿補助線
 70
     0
 62
    30
  6
CONTINUOUS
  0
LAYER
  2
透視線
 70
     0
 62
    78
  6
DOT
  0
LAYER
  2
用紙
 70
     0
 62
    81
  6
CONTINUOUS
  0
LAYER
  2
実線図枠
 70
     0
 62
    94
  6
CONTINUOUS
  0
LAYER
  2
補助図枠
 70
     0
 62
    97
  6
CONTINUOUS
  0
LAYER
  2
建具記号
 70
     0
 62
   110
  6
CONTINUOUS
  0
LAYER
  2
補助文字
 70
     0
 62
   113
  6
CONTINUOUS
  0
ENDTAB
  0
TABLE
  2
STYLE
 70
    10
  0
STYLE
  2
STANDARD
 70
     0
 40
1.0
 41
1.0
 42
1.0
 50
0.0
 71
     0
  3
TXT
  4
BIGFONT
  0
STYLE
  2
TATE
 70
     4
 40
1.0
 41
1.0
 42
1.0
 50
0.0
 71
     0
  3
TXT
  4
BIGFONT
  0
STYLE
  2
TextStyle03
 70
     0
 40
1.0
 41
1.0
 42
1.0
 50
0.0
 71
     0
  3
MONOTXT
  4
BIGFONT
  0
STYLE
  2
TextStyle04
 70
     0
 40
1.0
 41
1.0
 42
1.0
 50
0.0
 71
     0
  3
MONOTXT
  4
BIGFONT
  0
STYLE
  2
TextStyle05
 70
     0
 40
1.0
 41
1.0
 42
1.0
 50
0.0
 71
     0
  3
MONOTXT
  4
BIGFONT
  0
STYLE
  2
TextStyle06
 70
     0
 40
1.0
 41
1.0
 42
1.0
 50
0.0
 71
     0
  3
MONOTXT
  4
BIGFONT
  0
STYLE
  2
TextStyle07
 70
     0
 40
1.0
 41
1.0
 42
1.0
 50
0.0
 71
     0
  3
MONOTXT
  4
BIGFONT
  0
STYLE
  2
TextStyle08
 70
     0
 40
1.0
 41
1.0
 42
1.0
 50
0.0
 71
     0
  3
MONOTXT
  4
BIGFONT
  0
STYLE
  2
TextStyle09
 70
     0
 40
1.0
 41
1.0
 42
1.0
 50
0.0
 71
     0
  3
MONOTXT
  4
BIGFONT
  0
STYLE
  2
TextStyle10
 70
     0
 40
1.0
 41
1.0
 42
1.0
 50
0.0
 71
     0
  3
MONOTXT
  4
BIGFONT
  0
ENDTAB
  0
ENDSEC
  0
SECTION
  2
BLOCKS
  0
BLOCK
  2
*GRP_0001
 70
    65
 10
0.0
 20
0.0
  0
LINE
  8
型材断面
  6
CONTINUOUS
 10
195.0
 20
133.5
 11
195.0
 21
-133.5
  0
LINE
  8
型材断面
  6
CONTINUOUS
 10
195.0
 20
-133.5
 11
-185.0
 21
-133.5
  0
LINE
  8
型材断面
  6
CONTINUOUS
 10
-185.0
 20
-133.5
 11
-185.0
 21
133.5
  0
LINE
  8
型材断面
  6
CONTINUOUS
 10
195.0
 20
133.5
 11
-185.0
 21
133.5
  0
LINE
  8
型材断面
  6
CONTINUOUS
 10
145.0
 20
-133.5
 11
145.0
 21
-118.5
  0
LINE
  8
型材断面
  6
CONTINUOUS
 10
195.0
 20
-118.5
 11
145.0
 21
-118.5
  0
ENDBLK
  0
BLOCK
  2
*DIM_0002
 70
    65
 10
0.0
 20
0.0
  0
LINE
  8
寸法
  6
BYBLOCK
 62
     0
 10
-128.742993
 20
-22.207025
 11
-128.742993
 21
-22.536362
  0
LINE
  8
寸法
  6
BYBLOCK
 62
     0
 10
71.257007
 20
-22.207025
 11
71.257007
 21
-22.536362
  0
LINE
  8
寸法
  6
BYBLOCK
 62
     0
 10
-128.742993
 20
-22.536362
 11
71.257007
 21
-22.536362
  0
POINT
  8
寸法
 62
     0
 10
-128.742993
 20
-22.536362
  0
POINT
  8
寸法
 62
     0
 10
71.257007
 20
-22.536362
  0
TEXT
  7
TextStyle03
  8
寸法
  6
CONTINUOUS
 62
     0
 10
-40.46875
 20
-22.175
  1
呼称寸法　6000
 40
3.0
 72
     5
 11
-17.03125
 21
-22.175
  0
ENDBLK
  0
BLOCK
  2
*DIM_0003
 70
    65
 10
0.0
 20
0.0
  0
LINE
  8
寸法
  6
BYBLOCK
 62
     0
 10
57.257007
 20
-71.291265
 11
87.226657
 21
-71.291265
  0
LINE
  8
寸法
  6
BYBLOCK
 62
     0
 10
87.226657
 20
-79.624597
 11
87.226657
 21
-71.291265
  0
POINT
  8
寸法
 62
     0
 10
87.226657
 20
-79.624597
  0
POINT
  8
寸法
 62
     0
 10
87.226657
 20
-71.291265
  0
TEXT
  7
TextStyle03
  8
寸法
  6
CONTINUOUS
 62
     0
 10
86.85
 20
-77.9125
  1
250
 40
3.0
 50
90.0
 72
     5
 11
86.85
 21
-73.0375
  0
ENDBLK
  0
BLOCK
  2
*DIM_0004
 70
    65
 10
0.0
 20
0.0
  0
LINE
  8
寸法
  6
BYBLOCK
 62
     0
 10
-112.076325
 20
9.768917
 11
-112.076325
 21
4.76842
  0
LINE
  8
寸法
  6
BYBLOCK
 62
     0
 10
-28.742993
 20
9.76892
 11
-28.742993
 21
4.76842
  0
LINE
  8
寸法
  6
BYBLOCK
 62
     0
 10
-112.076325
 20
4.76842
 11
-28.742993
 21
4.76842
  0
POINT
  8
寸法
 62
     0
 10
-112.076325
 20
4.76842
  0
POINT
  8
寸法
 62
     0
 10
-28.742993
 20
4.76842
  0
TEXT
  7
TextStyle03
  8
寸法
  6
CONTINUOUS
 62
     0
 10
-73.70625
 20
5.125
  1
2500
 40
3.0
 72
     5
 11
-67.14375
 21
5.125
  0
ENDBLK
  0
BLOCK
  2
*DIM_0005
 70
    65
 10
0.0
 20
0.0
  0
LINE
  8
寸法
  6
BYBLOCK
 62
     0
 10
54.59034
 20
9.768917
 11
54.59034
 21
4.76842
  0
LINE
  8
寸法
  6
BYBLOCK
 62
     0
 10
-28.742993
 20
4.76842
 11
54.59034
 21
4.76842
  0
POINT
  8
寸法
 62
     0
 10
54.59034
 20
4.76842
  0
TEXT
  7
TextStyle03
  8
寸法
  6
CONTINUOUS
 62
     0
 10
9.61875
 20
5.125
  1
2500
 40
3.0
 72
     5
 11
16.18125
 21
5.125
  0
ENDBLK
  0
BLOCK
  2
*DIM_0006
 70
    65
 10
0.0
 20
0.0
  0
LINE
  8
寸法
  6
BYBLOCK
 62
     0
 10
72.257007
 20
43.39905
 11
81.98129
 21
43.39905
  0
LINE
  8
寸法
  6
BYBLOCK
 62
     0
 10
74.887138
 20
39.69905
 11
81.98129
 21
39.69905
  0
LINE
  8
寸法
  6
BYBLOCK
 62
     0
 10
81.98129
 20
43.39905
 11
81.98129
 21
39.69905
  0
POINT
  8
寸法
 62
     0
 10
81.98129
 20
43.39905
  0
POINT
  8
寸法
 62
     0
 10
81.98129
 20
39.69905
  0
TEXT
  7
TextStyle03
  8
寸法
  6
CONTINUOUS
 62
     0
 10
81.65
 20
44.4125
  1
111
 40
3.0
 50
90.0
 72
     5
 11
81.65
 21
49.2875
  0
ENDBLK
  0
BLOCK
  2
*DIM_0007
 70
    65
 10
0.0
 20
0.0
  0
LINE
  8
寸法
  6
BYBLOCK
 62
     0
 10
72.257007
 20
13.399045
 11
81.98129
 21
13.399042
  0
LINE
  8
寸法
  6
BYBLOCK
 62
     0
 10
74.887138
 20
17.099045
 11
81.98129
 21
17.099042
  0
LINE
  8
寸法
  6
BYBLOCK
 62
     0
 10
81.98129
 20
13.399042
 11
81.98129
 21
17.099042
  0
POINT
  8
寸法
 62
     0
 10
81.98129
 20
13.399042
  0
POINT
  8
寸法
 62
     0
 10
81.98129
 20
17.099042
  0
TEXT
  7
TextStyle03
  8
寸法
  6
CONTINUOUS
 62
     0
 10
81.65
 20
7.5375
  1
111
 40
3.0
 50
90.0
 72
     5
 11
81.65
 21
12.4125
  0
ENDBLK
  0
BLOCK
  2
*GRP_0008
 70
    65
 10
0.0
 20
0.0
  0
LINE
  8
別途部材
  6
CONTINUOUS
 62
    96
 10
-130.409657
 20
-79.624597
 11
-130.809657
 21
-80.624597
  0
LINE
  8
別途部材
  6
CONTINUOUS
 62
    96
 10
-130.409657
 20
-79.624597
 11
-28.742993
 21
-79.624597
  0
LINE
  8
別途部材
  6
CONTINUOUS
 10
-130.809657
 20
-80.624597
 11
-28.742993
 21
-80.624597
  0
LINE
  8
別途部材
  6
CONTINUOUS
 10
-29.242993
 20
-70.291265
 11
-30.242993
 21
-71.291265
  0
LINE
  8
別途部材
  6
CONTINUOUS
 10
-31.242993
 20
-71.291265
 11
-32.242993
 21
-70.291265
  0
LINE
  8
別途部材
  6
CONTINUOUS
 10
-33.242993
 20
-70.291265
 11
-34.242993
 21
-71.291265
  0
LINE
  8
別途部材
  6
CONTINUOUS
 10
-32.242993
 20
-70.291265
 11
-33.242993
 21
-70.291265
  0
LINE
  8
別途部材
  6
CONTINUOUS
 10
-29.242993
 20
-70.291265
 11
-28.742993
 21
-70.291265
  0
LINE
  8
別途部材
  6
CONTINUOUS
 10
-35.242993
 20
-71.291265
 11
-36.242993
 21
-70.291265
  0
LINE
  8
別途部材
  6
CONTINUOUS
 10
-37.242993
 20
-70.291265
 11
-38.242993
 21
-71.291265
  0
LINE
  8
別途部材
  6
CONTINUOUS
 10
-36.242993
 20
-70.291265
 11
-37.242993
 21
-70.291265
  0
LINE
  8
別途部材
  6
CONTINUOUS
 10
-39.242993
 20
-71.291265
 11
-40.242993
 21
-70.291265
  0
LINE
  8
別途部材
  6
CONTINUOUS
 10
-41.242993
 20
-70.291265
 11
-42.242993
 21
-71.291265
  0
LINE
  8
別途部材
  6
CONTINUOUS
 10
-40.242993
 20
-70.291265
 11
-41.242993
 21
-70.291265
  0
LINE
  8
別途部材
  6
CONTINUOUS
 10
-43.242993
 20
-71.291265
 11
-44.242993
 21
-70.291265
  0
LINE
  8
別途部材
  6
CONTINUOUS
 10
-45.242993
 20
-70.291265
 11
-46.242993
 21
-71.291265
  0
LINE
  8
別途部材
  6
CONTINUOUS
 10
-44.242993
 20
-70.291265
 11
-45.242993
 21
-70.291265
  0
LINE
  8
別途部材
  6
CONTINUOUS
 10
-47.242993
 20
-71.291265
 11
-48.242993
 21
-70.291265
  0
LINE
  8
別途部材
  6
CONTINUOUS
 10
-49.242993
 20
-70.291265
 11
-50.242993
 21
-71.291265
  0
LINE
  8
別途部材
  6
CONTINUOUS
 10
-48.242993
 20
-70.291265
 11
-49.242993
 21
-70.291265
  0
LINE
  8
別途部材
  6
CONTINUOUS
 10
-51.242993
 20
-71.291265
 11
-52.242993
 21
-70.291265
  0
LINE
  8
別途部材
  6
CONTINUOUS
 10
-53.242993
 20
-70.291265
 11
-54.242993
 21
-71.291265
  0
LINE
  8
別途部材
  6
CONTINUOUS
 10
-52.242993
 20
-70.291265
 11
-53.242993
 21
-70.291265
  0
LINE
  8
別途部材
  6
CONTINUOUS
 10
-55.242993
 20
-71.291265
 11
-56.242993
 21
-70.291265
  0
LINE
  8
別途部材
  6
CONTINUOUS
 10
-57.242993
 20
-70.291265
 11
-58.242993
 21
-71.291265
  0
LINE
  8
別途部材
  6
CONTINUOUS
 10
-56.242993
 20
-70.291265
 11
-57.242993
 21
-70.291265
  0
LINE
  8
別途部材
  6
CONTINUOUS
 10
-59.242993
 20
-71.291265
 11
-60.242993
 21
-70.291265
  0
LINE
  8
別途部材
  6
CONTINUOUS
 10
-61.242993
 20
-70.291265
 11
-62.242993
 21
-71.291265
  0
LINE
  8
別途部材
  6
CONTINUOUS
 10
-60.242993
 20
-70.291265
 11
-61.242993
 21
-70.291265
  0
LINE
  8
別途部材
  6
CONTINUOUS
 10
-63.242993
 20
-71.291265
 11
-64.242993
 21
-70.291265
  0
LINE
  8
別途部材
  6
CONTINUOUS
 10
-65.242993
 20
-70.291265
 11
-66.242993
 21
-71.291265
  0
LINE
  8
別途部材
  6
CONTINUOUS
 10
-64.242993
 20
-70.291265
 11
-65.242993
 21
-70.291265
  0
LINE
  8
別途部材
  6
CONTINUOUS
 10
-67.242993
 20
-71.291265
 11
-68.242993
 21
-70.291265
  0
LINE
  8
別途部材
  6
CONTINUOUS
 10
-69.242993
 20
-70.291265
 11
-70.242993
 21
-71.291265
  0
LINE
  8
別途部材
  6
CONTINUOUS
 10
-68.242993
 20
-70.291265
 11
-69.242993
 21
-70.291265
  0
LINE
  8
別途部材
  6
CONTINUOUS
 10
-71.242993
 20
-71.291265
 11
-72.242993
 21
-70.291265
  0
LINE
  8
別途部材
  6
CONTINUOUS
 10
-73.242993
 20
-70.291265
 11
-74.242993
 21
-71.291265
  0
LINE
  8
別途部材
  6
CONTINUOUS
 10
-72.242993
 20
-70.291265
 11
-73.242993
 21
-70.291265
  0
LINE
  8
別途部材
  6
CONTINUOUS
 10
-70.242993
 20
-71.291265
 11
-71.242993
 21
-71.291265
  0
LINE
  8
別途部材
  6
CONTINUOUS
 10
-66.242993
 20
-71.291265
 11
-67.242993
 21
-71.291265
  0
LINE
  8
別途部材
  6
CONTINUOUS
 10
-62.242993
 20
-71.291265
 11
-63.242993
 21
-71.291265
  0
LINE
  8
別途部材
  6
CONTINUOUS
 10
-58.242993
 20
-71.291265
 11
-59.242993
 21
-71.291265
  0
LINE
  8
別途部材
  6
CONTINUOUS
 10
-54.242993
 20
-71.291265
 11
-55.242993
 21
-71.291265
  0
LINE
  8
別途部材
  6
CONTINUOUS
 10
-50.242993
 20
-71.291265
 11
-51.242993
 21
-71.291265
  0
LINE
  8
別途部材
  6
CONTINUOUS
 10
-46.242993
 20
-71.291265
 11
-47.242993
 21
-71.291265
  0
LINE
  8
別途部材
  6
CONTINUOUS
 10
-42.242993
 20
-71.291265
 11
-43.242993
 21
-71.291265
  0
LINE
  8
別途部材
  6
CONTINUOUS
 10
-38.242993
 20
-71.291265
 11
-39.242993
 21
-71.291265
  0
LINE
  8
別途部材
  6
CONTINUOUS
 10
-34.242993
 20
-71.291265
 11
-35.242993
 21
-71.291265
  0
LINE
  8
別途部材
  6
CONTINUOUS
 10
-31.242993
 20
-71.291265
 11
-30.242993
 21
-71.291265
  0
LINE
  8
別途部材
  6
CONTINUOUS
 10
-75.242993
 20
-71.291265
 11
-76.242993
 21
-70.291265
  0
LINE
  8
別途部材
  6
CONTINUOUS
 10
-77.242993
 20
-70.291265
 11
-78.242993
 21
-71.291265
  0
LINE
  8
別途部材
  6
CONTINUOUS
 10
-76.242993
 20
-70.291265
 11
-77.242993
 21
-70.291265
  0
LINE
  8
別途部材
  6
CONTINUOUS
 10
-79.242993
 20
-71.291265
 11
-80.242993
 21
-70.291265
  0
LINE
  8
別途部材
  6
CONTINUOUS
 10
-81.242993
 20
-70.291265
 11
-82.242993
 21
-71.291265
  0
LINE
  8
別途部材
  6
CONTINUOUS
 10
-80.242993
 20
-70.291265
 11
-81.242993
 21
-70.291265
  0
LINE
  8
別途部材
  6
CONTINUOUS
 10
-83.242993
 20
-71.291265
 11
-84.242993
 21
-70.291265
  0
LINE
  8
別途部材
  6
CONTINUOUS
 10
-85.242993
 20
-70.291265
 11
-86.242993
 21
-71.291265
  0
LINE
  8
別途部材
  6
CONTINUOUS
 10
-84.242993
 20
-70.291265
 11
-85.242993
 21
-70.291265
  0
LINE
  8
別途部材
  6
CONTINUOUS
 10
-87.242993
 20
-71.291265
 11
-88.242993
 21
-70.291265
  0
LINE
  8
別途部材
  6
CONTINUOUS
 10
-89.242993
 20
-70.291265
 11
-90.242993
 21
-71.291265
  0
LINE
  8
別途部材
  6
CONTINUOUS
 10
-88.242993
 20
-70.291265
 11
-89.242993
 21
-70.291265
  0
LINE
  8
別途部材
  6
CONTINUOUS
 10
-91.242993
 20
-71.291265
 11
-92.242993
 21
-70.291265
  0
LINE
  8
別途部材
  6
CONTINUOUS
 10
-93.242993
 20
-70.291265
 11
-94.242993
 21
-71.291265
  0
LINE
  8
別途部材
  6
CONTINUOUS
 10
-92.242993
 20
-70.291265
 11
-93.242993
 21
-70.291265
  0
LINE
  8
別途部材
  6
CONTINUOUS
 10
-95.242993
 20
-71.291265
 11
-96.242993
 21
-70.291265
  0
LINE
  8
別途部材
  6
CONTINUOUS
 10
-97.242993
 20
-70.291265
 11
-98.242993
 21
-71.291265
  0
LINE
  8
別途部材
  6
CONTINUOUS
 10
-96.242993
 20
-70.291265
 11
-97.242993
 21
-70.291265
  0
LINE
  8
別途部材
  6
CONTINUOUS
 10
-99.242993
 20
-71.291265
 11
-100.242993
 21
-70.291265
  0
LINE
  8
別途部材
  6
CONTINUOUS
 10
-101.242993
 20
-70.291265
 11
-102.242993
 21
-71.291265
  0
LINE
  8
別途部材
  6
CONTINUOUS
 10
-100.242993
 20
-70.291265
 11
-101.242993
 21
-70.291265
  0
LINE
  8
別途部材
  6
CONTINUOUS
 10
-103.242993
 20
-71.291265
 11
-104.242993
 21
-70.291265
  0
LINE
  8
別途部材
  6
CONTINUOUS
 10
-105.242993
 20
-70.291265
 11
-106.242993
 21
-71.291265
  0
LINE
  8
別途部材
  6
CONTINUOUS
 10
-104.242993
 20
-70.291265
 11
-105.242993
 21
-70.291265
  0
LINE
  8
別途部材
  6
CONTINUOUS
 10
-102.242993
 20
-71.291265
 11
-103.242993
 21
-71.291265
  0
LINE
  8
別途部材
  6
CONTINUOUS
 10
-98.242993
 20
-71.291265
 11
-99.242993
 21
-71.291265
  0
LINE
  8
別途部材
  6
CONTINUOUS
 10
-94.242993
 20
-71.291265
 11
-95.242993
 21
-71.291265
  0
LINE
  8
別途部材
  6
CONTINUOUS
 10
-90.242993
 20
-71.291265
 11
-91.242993
 21
-71.291265
  0
LINE
  8
別途部材
  6
CONTINUOUS
 10
-86.242993
 20
-71.291265
 11
-87.242993
 21
-71.291265
  0
LINE
  8
別途部材
  6
CONTINUOUS
 10
-82.242993
 20
-71.291265
 11
-83.242993
 21
-71.291265
  0
LINE
  8
別途部材
  6
CONTINUOUS
 10
-78.242993
 20
-71.291265
 11
-79.242993
 21
-71.291265
  0
LINE
  8
別途部材
  6
CONTINUOUS
 10
-74.242993
 20
-71.291265
 11
-75.242993
 21
-71.291265
  0
LINE
  8
別途部材
  6
CONTINUOUS
 10
-106.242993
 20
-71.291265
 11
-106.242993
 21
-79.624597
  0
LINE
  8
別途部材
  6
CONTINUOUS
 10
-104.242993
 20
-70.291265
 11
-104.242993
 21
-79.624597
  0
LINE
  8
別途部材
  6
CONTINUOUS
 10
-105.242993
 20
-70.291265
 11
-105.242993
 21
-79.624597
  0
LINE
  8
別途部材
  6
CONTINUOUS
 10
-102.242993
 20
-71.291265
 11
-102.242993
 21
-79.624597
  0
LINE
  8
別途部材
  6
CONTINUOUS
 10
-103.242993
 20
-71.291265
 11
-103.242993
 21
-79.624597
  0
LINE
  8
別途部材
  6
CONTINUOUS
 10
-101.242993
 20
-70.291265
 11
-101.242993
 21
-79.624597
  0
LINE
  8
別途部材
  6
CONTINUOUS
 10
-99.242993
 20
-71.291265
 11
-99.242993
 21
-79.624597
  0
LINE
  8
別途部材
  6
CONTINUOUS
 10
-100.242993
 20
-70.291265
 11
-100.242993
 21
-79.624597
  0
LINE
  8
別途部材
  6
CONTINUOUS
 10
-98.242993
 20
-71.291265
 11
-98.242993
 21
-79.624597
  0
LINE
  8
別途部材
  6
CONTINUOUS
 10
-97.242993
 20
-70.291265
 11
-97.242993
 21
-79.624597
  0
LINE
  8
別途部材
  6
CONTINUOUS
 10
-95.242993
 20
-71.291265
 11
-95.242993
 21
-79.624597
  0
LINE
  8
別途部材
  6
CONTINUOUS
 10
-96.242993
 20
-70.291265
 11
-96.242993
 21
-79.624597
  0
LINE
  8
別途部材
  6
CONTINUOUS
 10
-93.242993
 20
-70.291265
 11
-93.242993
 21
-79.624597
  0
LINE
  8
別途部材
  6
CONTINUOUS
 10
-94.242993
 20
-71.291265
 11
-94.242993
 21
-79.624597
  0
LINE
  8
別途部材
  6
CONTINUOUS
 10
-91.242993
 20
-71.291265
 11
-91.242993
 21
-79.624597
  0
LINE
  8
別途部材
  6
CONTINUOUS
 10
-92.242993
 20
-70.291265
 11
-92.242993
 21
-79.624597
  0
LINE
  8
別途部材
  6
CONTINUOUS
 10
-90.242993
 20
-71.291265
 11
-90.242993
 21
-79.624597
  0
LINE
  8
別途部材
  6
CONTINUOUS
 10
-88.242993
 20
-70.291265
 11
-88.242993
 21
-79.624597
  0
LINE
  8
別途部材
  6
CONTINUOUS
 10
-89.242993
 20
-70.291265
 11
-89.242993
 21
-79.624597
  0
LINE
  8
別途部材
  6
CONTINUOUS
 10
-87.242993
 20
-71.291265
 11
-87.242993
 21
-79.624597
  0
LINE
  8
別途部材
  6
CONTINUOUS
 10
-86.242993
 20
-71.291265
 11
-86.242993
 21
-79.624597
  0
LINE
  8
別途部材
  6
CONTINUOUS
 10
-85.242993
 20
-70.291265
 11
-85.242993
 21
-79.624597
  0
LINE
  8
別途部材
  6
CONTINUOUS
 10
-84.242993
 20
-70.291265
 11
-84.242993
 21
-79.624597
  0
LINE
  8
別途部材
  6
CONTINUOUS
 10
-80.242993
 20
-70.291265
 11
-80.242993
 21
-79.624597
  0
LINE
  8
別途部材
  6
CONTINUOUS
 10
-73.242993
 20
-70.291265
 11
-73.242993
 21
-79.624597
  0
LINE
  8
別途部材
  6
CONTINUOUS
 10
-69.242993
 20
-70.291265
 11
-69.242993
 21
-79.624597
  0
LINE
  8
別途部材
  6
CONTINUOUS
 10
-67.242993
 20
-71.291265
 11
-67.242993
 21
-79.624597
  0
LINE
  8
別途部材
  6
CONTINUOUS
 10
-72.242993
 20
-70.291265
 11
-72.242993
 21
-79.624597
  0
LINE
  8
別途部材
  6
CONTINUOUS
 10
-76.242993
 20
-70.291265
 11
-76.242993
 21
-79.624597
  0
LINE
  8
別途部材
  6
CONTINUOUS
 10
-78.242993
 20
-71.291265
 11
-78.242993
 21
-79.624597
  0
LINE
  8
別途部材
  6
CONTINUOUS
 10
-81.242993
 20
-70.291265
 11
-81.242993
 21
-79.624597
  0
LINE
  8
別途部材
  6
CONTINUOUS
 10
-82.242993
 20
-71.291265
 11
-82.242993
 21
-79.624597
  0
LINE
  8
別途部材
  6
CONTINUOUS
 10
-83.242993
 20
-71.291265
 11
-83.242993
 21
-79.624597
  0
LINE
  8
別途部材
  6
CONTINUOUS
 10
-79.242993
 20
-71.291265
 11
-79.242993
 21
-79.624597
  0
LINE
  8
別途部材
  6
CONTINUOUS
 10
-77.242993
 20
-70.291265
 11
-77.242993
 21
-79.624597
  0
LINE
  8
別途部材
  6
CONTINUOUS
 10
-75.242993
 20
-71.291265
 11
-75.242993
 21
-79.624597
  0
LINE
  8
別途部材
  6
CONTINUOUS
 10
-74.242993
 20
-71.291265
 11
-74.242993
 21
-79.624597
  0
LINE
  8
別途部材
  6
CONTINUOUS
 10
-71.242993
 20
-71.291265
 11
-71.242993
 21
-79.624597
  0
LINE
  8
別途部材
  6
CONTINUOUS
 10
-70.242993
 20
-71.291265
 11
-70.242993
 21
-79.624597
  0
LINE
  8
別途部材
  6
CONTINUOUS
 10
-68.242993
 20
-70.291265
 11
-68.242993
 21
-79.624597
  0
LINE
  8
別途部材
  6
CONTINUOUS
 10
-65.242993
 20
-70.291265
 11
-65.242993
 21
-79.624597
  0
LINE
  8
別途部材
  6
CONTINUOUS
 10
-66.242993
 20
-71.291265
 11
-66.242993
 21
-79.624597
  0
LINE
  8
別途部材
  6
CONTINUOUS
 10
-64.242993
 20
-70.291265
 11
-64.242993
 21
-79.624597
  0
LINE
  8
別途部材
  6
CONTINUOUS
 10
-63.242993
 20
-71.291265
 11
-63.242993
 21
-79.624597
  0
LINE
  8
別途部材
  6
CONTINUOUS
 10
-62.242993
 20
-71.291265
 11
-62.242993
 21
-79.624597
  0
LINE
  8
別途部材
  6
CONTINUOUS
 10
-61.242993
 20
-70.291265
 11
-61.242993
 21
-79.624597
  0
LINE
  8
別途部材
  6
CONTINUOUS
 10
-59.242993
 20
-71.291265
 11
-59.242993
 21
-79.624597
  0
LINE
  8
別途部材
  6
CONTINUOUS
 10
-60.242993
 20
-70.291265
 11
-60.242993
 21
-79.624597
  0
LINE
  8
別途部材
  6
CONTINUOUS
 10
-57.242993
 20
-70.291265
 11
-57.242993
 21
-79.624597
  0
LINE
  8
別途部材
  6
CONTINUOUS
 10
-58.242993
 20
-71.291265
 11
-58.242993
 21
-79.624597
  0
LINE
  8
別途部材
  6
CONTINUOUS
 10
-54.242993
 20
-71.291265
 11
-54.242993
 21
-79.624597
  0
LINE
  8
別途部材
  6
CONTINUOUS
 10
-53.242993
 20
-70.291265
 11
-53.242993
 21
-79.624597
  0
LINE
  8
別途部材
  6
CONTINUOUS
 10
-52.242993
 20
-70.291265
 11
-52.242993
 21
-79.624597
  0
LINE
  8
別途部材
  6
CONTINUOUS
 10
-55.242993
 20
-71.291265
 11
-55.242993
 21
-79.624597
  0
LINE
  8
別途部材
  6
CONTINUOUS
 10
-56.242993
 20
-70.291265
 11
-56.242993
 21
-79.624597
  0
LINE
  8
別途部材
  6
CONTINUOUS
 10
-48.242993
 20
-70.291265
 11
-48.242993
 21
-79.624597
  0
LINE
  8
別途部材
  6
CONTINUOUS
 10
-50.242993
 20
-71.291265
 11
-50.242993
 21
-79.624597
  0
LINE
  8
別途部材
  6
CONTINUOUS
 10
-51.242993
 20
-71.291265
 11
-51.242993
 21
-79.624597
  0
LINE
  8
別途部材
  6
CONTINUOUS
 10
-49.242993
 20
-70.291265
 11
-49.242993
 21
-79.624597
  0
LINE
  8
別途部材
  6
CONTINUOUS
 10
-47.242993
 20
-71.291265
 11
-47.242993
 21
-79.624597
  0
LINE
  8
別途部材
  6
CONTINUOUS
 10
-45.242993
 20
-70.291265
 11
-45.242993
 21
-79.624597
  0
LINE
  8
別途部材
  6
CONTINUOUS
 10
-44.242993
 20
-70.291265
 11
-44.242993
 21
-79.624597
  0
LINE
  8
別途部材
  6
CONTINUOUS
 10
-42.242993
 20
-71.291265
 11
-42.242993
 21
-79.624597
  0
LINE
  8
別途部材
  6
CONTINUOUS
 10
-43.242993
 20
-71.291265
 11
-43.242993
 21
-79.624597
  0
LINE
  8
別途部材
  6
CONTINUOUS
 10
-46.242993
 20
-71.291265
 11
-46.242993
 21
-79.624597
  0
LINE
  8
別途部材
  6
CONTINUOUS
 10
-41.242993
 20
-70.291265
 11
-41.242993
 21
-79.624597
  0
LINE
  8
別途部材
  6
CONTINUOUS
 10
-39.242993
 20
-71.291265
 11
-39.242993
 21
-79.624597
  0
LINE
  8
別途部材
  6
CONTINUOUS
 10
-40.242993
 20
-70.291265
 11
-40.242993
 21
-79.624597
  0
LINE
  8
別途部材
  6
CONTINUOUS
 10
-38.242993
 20
-71.291265
 11
-38.242993
 21
-79.624597
  0
LINE
  8
別途部材
  6
CONTINUOUS
 10
-37.242993
 20
-70.291265
 11
-37.242993
 21
-79.624597
  0
LINE
  8
別途部材
  6
CONTINUOUS
 10
-35.242993
 20
-71.291265
 11
-35.242993
 21
-79.624597
  0
LINE
  8
別途部材
  6
CONTINUOUS
 10
-36.242993
 20
-70.291265
 11
-36.242993
 21
-79.624597
  0
LINE
  8
別途部材
  6
CONTINUOUS
 10
-34.242993
 20
-71.291265
 11
-34.242993
 21
-79.624597
  0
LINE
  8
別途部材
  6
CONTINUOUS
 10
-33.242993
 20
-70.291265
 11
-33.242993
 21
-79.624597
  0
LINE
  8
別途部材
  6
CONTINUOUS
 10
-31.242993
 20
-71.291265
 11
-31.242993
 21
-79.624597
  0
LINE
  8
別途部材
  6
CONTINUOUS
 10
-32.242993
 20
-70.291265
 11
-32.242993
 21
-79.624597
  0
LINE
  8
別途部材
  6
CONTINUOUS
 10
-30.242993
 20
-71.291265
 11
-30.242993
 21
-79.624597
  0
LINE
  8
別途部材
  6
CONTINUOUS
 10
-29.242993
 20
-70.291265
 11
-29.242993
 21
-79.624597
  0
LINE
  8
別途部材
  6
CONTINUOUS
 10
-107.242993
 20
-71.291265
 11
-108.242993
 21
-70.291265
  0
LINE
  8
別途部材
  6
CONTINUOUS
 10
-109.242993
 20
-70.291265
 11
-110.242993
 21
-71.291265
  0
LINE
  8
別途部材
  6
CONTINUOUS
 10
-108.242993
 20
-70.291265
 11
-109.242993
 21
-70.291265
  0
LINE
  8
別途部材
  6
CONTINUOUS
 10
-106.242993
 20
-71.291265
 11
-107.242993
 21
-71.291265
  0
LINE
  8
別途部材
  6
CONTINUOUS
 10
-110.242993
 20
-71.291265
 11
-110.242993
 21
-79.624597
  0
LINE
  8
別途部材
  6
CONTINUOUS
 10
-108.242993
 20
-70.291265
 11
-108.242993
 21
-79.624597
  0
LINE
  8
別途部材
  6
CONTINUOUS
 10
-109.242993
 20
-70.291265
 11
-109.242993
 21
-79.624597
  0
LINE
  8
別途部材
  6
CONTINUOUS
 10
-107.242993
 20
-71.291265
 11
-107.242993
 21
-79.624597
  0
LINE
  8
別途部材
  6
CONTINUOUS
 10
-111.242993
 20
-71.291265
 11
-112.242993
 21
-70.291265
  0
LINE
  8
別途部材
  6
CONTINUOUS
 10
-113.242993
 20
-70.291265
 11
-114.242993
 21
-71.291265
  0
LINE
  8
別途部材
  6
CONTINUOUS
 10
-112.242993
 20
-70.291265
 11
-113.242993
 21
-70.291265
  0
LINE
  8
別途部材
  6
CONTINUOUS
 10
-110.242993
 20
-71.291265
 11
-111.242993
 21
-71.291265
  0
LINE
  8
別途部材
  6
CONTINUOUS
 10
-114.242993
 20
-71.291265
 11
-114.242993
 21
-79.624597
  0
LINE
  8
別途部材
  6
CONTINUOUS
 10
-112.242993
 20
-70.291265
 11
-112.242993
 21
-79.624597
  0
LINE
  8
別途部材
  6
CONTINUOUS
 10
-113.242993
 20
-70.291265
 11
-113.242993
 21
-79.624597
  0
LINE
  8
別途部材
  6
CONTINUOUS
 10
-111.242993
 20
-71.291265
 11
-111.242993
 21
-79.624597
  0
ARC
  8
別途部材
  6
CONTINUOUS
 10
-113.742989
 20
-88.957929
 40
17.666667
 50
91.621805
 51
148.109204
  0
LINE
  8
別途部材
  6
CONTINUOUS
 62
    96
 10
72.923675
 20
-79.624597
 11
73.323675
 21
-80.624597
  0
LINE
  8
別途部材
  6
CONTINUOUS
 62
    96
 10
72.923675
 20
-79.624597
 11
-28.742993
 21
-79.624597
  0
LINE
  8
別途部材
  6
CONTINUOUS
 10
73.323675
 20
-80.624597
 11
-28.742993
 21
-80.624597
  0
LINE
  8
別途部材
  6
CONTINUOUS
 10
-28.242993
 20
-70.291265
 11
-27.242993
 21
-71.291265
  0
LINE
  8
別途部材
  6
CONTINUOUS
 10
-26.242993
 20
-71.291265
 11
-25.242993
 21
-70.291265
  0
LINE
  8
別途部材
  6
CONTINUOUS
 10
-24.242993
 20
-70.291265
 11
-23.242993
 21
-71.291265
  0
LINE
  8
別途部材
  6
CONTINUOUS
 10
-25.242993
 20
-70.291265
 11
-24.242993
 21
-70.291265
  0
LINE
  8
別途部材
  6
CONTINUOUS
 10
-28.242993
 20
-70.291265
 11
-28.742993
 21
-70.291265
  0
LINE
  8
別途部材
  6
CONTINUOUS
 10
-22.242993
 20
-71.291265
 11
-21.242993
 21
-70.291265
  0
LINE
  8
別途部材
  6
CONTINUOUS
 10
-20.242993
 20
-70.291265
 11
-19.242993
 21
-71.291265
  0
LINE
  8
別途部材
  6
CONTINUOUS
 10
-21.242993
 20
-70.291265
 11
-20.242993
 21
-70.291265
  0
LINE
  8
別途部材
  6
CONTINUOUS
 10
-18.242993
 20
-71.291265
 11
-17.242993
 21
-70.291265
  0
LINE
  8
別途部材
  6
CONTINUOUS
 10
-16.242993
 20
-70.291265
 11
-15.242993
 21
-71.291265
  0
LINE
  8
別途部材
  6
CONTINUOUS
 10
-17.242993
 20
-70.291265
 11
-16.242993
 21
-70.291265
  0
LINE
  8
別途部材
  6
CONTINUOUS
 10
-14.242993
 20
-71.291265
 11
-13.242993
 21
-70.291265
  0
LINE
  8
別途部材
  6
CONTINUOUS
 10
-12.242993
 20
-70.291265
 11
-11.242993
 21
-71.291265
  0
LINE
  8
別途部材
  6
CONTINUOUS
 10
-13.242993
 20
-70.291265
 11
-12.242993
 21
-70.291265
  0
LINE
  8
別途部材
  6
CONTINUOUS
 10
-10.242993
 20
-71.291265
 11
-9.242993
 21
-70.291265
  0
LINE
  8
別途部材
  6
CONTINUOUS
 10
-8.242993
 20
-70.291265
 11
-7.242993
 21
-71.291265
  0
LINE
  8
別途部材
  6
CONTINUOUS
 10
-9.242993
 20
-70.291265
 11
-8.242993
 21
-70.291265
  0
LINE
  8
別途部材
  6
CONTINUOUS
 10
-6.242993
 20
-71.291265
 11
-5.242993
 21
-70.291265
  0
LINE
  8
別途部材
  6
CONTINUOUS
 10
-4.242993
 20
-70.291265
 11
-3.242993
 21
-71.291265
  0
LINE
  8
別途部材
  6
CONTINUOUS
 10
-5.242993
 20
-70.291265
 11
-4.242993
 21
-70.291265
  0
LINE
  8
別途部材
  6
CONTINUOUS
 10
-2.242993
 20
-71.291265
 11
-1.242993
 21
-70.291265
  0
LINE
  8
別途部材
  6
CONTINUOUS
 10
-0.242993
 20
-70.291265
 11
0.757007
 21
-71.291265
  0
LINE
  8
別途部材
  6
CONTINUOUS
 10
-1.242993
 20
-70.291265
 11
-0.242993
 21
-70.291265
  0
LINE
  8
別途部材
  6
CONTINUOUS
 10
1.757007
 20
-71.291265
 11
2.757007
 21
-70.291265
  0
LINE
  8
別途部材
  6
CONTINUOUS
 10
3.757007
 20
-70.291265
 11
4.757007
 21
-71.291265
  0
LINE
  8
別途部材
  6
CONTINUOUS
 10
2.757007
 20
-70.291265
 11
3.757007
 21
-70.291265
  0
LINE
  8
別途部材
  6
CONTINUOUS
 10
5.757007
 20
-71.291265
 11
6.757007
 21
-70.291265
  0
LINE
  8
別途部材
  6
CONTINUOUS
 10
7.757007
 20
-70.291265
 11
8.757007
 21
-71.291265
  0
LINE
  8
別途部材
  6
CONTINUOUS
 10
6.757007
 20
-70.291265
 11
7.757007
 21
-70.291265
  0
LINE
  8
別途部材
  6
CONTINUOUS
 10
9.757007
 20
-71.291265
 11
10.757007
 21
-70.291265
  0
LINE
  8
別途部材
  6
CONTINUOUS
 10
11.757007
 20
-70.291265
 11
12.757007
 21
-71.291265
  0
LINE
  8
別途部材
  6
CONTINUOUS
 10
10.757007
 20
-70.291265
 11
11.757007
 21
-70.291265
  0
LINE
  8
別途部材
  6
CONTINUOUS
 10
13.757007
 20
-71.291265
 11
14.757007
 21
-70.291265
  0
LINE
  8
別途部材
  6
CONTINUOUS
 10
15.757007
 20
-70.291265
 11
16.757007
 21
-71.291265
  0
LINE
  8
別途部材
  6
CONTINUOUS
 10
14.757007
 20
-70.291265
 11
15.757007
 21
-70.291265
  0
LINE
  8
別途部材
  6
CONTINUOUS
 10
12.757007
 20
-71.291265
 11
13.757007
 21
-71.291265
  0
LINE
  8
別途部材
  6
CONTINUOUS
 10
8.757007
 20
-71.291265
 11
9.757007
 21
-71.291265
  0
LINE
  8
別途部材
  6
CONTINUOUS
 10
4.757007
 20
-71.291265
 11
5.757007
 21
-71.291265
  0
LINE
  8
別途部材
  6
CONTINUOUS
 10
0.757007
 20
-71.291265
 11
1.757007
 21
-71.291265
  0
LINE
  8
別途部材
  6
CONTINUOUS
 10
-3.242993
 20
-71.291265
 11
-2.242993
 21
-71.291265
  0
LINE
  8
別途部材
  6
CONTINUOUS
 10
-7.242993
 20
-71.291265
 11
-6.242993
 21
-71.291265
  0
LINE
  8
別途部材
  6
CONTINUOUS
 10
-11.242993
 20
-71.291265
 11
-10.242993
 21
-71.291265
  0
LINE
  8
別途部材
  6
CONTINUOUS
 10
-15.242993
 20
-71.291265
 11
-14.242993
 21
-71.291265
  0
LINE
  8
別途部材
  6
CONTINUOUS
 10
-19.242993
 20
-71.291265
 11
-18.242993
 21
-71.291265
  0
LINE
  8
別途部材
  6
CONTINUOUS
 10
-23.242993
 20
-71.291265
 11
-22.242993
 21
-71.291265
  0
LINE
  8
別途部材
  6
CONTINUOUS
 10
-26.242993
 20
-71.291265
 11
-27.242993
 21
-71.291265
  0
LINE
  8
別途部材
  6
CONTINUOUS
 10
17.757007
 20
-71.291265
 11
18.757007
 21
-70.291265
  0
LINE
  8
別途部材
  6
CONTINUOUS
 10
19.757007
 20
-70.291265
 11
20.757007
 21
-71.291265
  0
LINE
  8
別途部材
  6
CONTINUOUS
 10
18.757007
 20
-70.291265
 11
19.757007
 21
-70.291265
  0
LINE
  8
別途部材
  6
CONTINUOUS
 10
21.757007
 20
-71.291265
 11
22.757007
 21
-70.291265
  0
LINE
  8
別途部材
  6
CONTINUOUS
 10
23.757007
 20
-70.291265
 11
24.757007
 21
-71.291265
  0
LINE
  8
別途部材
  6
CONTINUOUS
 10
22.757007
 20
-70.291265
 11
23.757007
 21
-70.291265
  0
LINE
  8
別途部材
  6
CONTINUOUS
 10
25.757007
 20
-71.291265
 11
26.757007
 21
-70.291265
  0
LINE
  8
別途部材
  6
CONTINUOUS
 10
27.757007
 20
-70.291265
 11
28.757007
 21
-71.291265
  0
LINE
  8
別途部材
  6
CONTINUOUS
 10
26.757007
 20
-70.291265
 11
27.757007
 21
-70.291265
  0
LINE
  8
別途部材
  6
CONTINUOUS
 10
29.757007
 20
-71.291265
 11
30.757007
 21
-70.291265
  0
LINE
  8
別途部材
  6
CONTINUOUS
 10
31.757007
 20
-70.291265
 11
32.757007
 21
-71.291265
  0
LINE
  8
別途部材
  6
CONTINUOUS
 10
30.757007
 20
-70.291265
 11
31.757007
 21
-70.291265
  0
LINE
  8
別途部材
  6
CONTINUOUS
 10
33.757007
 20
-71.291265
 11
34.757007
 21
-70.291265
  0
LINE
  8
別途部材
  6
CONTINUOUS
 10
35.757007
 20
-70.291265
 11
36.757007
 21
-71.291265
  0
LINE
  8
別途部材
  6
CONTINUOUS
 10
34.757007
 20
-70.291265
 11
35.757007
 21
-70.291265
  0
LINE
  8
別途部材
  6
CONTINUOUS
 10
37.757007
 20
-71.291265
 11
38.757007
 21
-70.291265
  0
LINE
  8
別途部材
  6
CONTINUOUS
 10
39.757007
 20
-70.291265
 11
40.757007
 21
-71.291265
  0
LINE
  8
別途部材
  6
CONTINUOUS
 10
38.757007
 20
-70.291265
 11
39.757007
 21
-70.291265
  0
LINE
  8
別途部材
  6
CONTINUOUS
 10
41.757007
 20
-71.291265
 11
42.757007
 21
-70.291265
  0
LINE
  8
別途部材
  6
CONTINUOUS
 10
43.757007
 20
-70.291265
 11
44.757007
 21
-71.291265
  0
LINE
  8
別途部材
  6
CONTINUOUS
 10
42.757007
 20
-70.291265
 11
43.757007
 21
-70.291265
  0
LINE
  8
別途部材
  6
CONTINUOUS
 10
45.757007
 20
-71.291265
 11
46.757007
 21
-70.291265
  0
LINE
  8
別途部材
  6
CONTINUOUS
 10
47.757007
 20
-70.291265
 11
48.757007
 21
-71.291265
  0
LINE
  8
別途部材
  6
CONTINUOUS
 10
46.757007
 20
-70.291265
 11
47.757007
 21
-70.291265
  0
LINE
  8
別途部材
  6
CONTINUOUS
 10
44.757007
 20
-71.291265
 11
45.757007
 21
-71.291265
  0
LINE
  8
別途部材
  6
CONTINUOUS
 10
40.757007
 20
-71.291265
 11
41.757007
 21
-71.291265
  0
LINE
  8
別途部材
  6
CONTINUOUS
 10
36.757007
 20
-71.291265
 11
37.757007
 21
-71.291265
  0
LINE
  8
別途部材
  6
CONTINUOUS
 10
32.757007
 20
-71.291265
 11
33.757007
 21
-71.291265
  0
LINE
  8
別途部材
  6
CONTINUOUS
 10
28.757007
 20
-71.291265
 11
29.757007
 21
-71.291265
  0
LINE
  8
別途部材
  6
CONTINUOUS
 10
24.757007
 20
-71.291265
 11
25.757007
 21
-71.291265
  0
LINE
  8
別途部材
  6
CONTINUOUS
 10
20.757007
 20
-71.291265
 11
21.757007
 21
-71.291265
  0
LINE
  8
別途部材
  6
CONTINUOUS
 10
16.757007
 20
-71.291265
 11
17.757007
 21
-71.291265
  0
LINE
  8
別途部材
  6
CONTINUOUS
 10
48.757007
 20
-71.291265
 11
48.757007
 21
-79.624597
  0
LINE
  8
別途部材
  6
CONTINUOUS
 10
46.757007
 20
-70.291265
 11
46.757007
 21
-79.624597
  0
LINE
  8
別途部材
  6
CONTINUOUS
 10
47.757007
 20
-70.291265
 11
47.757007
 21
-79.624597
  0
LINE
  8
別途部材
  6
CONTINUOUS
 10
44.757007
 20
-71.291265
 11
44.757007
 21
-79.624597
  0
LINE
  8
別途部材
  6
CONTINUOUS
 10
45.757007
 20
-71.291265
 11
45.757007
 21
-79.624597
  0
LINE
  8
別途部材
  6
CONTINUOUS
 10
43.757007
 20
-70.291265
 11
43.757007
 21
-79.624597
  0
LINE
  8
別途部材
  6
CONTINUOUS
 10
41.757007
 20
-71.291265
 11
41.757007
 21
-79.624597
  0
LINE
  8
別途部材
  6
CONTINUOUS
 10
42.757007
 20
-70.291265
 11
42.757007
 21
-79.624597
  0
LINE
  8
別途部材
  6
CONTINUOUS
 10
40.757007
 20
-71.291265
 11
40.757007
 21
-79.624597
  0
LINE
  8
別途部材
  6
CONTINUOUS
 10
39.757007
 20
-70.291265
 11
39.757007
 21
-79.624597
  0
LINE
  8
別途部材
  6
CONTINUOUS
 10
37.757007
 20
-71.291265
 11
37.757007
 21
-79.624597
  0
LINE
  8
別途部材
  6
CONTINUOUS
 10
38.757007
 20
-70.291265
 11
38.757007
 21
-79.624597
  0
LINE
  8
別途部材
  6
CONTINUOUS
 10
35.757007
 20
-70.291265
 11
35.757007
 21
-79.624597
  0
LINE
  8
別途部材
  6
CONTINUOUS
 10
36.757007
 20
-71.291265
 11
36.757007
 21
-79.624597
  0
LINE
  8
別途部材
  6
CONTINUOUS
 10
33.757007
 20
-71.291265
 11
33.757007
 21
-79.624597
  0
LINE
  8
別途部材
  6
CONTINUOUS
 10
34.757007
 20
-70.291265
 11
34.757007
 21
-79.624597
  0
LINE
  8
別途部材
  6
CONTINUOUS
 10
32.757007
 20
-71.291265
 11
32.757007
 21
-79.624597
  0
LINE
  8
別途部材
  6
CONTINUOUS
 10
30.757007
 20
-70.291265
 11
30.757007
 21
-79.624597
  0
LINE
  8
別途部材
  6
CONTINUOUS
 10
31.757007
 20
-70.291265
 11
31.757007
 21
-79.624597
  0
LINE
  8
別途部材
  6
CONTINUOUS
 10
29.757007
 20
-71.291265
 11
29.757007
 21
-79.624597
  0
LINE
  8
別途部材
  6
CONTINUOUS
 10
28.757007
 20
-71.291265
 11
28.757007
 21
-79.624597
  0
LINE
  8
別途部材
  6
CONTINUOUS
 10
27.757007
 20
-70.291265
 11
27.757007
 21
-79.624597
  0
LINE
  8
別途部材
  6
CONTINUOUS
 10
26.757007
 20
-70.291265
 11
26.757007
 21
-79.624597
  0
LINE
  8
別途部材
  6
CONTINUOUS
 10
22.757007
 20
-70.291265
 11
22.757007
 21
-79.624597
  0
LINE
  8
別途部材
  6
CONTINUOUS
 10
15.757007
 20
-70.291265
 11
15.757007
 21
-79.624597
  0
LINE
  8
別途部材
  6
CONTINUOUS
 10
11.757007
 20
-70.291265
 11
11.757007
 21
-79.624597
  0
LINE
  8
別途部材
  6
CONTINUOUS
 10
9.757007
 20
-71.291265
 11
9.757007
 21
-79.624597
  0
LINE
  8
別途部材
  6
CONTINUOUS
 10
14.757007
 20
-70.291265
 11
14.757007
 21
-79.624597
  0
LINE
  8
別途部材
  6
CONTINUOUS
 10
18.757007
 20
-70.291265
 11
18.757007
 21
-79.624597
  0
LINE
  8
別途部材
  6
CONTINUOUS
 10
20.757007
 20
-71.291265
 11
20.757007
 21
-79.624597
  0
LINE
  8
別途部材
  6
CONTINUOUS
 10
23.757007
 20
-70.291265
 11
23.757007
 21
-79.624597
  0
LINE
  8
別途部材
  6
CONTINUOUS
 10
24.757007
 20
-71.291265
 11
24.757007
 21
-79.624597
  0
LINE
  8
別途部材
  6
CONTINUOUS
 10
25.757007
 20
-71.291265
 11
25.757007
 21
-79.624597
  0
LINE
  8
別途部材
  6
CONTINUOUS
 10
21.757007
 20
-71.291265
 11
21.757007
 21
-79.624597
  0
LINE
  8
別途部材
  6
CONTINUOUS
 10
19.757007
 20
-70.291265
 11
19.757007
 21
-79.624597
  0
LINE
  8
別途部材
  6
CONTINUOUS
 10
17.757007
 20
-71.291265
 11
17.757007
 21
-79.624597
  0
LINE
  8
別途部材
  6
CONTINUOUS
 10
16.757007
 20
-71.291265
 11
16.757007
 21
-79.624597
  0
LINE
  8
別途部材
  6
CONTINUOUS
 10
13.757007
 20
-71.291265
 11
13.757007
 21
-79.624597
  0
LINE
  8
別途部材
  6
CONTINUOUS
 10
12.757007
 20
-71.291265
 11
12.757007
 21
-79.624597
  0
LINE
  8
別途部材
  6
CONTINUOUS
 10
10.757007
 20
-70.291265
 11
10.757007
 21
-79.624597
  0
LINE
  8
別途部材
  6
CONTINUOUS
 10
7.757007
 20
-70.291265
 11
7.757007
 21
-79.624597
  0
LINE
  8
別途部材
  6
CONTINUOUS
 10
8.757007
 20
-71.291265
 11
8.757007
 21
-79.624597
  0
LINE
  8
別途部材
  6
CONTINUOUS
 10
6.757007
 20
-70.291265
 11
6.757007
 21
-79.624597
  0
LINE
  8
別途部材
  6
CONTINUOUS
 10
5.757007
 20
-71.291265
 11
5.757007
 21
-79.624597
  0
LINE
  8
別途部材
  6
CONTINUOUS
 10
4.757007
 20
-71.291265
 11
4.757007
 21
-79.624597
  0
LINE
  8
別途部材
  6
CONTINUOUS
 10
3.757007
 20
-70.291265
 11
3.757007
 21
-79.624597
  0
LINE
  8
別途部材
  6
CONTINUOUS
 10
1.757007
 20
-71.291265
 11
1.757007
 21
-79.624597
  0
LINE
  8
別途部材
  6
CONTINUOUS
 10
2.757007
 20
-70.291265
 11
2.757007
 21
-79.624597
  0
LINE
  8
別途部材
  6
CONTINUOUS
 10
-0.242993
 20
-70.291265
 11
-0.242993
 21
-79.624597
  0
LINE
  8
別途部材
  6
CONTINUOUS
 10
0.757007
 20
-71.291265
 11
0.757007
 21
-79.624597
  0
LINE
  8
別途部材
  6
CONTINUOUS
 10
-3.242993
 20
-71.291265
 11
-3.242993
 21
-79.624597
  0
LINE
  8
別途部材
  6
CONTINUOUS
 10
-4.242993
 20
-70.291265
 11
-4.242993
 21
-79.624597
  0
LINE
  8
別途部材
  6
CONTINUOUS
 10
-5.242993
 20
-70.291265
 11
-5.242993
 21
-79.624597
  0
LINE
  8
別途部材
  6
CONTINUOUS
 10
-2.242993
 20
-71.291265
 11
-2.242993
 21
-79.624597
  0
LINE
  8
別途部材
  6
CONTINUOUS
 10
-1.242993
 20
-70.291265
 11
-1.242993
 21
-79.624597
  0
LINE
  8
別途部材
  6
CONTINUOUS
 10
-9.242993
 20
-70.291265
 11
-9.242993
 21
-79.624597
  0
LINE
  8
別途部材
  6
CONTINUOUS
 10
-7.242993
 20
-71.291265
 11
-7.242993
 21
-79.624597
  0
LINE
  8
別途部材
  6
CONTINUOUS
 10
-6.242993
 20
-71.291265
 11
-6.242993
 21
-79.624597
  0
LINE
  8
別途部材
  6
CONTINUOUS
 10
-8.242993
 20
-70.291265
 11
-8.242993
 21
-79.624597
  0
LINE
  8
別途部材
  6
CONTINUOUS
 10
-10.242993
 20
-71.291265
 11
-10.242993
 21
-79.624597
  0
LINE
  8
別途部材
  6
CONTINUOUS
 10
-12.242993
 20
-70.291265
 11
-12.242993
 21
-79.624597
  0
LINE
  8
別途部材
  6
CONTINUOUS
 10
-13.242993
 20
-70.291265
 11
-13.242993
 21
-79.624597
  0
LINE
  8
別途部材
  6
CONTINUOUS
 10
-15.242993
 20
-71.291265
 11
-15.242993
 21
-79.624597
  0
LINE
  8
別途部材
  6
CONTINUOUS
 10
-14.242993
 20
-71.291265
 11
-14.242993
 21
-79.624597
  0
LINE
  8
別途部材
  6
CONTINUOUS
 10
-11.242993
 20
-71.291265
 11
-11.242993
 21
-79.624597
  0
LINE
  8
別途部材
  6
CONTINUOUS
 10
-16.242993
 20
-70.291265
 11
-16.242993
 21
-79.624597
  0
LINE
  8
別途部材
  6
CONTINUOUS
 10
-18.242993
 20
-71.291265
 11
-18.242993
 21
-79.624597
  0
LINE
  8
別途部材
  6
CONTINUOUS
 10
-17.242993
 20
-70.291265
 11
-17.242993
 21
-79.624597
  0
LINE
  8
別途部材
  6
CONTINUOUS
 10
-19.242993
 20
-71.291265
 11
-19.242993
 21
-79.624597
  0
LINE
  8
別途部材
  6
CONTINUOUS
 10
-20.242993
 20
-70.291265
 11
-20.242993
 21
-79.624597
  0
LINE
  8
別途部材
  6
CONTINUOUS
 10
-22.242993
 20
-71.291265
 11
-22.242993
 21
-79.624597
  0
LINE
  8
別途部材
  6
CONTINUOUS
 10
-21.242993
 20
-70.291265
 11
-21.242993
 21
-79.624597
  0
LINE
  8
別途部材
  6
CONTINUOUS
 10
-23.242993
 20
-71.291265
 11
-23.242993
 21
-79.624597
  0
LINE
  8
別途部材
  6
CONTINUOUS
 10
-24.242993
 20
-70.291265
 11
-24.242993
 21
-79.624597
  0
LINE
  8
別途部材
  6
CONTINUOUS
 10
-26.242993
 20
-71.291265
 11
-26.242993
 21
-79.624597
  0
LINE
  8
別途部材
  6
CONTINUOUS
 10
-25.242993
 20
-70.291265
 11
-25.242993
 21
-79.624597
  0
LINE
  8
別途部材
  6
CONTINUOUS
 10
-27.242993
 20
-71.291265
 11
-27.242993
 21
-79.624597
  0
LINE
  8
別途部材
  6
CONTINUOUS
 10
-28.242993
 20
-70.291265
 11
-28.242993
 21
-79.624597
  0
LINE
  8
別途部材
  6
CONTINUOUS
 10
49.757007
 20
-71.291265
 11
50.757007
 21
-70.291265
  0
LINE
  8
別途部材
  6
CONTINUOUS
 10
51.757007
 20
-70.291265
 11
52.757007
 21
-71.291265
  0
LINE
  8
別途部材
  6
CONTINUOUS
 10
50.757007
 20
-70.291265
 11
51.757007
 21
-70.291265
  0
LINE
  8
別途部材
  6
CONTINUOUS
 10
48.757007
 20
-71.291265
 11
49.757007
 21
-71.291265
  0
LINE
  8
別途部材
  6
CONTINUOUS
 10
52.757007
 20
-71.291265
 11
52.757007
 21
-79.624597
  0
LINE
  8
別途部材
  6
CONTINUOUS
 10
50.757007
 20
-70.291265
 11
50.757007
 21
-79.624597
  0
LINE
  8
別途部材
  6
CONTINUOUS
 10
51.757007
 20
-70.291265
 11
51.757007
 21
-79.624597
  0
LINE
  8
別途部材
  6
CONTINUOUS
 10
49.757007
 20
-71.291265
 11
49.757007
 21
-79.624597
  0
LINE
  8
別途部材
  6
CONTINUOUS
 10
53.757007
 20
-71.291265
 11
54.757007
 21
-70.291265
  0
LINE
  8
別途部材
  6
CONTINUOUS
 10
55.757007
 20
-70.291265
 11
56.757007
 21
-71.291265
  0
LINE
  8
別途部材
  6
CONTINUOUS
 10
54.757007
 20
-70.291265
 11
55.757007
 21
-70.291265
  0
LINE
  8
別途部材
  6
CONTINUOUS
 10
52.757007
 20
-71.291265
 11
53.757007
 21
-71.291265
  0
LINE
  8
別途部材
  6
CONTINUOUS
 10
56.757007
 20
-71.291265
 11
56.757007
 21
-79.624597
  0
LINE
  8
別途部材
  6
CONTINUOUS
 10
54.757007
 20
-70.291265
 11
54.757007
 21
-79.624597
  0
LINE
  8
別途部材
  6
CONTINUOUS
 10
55.757007
 20
-70.291265
 11
55.757007
 21
-79.624597
  0
LINE
  8
別途部材
  6
CONTINUOUS
 10
53.757007
 20
-71.291265
 11
53.757007
 21
-79.624597
  0
ARC
  8
別途部材
  6
CONTINUOUS
 10
56.257005
 20
-88.957929
 40
17.666667
 50
31.890796
 51
88.378195
  0
ENDBLK
  0
BLOCK
  2
*GRP_0009
 70
    65
 10
0.0
 20
0.0
  0
LINE
  8
補助線
  6
BYBLOCK
 62
    64
 10
-108.679248
 20
-84.60555
 11
-108.806733
 21
-84.71291
  0
LINE
  8
補助線
  6
BYBLOCK
 62
    64
 10
-108.79667
 20
-84.595485
 11
-108.68931
 21
-84.722973
  0
LINE
  8
補助線
  6
BYBLOCK
 62
    64
 10
-100.18883
 20
-77.455527
 11
-100.316315
 21
-77.562882
  0
LINE
  8
補助線
  6
BYBLOCK
 62
    64
 10
-100.306253
 20
-77.445463
 11
-100.198892
 21
-77.572945
  0
LINE
  8
補助線
  6
BYBLOCK
 62
    64
 10
-91.825895
 20
-70.412857
 11
-91.698412
 21
-70.3055
  0
LINE
  8
補助線
  6
BYBLOCK
 62
    64
 10
-91.815835
 20
-70.295435
 11
-91.708475
 21
-70.422922
  0
LINE
  8
型材断面
  6
CONTINUOUS
 10
-109.534745
 20
-84.236528
 11
-109.595122
 21
-84.941053
  0
LINE
  8
型材断面
  6
CONTINUOUS
 10
-109.595122
 20
-84.941053
 11
-109.16569
 21
-85.450987
  0
LINE
  8
型材断面
  6
CONTINUOUS
 10
-109.16569
 20
-85.450987
 11
-108.461165
 21
-85.511365
  0
LINE
  8
型材断面
  6
CONTINUOUS
 10
-92.043977
 20
-69.507048
 11
-91.339452
 21
-69.567425
  0
LINE
  8
型材断面
  6
CONTINUOUS
 10
-91.339452
 20
-69.567425
 11
-90.91002
 21
-70.07736
  0
LINE
  8
型材断面
  6
CONTINUOUS
 10
-90.91002
 20
-70.07736
 11
-90.970398
 21
-70.781885
  0
LINE
  8
型材断面
  6
CONTINUOUS
 10
-109.534745
 20
-84.236528
 11
-92.043977
 21
-69.507048
  0
LINE
  8
型材断面
  6
CONTINUOUS
 10
-108.461165
 20
-85.511365
 11
-90.970398
 21
-70.781885
  0
CIRCLE
  8
ボルト／ビス
  6
CONTINUOUS
 10
-108.74299
 20
-84.65923
 40
0.250185
  0
CIRCLE
  8
ボルト／ビス
  6
CONTINUOUS
 10
-108.74299
 20
-84.65923
 40
0.301025
  0
LINE
  8
ボルト／ビス
  6
CONTINUOUS
 62
    64
 10
-108.989297
 20
-84.703113
 11
-108.904145
 21
-84.467865
  0
LINE
  8
ボルト／ビス
  6
CONTINUOUS
 62
    64
 10
-108.657838
 20
-84.42398
 11
-108.904145
 21
-84.467865
  0
LINE
  8
ボルト／ビス
  6
CONTINUOUS
 62
    64
 10
-108.828143
 20
-84.89448
 11
-108.581835
 21
-84.850595
  0
LINE
  8
ボルト／ビス
  6
CONTINUOUS
 62
    64
 10
-108.496683
 20
-84.615348
 11
-108.581835
 21
-84.850595
  0
LINE
  8
ボルト／ビス
  6
CONTINUOUS
 62
    64
 10
-108.989297
 20
-84.703113
 11
-108.828143
 21
-84.89448
  0
LINE
  8
ボルト／ビス
  6
CONTINUOUS
 62
    64
 10
-108.657838
 20
-84.42398
 11
-108.496683
 21
-84.615348
  0
CIRCLE
  8
ボルト／ビス
  6
CONTINUOUS
 62
    64
 10
-108.74299
 20
-84.65923
 40
0.216668
  0
CIRCLE
  8
ボルト／ビス
  6
CONTINUOUS
 10
-100.252573
 20
-77.509205
 40
0.250185
  0
CIRCLE
  8
ボルト／ビス
  6
CONTINUOUS
 10
-100.252573
 20
-77.509205
 40
0.301025
  0
LINE
  8
ボルト／ビス
  6
CONTINUOUS
 62
    64
 10
-100.49888
 20
-77.553088
 11
-100.413728
 21
-77.317838
  0
LINE
  8
ボルト／ビス
  6
CONTINUOUS
 62
    64
 10
-100.16742
 20
-77.273955
 11
-100.413728
 21
-77.317838
  0
LINE
  8
ボルト／ビス
  6
CONTINUOUS
 62
    64
 10
-100.337725
 20
-77.744455
 11
-100.091415
 21
-77.700572
  0
LINE
  8
ボルト／ビス
  6
CONTINUOUS
 62
    64
 10
-100.006265
 20
-77.465325
 11
-100.091415
 21
-77.700572
  0
LINE
  8
ボルト／ビス
  6
CONTINUOUS
 62
    64
 10
-100.49888
 20
-77.553088
 11
-100.337725
 21
-77.744455
  0
LINE
  8
ボルト／ビス
  6
CONTINUOUS
 62
    64
 10
-100.16742
 20
-77.273955
 11
-100.006265
 21
-77.465325
  0
CIRCLE
  8
ボルト／ビス
  6
CONTINUOUS
 62
    64
 10
-100.252573
 20
-77.509205
 40
0.216668
  0
CIRCLE
  8
ボルト／ビス
  6
CONTINUOUS
 10
-91.762152
 20
-70.35918
 40
0.250185
  0
CIRCLE
  8
ボルト／ビス
  6
CONTINUOUS
 10
-91.762152
 20
-70.35918
 40
0.301025
  0
LINE
  8
ボルト／ビス
  6
CONTINUOUS
 62
    64
 10
-91.677
 20
-70.12393
 11
-91.92331
 21
-70.167815
  0
LINE
  8
ボルト／ビス
  6
CONTINUOUS
 62
    64
 10
-92.008463
 20
-70.403063
 11
-91.92331
 21
-70.167815
  0
LINE
  8
ボルト／ビス
  6
CONTINUOUS
 62
    64
 10
-91.515848
 20
-70.315298
 11
-91.600997
 21
-70.550545
  0
LINE
  8
ボルト／ビス
  6
CONTINUOUS
 62
    64
 10
-91.847307
 20
-70.59443
 11
-91.600997
 21
-70.550545
  0
LINE
  8
ボルト／ビス
  6
CONTINUOUS
 62
    64
 10
-91.677
 20
-70.12393
 11
-91.515848
 21
-70.315298
  0
LINE
  8
ボルト／ビス
  6
CONTINUOUS
 62
    64
 10
-92.008463
 20
-70.403063
 11
-91.847307
 21
-70.59443
  0
CIRCLE
  8
ボルト／ビス
  6
CONTINUOUS
 62
    64
 10
-91.762152
 20
-70.35918
 40
0.216668
  0
ENDBLK
  0
BLOCK
  2
*GRP_0010
 70
    65
 10
0.0
 20
0.0
  0
LINE
  8
補助線
  6
BYBLOCK
 62
    64
 10
-91.825897
 20
-84.60555
 11
-91.698412
 21
-84.71291
  0
LINE
  8
補助線
  6
BYBLOCK
 62
    64
 10
-91.708475
 20
-84.595485
 11
-91.815835
 21
-84.722973
  0
LINE
  8
補助線
  6
BYBLOCK
 62
    64
 10
-100.316315
 20
-77.455527
 11
-100.18883
 21
-77.562882
  0
LINE
  8
補助線
  6
BYBLOCK
 62
    64
 10
-100.198892
 20
-77.445463
 11
-100.306253
 21
-77.572945
  0
LINE
  8
補助線
  6
BYBLOCK
 62
    64
 10
-108.67925
 20
-70.412857
 11
-108.806733
 21
-70.3055
  0
LINE
  8
補助線
  6
BYBLOCK
 62
    64
 10
-108.68931
 20
-70.295435
 11
-108.79667
 21
-70.422922
  0
LINE
  8
型材断面
  6
CONTINUOUS
 10
-90.9704
 20
-84.236528
 11
-90.910023
 21
-84.941053
  0
LINE
  8
型材断面
  6
CONTINUOUS
 10
-90.910023
 20
-84.941053
 11
-91.339455
 21
-85.450987
  0
LINE
  8
型材断面
  6
CONTINUOUS
 10
-91.339455
 20
-85.450987
 11
-92.04398
 21
-85.511365
  0
LINE
  8
型材断面
  6
CONTINUOUS
 10
-108.461168
 20
-69.507048
 11
-109.165693
 21
-69.567425
  0
LINE
  8
型材断面
  6
CONTINUOUS
 10
-109.165693
 20
-69.567425
 11
-109.595125
 21
-70.07736
  0
LINE
  8
型材断面
  6
CONTINUOUS
 10
-109.595125
 20
-70.07736
 11
-109.534747
 21
-70.781885
  0
LINE
  8
型材断面
  6
CONTINUOUS
 10
-90.9704
 20
-84.236528
 11
-108.461168
 21
-69.507048
  0
LINE
  8
型材断面
  6
CONTINUOUS
 10
-92.04398
 20
-85.511365
 11
-109.534747
 21
-70.781885
  0
CIRCLE
  8
ボルト／ビス
  6
CONTINUOUS
 10
-91.762155
 20
-84.65923
 40
0.250185
  0
CIRCLE
  8
ボルト／ビス
  6
CONTINUOUS
 10
-91.762155
 20
-84.65923
 40
0.301025
  0
LINE
  8
ボルト／ビス
  6
CONTINUOUS
 62
    64
 10
-91.515848
 20
-84.703113
 11
-91.601
 21
-84.467865
  0
LINE
  8
ボルト／ビス
  6
CONTINUOUS
 62
    64
 10
-91.847307
 20
-84.42398
 11
-91.601
 21
-84.467865
  0
LINE
  8
ボルト／ビス
  6
CONTINUOUS
 62
    64
 10
-91.677002
 20
-84.89448
 11
-91.92331
 21
-84.850595
  0
LINE
  8
ボルト／ビス
  6
CONTINUOUS
 62
    64
 10
-92.008463
 20
-84.615348
 11
-91.92331
 21
-84.850595
  0
LINE
  8
ボルト／ビス
  6
CONTINUOUS
 62
    64
 10
-91.515848
 20
-84.703113
 11
-91.677002
 21
-84.89448
  0
LINE
  8
ボルト／ビス
  6
CONTINUOUS
 62
    64
 10
-91.847307
 20
-84.42398
 11
-92.008463
 21
-84.615348
  0
CIRCLE
  8
ボルト／ビス
  6
CONTINUOUS
 62
    64
 10
-91.762155
 20
-84.65923
 40
0.216668
  0
CIRCLE
  8
ボルト／ビス
  6
CONTINUOUS
 10
-100.252573
 20
-77.509205
 40
0.250185
  0
CIRCLE
  8
ボルト／ビス
  6
CONTINUOUS
 10
-100.252573
 20
-77.509205
 40
0.301025
  0
LINE
  8
ボルト／ビス
  6
CONTINUOUS
 62
    64
 10
-100.006265
 20
-77.553088
 11
-100.091417
 21
-77.317838
  0
LINE
  8
ボルト／ビス
  6
CONTINUOUS
 62
    64
 10
-100.337725
 20
-77.273955
 11
-100.091417
 21
-77.317838
  0
LINE
  8
ボルト／ビス
  6
CONTINUOUS
 62
    64
 10
-100.16742
 20
-77.744455
 11
-100.41373
 21
-77.700572
  0
LINE
  8
ボルト／ビス
  6
CONTINUOUS
 62
    64
 10
-100.49888
 20
-77.465325
 11
-100.41373
 21
-77.700572
  0
LINE
  8
ボルト／ビス
  6
CONTINUOUS
 62
    64
 10
-100.006265
 20
-77.553088
 11
-100.16742
 21
-77.744455
  0
LINE
  8
ボルト／ビス
  6
CONTINUOUS
 62
    64
 10
-100.337725
 20
-77.273955
 11
-100.49888
 21
-77.465325
  0
CIRCLE
  8
ボルト／ビス
  6
CONTINUOUS
 62
    64
 10
-100.252573
 20
-77.509205
 40
0.216668
  0
CIRCLE
  8
ボルト／ビス
  6
CONTINUOUS
 10
-108.742993
 20
-70.35918
 40
0.250185
  0
CIRCLE
  8
ボルト／ビス
  6
CONTINUOUS
 10
-108.742993
 20
-70.35918
 40
0.301025
  0
LINE
  8
ボルト／ビス
  6
CONTINUOUS
 62
    64
 10
-108.828145
 20
-70.12393
 11
-108.581835
 21
-70.167815
  0
LINE
  8
ボルト／ビス
  6
CONTINUOUS
 62
    64
 10
-108.496683
 20
-70.403063
 11
-108.581835
 21
-70.167815
  0
LINE
  8
ボルト／ビス
  6
CONTINUOUS
 62
    64
 10
-108.989297
 20
-70.315298
 11
-108.904147
 21
-70.550545
  0
LINE
  8
ボルト／ビス
  6
CONTINUOUS
 62
    64
 10
-108.657838
 20
-70.59443
 11
-108.904147
 21
-70.550545
  0
LINE
  8
ボルト／ビス
  6
CONTINUOUS
 62
    64
 10
-108.828145
 20
-70.12393
 11
-108.989297
 21
-70.315298
  0
LINE
  8
ボルト／ビス
  6
CONTINUOUS
 62
    64
 10
-108.496683
 20
-70.403063
 11
-108.657838
 21
-70.59443
  0
CIRCLE
  8
ボルト／ビス
  6
CONTINUOUS
 62
    64
 10
-108.742993
 20
-70.35918
 40
0.216668
  0
ENDBLK
  0
BLOCK
  2
*GRP_0011
 70
    65
 10
0.0
 20
0.0
  0
LINE
  8
補助線
  6
BYBLOCK
 62
    64
 10
51.193262
 20
-84.60555
 11
51.320747
 21
-84.71291
  0
LINE
  8
補助線
  6
BYBLOCK
 62
    64
 10
51.310685
 20
-84.595485
 11
51.203325
 21
-84.722973
  0
LINE
  8
補助線
  6
BYBLOCK
 62
    64
 10
42.702845
 20
-77.455527
 11
42.83033
 21
-77.562882
  0
LINE
  8
補助線
  6
BYBLOCK
 62
    64
 10
42.820268
 20
-77.445463
 11
42.712908
 21
-77.572945
  0
LINE
  8
補助線
  6
BYBLOCK
 62
    64
 10
34.33991
 20
-70.412857
 11
34.212428
 21
-70.3055
  0
LINE
  8
補助線
  6
BYBLOCK
 62
    64
 10
34.32985
 20
-70.295435
 11
34.22249
 21
-70.422922
  0
LINE
  8
型材断面
  6
CONTINUOUS
 10
52.04876
 20
-84.236528
 11
52.109137
 21
-84.941053
  0
LINE
  8
型材断面
  6
CONTINUOUS
 10
52.109137
 20
-84.941053
 11
51.679705
 21
-85.450987
  0
LINE
  8
型材断面
  6
CONTINUOUS
 10
51.679705
 20
-85.450987
 11
50.97518
 21
-85.511365
  0
LINE
  8
型材断面
  6
CONTINUOUS
 10
34.557992
 20
-69.507048
 11
33.853468
 21
-69.567425
  0
LINE
  8
型材断面
  6
CONTINUOUS
 10
33.853468
 20
-69.567425
 11
33.424035
 21
-70.07736
  0
LINE
  8
型材断面
  6
CONTINUOUS
 10
33.424035
 20
-70.07736
 11
33.484412
 21
-70.781885
  0
LINE
  8
型材断面
  6
CONTINUOUS
 10
52.04876
 20
-84.236528
 11
34.557992
 21
-69.507048
  0
LINE
  8
型材断面
  6
CONTINUOUS
 10
50.97518
 20
-85.511365
 11
33.484412
 21
-70.781885
  0
CIRCLE
  8
ボルト／ビス
  6
CONTINUOUS
 10
51.257005
 20
-84.65923
 40
0.250185
  0
CIRCLE
  8
ボルト／ビス
  6
CONTINUOUS
 10
51.257005
 20
-84.65923
 40
0.301025
  0
LINE
  8
ボルト／ビス
  6
CONTINUOUS
 62
    64
 10
51.503312
 20
-84.703113
 11
51.41816
 21
-84.467865
  0
LINE
  8
ボルト／ビス
  6
CONTINUOUS
 62
    64
 10
51.171853
 20
-84.42398
 11
51.41816
 21
-84.467865
  0
LINE
  8
ボルト／ビス
  6
CONTINUOUS
 62
    64
 10
51.342158
 20
-84.89448
 11
51.09585
 21
-84.850595
  0
LINE
  8
ボルト／ビス
  6
CONTINUOUS
 62
    64
 10
51.010698
 20
-84.615348
 11
51.09585
 21
-84.850595
  0
LINE
  8
ボルト／ビス
  6
CONTINUOUS
 62
    64
 10
51.503312
 20
-84.703113
 11
51.342158
 21
-84.89448
  0
LINE
  8
ボルト／ビス
  6
CONTINUOUS
 62
    64
 10
51.171853
 20
-84.42398
 11
51.010698
 21
-84.615348
  0
CIRCLE
  8
ボルト／ビス
  6
CONTINUOUS
 62
    64
 10
51.257005
 20
-84.65923
 40
0.216668
  0
CIRCLE
  8
ボルト／ビス
  6
CONTINUOUS
 10
42.766588
 20
-77.509205
 40
0.250185
  0
CIRCLE
  8
ボルト／ビス
  6
CONTINUOUS
 10
42.766588
 20
-77.509205
 40
0.301025
  0
LINE
  8
ボルト／ビス
  6
CONTINUOUS
 62
    64
 10
43.012895
 20
-77.553088
 11
42.927743
 21
-77.317838
  0
LINE
  8
ボルト／ビス
  6
CONTINUOUS
 62
    64
 10
42.681435
 20
-77.273955
 11
42.927743
 21
-77.317838
  0
LINE
  8
ボルト／ビス
  6
CONTINUOUS
 62
    64
 10
42.85174
 20
-77.744455
 11
42.60543
 21
-77.700572
  0
LINE
  8
ボルト／ビス
  6
CONTINUOUS
 62
    64
 10
42.52028
 20
-77.465325
 11
42.60543
 21
-77.700572
  0
LINE
  8
ボルト／ビス
  6
CONTINUOUS
 62
    64
 10
43.012895
 20
-77.553088
 11
42.85174
 21
-77.744455
  0
LINE
  8
ボルト／ビス
  6
CONTINUOUS
 62
    64
 10
42.681435
 20
-77.273955
 11
42.52028
 21
-77.465325
  0
CIRCLE
  8
ボルト／ビス
  6
CONTINUOUS
 62
    64
 10
42.766588
 20
-77.509205
 40
0.216668
  0
CIRCLE
  8
ボルト／ビス
  6
CONTINUOUS
 10
34.276167
 20
-70.35918
 40
0.250185
  0
CIRCLE
  8
ボルト／ビス
  6
CONTINUOUS
 10
34.276167
 20
-70.35918
 40
0.301025
  0
LINE
  8
ボルト／ビス
  6
CONTINUOUS
 62
    64
 10
34.191015
 20
-70.12393
 11
34.437325
 21
-70.167815
  0
LINE
  8
ボルト／ビス
  6
CONTINUOUS
 62
    64
 10
34.522478
 20
-70.403063
 11
34.437325
 21
-70.167815
  0
LINE
  8
ボルト／ビス
  6
CONTINUOUS
 62
    64
 10
34.029862
 20
-70.315298
 11
34.115013
 21
-70.550545
  0
LINE
  8
ボルト／ビス
  6
CONTINUOUS
 62
    64
 10
34.361322
 20
-70.59443
 11
34.115013
 21
-70.550545
  0
LINE
  8
ボルト／ビス
  6
CONTINUOUS
 62
    64
 10
34.191015
 20
-70.12393
 11
34.029862
 21
-70.315298
  0
LINE
  8
ボルト／ビス
  6
CONTINUOUS
 62
    64
 10
34.522478
 20
-70.403063
 11
34.361322
 21
-70.59443
  0
CIRCLE
  8
ボルト／ビス
  6
CONTINUOUS
 62
    64
 10
34.276167
 20
-70.35918
 40
0.216668
  0
ENDBLK
  0
BLOCK
  2
*GRP_0012
 70
    65
 10
0.0
 20
0.0
  0
LINE
  8
補助線
  6
BYBLOCK
 62
    64
 10
34.339912
 20
-84.60555
 11
34.212428
 21
-84.71291
  0
LINE
  8
補助線
  6
BYBLOCK
 62
    64
 10
34.22249
 20
-84.595485
 11
34.32985
 21
-84.722973
  0
LINE
  8
補助線
  6
BYBLOCK
 62
    64
 10
42.83033
 20
-77.455527
 11
42.702845
 21
-77.562882
  0
LINE
  8
補助線
  6
BYBLOCK
 62
    64
 10
42.712908
 20
-77.445463
 11
42.820268
 21
-77.572945
  0
LINE
  8
補助線
  6
BYBLOCK
 62
    64
 10
51.193265
 20
-70.412857
 11
51.320747
 21
-70.3055
  0
LINE
  8
補助線
  6
BYBLOCK
 62
    64
 10
51.203325
 20
-70.295435
 11
51.310685
 21
-70.422922
  0
LINE
  8
型材断面
  6
CONTINUOUS
 10
33.484415
 20
-84.236528
 11
33.424037
 21
-84.941053
  0
LINE
  8
型材断面
  6
CONTINUOUS
 10
33.424037
 20
-84.941053
 11
33.85347
 21
-85.450987
  0
LINE
  8
型材断面
  6
CONTINUOUS
 10
33.85347
 20
-85.450987
 11
34.557995
 21
-85.511365
  0
LINE
  8
型材断面
  6
CONTINUOUS
 10
50.975182
 20
-69.507048
 11
51.679708
 21
-69.567425
  0
LINE
  8
型材断面
  6
CONTINUOUS
 10
51.679708
 20
-69.567425
 11
52.10914
 21
-70.07736
  0
LINE
  8
型材断面
  6
CONTINUOUS
 10
52.10914
 20
-70.07736
 11
52.048762
 21
-70.781885
  0
LINE
  8
型材断面
  6
CONTINUOUS
 10
33.484415
 20
-84.236528
 11
50.975182
 21
-69.507048
  0
LINE
  8
型材断面
  6
CONTINUOUS
 10
34.557995
 20
-85.511365
 11
52.048762
 21
-70.781885
  0
CIRCLE
  8
ボルト／ビス
  6
CONTINUOUS
 10
34.27617
 20
-84.65923
 40
0.250185
  0
CIRCLE
  8
ボルト／ビス
  6
CONTINUOUS
 10
34.27617
 20
-84.65923
 40
0.301025
  0
LINE
  8
ボルト／ビス
  6
CONTINUOUS
 62
    64
 10
34.029862
 20
-84.703113
 11
34.115015
 21
-84.467865
  0
LINE
  8
ボルト／ビス
  6
CONTINUOUS
 62
    64
 10
34.361322
 20
-84.42398
 11
34.115015
 21
-84.467865
  0
LINE
  8
ボルト／ビス
  6
CONTINUOUS
 62
    64
 10
34.191018
 20
-84.89448
 11
34.437325
 21
-84.850595
  0
LINE
  8
ボルト／ビス
  6
CONTINUOUS
 62
    64
 10
34.522478
 20
-84.615348
 11
34.437325
 21
-84.850595
  0
LINE
  8
ボルト／ビス
  6
CONTINUOUS
 62
    64
 10
34.029862
 20
-84.703113
 11
34.191018
 21
-84.89448
  0
LINE
  8
ボルト／ビス
  6
CONTINUOUS
 62
    64
 10
34.361322
 20
-84.42398
 11
34.522478
 21
-84.615348
  0
CIRCLE
  8
ボルト／ビス
  6
CONTINUOUS
 62
    64
 10
34.27617
 20
-84.65923
 40
0.216668
  0
CIRCLE
  8
ボルト／ビス
  6
CONTINUOUS
 10
42.766588
 20
-77.509205
 40
0.250185
  0
CIRCLE
  8
ボルト／ビス
  6
CONTINUOUS
 10
42.766588
 20
-77.509205
 40
0.301025
  0
LINE
  8
ボルト／ビス
  6
CONTINUOUS
 62
    64
 10
42.52028
 20
-77.553088
 11
42.605432
 21
-77.317838
  0
LINE
  8
ボルト／ビス
  6
CONTINUOUS
 62
    64
 10
42.85174
 20
-77.273955
 11
42.605432
 21
-77.317838
  0
LINE
  8
ボルト／ビス
  6
CONTINUOUS
 62
    64
 10
42.681435
 20
-77.744455
 11
42.927745
 21
-77.700572
  0
LINE
  8
ボルト／ビス
  6
CONTINUOUS
 62
    64
 10
43.012895
 20
-77.465325
 11
42.927745
 21
-77.700572
  0
LINE
  8
ボルト／ビス
  6
CONTINUOUS
 62
    64
 10
42.52028
 20
-77.553088
 11
42.681435
 21
-77.744455
  0
LINE
  8
ボルト／ビス
  6
CONTINUOUS
 62
    64
 10
42.85174
 20
-77.273955
 11
43.012895
 21
-77.465325
  0
CIRCLE
  8
ボルト／ビス
  6
CONTINUOUS
 62
    64
 10
42.766588
 20
-77.509205
 40
0.216668
  0
CIRCLE
  8
ボルト／ビス
  6
CONTINUOUS
 10
51.257007
 20
-70.35918
 40
0.250185
  0
CIRCLE
  8
ボルト／ビス
  6
CONTINUOUS
 10
51.257007
 20
-70.35918
 40
0.301025
  0
LINE
  8
ボルト／ビス
  6
CONTINUOUS
 62
    64
 10
51.34216
 20
-70.12393
 11
51.09585
 21
-70.167815
  0
LINE
  8
ボルト／ビス
  6
CONTINUOUS
 62
    64
 10
51.010698
 20
-70.403063
 11
51.09585
 21
-70.167815
  0
LINE
  8
ボルト／ビス
  6
CONTINUOUS
 62
    64
 10
51.503312
 20
-70.315298
 11
51.418162
 21
-70.550545
  0
LINE
  8
ボルト／ビス
  6
CONTINUOUS
 62
    64
 10
51.171853
 20
-70.59443
 11
51.418162
 21
-70.550545
  0
LINE
  8
ボルト／ビス
  6
CONTINUOUS
 62
    64
 10
51.34216
 20
-70.12393
 11
51.503312
 21
-70.315298
  0
LINE
  8
ボルト／ビス
  6
CONTINUOUS
 62
    64
 10
51.010698
 20
-70.403063
 11
51.171853
 21
-70.59443
  0
CIRCLE
  8
ボルト／ビス
  6
CONTINUOUS
 62
    64
 10
51.257007
 20
-70.35918
 40
0.216668
  0
ENDBLK
  0
BLOCK
  2
*DIM_0013
 70
    65
 10
0.0
 20
0.0
  0
LINE
  8
寸法
  6
BYBLOCK
 62
     0
 10
-131.742993
 20
38.399048
 11
-145.03583
 21
38.399048
  0
LINE
  8
寸法
  6
BYBLOCK
 62
     0
 10
-131.742993
 20
18.399048
 11
-145.03583
 21
18.399048
  0
LINE
  8
寸法
  6
BYBLOCK
 62
     0
 10
-145.03583
 20
38.399048
 11
-145.03583
 21
18.399048
  0
POINT
  8
寸法
 62
     0
 10
-145.03583
 20
38.399048
  0
POINT
  8
寸法
 62
     0
 10
-145.03583
 20
18.399048
  0
TEXT
  7
TextStyle03
  8
寸法
  6
CONTINUOUS
 62
     0
 10
-145.375
 20
25.9625
  1
600
 40
3.0
 50
90.0
 72
     5
 11
-145.375
 21
30.8375
  0
ENDBLK
  0
BLOCK
  2
*DIM_0014
 70
    65
 10
0.0
 20
0.0
  0
LINE
  8
寸法
  6
BYBLOCK
 62
     0
 10
-122.076325
 20
46.399048
 11
-122.076325
 21
75.50712
  0
LINE
  8
寸法
  6
BYBLOCK
 62
     0
 10
-98.742993
 20
46.399048
 11
-98.742993
 21
75.50712
  0
LINE
  8
寸法
  6
BYBLOCK
 62
     0
 10
-122.076325
 20
75.50712
 11
-98.742993
 21
75.50712
  0
POINT
  8
寸法
 62
     0
 10
-122.076325
 20
75.50712
  0
POINT
  8
寸法
 62
     0
 10
-98.742993
 20
75.50712
  0
TEXT
  7
TextStyle03
  8
寸法
  6
CONTINUOUS
 62
     0
 10
-112.8625
 20
75.875
  1
700
 40
3.0
 72
     5
 11
-107.9875
 21
75.875
  0
ENDBLK
  0
BLOCK
  2
*DIM_0015
 70
    65
 10
0.0
 20
0.0
  0
LINE
  8
寸法
  6
BYBLOCK
 62
     0
 10
-75.40966
 20
46.399048
 11
-75.40966
 21
75.50712
  0
LINE
  8
寸法
  6
BYBLOCK
 62
     0
 10
-98.742993
 20
75.50712
 11
-75.40966
 21
75.50712
  0
POINT
  8
寸法
 62
     0
 10
-75.40966
 20
75.50712
  0
TEXT
  7
TextStyle03
  8
寸法
  6
CONTINUOUS
 62
     0
 10
-89.5375
 20
75.875
  1
700
 40
3.0
 72
     5
 11
-84.6625
 21
75.875
  0
ENDBLK
  0
BLOCK
  2
*DIM_0016
 70
    65
 10
0.0
 20
0.0
  0
LINE
  8
寸法
  6
BYBLOCK
 62
     0
 10
-52.076325
 20
46.399048
 11
-52.076325
 21
75.50712
  0
LINE
  8
寸法
  6
BYBLOCK
 62
     0
 10
-75.40966
 20
75.50712
 11
-52.076325
 21
75.50712
  0
POINT
  8
寸法
 62
     0
 10
-52.076325
 20
75.50712
  0
TEXT
  7
TextStyle03
  8
寸法
  6
CONTINUOUS
 62
     0
 10
-66.1875
 20
75.875
  1
700
 40
3.0
 72
     5
 11
-61.3125
 21
75.875
  0
ENDBLK
  0
BLOCK
  2
*DIM_0017
 70
    65
 10
0.0
 20
0.0
  0
LINE
  8
寸法
  6
BYBLOCK
 62
     0
 10
-28.742993
 20
46.399048
 11
-28.742993
 21
75.50712
  0
LINE
  8
寸法
  6
BYBLOCK
 62
     0
 10
-52.076325
 20
75.50712
 11
-28.742993
 21
75.50712
  0
POINT
  8
寸法
 62
     0
 10
-28.742993
 20
75.50712
  0
TEXT
  7
TextStyle03
  8
寸法
  6
CONTINUOUS
 62
     0
 10
-42.8625
 20
75.875
  1
700
 40
3.0
 72
     5
 11
-37.9875
 21
75.875
  0
ENDBLK
  0
BLOCK
  2
*DIM_0018
 70
    65
 10
0.0
 20
0.0
  0
LINE
  8
寸法
  6
BYBLOCK
 62
     0
 10
-5.40966
 20
46.399048
 11
-5.40966
 21
75.50712
  0
LINE
  8
寸法
  6
BYBLOCK
 62
     0
 10
-28.742993
 20
75.50712
 11
-5.40966
 21
75.50712
  0
POINT
  8
寸法
 62
     0
 10
-5.40966
 20
75.50712
  0
TEXT
  7
TextStyle03
  8
寸法
  6
CONTINUOUS
 62
     0
 10
-19.5375
 20
75.875
  1
700
 40
3.0
 72
     5
 11
-14.6625
 21
75.875
  0
ENDBLK
  0
BLOCK
  2
*DIM_0019
 70
    65
 10
0.0
 20
0.0
  0
LINE
  8
寸法
  6
BYBLOCK
 62
     0
 10
17.923675
 20
46.399048
 11
17.923675
 21
75.50712
  0
LINE
  8
寸法
  6
BYBLOCK
 62
     0
 10
-5.40966
 20
75.50712
 11
17.923675
 21
75.50712
  0
POINT
  8
寸法
 62
     0
 10
17.923675
 20
75.50712
  0
TEXT
  7
TextStyle03
  8
寸法
  6
CONTINUOUS
 62
     0
 10
3.8125
 20
75.875
  1
700
 40
3.0
 72
     5
 11
8.6875
 21
75.875
  0
ENDBLK
  0
BLOCK
  2
*DIM_0020
 70
    65
 10
0.0
 20
0.0
  0
LINE
  8
寸法
  6
BYBLOCK
 62
     0
 10
41.257007
 20
46.399048
 11
41.257007
 21
75.50712
  0
LINE
  8
寸法
  6
BYBLOCK
 62
     0
 10
17.923675
 20
75.50712
 11
41.257007
 21
75.50712
  0
POINT
  8
寸法
 62
     0
 10
41.257007
 20
75.50712
  0
TEXT
  7
TextStyle03
  8
寸法
  6
CONTINUOUS
 62
     0
 10
27.1375
 20
75.875
  1
700
 40
3.0
 72
     5
 11
32.0125
 21
75.875
  0
ENDBLK
  0
BLOCK
  2
*DIM_0021
 70
    65
 10
0.0
 20
0.0
  0
LINE
  8
寸法
  6
BYBLOCK
 62
     0
 10
64.59034
 20
46.399048
 11
64.59034
 21
75.50712
  0
LINE
  8
寸法
  6
BYBLOCK
 62
     0
 10
41.257007
 20
75.50712
 11
64.59034
 21
75.50712
  0
POINT
  8
寸法
 62
     0
 10
64.59034
 20
75.50712
  0
TEXT
  7
TextStyle03
  8
寸法
  6
CONTINUOUS
 62
     0
 10
50.4625
 20
75.875
  1
700
 40
3.0
 72
     5
 11
55.3375
 21
75.875
  0
ENDBLK
  0
BLOCK
  2
*GRP_0022
 70
    65
 10
0.0
 20
0.0
  0
LINE
  8
補助線
  6
BYBLOCK
 62
    64
 10
-37.169668
 20
-84.605558
 11
-37.297152
 21
-84.712918
  0
LINE
  8
補助線
  6
BYBLOCK
 62
    64
 10
-37.28709
 20
-84.595493
 11
-37.17973
 21
-84.72298
  0
LINE
  8
補助線
  6
BYBLOCK
 62
    64
 10
-28.67925
 20
-77.455535
 11
-28.806735
 21
-77.56289
  0
LINE
  8
補助線
  6
BYBLOCK
 62
    64
 10
-28.796673
 20
-77.44547
 11
-28.689312
 21
-77.572952
  0
LINE
  8
補助線
  6
BYBLOCK
 62
    64
 10
-20.316315
 20
-70.412865
 11
-20.188832
 21
-70.305508
  0
LINE
  8
補助線
  6
BYBLOCK
 62
    64
 10
-20.306255
 20
-70.295442
 11
-20.198895
 21
-70.42293
  0
LINE
  8
型材断面
  6
CONTINUOUS
 10
-38.025165
 20
-84.236535
 11
-38.085542
 21
-84.94106
  0
LINE
  8
型材断面
  6
CONTINUOUS
 10
-38.085542
 20
-84.94106
 11
-37.65611
 21
-85.450995
  0
LINE
  8
型材断面
  6
CONTINUOUS
 10
-37.65611
 20
-85.450995
 11
-36.951585
 21
-85.511373
  0
LINE
  8
型材断面
  6
CONTINUOUS
 10
-20.534397
 20
-69.507055
 11
-19.829872
 21
-69.567432
  0
LINE
  8
型材断面
  6
CONTINUOUS
 10
-19.829872
 20
-69.567432
 11
-19.40044
 21
-70.077368
  0
LINE
  8
型材断面
  6
CONTINUOUS
 10
-19.40044
 20
-70.077368
 11
-19.460818
 21
-70.781892
  0
LINE
  8
型材断面
  6
CONTINUOUS
 10
-38.025165
 20
-84.236535
 11
-20.534397
 21
-69.507055
  0
LINE
  8
型材断面
  6
CONTINUOUS
 10
-36.951585
 20
-85.511373
 11
-19.460818
 21
-70.781892
  0
CIRCLE
  8
ボルト／ビス
  6
CONTINUOUS
 10
-37.23341
 20
-84.659238
 40
0.250185
  0
CIRCLE
  8
ボルト／ビス
  6
CONTINUOUS
 10
-37.23341
 20
-84.659238
 40
0.301025
  0
LINE
  8
ボルト／ビス
  6
CONTINUOUS
 62
    64
 10
-37.479717
 20
-84.70312
 11
-37.394565
 21
-84.467872
  0
LINE
  8
ボルト／ビス
  6
CONTINUOUS
 62
    64
 10
-37.148258
 20
-84.423988
 11
-37.394565
 21
-84.467872
  0
LINE
  8
ボルト／ビス
  6
CONTINUOUS
 62
    64
 10
-37.318563
 20
-84.894488
 11
-37.072255
 21
-84.850602
  0
LINE
  8
ボルト／ビス
  6
CONTINUOUS
 62
    64
 10
-36.987103
 20
-84.615355
 11
-37.072255
 21
-84.850602
  0
LINE
  8
ボルト／ビス
  6
CONTINUOUS
 62
    64
 10
-37.479717
 20
-84.70312
 11
-37.318563
 21
-84.894488
  0
LINE
  8
ボルト／ビス
  6
CONTINUOUS
 62
    64
 10
-37.148258
 20
-84.423988
 11
-36.987103
 21
-84.615355
  0
CIRCLE
  8
ボルト／ビス
  6
CONTINUOUS
 62
    64
 10
-37.23341
 20
-84.659238
 40
0.216668
  0
CIRCLE
  8
ボルト／ビス
  6
CONTINUOUS
 10
-28.742993
 20
-77.509213
 40
0.250185
  0
CIRCLE
  8
ボルト／ビス
  6
CONTINUOUS
 10
-28.742993
 20
-77.509213
 40
0.301025
  0
LINE
  8
ボルト／ビス
  6
CONTINUOUS
 62
    64
 10
-28.9893
 20
-77.553095
 11
-28.904148
 21
-77.317845
  0
LINE
  8
ボルト／ビス
  6
CONTINUOUS
 62
    64
 10
-28.65784
 20
-77.273963
 11
-28.904148
 21
-77.317845
  0
LINE
  8
ボルト／ビス
  6
CONTINUOUS
 62
    64
 10
-28.828145
 20
-77.744463
 11
-28.581835
 21
-77.70058
  0
LINE
  8
ボルト／ビス
  6
CONTINUOUS
 62
    64
 10
-28.496685
 20
-77.465333
 11
-28.581835
 21
-77.70058
  0
LINE
  8
ボルト／ビス
  6
CONTINUOUS
 62
    64
 10
-28.9893
 20
-77.553095
 11
-28.828145
 21
-77.744463
  0
LINE
  8
ボルト／ビス
  6
CONTINUOUS
 62
    64
 10
-28.65784
 20
-77.273963
 11
-28.496685
 21
-77.465333
  0
CIRCLE
  8
ボルト／ビス
  6
CONTINUOUS
 62
    64
 10
-28.742993
 20
-77.509213
 40
0.216668
  0
CIRCLE
  8
ボルト／ビス
  6
CONTINUOUS
 10
-20.252573
 20
-70.359188
 40
0.250185
  0
CIRCLE
  8
ボルト／ビス
  6
CONTINUOUS
 10
-20.252573
 20
-70.359188
 40
0.301025
  0
LINE
  8
ボルト／ビス
  6
CONTINUOUS
 62
    64
 10
-20.16742
 20
-70.123938
 11
-20.41373
 21
-70.167822
  0
LINE
  8
ボルト／ビス
  6
CONTINUOUS
 62
    64
 10
-20.498883
 20
-70.40307
 11
-20.41373
 21
-70.167822
  0
LINE
  8
ボルト／ビス
  6
CONTINUOUS
 62
    64
 10
-20.006268
 20
-70.315305
 11
-20.091417
 21
-70.550552
  0
LINE
  8
ボルト／ビス
  6
CONTINUOUS
 62
    64
 10
-20.337727
 20
-70.594437
 11
-20.091417
 21
-70.550552
  0
LINE
  8
ボルト／ビス
  6
CONTINUOUS
 62
    64
 10
-20.16742
 20
-70.123938
 11
-20.006268
 21
-70.315305
  0
LINE
  8
ボルト／ビス
  6
CONTINUOUS
 62
    64
 10
-20.498883
 20
-70.40307
 11
-20.337727
 21
-70.594437
  0
CIRCLE
  8
ボルト／ビス
  6
CONTINUOUS
 62
    64
 10
-20.252573
 20
-70.359188
 40
0.216668
  0
ENDBLK
  0
BLOCK
  2
*GRP_0023
 70
    65
 10
0.0
 20
0.0
  0
LINE
  8
補助線
  6
BYBLOCK
 62
    64
 10
-20.316317
 20
-84.605558
 11
-20.188832
 21
-84.712918
  0
LINE
  8
補助線
  6
BYBLOCK
 62
    64
 10
-20.198895
 20
-84.595493
 11
-20.306255
 21
-84.72298
  0
LINE
  8
補助線
  6
BYBLOCK
 62
    64
 10
-28.806735
 20
-77.455535
 11
-28.67925
 21
-77.56289
  0
LINE
  8
補助線
  6
BYBLOCK
 62
    64
 10
-28.689312
 20
-77.44547
 11
-28.796673
 21
-77.572952
  0
LINE
  8
補助線
  6
BYBLOCK
 62
    64
 10
-37.16967
 20
-70.412865
 11
-37.297152
 21
-70.305508
  0
LINE
  8
補助線
  6
BYBLOCK
 62
    64
 10
-37.17973
 20
-70.295442
 11
-37.28709
 21
-70.42293
  0
LINE
  8
型材断面
  6
CONTINUOUS
 10
-19.46082
 20
-84.236535
 11
-19.400443
 21
-84.94106
  0
LINE
  8
型材断面
  6
CONTINUOUS
 10
-19.400443
 20
-84.94106
 11
-19.829875
 21
-85.450995
  0
LINE
  8
型材断面
  6
CONTINUOUS
 10
-19.829875
 20
-85.450995
 11
-20.5344
 21
-85.511373
  0
LINE
  8
型材断面
  6
CONTINUOUS
 10
-36.951588
 20
-69.507055
 11
-37.656113
 21
-69.567432
  0
LINE
  8
型材断面
  6
CONTINUOUS
 10
-37.656113
 20
-69.567432
 11
-38.085545
 21
-70.077368
  0
LINE
  8
型材断面
  6
CONTINUOUS
 10
-38.085545
 20
-70.077368
 11
-38.025168
 21
-70.781892
  0
LINE
  8
型材断面
  6
CONTINUOUS
 10
-19.46082
 20
-84.236535
 11
-36.951588
 21
-69.507055
  0
LINE
  8
型材断面
  6
CONTINUOUS
 10
-20.5344
 20
-85.511373
 11
-38.025168
 21
-70.781892
  0
CIRCLE
  8
ボルト／ビス
  6
CONTINUOUS
 10
-20.252575
 20
-84.659238
 40
0.250185
  0
CIRCLE
  8
ボルト／ビス
  6
CONTINUOUS
 10
-20.252575
 20
-84.659238
 40
0.301025
  0
LINE
  8
ボルト／ビス
  6
CONTINUOUS
 62
    64
 10
-20.006268
 20
-84.70312
 11
-20.09142
 21
-84.467872
  0
LINE
  8
ボルト／ビス
  6
CONTINUOUS
 62
    64
 10
-20.337727
 20
-84.423988
 11
-20.09142
 21
-84.467872
  0
LINE
  8
ボルト／ビス
  6
CONTINUOUS
 62
    64
 10
-20.167422
 20
-84.894488
 11
-20.41373
 21
-84.850602
  0
LINE
  8
ボルト／ビス
  6
CONTINUOUS
 62
    64
 10
-20.498883
 20
-84.615355
 11
-20.41373
 21
-84.850602
  0
LINE
  8
ボルト／ビス
  6
CONTINUOUS
 62
    64
 10
-20.006268
 20
-84.70312
 11
-20.167422
 21
-84.894488
  0
LINE
  8
ボルト／ビス
  6
CONTINUOUS
 62
    64
 10
-20.337727
 20
-84.423988
 11
-20.498883
 21
-84.615355
  0
CIRCLE
  8
ボルト／ビス
  6
CONTINUOUS
 62
    64
 10
-20.252575
 20
-84.659238
 40
0.216668
  0
CIRCLE
  8
ボルト／ビス
  6
CONTINUOUS
 10
-28.742993
 20
-77.509213
 40
0.250185
  0
CIRCLE
  8
ボルト／ビス
  6
CONTINUOUS
 10
-28.742993
 20
-77.509213
 40
0.301025
  0
LINE
  8
ボルト／ビス
  6
CONTINUOUS
 62
    64
 10
-28.496685
 20
-77.553095
 11
-28.581837
 21
-77.317845
  0
LINE
  8
ボルト／ビス
  6
CONTINUOUS
 62
    64
 10
-28.828145
 20
-77.273963
 11
-28.581837
 21
-77.317845
  0
LINE
  8
ボルト／ビス
  6
CONTINUOUS
 62
    64
 10
-28.65784
 20
-77.744463
 11
-28.90415
 21
-77.70058
  0
LINE
  8
ボルト／ビス
  6
CONTINUOUS
 62
    64
 10
-28.9893
 20
-77.465333
 11
-28.90415
 21
-77.70058
  0
LINE
  8
ボルト／ビス
  6
CONTINUOUS
 62
    64
 10
-28.496685
 20
-77.553095
 11
-28.65784
 21
-77.744463
  0
LINE
  8
ボルト／ビス
  6
CONTINUOUS
 62
    64
 10
-28.828145
 20
-77.273963
 11
-28.9893
 21
-77.465333
  0
CIRCLE
  8
ボルト／ビス
  6
CONTINUOUS
 62
    64
 10
-28.742993
 20
-77.509213
 40
0.216668
  0
CIRCLE
  8
ボルト／ビス
  6
CONTINUOUS
 10
-37.233413
 20
-70.359188
 40
0.250185
  0
CIRCLE
  8
ボルト／ビス
  6
CONTINUOUS
 10
-37.233413
 20
-70.359188
 40
0.301025
  0
LINE
  8
ボルト／ビス
  6
CONTINUOUS
 62
    64
 10
-37.318565
 20
-70.123938
 11
-37.072255
 21
-70.167822
  0
LINE
  8
ボルト／ビス
  6
CONTINUOUS
 62
    64
 10
-36.987103
 20
-70.40307
 11
-37.072255
 21
-70.167822
  0
LINE
  8
ボルト／ビス
  6
CONTINUOUS
 62
    64
 10
-37.479717
 20
-70.315305
 11
-37.394567
 21
-70.550552
  0
LINE
  8
ボルト／ビス
  6
CONTINUOUS
 62
    64
 10
-37.148258
 20
-70.594437
 11
-37.394567
 21
-70.550552
  0
LINE
  8
ボルト／ビス
  6
CONTINUOUS
 62
    64
 10
-37.318565
 20
-70.123938
 11
-37.479717
 21
-70.315305
  0
LINE
  8
ボルト／ビス
  6
CONTINUOUS
 62
    64
 10
-36.987103
 20
-70.40307
 11
-37.148258
 21
-70.594437
  0
CIRCLE
  8
ボルト／ビス
  6
CONTINUOUS
 62
    64
 10
-37.233413
 20
-70.359188
 40
0.216668
  0
ENDBLK
  0
BLOCK
  2
*DIM_0024
 70
    65
 10
0.0
 20
0.0
  0
LINE
  8
寸法
  6
BYBLOCK
 62
     0
 10
152.45694
 20
29.399048
 11
152.45694
 21
58.954983
  0
LINE
  8
寸法
  6
BYBLOCK
 62
     0
 10
160.790272
 20
58.954983
 11
152.45694
 21
58.954983
  0
POINT
  8
寸法
 62
     0
 10
160.790272
 20
58.954983
  0
POINT
  8
寸法
 62
     0
 10
152.45694
 20
58.954983
  0
TEXT
  7
TextStyle03
  8
寸法
  6
CONTINUOUS
 62
     0
 10
154.1625
 20
59.325
  1
250
 40
3.0
 72
     5
 11
159.0375
 21
59.325
  0
ENDBLK
  0
BLOCK
  2
*DIM_0025
 70
    65
 10
0.0
 20
0.0
  0
LINE
  8
寸法
  6
BYBLOCK
 62
     0
 10
105.276657
 20
13.399048
 11
105.276657
 21
43.399048
  0
POINT
  8
寸法
 62
     0
 10
105.276657
 20
13.399048
  0
POINT
  8
寸法
 62
     0
 10
105.276657
 20
43.399048
  0
TEXT
  7
TextStyle03
  8
寸法
  6
CONTINUOUS
 62
     0
 10
104.9
 20
17.5
  1
呼称寸法　900
 40
3.0
 50
90.0
 72
     5
 11
104.9
 21
39.25
  0
ENDBLK
  0
BLOCK
  2
*DIM_0026
 70
    65
 10
0.0
 20
0.0
  0
LINE
  8
寸法
  6
CONTINUOUS
 10
105.276657
 20
13.399048
 11
105.276657
 21
10.635715
  0
POINT
  8
寸法
 10
105.276657
 20
13.399048
  0
POINT
  8
寸法
 10
105.276657
 20
10.635715
  0
TEXT
  7
TextStyle03
  8
寸法
  6
CONTINUOUS
 10
104.625
 20
6.36875
  1
82.9
 40
3.0
 50
90.0
 72
     5
 11
104.625
 21
12.93125
  0
ENDBLK
  0
BLOCK
  2
*DIM_0027
 70
    65
 10
0.0
 20
0.0
  0
LINE
  8
寸法
  6
CONTINUOUS
 10
105.276657
 20
43.399048
 11
105.276657
 21
46.16238
  0
POINT
  8
寸法
 10
105.276657
 20
43.399048
  0
POINT
  8
寸法
 10
105.276657
 20
46.16238
  0
TEXT
  7
TextStyle03
  8
寸法
  6
CONTINUOUS
 10
104.35
 20
43.84375
  1
82.9
 40
3.0
 50
90.0
 72
     5
 11
104.35
 21
50.40625
  0
ENDBLK
  0
BLOCK
  2
*DIM_0028
 70
    65
 10
0.0
 20
0.0
  0
LINE
  8
寸法
  6
CONTINUOUS
 10
71.257007
 20
-22.536362
 11
74.020335
 21
-22.536362
  0
POINT
  8
寸法
 10
71.257007
 20
-22.536362
  0
POINT
  8
寸法
 10
74.020335
 20
-22.536362
  0
TEXT
  7
TextStyle03
  8
寸法
  6
CONTINUOUS
 10
72.34375
 20
-21.325
  1
82.9
 40
3.0
 72
     5
 11
78.90625
 21
-21.325
  0
ENDBLK
  0
BLOCK
  2
*DIM_0029
 70
    65
 10
0.0
 20
0.0
  0
LINE
  8
寸法
  6
CONTINUOUS
 10
-128.742993
 20
-22.536362
 11
-131.50632
 21
-22.536362
  0
POINT
  8
寸法
 10
-128.742993
 20
-22.536362
  0
POINT
  8
寸法
 10
-131.50632
 20
-22.536362
  0
TEXT
  7
TextStyle03
  8
寸法
  6
CONTINUOUS
 10
-136.05625
 20
-21.625
  1
82.9
 40
3.0
 72
     5
 11
-129.49375
 21
-21.625
  0
ENDBLK
  0
BLOCK
  2
*DIM_0032
 70
    65
 10
0.0
 20
0.0
  0
LINE
  8
寸法
  6
CONTINUOUS
 10
128.351958
 20
-50.02806
 11
128.351958
 21
-45.020475
  0
LINE
  8
寸法
  6
CONTINUOUS
 10
160.785292
 20
-50.02806
 11
160.785292
 21
-45.020475
  0
LINE
  8
寸法
  6
CONTINUOUS
 10
128.351958
 20
-45.020475
 11
160.785292
 21
-45.020475
  0
POINT
  8
寸法
 10
128.351958
 20
-45.020475
  0
POINT
  8
寸法
 10
160.785292
 20
-45.020475
  0
TEXT
  7
TextStyle03
  8
寸法
  6
CONTINUOUS
 10
142.1375
 20
-44.65
  1
973
 40
3.0
 72
     5
 11
147.0125
 21
-44.65
  0
ENDBLK
  0
BLOCK
  2
*DIM_0033
 70
    65
 10
0.0
 20
0.0
  0
LINE
  8
寸法
  6
CONTINUOUS
 10
165.785292
 20
-55.02806
 11
172.6499
 21
-55.02806
  0
LINE
  8
寸法
  6
CONTINUOUS
 10
165.785292
 20
-85.02806
 11
172.6499
 21
-85.02806
  0
LINE
  8
寸法
  6
CONTINUOUS
 10
172.6499
 20
-55.02806
 11
172.6499
 21
-85.02806
  0
POINT
  8
寸法
 10
172.6499
 20
-55.02806
  0
POINT
  8
寸法
 10
172.6499
 20
-85.02806
  0
TEXT
  7
TextStyle03
  8
寸法
  6
CONTINUOUS
 10
172.275
 20
-72.4625
  1
900
 40
3.0
 50
90.0
 72
     5
 11
172.275
 21
-67.5875
  0
ENDBLK
  0
BLOCK
  2
*DIM_0034
 70
    65
 10
0.0
 20
0.0
  0
LINE
  8
寸法
  6
CONTINUOUS
 10
77.923668
 20
-79.624597
 11
87.22665
 21
-79.624597
  0
LINE
  8
寸法
  6
CONTINUOUS
 10
79.020335
 20
-87.1246
 11
87.22665
 21
-87.1246
  0
LINE
  8
寸法
  6
CONTINUOUS
 10
87.22665
 20
-79.624597
 11
87.22665
 21
-87.1246
  0
POINT
  8
寸法
 10
87.22665
 20
-79.624597
  0
POINT
  8
寸法
 10
87.22665
 20
-87.1246
  0
TEXT
  7
TextStyle03
  8
寸法
  6
CONTINUOUS
 10
86.775
 20
-85.8125
  1
225
 40
3.0
 50
90.0
 72
     5
 11
86.775
 21
-80.9375
  0
ENDBLK
  0
BLOCK
  2
*DIM_0035
 70
    65
 10
0.0
 20
0.0
  0
LINE
  8
寸法
  6
CONTINUOUS
 10
160.790272
 20
50.065715
 11
160.790272
 21
58.954983
  0
LINE
  8
寸法
  6
CONTINUOUS
 10
168.290275
 20
51.16238
 11
168.290275
 21
58.954983
  0
LINE
  8
寸法
  6
CONTINUOUS
 10
160.790272
 20
58.954983
 11
168.290275
 21
58.954983
  0
POINT
  8
寸法
 10
160.790272
 20
58.954983
  0
POINT
  8
寸法
 10
168.290275
 20
58.954983
  0
TEXT
  7
TextStyle03
  8
寸法
  6
CONTINUOUS
 10
162.0375
 20
59.325
  1
225
 40
3.0
 72
     5
 11
166.9125
 21
59.325
  0
ENDBLK
  0
BLOCK
  2
*GRP_0036
 70
    65
 10
0.0
 20
0.0
  0
LINE
  8
型材断面
  6
DOT
 10
-28.742993
 20
-69.008047
 11
-130.103135
 21
-69.008047
  0
LINE
  8
型材断面
  6
DOT
 10
-28.742993
 20
-70.158047
 11
-131.50632
 21
-70.158047
  0
LINE
  8
型材断面
  6
DOT
 10
-28.742993
 20
-71.324715
 11
-131.50632
 21
-71.324715
  0
LINE
  8
型材断面
  6
DOT
 10
-28.742993
 20
-69.008047
 11
72.61715
 21
-69.008047
  0
LINE
  8
型材断面
  6
DOT
 10
-28.742993
 20
-70.158047
 11
74.020335
 21
-70.158047
  0
LINE
  8
型材断面
  6
DOT
 10
-28.742993
 20
-71.324715
 11
74.020335
 21
-71.324715
  0
LINE
  8
別途部材
  6
DOT
 62
    96
 10
-130.409657
 20
-67.95793
 11
-130.809657
 21
-68.95793
  0
LINE
  8
別途部材
  6
DOT
 62
    96
 10
-130.409657
 20
-67.95793
 11
-28.742993
 21
-67.95793
  0
LINE
  8
別途部材
  6
DOT
 10
-130.809657
 20
-68.95793
 11
-28.742993
 21
-68.95793
  0
ARC
  8
別途部材
  6
DOT
 10
-113.742989
 20
-77.291261
 40
17.666667
 50
91.621805
 51
148.109204
  0
LINE
  8
別途部材
  6
DOT
 62
    96
 10
72.923675
 20
-67.95793
 11
73.323675
 21
-68.95793
  0
LINE
  8
別途部材
  6
DOT
 62
    96
 10
72.923675
 20
-67.95793
 11
-28.742993
 21
-67.95793
  0
LINE
  8
別途部材
  6
DOT
 10
73.323675
 20
-68.95793
 11
-28.742993
 21
-68.95793
  0
ARC
  8
別途部材
  6
DOT
 10
56.257005
 20
-77.291261
 40
17.666667
 50
31.890796
 51
88.378195
  0
LINE
  8
別途部材
  6
DOT
 10
56.757007
 20
-59.624597
 11
-28.742993
 21
-59.624597
  0
LINE
  8
別途部材
  6
DOT
 10
-114.242993
 20
-59.624597
 11
-28.742993
 21
-59.624597
  0
LINE
  8
鉄骨等
  6
DOT
 62
    47
 10
-131.50632
 20
-71.324715
 11
-131.50632
 21
-70.158047
  0
LINE
  8
鉄骨等
  6
DOT
 62
    47
 10
-131.50632
 20
-70.158047
 11
-130.103135
 21
-69.008047
  0
LINE
  8
鉄骨等
  6
DOT
 62
    47
 10
-130.103135
 20
-69.008047
 11
-130.103135
 21
-68.957928
  0
LINE
  8
鉄骨等
  6
DOT
 62
    47
 10
74.020335
 20
-71.324715
 11
74.020335
 21
-70.158047
  0
LINE
  8
鉄骨等
  6
DOT
 62
    47
 10
74.020335
 20
-70.158047
 11
72.61715
 21
-69.008047
  0
LINE
  8
鉄骨等
  6
DOT
 62
    47
 10
72.61715
 20
-69.008047
 11
72.61715
 21
-68.957928
  0
ENDBLK
  0
BLOCK
  2
*GRP_0037
 70
    65
 10
0.0
 20
0.0
  0
LINE
  8
型材断面
  6
DOT
 10
150.173723
 20
28.399048
 11
150.173723
 21
12.0389
  0
LINE
  8
型材断面
  6
DOT
 10
151.323723
 20
28.399048
 11
151.323723
 21
10.635715
  0
LINE
  8
型材断面
  6
DOT
 10
152.49039
 20
28.399048
 11
152.49039
 21
10.635715
  0
LINE
  8
型材断面
  6
DOT
 10
150.173723
 20
28.399048
 11
150.173723
 21
44.759195
  0
LINE
  8
型材断面
  6
DOT
 10
151.323723
 20
28.399048
 11
151.323723
 21
46.16238
  0
LINE
  8
型材断面
  6
DOT
 10
152.49039
 20
28.399048
 11
152.49039
 21
46.16238
  0
LINE
  8
別途部材
  6
DOT
 62
    96
 10
149.123605
 20
11.73238
 11
150.123605
 21
11.33238
  0
LINE
  8
別途部材
  6
DOT
 62
    96
 10
149.123605
 20
11.73238
 11
149.123605
 21
28.399048
  0
LINE
  8
別途部材
  6
DOT
 10
150.123605
 20
11.33238
 11
150.123605
 21
28.399048
  0
LINE
  8
別途部材
  6
DOT
 62
    96
 10
149.123605
 20
45.065715
 11
150.123605
 21
45.465715
  0
LINE
  8
別途部材
  6
DOT
 62
    96
 10
149.123605
 20
45.065715
 11
149.123605
 21
28.399048
  0
LINE
  8
別途部材
  6
DOT
 10
150.123605
 20
45.465715
 11
150.123605
 21
28.399048
  0
ARC
  8
別途部材
  6
DOT
 10
158.456938
 20
28.399048
 40
17.666667
 50
121.890796
 51
238.109204
  0
LINE
  8
鉄骨等
  6
DOT
 62
    47
 10
152.49039
 20
10.635715
 11
151.323723
 21
10.635715
  0
LINE
  8
鉄骨等
  6
DOT
 62
    47
 10
151.323723
 20
10.635715
 11
150.173723
 21
12.0389
  0
LINE
  8
鉄骨等
  6
DOT
 62
    47
 10
150.173723
 20
12.0389
 11
150.123603
 21
12.0389
  0
LINE
  8
鉄骨等
  6
DOT
 62
    47
 10
152.49039
 20
46.16238
 11
151.323723
 21
46.16238
  0
LINE
  8
鉄骨等
  6
DOT
 62
    47
 10
151.323723
 20
46.16238
 11
150.173723
 21
44.759195
  0
LINE
  8
鉄骨等
  6
DOT
 62
    47
 10
150.173723
 20
44.759195
 11
150.123603
 21
44.759195
  0
ENDBLK
  0
BLOCK
  2
*GRP_0038
 70
    65
 10
0.0
 20
0.0
  0
LINE
  8
ボルト／ビス
  6
CONTINUOUS
 10
160.79027
 20
44.065715
 11
160.323605
 21
44.065715
  0
LINE
  8
ボルト／ビス
  6
CONTINUOUS
 10
160.79027
 20
43.69905
 11
160.723605
 21
43.69905
  0
LINE
  8
ボルト／ビス
  6
CONTINUOUS
 10
160.723605
 20
43.69905
 11
160.723605
 21
44.432382
  0
LINE
  8
ボルト／ビス
  6
CONTINUOUS
 10
160.723605
 20
44.432382
 11
160.79027
 21
44.432382
  0
LINE
  8
ボルト／ビス
  6
CONTINUOUS
 10
160.79027
 20
43.69905
 11
160.79027
 21
44.432382
  0
LINE
  8
ボルト／ビス
  6
CONTINUOUS
 10
160.69027
 20
43.765715
 11
160.723605
 21
43.765715
  0
LINE
  8
ボルト／ビス
  6
CONTINUOUS
 10
160.69027
 20
43.765715
 11
160.69027
 21
44.365715
  0
LINE
  8
ボルト／ビス
  6
CONTINUOUS
 10
160.69027
 20
44.365715
 11
160.723605
 21
44.365715
  0
LINE
  8
ボルト／ビス
  6
CONTINUOUS
 62
    64
 10
160.49027
 20
43.90534
 11
160.501945
 21
43.873265
  0
ARC
  8
ボルト／ビス
  6
CONTINUOUS
 62
    64
 10
160.595248
 20
43.921377
 40
0.104978
 50
152.721967
 51
180.0
  0
ARC
  8
ボルト／ビス
  6
CONTINUOUS
 62
    64
 10
160.892672
 20
44.065714
 40
0.402402
 50
166.165002
 51
193.834985
  0
LINE
  8
ボルト／ビス
  6
CONTINUOUS
 62
    64
 10
160.49027
 20
44.22609
 11
160.501945
 21
44.258165
  0
ARC
  8
ボルト／ビス
  6
CONTINUOUS
 62
    64
 10
160.595248
 20
44.210052
 40
0.104978
 50
180.0
 51
207.278033
  0
LINE
  8
ボルト／ビス
  6
CONTINUOUS
 62
    64
 10
160.49027
 20
43.90534
 11
160.49027
 21
44.22609
  0
LINE
  8
ボルト／ビス
  6
CONTINUOUS
 62
    64
 10
160.501945
 20
44.258165
 11
160.623605
 21
44.258165
  0
LINE
  8
ボルト／ビス
  6
CONTINUOUS
 62
    64
 10
160.501945
 20
44.16194
 11
160.623605
 21
44.16194
  0
LINE
  8
ボルト／ビス
  6
CONTINUOUS
 62
    64
 10
160.501945
 20
43.873265
 11
160.623605
 21
43.873265
  0
LINE
  8
ボルト／ビス
  6
CONTINUOUS
 62
    64
 10
160.501945
 20
43.96949
 11
160.623605
 21
43.96949
  0
LINE
  8
ボルト／ビス
  6
CONTINUOUS
 10
160.623605
 20
43.873265
 11
160.623605
 21
44.258165
  0
LINE
  8
ボルト／ビス
  6
CONTINUOUS
 10
160.623605
 20
43.865715
 11
160.69027
 21
43.865715
  0
LINE
  8
ボルト／ビス
  6
CONTINUOUS
 10
160.623605
 20
43.865715
 11
160.623605
 21
44.265715
  0
LINE
  8
ボルト／ビス
  6
CONTINUOUS
 10
160.623605
 20
44.265715
 11
160.69027
 21
44.265715
  0
ENDBLK
  0
BLOCK
  2
*GRP_0039
 70
    65
 10
0.0
 20
0.0
  0
LINE
  8
ボルト／ビス
  6
CONTINUOUS
 10
160.79027
 20
12.73238
 11
160.323605
 21
12.73238
  0
LINE
  8
ボルト／ビス
  6
CONTINUOUS
 10
160.79027
 20
13.099045
 11
160.723605
 21
13.099045
  0
LINE
  8
ボルト／ビス
  6
CONTINUOUS
 10
160.723605
 20
13.099045
 11
160.723605
 21
12.365712
  0
LINE
  8
ボルト／ビス
  6
CONTINUOUS
 10
160.723605
 20
12.365712
 11
160.79027
 21
12.365712
  0
LINE
  8
ボルト／ビス
  6
CONTINUOUS
 10
160.79027
 20
13.099045
 11
160.79027
 21
12.365712
  0
LINE
  8
ボルト／ビス
  6
CONTINUOUS
 10
160.69027
 20
13.03238
 11
160.723605
 21
13.03238
  0
LINE
  8
ボルト／ビス
  6
CONTINUOUS
 10
160.69027
 20
13.03238
 11
160.69027
 21
12.43238
  0
LINE
  8
ボルト／ビス
  6
CONTINUOUS
 10
160.69027
 20
12.43238
 11
160.723605
 21
12.43238
  0
LINE
  8
ボルト／ビス
  6
CONTINUOUS
 62
    64
 10
160.49027
 20
12.892755
 11
160.501945
 21
12.92483
  0
ARC
  8
ボルト／ビス
  6
CONTINUOUS
 62
    64
 10
160.595248
 20
12.876718
 40
0.104978
 50
180.0
 51
207.278033
  0
ARC
  8
ボルト／ビス
  6
CONTINUOUS
 62
    64
 10
160.892672
 20
12.732381
 40
0.402402
 50
166.165015
 51
193.834998
  0
LINE
  8
ボルト／ビス
  6
CONTINUOUS
 62
    64
 10
160.49027
 20
12.572005
 11
160.501945
 21
12.53993
  0
ARC
  8
ボルト／ビス
  6
CONTINUOUS
 62
    64
 10
160.595248
 20
12.588043
 40
0.104978
 50
152.721967
 51
180.0
  0
LINE
  8
ボルト／ビス
  6
CONTINUOUS
 62
    64
 10
160.49027
 20
12.892755
 11
160.49027
 21
12.572005
  0
LINE
  8
ボルト／ビス
  6
CONTINUOUS
 62
    64
 10
160.501945
 20
12.53993
 11
160.623605
 21
12.53993
  0
LINE
  8
ボルト／ビス
  6
CONTINUOUS
 62
    64
 10
160.501945
 20
12.636155
 11
160.623605
 21
12.636155
  0
LINE
  8
ボルト／ビス
  6
CONTINUOUS
 62
    64
 10
160.501945
 20
12.92483
 11
160.623605
 21
12.92483
  0
LINE
  8
ボルト／ビス
  6
CONTINUOUS
 62
    64
 10
160.501945
 20
12.828605
 11
160.623605
 21
12.828605
  0
LINE
  8
ボルト／ビス
  6
CONTINUOUS
 10
160.623605
 20
12.92483
 11
160.623605
 21
12.53993
  0
LINE
  8
ボルト／ビス
  6
CONTINUOUS
 10
160.623605
 20
12.93238
 11
160.69027
 21
12.93238
  0
LINE
  8
ボルト／ビス
  6
CONTINUOUS
 10
160.623605
 20
12.93238
 11
160.623605
 21
12.53238
  0
LINE
  8
ボルト／ビス
  6
CONTINUOUS
 10
160.623605
 20
12.53238
 11
160.69027
 21
12.53238
  0
ENDBLK
  0
BLOCK
  2
*GRP_0040
 70
    65
 10
0.0
 20
0.0
  0
LINE
  8
ボルト／ビス
  6
DOT
 10
149.123605
 20
44.065715
 11
148.65694
 21
44.065715
  0
LINE
  8
ボルト／ビス
  6
DOT
 10
149.123605
 20
43.69905
 11
149.05694
 21
43.69905
  0
LINE
  8
ボルト／ビス
  6
DOT
 10
149.05694
 20
43.69905
 11
149.05694
 21
44.432382
  0
LINE
  8
ボルト／ビス
  6
DOT
 10
149.05694
 20
44.432382
 11
149.123605
 21
44.432382
  0
LINE
  8
ボルト／ビス
  6
DOT
 10
149.123605
 20
43.69905
 11
149.123605
 21
44.432382
  0
LINE
  8
ボルト／ビス
  6
DOT
 10
149.023605
 20
43.765715
 11
149.05694
 21
43.765715
  0
LINE
  8
ボルト／ビス
  6
DOT
 10
149.023605
 20
43.765715
 11
149.023605
 21
44.365715
  0
LINE
  8
ボルト／ビス
  6
DOT
 10
149.023605
 20
44.365715
 11
149.05694
 21
44.365715
  0
LINE
  8
ボルト／ビス
  6
DOT
 62
    64
 10
148.823605
 20
43.90534
 11
148.83528
 21
43.873265
  0
ARC
  8
ボルト／ビス
  6
DOT
 62
    64
 10
148.928583
 20
43.921377
 40
0.104978
 50
152.721967
 51
180.0
  0
ARC
  8
ボルト／ビス
  6
DOT
 62
    64
 10
149.226007
 20
44.065714
 40
0.402402
 50
166.165002
 51
193.834985
  0
LINE
  8
ボルト／ビス
  6
DOT
 62
    64
 10
148.823605
 20
44.22609
 11
148.83528
 21
44.258165
  0
ARC
  8
ボルト／ビス
  6
DOT
 62
    64
 10
148.928583
 20
44.210052
 40
0.104978
 50
180.0
 51
207.278033
  0
LINE
  8
ボルト／ビス
  6
DOT
 62
    64
 10
148.823605
 20
43.90534
 11
148.823605
 21
44.22609
  0
LINE
  8
ボルト／ビス
  6
DOT
 62
    64
 10
148.83528
 20
44.258165
 11
148.95694
 21
44.258165
  0
LINE
  8
ボルト／ビス
  6
DOT
 62
    64
 10
148.83528
 20
44.16194
 11
148.95694
 21
44.16194
  0
LINE
  8
ボルト／ビス
  6
DOT
 62
    64
 10
148.83528
 20
43.873265
 11
148.95694
 21
43.873265
  0
LINE
  8
ボルト／ビス
  6
DOT
 62
    64
 10
148.83528
 20
43.96949
 11
148.95694
 21
43.96949
  0
LINE
  8
ボルト／ビス
  6
DOT
 10
148.95694
 20
43.873265
 11
148.95694
 21
44.258165
  0
LINE
  8
ボルト／ビス
  6
DOT
 10
148.95694
 20
43.865715
 11
149.023605
 21
43.865715
  0
LINE
  8
ボルト／ビス
  6
DOT
 10
148.95694
 20
43.865715
 11
148.95694
 21
44.265715
  0
LINE
  8
ボルト／ビス
  6
DOT
 10
148.95694
 20
44.265715
 11
149.023605
 21
44.265715
  0
ENDBLK
  0
BLOCK
  2
*GRP_0041
 70
    65
 10
0.0
 20
0.0
  0
LINE
  8
ボルト／ビス
  6
DOT
 10
149.123605
 20
12.73238
 11
148.65694
 21
12.73238
  0
LINE
  8
ボルト／ビス
  6
DOT
 10
149.123605
 20
13.099045
 11
149.05694
 21
13.099045
  0
LINE
  8
ボルト／ビス
  6
DOT
 10
149.05694
 20
13.099045
 11
149.05694
 21
12.365712
  0
LINE
  8
ボルト／ビス
  6
DOT
 10
149.05694
 20
12.365712
 11
149.123605
 21
12.365712
  0
LINE
  8
ボルト／ビス
  6
DOT
 10
149.123605
 20
13.099045
 11
149.123605
 21
12.365712
  0
LINE
  8
ボルト／ビス
  6
DOT
 10
149.023605
 20
13.03238
 11
149.05694
 21
13.03238
  0
LINE
  8
ボルト／ビス
  6
DOT
 10
149.023605
 20
13.03238
 11
149.023605
 21
12.43238
  0
LINE
  8
ボルト／ビス
  6
DOT
 10
149.023605
 20
12.43238
 11
149.05694
 21
12.43238
  0
LINE
  8
ボルト／ビス
  6
DOT
 62
    64
 10
148.823605
 20
12.892755
 11
148.83528
 21
12.92483
  0
ARC
  8
ボルト／ビス
  6
DOT
 62
    64
 10
148.928583
 20
12.876718
 40
0.104978
 50
180.0
 51
207.278033
  0
ARC
  8
ボルト／ビス
  6
DOT
 62
    64
 10
149.226007
 20
12.732381
 40
0.402402
 50
166.165015
 51
193.834998
  0
LINE
  8
ボルト／ビス
  6
DOT
 62
    64
 10
148.823605
 20
12.572005
 11
148.83528
 21
12.53993
  0
ARC
  8
ボルト／ビス
  6
DOT
 62
    64
 10
148.928583
 20
12.588043
 40
0.104978
 50
152.721967
 51
180.0
  0
LINE
  8
ボルト／ビス
  6
DOT
 62
    64
 10
148.823605
 20
12.892755
 11
148.823605
 21
12.572005
  0
LINE
  8
ボルト／ビス
  6
DOT
 62
    64
 10
148.83528
 20
12.53993
 11
148.95694
 21
12.53993
  0
LINE
  8
ボルト／ビス
  6
DOT
 62
    64
 10
148.83528
 20
12.636155
 11
148.95694
 21
12.636155
  0
LINE
  8
ボルト／ビス
  6
DOT
 62
    64
 10
148.83528
 20
12.92483
 11
148.95694
 21
12.92483
  0
LINE
  8
ボルト／ビス
  6
DOT
 62
    64
 10
148.83528
 20
12.828605
 11
148.95694
 21
12.828605
  0
LINE
  8
ボルト／ビス
  6
DOT
 10
148.95694
 20
12.92483
 11
148.95694
 21
12.53993
  0
LINE
  8
ボルト／ビス
  6
DOT
 10
148.95694
 20
12.93238
 11
149.023605
 21
12.93238
  0
LINE
  8
ボルト／ビス
  6
DOT
 10
148.95694
 20
12.93238
 11
148.95694
 21
12.53238
  0
LINE
  8
ボルト／ビス
  6
DOT
 10
148.95694
 20
12.53238
 11
149.023605
 21
12.53238
  0
ENDBLK
  0
BLOCK
  2
*GRP_0042
 70
    65
 10
0.0
 20
0.0
  0
LINE
  8
ボルト／ビス
  6
CONTINUOUS
 10
71.923675
 20
-79.624597
 11
71.923675
 21
-79.157932
  0
LINE
  8
ボルト／ビス
  6
CONTINUOUS
 10
71.55701
 20
-79.624597
 11
71.55701
 21
-79.557932
  0
LINE
  8
ボルト／ビス
  6
CONTINUOUS
 10
71.55701
 20
-79.557932
 11
72.290343
 21
-79.557932
  0
LINE
  8
ボルト／ビス
  6
CONTINUOUS
 10
72.290343
 20
-79.557932
 11
72.290343
 21
-79.624597
  0
LINE
  8
ボルト／ビス
  6
CONTINUOUS
 10
71.55701
 20
-79.624597
 11
72.290343
 21
-79.624597
  0
LINE
  8
ボルト／ビス
  6
CONTINUOUS
 10
71.623675
 20
-79.524597
 11
71.623675
 21
-79.557932
  0
LINE
  8
ボルト／ビス
  6
CONTINUOUS
 10
71.623675
 20
-79.524597
 11
72.223675
 21
-79.524597
  0
LINE
  8
ボルト／ビス
  6
CONTINUOUS
 10
72.223675
 20
-79.524597
 11
72.223675
 21
-79.557932
  0
LINE
  8
ボルト／ビス
  6
CONTINUOUS
 62
    64
 10
71.7633
 20
-79.324597
 11
71.731225
 21
-79.336272
  0
ARC
  8
ボルト／ビス
  6
CONTINUOUS
 62
    64
 10
71.779341
 20
-79.429578
 40
0.104978
 50
62.721967
 51
90.0
  0
ARC
  8
ボルト／ビス
  6
CONTINUOUS
 62
    64
 10
71.923679
 20
-79.727002
 40
0.402402
 50
76.165002
 51
103.834985
  0
LINE
  8
ボルト／ビス
  6
CONTINUOUS
 62
    64
 10
72.08405
 20
-79.324597
 11
72.116125
 21
-79.336272
  0
ARC
  8
ボルト／ビス
  6
CONTINUOUS
 62
    64
 10
72.068016
 20
-79.429578
 40
0.104978
 50
90.0
 51
117.278033
  0
LINE
  8
ボルト／ビス
  6
CONTINUOUS
 62
    64
 10
71.7633
 20
-79.324597
 11
72.08405
 21
-79.324597
  0
LINE
  8
ボルト／ビス
  6
CONTINUOUS
 62
    64
 10
72.116125
 20
-79.336272
 11
72.116125
 21
-79.457932
  0
LINE
  8
ボルト／ビス
  6
CONTINUOUS
 62
    64
 10
72.0199
 20
-79.336272
 11
72.0199
 21
-79.457932
  0
LINE
  8
ボルト／ビス
  6
CONTINUOUS
 62
    64
 10
71.731225
 20
-79.336272
 11
71.731225
 21
-79.457932
  0
LINE
  8
ボルト／ビス
  6
CONTINUOUS
 62
    64
 10
71.82745
 20
-79.336272
 11
71.82745
 21
-79.457932
  0
LINE
  8
ボルト／ビス
  6
CONTINUOUS
 10
71.731225
 20
-79.457932
 11
72.116125
 21
-79.457932
  0
LINE
  8
ボルト／ビス
  6
CONTINUOUS
 10
71.723675
 20
-79.457932
 11
71.723675
 21
-79.524597
  0
LINE
  8
ボルト／ビス
  6
CONTINUOUS
 10
71.723675
 20
-79.457932
 11
72.123675
 21
-79.457932
  0
LINE
  8
ボルト／ビス
  6
CONTINUOUS
 10
72.123675
 20
-79.457932
 11
72.123675
 21
-79.524597
  0
ENDBLK
  0
BLOCK
  2
*GRP_0043
 70
    65
 10
0.0
 20
0.0
  0
LINE
  8
ボルト／ビス
  6
DOT
 10
71.923675
 20
-67.95793
 11
71.923675
 21
-67.491265
  0
LINE
  8
ボルト／ビス
  6
DOT
 10
71.55701
 20
-67.95793
 11
71.55701
 21
-67.891265
  0
LINE
  8
ボルト／ビス
  6
DOT
 10
71.55701
 20
-67.891265
 11
72.290343
 21
-67.891265
  0
LINE
  8
ボルト／ビス
  6
DOT
 10
72.290343
 20
-67.891265
 11
72.290343
 21
-67.95793
  0
LINE
  8
ボルト／ビス
  6
DOT
 10
71.55701
 20
-67.95793
 11
72.290343
 21
-67.95793
  0
LINE
  8
ボルト／ビス
  6
DOT
 10
71.623675
 20
-67.85793
 11
71.623675
 21
-67.891265
  0
LINE
  8
ボルト／ビス
  6
DOT
 10
71.623675
 20
-67.85793
 11
72.223675
 21
-67.85793
  0
LINE
  8
ボルト／ビス
  6
DOT
 10
72.223675
 20
-67.85793
 11
72.223675
 21
-67.891265
  0
LINE
  8
ボルト／ビス
  6
DOT
 62
    64
 10
71.7633
 20
-67.65793
 11
71.731225
 21
-67.669605
  0
ARC
  8
ボルト／ビス
  6
DOT
 62
    64
 10
71.779341
 20
-67.76291
 40
0.104978
 50
62.721967
 51
90.0
  0
ARC
  8
ボルト／ビス
  6
DOT
 62
    64
 10
71.923679
 20
-68.060334
 40
0.402402
 50
76.165002
 51
103.834985
  0
LINE
  8
ボルト／ビス
  6
DOT
 62
    64
 10
72.08405
 20
-67.65793
 11
72.116125
 21
-67.669605
  0
ARC
  8
ボルト／ビス
  6
DOT
 62
    64
 10
72.068016
 20
-67.76291
 40
0.104978
 50
90.0
 51
117.278033
  0
LINE
  8
ボルト／ビス
  6
DOT
 62
    64
 10
71.7633
 20
-67.65793
 11
72.08405
 21
-67.65793
  0
LINE
  8
ボルト／ビス
  6
DOT
 62
    64
 10
72.116125
 20
-67.669605
 11
72.116125
 21
-67.791265
  0
LINE
  8
ボルト／ビス
  6
DOT
 62
    64
 10
72.0199
 20
-67.669605
 11
72.0199
 21
-67.791265
  0
LINE
  8
ボルト／ビス
  6
DOT
 62
    64
 10
71.731225
 20
-67.669605
 11
71.731225
 21
-67.791265
  0
LINE
  8
ボルト／ビス
  6
DOT
 62
    64
 10
71.82745
 20
-67.669605
 11
71.82745
 21
-67.791265
  0
LINE
  8
ボルト／ビス
  6
DOT
 10
71.731225
 20
-67.791265
 11
72.116125
 21
-67.791265
  0
LINE
  8
ボルト／ビス
  6
DOT
 10
71.723675
 20
-67.791265
 11
71.723675
 21
-67.85793
  0
LINE
  8
ボルト／ビス
  6
DOT
 10
71.723675
 20
-67.791265
 11
72.123675
 21
-67.791265
  0
LINE
  8
ボルト／ビス
  6
DOT
 10
72.123675
 20
-67.791265
 11
72.123675
 21
-67.85793
  0
ENDBLK
  0
BLOCK
  2
*GRP_0044
 70
    65
 10
0.0
 20
0.0
  0
LINE
  8
ボルト／ビス
  6
CONTINUOUS
 10
-129.40966
 20
-79.624597
 11
-129.40966
 21
-79.157932
  0
LINE
  8
ボルト／ビス
  6
CONTINUOUS
 10
-129.042995
 20
-79.624597
 11
-129.042995
 21
-79.557932
  0
LINE
  8
ボルト／ビス
  6
CONTINUOUS
 10
-129.042995
 20
-79.557932
 11
-129.776328
 21
-79.557932
  0
LINE
  8
ボルト／ビス
  6
CONTINUOUS
 10
-129.776328
 20
-79.557932
 11
-129.776328
 21
-79.624597
  0
LINE
  8
ボルト／ビス
  6
CONTINUOUS
 10
-129.042995
 20
-79.624597
 11
-129.776328
 21
-79.624597
  0
LINE
  8
ボルト／ビス
  6
CONTINUOUS
 10
-129.10966
 20
-79.524597
 11
-129.10966
 21
-79.557932
  0
LINE
  8
ボルト／ビス
  6
CONTINUOUS
 10
-129.10966
 20
-79.524597
 11
-129.70966
 21
-79.524597
  0
LINE
  8
ボルト／ビス
  6
CONTINUOUS
 10
-129.70966
 20
-79.524597
 11
-129.70966
 21
-79.557932
  0
LINE
  8
ボルト／ビス
  6
CONTINUOUS
 62
    64
 10
-129.249285
 20
-79.324597
 11
-129.21721
 21
-79.336272
  0
ARC
  8
ボルト／ビス
  6
CONTINUOUS
 62
    64
 10
-129.265326
 20
-79.429578
 40
0.104978
 50
90.0
 51
117.278033
  0
ARC
  8
ボルト／ビス
  6
CONTINUOUS
 62
    64
 10
-129.409664
 20
-79.727002
 40
0.402402
 50
76.165015
 51
103.834998
  0
LINE
  8
ボルト／ビス
  6
CONTINUOUS
 62
    64
 10
-129.570035
 20
-79.324597
 11
-129.60211
 21
-79.336272
  0
ARC
  8
ボルト／ビス
  6
CONTINUOUS
 62
    64
 10
-129.554001
 20
-79.429578
 40
0.104978
 50
62.721967
 51
90.0
  0
LINE
  8
ボルト／ビス
  6
CONTINUOUS
 62
    64
 10
-129.249285
 20
-79.324597
 11
-129.570035
 21
-79.324597
  0
LINE
  8
ボルト／ビス
  6
CONTINUOUS
 62
    64
 10
-129.60211
 20
-79.336272
 11
-129.60211
 21
-79.457932
  0
LINE
  8
ボルト／ビス
  6
CONTINUOUS
 62
    64
 10
-129.505885
 20
-79.336272
 11
-129.505885
 21
-79.457932
  0
LINE
  8
ボルト／ビス
  6
CONTINUOUS
 62
    64
 10
-129.21721
 20
-79.336272
 11
-129.21721
 21
-79.457932
  0
LINE
  8
ボルト／ビス
  6
CONTINUOUS
 62
    64
 10
-129.313435
 20
-79.336272
 11
-129.313435
 21
-79.457932
  0
LINE
  8
ボルト／ビス
  6
CONTINUOUS
 10
-129.21721
 20
-79.457932
 11
-129.60211
 21
-79.457932
  0
LINE
  8
ボルト／ビス
  6
CONTINUOUS
 10
-129.20966
 20
-79.457932
 11
-129.20966
 21
-79.524597
  0
LINE
  8
ボルト／ビス
  6
CONTINUOUS
 10
-129.20966
 20
-79.457932
 11
-129.60966
 21
-79.457932
  0
LINE
  8
ボルト／ビス
  6
CONTINUOUS
 10
-129.60966
 20
-79.457932
 11
-129.60966
 21
-79.524597
  0
ENDBLK
  0
BLOCK
  2
*GRP_0045
 70
    65
 10
0.0
 20
0.0
  0
LINE
  8
ボルト／ビス
  6
DOT
 10
-129.40966
 20
-67.95793
 11
-129.40966
 21
-67.491265
  0
LINE
  8
ボルト／ビス
  6
DOT
 10
-129.042995
 20
-67.95793
 11
-129.042995
 21
-67.891265
  0
LINE
  8
ボルト／ビス
  6
DOT
 10
-129.042995
 20
-67.891265
 11
-129.776328
 21
-67.891265
  0
LINE
  8
ボルト／ビス
  6
DOT
 10
-129.776328
 20
-67.891265
 11
-129.776328
 21
-67.95793
  0
LINE
  8
ボルト／ビス
  6
DOT
 10
-129.042995
 20
-67.95793
 11
-129.776328
 21
-67.95793
  0
LINE
  8
ボルト／ビス
  6
DOT
 10
-129.10966
 20
-67.85793
 11
-129.10966
 21
-67.891265
  0
LINE
  8
ボルト／ビス
  6
DOT
 10
-129.10966
 20
-67.85793
 11
-129.70966
 21
-67.85793
  0
LINE
  8
ボルト／ビス
  6
DOT
 10
-129.70966
 20
-67.85793
 11
-129.70966
 21
-67.891265
  0
LINE
  8
ボルト／ビス
  6
DOT
 62
    64
 10
-129.249285
 20
-67.65793
 11
-129.21721
 21
-67.669605
  0
ARC
  8
ボルト／ビス
  6
DOT
 62
    64
 10
-129.265326
 20
-67.76291
 40
0.104978
 50
90.0
 51
117.278033
  0
ARC
  8
ボルト／ビス
  6
DOT
 62
    64
 10
-129.409664
 20
-68.060334
 40
0.402402
 50
76.165015
 51
103.834998
  0
LINE
  8
ボルト／ビス
  6
DOT
 62
    64
 10
-129.570035
 20
-67.65793
 11
-129.60211
 21
-67.669605
  0
ARC
  8
ボルト／ビス
  6
DOT
 62
    64
 10
-129.554001
 20
-67.76291
 40
0.104978
 50
62.721967
 51
90.0
  0
LINE
  8
ボルト／ビス
  6
DOT
 62
    64
 10
-129.249285
 20
-67.65793
 11
-129.570035
 21
-67.65793
  0
LINE
  8
ボルト／ビス
  6
DOT
 62
    64
 10
-129.60211
 20
-67.669605
 11
-129.60211
 21
-67.791265
  0
LINE
  8
ボルト／ビス
  6
DOT
 62
    64
 10
-129.505885
 20
-67.669605
 11
-129.505885
 21
-67.791265
  0
LINE
  8
ボルト／ビス
  6
DOT
 62
    64
 10
-129.21721
 20
-67.669605
 11
-129.21721
 21
-67.791265
  0
LINE
  8
ボルト／ビス
  6
DOT
 62
    64
 10
-129.313435
 20
-67.669605
 11
-129.313435
 21
-67.791265
  0
LINE
  8
ボルト／ビス
  6
DOT
 10
-129.21721
 20
-67.791265
 11
-129.60211
 21
-67.791265
  0
LINE
  8
ボルト／ビス
  6
DOT
 10
-129.20966
 20
-67.791265
 11
-129.20966
 21
-67.85793
  0
LINE
  8
ボルト／ビス
  6
DOT
 10
-129.20966
 20
-67.791265
 11
-129.60966
 21
-67.791265
  0
LINE
  8
ボルト／ビス
  6
DOT
 10
-129.60966
 20
-67.791265
 11
-129.60966
 21
-67.85793
  0
ENDBLK
  0
BLOCK
  2
*DIM_0046
 70
    65
 10
0.0
 20
0.0
  0
LINE
  8
寸法
  6
BYBLOCK
 62
     0
 10
59.257007
 20
-59.624597
 11
87.226657
 21
-59.624597
  0
LINE
  8
寸法
  6
BYBLOCK
 62
     0
 10
87.226657
 20
-71.291265
 11
87.226657
 21
-59.624597
  0
POINT
  8
寸法
 62
     0
 10
87.226657
 20
-71.291265
  0
POINT
  8
寸法
 62
     0
 10
87.226657
 20
-59.624597
  0
TEXT
  7
TextStyle03
  8
寸法
  6
CONTINUOUS
 62
     0
 10
86.9
 20
-56.1875
  1
上昇高さ350
 40
3.0
 50
90.0
 72
     5
 11
86.9
 21
-37.8125
  0
ENDBLK
  0
BLOCK
  2
*DIM_0047
 70
    65
 10
0.0
 20
0.0
  0
LINE
  8
寸法
  6
BYBLOCK
 62
     0
 10
152.45694
 20
58.954983
 11
140.790272
 21
58.954983
  0
POINT
  8
寸法
 62
     0
 10
152.45694
 20
58.954983
  0
POINT
  8
寸法
 62
     0
 10
140.790272
 20
58.954983
  0
TEXT
  7
TextStyle03
  8
寸法
  6
CONTINUOUS
 62
     0
 10
118.3875
 20
56.125
  1
上昇高さ350
 40
3.0
 72
     5
 11
136.7625
 21
56.125
  0
ENDBLK
  0
ENDSEC
  0
SECTION
  2
ENTITIES
  0
POLYLINE
  8
通り芯
  6
CONTINUOUS
 66
     1
 70
     1
  0
VERTEX
  8
通り芯
 10
-210.0
 20
-148.5
  0
VERTEX
  8
通り芯
 10
210.0
 20
-148.5
  0
VERTEX
  8
通り芯
 10
210.0
 20
148.5
  0
VERTEX
  8
通り芯
 10
-210.0
 20
148.5
  0
SEQEND
  0
INSERT
  2
*GRP_0001
  8
型材断面
  6
CONTINUOUS
 10
0.0
 20
0.0
  0
LINE
  8
型材断面
  6
DASHDOT
 10
-128.742993
 20
13.399048
 11
168.93377
 21
13.399048
  0
POLYLINE
  8
型材断面
  6
CONTINUOUS
 66
     1
 70
     1
  0
VERTEX
  8
型材断面
 10
-19.342983
 20
3.623125
  0
VERTEX
  8
型材断面
 10
-38.114912
 20
3.623125
  0
VERTEX
  8
型材断面
 10
-38.114912
 20
-1.113717
  0
VERTEX
  8
型材断面
 10
-19.342983
 20
-1.113717
  0
SEQEND
  0
LINE
  8
型材断面
  6
DASHDOT
 10
-128.742993
 20
28.399048
 11
168.93377
 21
28.399048
  0
LINE
  8
型材断面
  6
DASHDOT
 10
-128.742993
 20
43.399048
 11
168.93377
 21
43.399048
  0
LINE
  8
型材断面
  6
DASHDOT
 10
-128.742993
 20
-87.251428
 11
-128.742993
 21
43.399048
  0
LINE
  8
型材断面
  6
DASHDOT
 10
-28.742993
 20
-87.251428
 11
-28.742993
 21
43.399048
  0
LINE
  8
型材断面
  6
DOT
 10
-29.992993
 20
13.399048
 11
-29.992993
 21
43.399048
  0
LINE
  8
型材断面
  6
DOT
 10
-27.492993
 20
13.399048
 11
-27.492993
 21
43.399048
  0
LINE
  8
型材断面
  6
DASHDOT
 10
71.257007
 20
-87.251428
 11
71.257007
 21
43.399048
  0
POLYLINE
  8
型材断面
  6
CONTINUOUS
 66
     1
 70
     1
  0
VERTEX
  8
型材断面
 10
-19.342983
 20
53.17497
  0
VERTEX
  8
型材断面
 10
-38.114912
 20
53.17497
  0
VERTEX
  8
型材断面
 10
-38.114912
 20
57.911813
  0
VERTEX
  8
型材断面
 10
-19.342983
 20
57.911813
  0
SEQEND
  0
LINE
  8
型材断面
  6
CONTINUOUS
 10
-169.5952
 20
81.37652
 11
-168.999145
 21
78.786012
  0
LINE
  8
型材断面
  6
CONTINUOUS
 10
-169.5952
 20
81.37652
 11
-170.191258
 21
78.786012
  0
LINE
  8
型材断面
  6
CONTINUOUS
 10
-170.191258
 20
78.786012
 11
-168.999145
 21
78.786012
  0
LINE
  8
型材断面
  6
CONTINUOUS
 10
-175.617788
 20
75.50712
 11
-129.37601
 21
75.50712
  0
LINE
  8
型材断面
  6
CONTINUOUS
 10
-169.5952
 20
87.906395
 11
-171.09083
 21
85.315887
  0
LINE
  8
型材断面
  6
CONTINUOUS
 10
-169.5952
 20
87.906395
 11
-168.09957
 21
85.315887
  0
LINE
  8
型材断面
  6
CONTINUOUS
 10
-168.09957
 20
85.315887
 11
-171.09083
 21
85.315887
  0
LINE
  8
型材断面
  6
CONTINUOUS
 10
-175.617788
 20
84.377292
 11
-129.37601
 21
84.377292
  0
LINE
  8
型材断面
  6
CONTINUOUS
 10
-175.617788
 20
69.719088
 11
-129.37601
 21
69.719088
  0
INSERT
  2
*GRP_0009
  8
型材断面
  6
CONTINUOUS
 10
0.0
 20
0.0
  0
INSERT
  2
*GRP_0010
  8
型材断面
  6
CONTINUOUS
 10
0.0
 20
0.0
  0
INSERT
  2
*GRP_0011
  8
型材断面
  6
CONTINUOUS
 10
0.0
 20
0.0
  0
INSERT
  2
*GRP_0012
  8
型材断面
  6
CONTINUOUS
 10
0.0
 20
0.0
  0
INSERT
  2
*GRP_0022
  8
型材断面
  6
CONTINUOUS
 10
0.0
 20
0.0
  0
INSERT
  2
*GRP_0023
  8
型材断面
  6
CONTINUOUS
 10
0.0
 20
0.0
  0
LINE
  8
型材断面
  6
CONTINUOUS
 10
-175.617788
 20
63.931055
 11
-129.37601
 21
63.931055
  0
LINE
  8
型材断面
  6
CONTINUOUS
 10
161.84039
 20
28.399048
 11
161.84039
 21
12.0389
  0
LINE
  8
型材断面
  6
CONTINUOUS
 10
162.99039
 20
28.399048
 11
162.99039
 21
10.635715
  0
LINE
  8
型材断面
  6
CONTINUOUS
 10
164.157057
 20
28.399048
 11
164.157057
 21
10.635715
  0
LINE
  8
型材断面
  6
CONTINUOUS
 10
161.84039
 20
28.399048
 11
161.84039
 21
44.759195
  0
LINE
  8
型材断面
  6
CONTINUOUS
 10
162.99039
 20
28.399048
 11
162.99039
 21
46.16238
  0
LINE
  8
型材断面
  6
CONTINUOUS
 10
164.157057
 20
28.399048
 11
164.157057
 21
46.16238
  0
LINE
  8
型材断面
  6
CONTINUOUS
 10
-28.742993
 20
-80.674715
 11
-130.103135
 21
-80.674715
  0
LINE
  8
型材断面
  6
CONTINUOUS
 10
-28.742993
 20
-81.824715
 11
-131.50632
 21
-81.824715
  0
LINE
  8
型材断面
  6
CONTINUOUS
 10
-28.742993
 20
-82.991382
 11
-131.50632
 21
-82.991382
  0
LINE
  8
型材断面
  6
CONTINUOUS
 10
-28.742993
 20
-80.674715
 11
72.61715
 21
-80.674715
  0
LINE
  8
型材断面
  6
CONTINUOUS
 10
-28.742993
 20
-81.824715
 11
74.020335
 21
-81.824715
  0
LINE
  8
型材断面
  6
CONTINUOUS
 10
-28.742993
 20
-82.991382
 11
74.020335
 21
-82.991382
  0
LINE
  8
型材断面
  6
CONTINUOUS
 10
73.323675
 20
45.465715
 11
74.020335
 21
46.162372
  0
LINE
  8
型材断面
  6
CONTINUOUS
 10
73.323675
 20
11.33238
 11
74.020342
 21
10.635715
  0
LINE
  8
型材断面
  6
CONTINUOUS
 10
74.020335
 20
46.16238
 11
74.020335
 21
10.635715
  0
LINE
  8
型材断面
  6
CONTINUOUS
 10
74.020335
 20
10.635715
 11
-131.50632
 21
10.635715
  0
LINE
  8
型材断面
  6
CONTINUOUS
 10
-130.80966
 20
11.33238
 11
-131.506328
 21
10.635715
  0
LINE
  8
型材断面
  6
CONTINUOUS
 10
-130.80966
 20
45.465715
 11
-131.50632
 21
46.162372
  0
LINE
  8
型材断面
  6
CONTINUOUS
 10
-131.50632
 20
10.635715
 11
-131.50632
 21
46.16238
  0
LINE
  8
型材断面
  6
CONTINUOUS
 10
74.020335
 20
46.16238
 11
-131.50632
 21
46.16238
  0
LINE
  8
型材断面
  6
CONTINUOUS
 10
-131.50632
 20
28.399048
 11
-134.096828
 21
29.894678
  0
LINE
  8
型材断面
  6
CONTINUOUS
 10
-131.50632
 20
28.399048
 11
-134.096828
 21
26.903418
  0
LINE
  8
型材断面
  6
CONTINUOUS
 10
-134.096828
 20
26.903418
 11
-134.096828
 21
29.894678
  0
LINE
  8
型材断面
  6
CONTINUOUS
 10
-131.50632
 20
39.69905
 11
-134.09683
 21
39.102997
  0
LINE
  8
型材断面
  6
CONTINUOUS
 10
-131.50632
 20
39.69905
 11
-134.096828
 21
40.29511
  0
LINE
  8
型材断面
  6
CONTINUOUS
 10
-134.096828
 20
40.29511
 11
-134.09683
 21
39.102997
  0
LINE
  8
型材断面
  6
CONTINUOUS
 10
-131.50632
 20
17.099045
 11
-134.09683
 21
17.695097
  0
LINE
  8
型材断面
  6
CONTINUOUS
 10
-131.50632
 20
17.099045
 11
-134.096828
 21
16.502985
  0
LINE
  8
型材断面
  6
CONTINUOUS
 10
-134.096828
 20
16.502985
 11
-134.09683
 21
17.695097
  0
LINE
  8
型材断面
  6
CONTINUOUS
 10
-112.076325
 20
46.16238
 11
-113.571955
 21
48.752888
  0
LINE
  8
型材断面
  6
CONTINUOUS
 10
-112.076325
 20
46.16238
 11
-110.580695
 21
48.752888
  0
LINE
  8
型材断面
  6
CONTINUOUS
 10
-110.580695
 20
48.752888
 11
-113.571955
 21
48.752888
  0
LINE
  8
型材断面
  6
CONTINUOUS
 10
54.59034
 20
46.16238
 11
56.08597
 21
48.752888
  0
LINE
  8
型材断面
  6
CONTINUOUS
 10
54.59034
 20
46.16238
 11
53.09471
 21
48.752888
  0
LINE
  8
型材断面
  6
CONTINUOUS
 10
53.09471
 20
48.752888
 11
56.08597
 21
48.752888
  0
LINE
  8
型材断面
  6
CONTINUOUS
 10
-28.742993
 20
46.162378
 11
-27.247362
 21
48.752885
  0
LINE
  8
型材断面
  6
CONTINUOUS
 10
-28.742993
 20
46.162378
 11
-30.238623
 21
48.752885
  0
LINE
  8
型材断面
  6
CONTINUOUS
 10
-30.238623
 20
48.752885
 11
-27.247362
 21
48.752885
  0
LINE
  8
型材断面
  6
CONTINUOUS
 10
74.020335
 20
28.399048
 11
76.610843
 21
29.894678
  0
LINE
  8
型材断面
  6
CONTINUOUS
 10
74.020335
 20
28.399048
 11
76.610843
 21
26.903418
  0
LINE
  8
型材断面
  6
CONTINUOUS
 10
76.610843
 20
26.903418
 11
76.610843
 21
29.894678
  0
LINE
  8
型材断面
  6
CONTINUOUS
 10
74.020335
 20
39.69905
 11
76.610845
 21
39.102997
  0
LINE
  8
型材断面
  6
CONTINUOUS
 10
74.020335
 20
39.69905
 11
76.610843
 21
40.29511
  0
LINE
  8
型材断面
  6
CONTINUOUS
 10
76.610843
 20
40.29511
 11
76.610845
 21
39.102997
  0
LINE
  8
型材断面
  6
CONTINUOUS
 10
74.020335
 20
17.099045
 11
76.610845
 21
17.695097
  0
LINE
  8
型材断面
  6
CONTINUOUS
 10
74.020335
 20
17.099045
 11
76.610843
 21
16.502985
  0
LINE
  8
型材断面
  6
CONTINUOUS
 10
76.610843
 20
16.502985
 11
76.610845
 21
17.695097
  0
LINE
  8
型材断面
  6
CONTINUOUS
 10
-112.076325
 20
10.635715
 11
-113.571955
 21
8.045207
  0
LINE
  8
型材断面
  6
CONTINUOUS
 10
-112.076325
 20
10.635715
 11
-110.580695
 21
8.045207
  0
LINE
  8
型材断面
  6
CONTINUOUS
 10
-110.580695
 20
8.045207
 11
-113.571955
 21
8.045207
  0
LINE
  8
型材断面
  6
CONTINUOUS
 10
54.59034
 20
10.635715
 11
56.08597
 21
8.045207
  0
LINE
  8
型材断面
  6
CONTINUOUS
 10
54.59034
 20
10.635715
 11
53.09471
 21
8.045207
  0
LINE
  8
型材断面
  6
CONTINUOUS
 10
53.09471
 20
8.045207
 11
56.08597
 21
8.045207
  0
LINE
  8
型材断面
  6
CONTINUOUS
 10
-28.742993
 20
10.635713
 11
-27.247362
 21
8.045205
  0
LINE
  8
型材断面
  6
CONTINUOUS
 10
-28.742993
 20
10.635713
 11
-30.238623
 21
8.045205
  0
LINE
  8
型材断面
  6
CONTINUOUS
 10
-30.238623
 20
8.045205
 11
-27.247362
 21
8.045205
  0
LINE
  8
型材断面
  6
DASHDOT
 10
-95.766327
 20
13.399048
 11
-95.766327
 21
43.399048
  0
LINE
  8
型材断面
  6
DOT
 10
-97.016327
 20
13.399048
 11
-97.016327
 21
43.399048
  0
LINE
  8
型材断面
  6
DOT
 10
-94.516327
 20
13.399048
 11
-94.516327
 21
43.399048
  0
LINE
  8
型材断面
  6
DOT
 10
-63.506328
 20
13.399048
 11
-63.506328
 21
43.399048
  0
LINE
  8
型材断面
  6
DOT
 10
-61.006328
 20
13.399048
 11
-61.006328
 21
43.399048
  0
LINE
  8
型材断面
  6
DASHDOT
 10
-62.256328
 20
13.399048
 11
-62.256328
 21
43.399048
  0
LINE
  8
型材断面
  6
DASHDOT
 10
38.280343
 20
13.399048
 11
38.280343
 21
43.399048
  0
LINE
  8
型材断面
  6
DOT
 10
39.530343
 20
13.399048
 11
39.530343
 21
43.399048
  0
LINE
  8
型材断面
  6
DOT
 10
37.030343
 20
13.399048
 11
37.030343
 21
43.399048
  0
LINE
  8
型材断面
  6
DOT
 10
6.020342
 20
13.399048
 11
6.020342
 21
43.399048
  0
LINE
  8
型材断面
  6
DOT
 10
3.520342
 20
13.399048
 11
3.520342
 21
43.399048
  0
LINE
  8
型材断面
  6
DASHDOT
 10
4.770342
 20
13.399048
 11
4.770342
 21
43.399048
  0
LINE
  8
型材断面
  6
CONTINUOUS
 10
73.520335
 20
-87.1246
 11
73.520335
 21
-87.461265
  0
LINE
  8
型材断面
  6
CONTINUOUS
 10
74.020335
 20
-87.1246
 11
73.520335
 21
-87.1246
  0
LINE
  8
型材断面
  6
CONTINUOUS
 10
74.020335
 20
-83.224718
 11
73.82371
 21
-83.028095
  0
LINE
  8
型材断面
  6
CONTINUOUS
 10
74.020335
 20
-83.224718
 11
74.020335
 21
-87.1246
  0
LINE
  8
型材断面
  6
CONTINUOUS
 10
168.290275
 20
45.66238
 11
168.62694
 21
45.66238
  0
LINE
  8
型材断面
  6
CONTINUOUS
 10
168.290275
 20
46.16238
 11
168.290275
 21
45.66238
  0
LINE
  8
型材断面
  6
CONTINUOUS
 10
164.390393
 20
46.16238
 11
164.19377
 21
45.965755
  0
LINE
  8
型材断面
  6
CONTINUOUS
 10
164.390393
 20
46.16238
 11
168.290275
 21
46.16238
  0
LINE
  8
型材断面
  6
CONTINUOUS
 62
    47
 10
164.19377
 20
45.965755
 11
164.19377
 21
28.399048
  0
LINE
  8
型材断面
  6
CONTINUOUS
 10
164.390393
 20
46.16238
 11
164.390393
 21
28.399048
  0
LINE
  8
型材断面
  6
CONTINUOUS
 10
168.290275
 20
46.16238
 11
168.290275
 21
28.399048
  0
LINE
  8
型材断面
  6
CONTINUOUS
 10
168.62694
 20
45.66238
 11
168.62694
 21
28.399048
  0
LINE
  8
型材断面
  6
CONTINUOUS
 10
168.290275
 20
11.135715
 11
168.62694
 21
11.135715
  0
LINE
  8
型材断面
  6
CONTINUOUS
 10
164.390393
 20
10.635715
 11
164.19377
 21
10.83234
  0
LINE
  8
型材断面
  6
CONTINUOUS
 10
164.390393
 20
10.635715
 11
168.290275
 21
10.635715
  0
LINE
  8
型材断面
  6
CONTINUOUS
 62
    47
 10
164.19377
 20
10.83234
 11
164.19377
 21
28.399048
  0
LINE
  8
型材断面
  6
CONTINUOUS
 10
164.390393
 20
10.635715
 11
164.390393
 21
28.399048
  0
LINE
  8
型材断面
  6
CONTINUOUS
 10
168.290275
 20
10.635715
 11
168.290275
 21
28.399048
  0
LINE
  8
型材断面
  6
CONTINUOUS
 10
168.62694
 20
11.135715
 11
168.62694
 21
28.399048
  0
LINE
  8
型材断面
  6
CONTINUOUS
 62
    47
 10
73.82371
 20
-83.028095
 11
-28.742993
 21
-83.028095
  0
LINE
  8
型材断面
  6
CONTINUOUS
 10
74.020335
 20
-83.224718
 11
-28.742993
 21
-83.224718
  0
LINE
  8
型材断面
  6
CONTINUOUS
 10
73.520335
 20
-87.461265
 11
-28.742993
 21
-87.461265
  0
LINE
  8
型材断面
  6
CONTINUOUS
 10
74.020335
 20
-87.1246
 11
-28.742993
 21
-87.1246
  0
LINE
  8
型材断面
  6
CONTINUOUS
 10
-131.00632
 20
-87.1246
 11
-131.00632
 21
-87.461265
  0
LINE
  8
型材断面
  6
CONTINUOUS
 10
-131.50632
 20
-87.1246
 11
-131.00632
 21
-87.1246
  0
LINE
  8
型材断面
  6
CONTINUOUS
 10
-131.50632
 20
-83.224718
 11
-131.309695
 21
-83.028095
  0
LINE
  8
型材断面
  6
CONTINUOUS
 10
-131.50632
 20
-83.224718
 11
-131.50632
 21
-87.1246
  0
LINE
  8
型材断面
  6
CONTINUOUS
 62
    47
 10
-131.309695
 20
-83.028095
 11
-28.742993
 21
-83.028095
  0
LINE
  8
型材断面
  6
CONTINUOUS
 10
-131.50632
 20
-83.224718
 11
-28.742993
 21
-83.224718
  0
LINE
  8
型材断面
  6
CONTINUOUS
 10
-131.00632
 20
-87.461265
 11
-28.742993
 21
-87.461265
  0
LINE
  8
型材断面
  6
CONTINUOUS
 10
-131.50632
 20
-87.1246
 11
-28.742993
 21
-87.1246
  0
TEXT
  7
TextStyle03
  8
文字
  6
CONTINUOUS
 10
-37.025
 20
-0.075
  1
可動装置側
 40
3.0
 72
     5
 11
-20.525
 21
-0.075
  0
TEXT
  7
TextStyle03
  8
文字
  6
CONTINUOUS
 10
-37.025
 20
53.875
  1
可動装置側
 40
3.0
 72
     5
 11
-20.525
 21
53.875
  0
TEXT
  7
TextStyle03
  8
文字
  6
CONTINUOUS
 10
-166.775
 20
80.0
  1
はケーシング位置を示す
 40
3.0
 72
     5
 11
-130.025
 21
80.0
  0
TEXT
  7
TextStyle03
  8
文字
  6
CONTINUOUS
 10
-166.775
 20
76.625
  1
４ヶ所中1ヶ所に設定
 40
3.0
 72
     5
 11
-135.0875
 21
76.625
  0
TEXT
  7
TextStyle03
  8
文字
  6
CONTINUOUS
 10
-166.775
 20
85.525
  1
は排水穴位置を示す
 40
3.0
 72
     5
 11
-136.775
 21
85.525
  0
TEXT
  7
TextStyle03
  8
文字
  6
CONTINUOUS
 10
-149.7
 20
6.875
  1
アンカーピッチ
 40
3.0
 50
90.0
 72
     5
 11
-149.7
 21
30.125
  0
TEXT
  7
TextStyle03
  8
文字
  6
CONTINUOUS
 10
-115.3
 20
80.55
  1
アンカーピッチ
 40
3.0
 72
     5
 11
-92.05
 21
80.55
  0
TEXT
  7
TextStyle03
  8
文字
  6
CONTINUOUS
 10
-170.5
 20
70.65
  1
アンカー数量　２２ヶ所
 40
3.0
 72
     5
 11
-133.75
 21
70.65
  0
TEXT
  7
TextStyle03
  8
文字
  6
CONTINUOUS
 10
-170.575
 20
64.875
  1
アームユニット数　４～６ヶ所
 40
3.0
 72
     5
 11
-123.7
 21
64.875
  0
TEXT
  7
TextStyle03
  8
文字
  6
CONTINUOUS
 10
-175.5
 20
59.925
  1
※重量に依るのでご相談ください
 40
3.0
 72
     5
 11
-125.25
 21
59.925
  0
LINE
  8
文字
  6
CONTINUOUS
 10
105.276657
 20
10.635715
 11
161.81576
 21
10.635715
  0
LINE
  8
文字
  6
CONTINUOUS
 10
105.276657
 20
46.16238
 11
161.733605
 21
46.16238
  0
LINE
  8
文字
  6
CONTINUOUS
 10
140.790272
 20
29.399048
 11
140.790272
 21
58.954983
  0
LINE
  8
文字
  6
CONTINUOUS
 10
-131.50632
 20
-22.536362
 11
-131.50632
 21
-80.634648
  0
LINE
  8
文字
  6
CONTINUOUS
 10
74.020335
 20
-22.536362
 11
74.020335
 21
-80.634648
  0
TEXT
  7
TextStyle03
  8
文字
  6
CONTINUOUS
 10
142.425
 20
-78.525
  1
網入り6.8t
 40
3.0
 72
     5
 11
159.1125
 21
-78.525
  0
TEXT
  7
TextStyle03
  8
文字
  6
CONTINUOUS
 10
149.1
 20
-83.2
  1
×６枚
 40
3.0
 72
     5
 11
158.85
 21
-83.2
  0
TEXT
  7
TextStyle03
  8
文字
  6
CONTINUOUS
 10
78.1
 20
125.25
  1
シリーズ：ＴＤ１Ｌ
 40
5.0
 72
     5
 11
128.1
 21
125.25
  0
TEXT
  7
TextStyle03
  8
文字
  6
CONTINUOUS
 10
78.1
 20
119.625
  1
　　　　　（上下可動）900×6000タイプ
 40
5.0
 72
     5
 11
181.5375
 21
119.625
  0
TEXT
  7
TextStyle03
  8
文字
  6
CONTINUOUS
 10
78.1
 20
114.0
  1
図面名　：外観姿図
 40
5.0
 72
     5
 11
128.1
 21
114.0
  0
TEXT
  7
TextStyle03
  8
文字
  6
CONTINUOUS
 10
78.1
 20
108.375
  1
　　　　　　
 40
5.0
 72
     5
 11
111.225
 21
108.375
  0
TEXT
  7
TextStyle03
  8
文字
  6
CONTINUOUS
 10
77.525
 20
103.9
  1
ＮＳコード：ＮＳＤＬ
 40
5.0
 72
     5
 11
133.15
 21
103.9
  0
INSERT
  2
*DIM_0002
  8
寸法
  6
CONTINUOUS
 10
0.0
 20
0.0
  0
INSERT
  2
*DIM_0003
  8
寸法
  6
CONTINUOUS
 10
0.0
 20
0.0
  0
INSERT
  2
*DIM_0004
  8
寸法
  6
CONTINUOUS
 10
0.0
 20
0.0
  0
INSERT
  2
*DIM_0005
  8
寸法
  6
CONTINUOUS
 10
0.0
 20
0.0
  0
INSERT
  2
*DIM_0006
  8
寸法
  6
CONTINUOUS
 10
0.0
 20
0.0
  0
INSERT
  2
*DIM_0007
  8
寸法
  6
CONTINUOUS
 10
0.0
 20
0.0
  0
INSERT
  2
*DIM_0013
  8
寸法
  6
CONTINUOUS
 10
0.0
 20
0.0
  0
INSERT
  2
*DIM_0014
  8
寸法
  6
CONTINUOUS
 10
0.0
 20
0.0
  0
INSERT
  2
*DIM_0015
  8
寸法
  6
CONTINUOUS
 10
0.0
 20
0.0
  0
INSERT
  2
*DIM_0016
  8
寸法
  6
CONTINUOUS
 10
0.0
 20
0.0
  0
INSERT
  2
*DIM_0017
  8
寸法
  6
CONTINUOUS
 10
0.0
 20
0.0
  0
INSERT
  2
*DIM_0018
  8
寸法
  6
CONTINUOUS
 10
0.0
 20
0.0
  0
INSERT
  2
*DIM_0019
  8
寸法
  6
CONTINUOUS
 10
0.0
 20
0.0
  0
INSERT
  2
*DIM_0020
  8
寸法
  6
CONTINUOUS
 10
0.0
 20
0.0
  0
INSERT
  2
*DIM_0021
  8
寸法
  6
CONTINUOUS
 10
0.0
 20
0.0
  0
INSERT
  2
*DIM_0024
  8
寸法
  6
CONTINUOUS
 10
0.0
 20
0.0
  0
INSERT
  2
*DIM_0025
  8
寸法
  6
CONTINUOUS
 10
0.0
 20
0.0
  0
INSERT
  2
*DIM_0026
  8
寸法
  6
CONTINUOUS
 10
0.0
 20
0.0
  0
INSERT
  2
*DIM_0027
  8
寸法
  6
CONTINUOUS
 10
0.0
 20
0.0
  0
INSERT
  2
*DIM_0028
  8
寸法
  6
CONTINUOUS
 10
0.0
 20
0.0
  0
INSERT
  2
*DIM_0029
  8
寸法
  6
CONTINUOUS
 10
0.0
 20
0.0
  0
INSERT
  2
*DIM_0032
  8
寸法
  6
CONTINUOUS
 10
0.0
 20
0.0
  0
INSERT
  2
*DIM_0033
  8
寸法
  6
CONTINUOUS
 10
0.0
 20
0.0
  0
INSERT
  2
*DIM_0034
  8
寸法
  6
CONTINUOUS
 10
0.0
 20
0.0
  0
INSERT
  2
*DIM_0035
  8
寸法
  6
CONTINUOUS
 10
0.0
 20
0.0
  0
INSERT
  2
*DIM_0046
  8
寸法
  6
CONTINUOUS
 10
0.0
 20
0.0
  0
INSERT
  2
*DIM_0047
  8
寸法
  6
CONTINUOUS
 10
0.0
 20
0.0
  0
LINE
  8
別途部材
  6
CONTINUOUS
 10
-130.80966
 20
11.33238
 11
-130.40966
 21
11.73238
  0
LINE
  8
別途部材
  6
CONTINUOUS
 10
-128.742993
 20
13.399048
 11
-120.683738
 21
21.458305
  0
LINE
  8
別途部材
  6
CONTINUOUS
 10
-130.40966
 20
11.73238
 11
-28.742993
 21
11.73238
  0
LINE
  8
別途部材
  6
CONTINUOUS
 10
-130.80966
 20
11.33238
 11
-28.742993
 21
11.33238
  0
LINE
  8
別途部材
  6
CONTINUOUS
 10
73.323675
 20
11.33238
 11
72.923675
 21
11.73238
  0
LINE
  8
別途部材
  6
CONTINUOUS
 10
71.257007
 20
13.399048
 11
63.197753
 21
21.458305
  0
LINE
  8
別途部材
  6
CONTINUOUS
 10
72.923675
 20
11.73238
 11
-28.742993
 21
11.73238
  0
LINE
  8
別途部材
  6
CONTINUOUS
 10
73.323675
 20
11.33238
 11
-28.742993
 21
11.33238
  0
LINE
  8
別途部材
  6
CONTINUOUS
 10
72.923675
 20
11.73238
 11
72.923675
 21
28.399048
  0
LINE
  8
別途部材
  6
CONTINUOUS
 10
73.323675
 20
11.33238
 11
73.323675
 21
28.399048
  0
LINE
  8
別途部材
  6
CONTINUOUS
 10
-130.80966
 20
11.33238
 11
-130.80966
 21
28.399048
  0
LINE
  8
別途部材
  6
CONTINUOUS
 10
-130.40966
 20
11.73238
 11
-130.40966
 21
28.399048
  0
LINE
  8
別途部材
  6
CONTINUOUS
 10
-130.80966
 20
45.465715
 11
-130.40966
 21
45.065715
  0
LINE
  8
別途部材
  6
CONTINUOUS
 10
-128.742993
 20
43.399048
 11
-120.683738
 21
35.33979
  0
LINE
  8
別途部材
  6
CONTINUOUS
 10
-130.40966
 20
45.065715
 11
-28.742993
 21
45.065715
  0
LINE
  8
別途部材
  6
CONTINUOUS
 10
-130.80966
 20
45.465715
 11
-28.742993
 21
45.465715
  0
LINE
  8
別途部材
  6
CONTINUOUS
 10
73.323675
 20
45.465715
 11
72.923675
 21
45.065715
  0
LINE
  8
別途部材
  6
CONTINUOUS
 10
71.257007
 20
43.399048
 11
63.197753
 21
35.33979
  0
LINE
  8
別途部材
  6
CONTINUOUS
 10
72.923675
 20
45.065715
 11
-28.742993
 21
45.065715
  0
LINE
  8
別途部材
  6
CONTINUOUS
 10
73.323675
 20
45.465715
 11
-28.742993
 21
45.465715
  0
LINE
  8
別途部材
  6
CONTINUOUS
 10
72.923675
 20
45.065715
 11
72.923675
 21
28.399048
  0
LINE
  8
別途部材
  6
CONTINUOUS
 10
73.323675
 20
45.465715
 11
73.323675
 21
28.399048
  0
LINE
  8
別途部材
  6
CONTINUOUS
 10
-130.80966
 20
45.465715
 11
-130.80966
 21
28.399048
  0
LINE
  8
別途部材
  6
CONTINUOUS
 10
-130.40966
 20
45.065715
 11
-130.40966
 21
28.399048
  0
INSERT
  2
*GRP_0008
  8
別途部材
  6
CONTINUOUS
 10
0.0
 20
0.0
  0
LINE
  8
別途部材
  6
CONTINUOUS
 62
    96
 10
160.790272
 20
11.73238
 11
161.790272
 21
11.33238
  0
LINE
  8
別途部材
  6
CONTINUOUS
 62
    96
 10
160.790272
 20
11.73238
 11
160.790272
 21
28.399048
  0
LINE
  8
別途部材
  6
CONTINUOUS
 10
161.790272
 20
11.33238
 11
161.790272
 21
28.399048
  0
LINE
  8
別途部材
  6
CONTINUOUS
 62
    96
 10
160.790272
 20
45.065715
 11
161.790272
 21
45.465715
  0
LINE
  8
別途部材
  6
CONTINUOUS
 62
    96
 10
160.790272
 20
45.065715
 11
160.790272
 21
28.399048
  0
LINE
  8
別途部材
  6
CONTINUOUS
 10
161.790272
 20
45.465715
 11
161.790272
 21
28.399048
  0
ARC
  8
別途部材
  6
CONTINUOUS
 10
170.123604
 20
28.399048
 40
17.666667
 50
121.890796
 51
238.109204
  0
INSERT
  2
*GRP_0038
  8
別途部材
  6
DOT
 10
0.0
 20
0.0
  0
INSERT
  2
*GRP_0039
  8
別途部材
  6
DOT
 10
0.0
 20
0.0
  0
INSERT
  2
*GRP_0040
  8
別途部材
  6
DOT
 10
0.0
 20
0.0
  0
INSERT
  2
*GRP_0041
  8
別途部材
  6
DOT
 10
0.0
 20
0.0
  0
INSERT
  2
*GRP_0042
  8
別途部材
  6
DOT
 10
0.0
 20
0.0
  0
INSERT
  2
*GRP_0043
  8
別途部材
  6
DOT
 10
0.0
 20
0.0
  0
INSERT
  2
*GRP_0044
  8
別途部材
  6
DOT
 10
0.0
 20
0.0
  0
INSERT
  2
*GRP_0045
  8
別途部材
  6
DOT
 10
0.0
 20
0.0
  0
POLYLINE
  8
曲げ物
  6
CONTINUOUS
 66
     1
 70
     1
  0
VERTEX
  8
曲げ物
 10
160.785292
 20
-55.02806
  0
VERTEX
  8
曲げ物
 10
128.351958
 20
-55.02806
  0
VERTEX
  8
曲げ物
 10
128.351958
 20
-85.02806
  0
VERTEX
  8
曲げ物
 10
160.785292
 20
-85.02806
  0
SEQEND
  0
INSERT
  2
*GRP_0036
  8
曲げ物
  6
DOT
 10
0.0
 20
0.0
  0
INSERT
  2
*GRP_0037
  8
曲げ物
  6
DOT
 10
0.0
 20
0.0
  0
LINE
  8
鉄骨等
  6
CONTINUOUS
 62
    47
 10
164.157057
 20
10.635715
 11
162.99039
 21
10.635715
  0
LINE
  8
鉄骨等
  6
CONTINUOUS
 62
    47
 10
162.99039
 20
10.635715
 11
161.84039
 21
12.0389
  0
LINE
  8
鉄骨等
  6
CONTINUOUS
 62
    47
 10
161.84039
 20
12.0389
 11
161.79027
 21
12.0389
  0
LINE
  8
鉄骨等
  6
CONTINUOUS
 62
    47
 10
164.157057
 20
46.16238
 11
162.99039
 21
46.16238
  0
LINE
  8
鉄骨等
  6
CONTINUOUS
 62
    47
 10
162.99039
 20
46.16238
 11
161.84039
 21
44.759195
  0
LINE
  8
鉄骨等
  6
CONTINUOUS
 62
    47
 10
161.84039
 20
44.759195
 11
161.79027
 21
44.759195
  0
LINE
  8
鉄骨等
  6
CONTINUOUS
 62
    47
 10
-131.50632
 20
-82.991382
 11
-131.50632
 21
-81.824715
  0
LINE
  8
鉄骨等
  6
CONTINUOUS
 62
    47
 10
-131.50632
 20
-81.824715
 11
-130.103135
 21
-80.674715
  0
LINE
  8
鉄骨等
  6
CONTINUOUS
 62
    47
 10
-130.103135
 20
-80.674715
 11
-130.103135
 21
-80.624595
  0
LINE
  8
鉄骨等
  6
CONTINUOUS
 62
    47
 10
74.020335
 20
-82.991382
 11
74.020335
 21
-81.824715
  0
LINE
  8
鉄骨等
  6
CONTINUOUS
 62
    47
 10
74.020335
 20
-81.824715
 11
72.61715
 21
-80.674715
  0
LINE
  8
鉄骨等
  6
CONTINUOUS
 62
    47
 10
72.61715
 20
-80.674715
 11
72.61715
 21
-80.624595
  0
ENDSEC
  0
EOF
