  0
SECTION
  2
HEADER
  9
$EXTMIN
 10
-210.0
 20
-148.5
  9
$EXTMAX
 10
210.0
 20
148.5
  9
$PDMODE
 70
    32
  9
$PDSIZE
 40
1.5
  9
$LTSCALE
 40
10.0
  0
ENDSEC
  0
SECTION
  2
TABLES
  0
TABLE
  2
LTYPE
 70
    15
  0
LTYPE
  2
CONTINUOUS
 70
    64
  3
実線
 72
    65
 73
     0
 40
0.0
  0
LTYPE
  2
DASHED
 70
    64
  3
破線A
 72
    65
 73
     2
 40
0.6
 49
0.4
 49
-0.2
  0
LTYPE
  2
DASHEDX2
 70
    64
  3
破線B
 72
    65
 73
     2
 40
1.3
 49
0.9
 49
-0.4
  0
LTYPE
  2
DASHDOT
 70
    64
  3
１点鎖線A
 72
    65
 73
     4
 40
0.5375
 49
0.375
 49
-0.05
 49
0.0625
 49
-0.05
  0
LTYPE
  2
DASHDOTX2
 70
    64
  3
１点鎖線B
 72
    65
 73
     4
 40
1.075
 49
0.75
 49
-0.1
 49
0.125
 49
-0.1
  0
LTYPE
  2
DIVIDE2
 70
    64
  3
２点鎖線A
 72
    65
 73
     6
 40
0.5125
 49
0.3
 49
-0.0375
 49
0.05
 49
-0.0375
 49
0.05
 49
-0.0375
  0
LTYPE
  2
DIVIDE
 70
    64
  3
２点鎖線B
 72
    65
 73
     6
 40
1.05
 49
0.55
 49
-0.1
 49
0.1
 49
-0.1
 49
0.1
 49
-0.1
  0
LTYPE
  2
DOT
 70
    64
  3
点線A
 72
    65
 73
     2
 40
0.1125
 49
0.0625
 49
-0.05
  0
LTYPE
  2
DOTX2
 70
    64
  3
点線B
 72
    65
 73
     2
 40
0.275
 49
0.15
 49
-0.125
  0
LTYPE
  2
CONTINUOUS
 70
    64
  3
実線
 72
    65
 73
     0
 40
0.0
  0
LTYPE
  2
CONTINUOUS
 70
    64
  3
実線
 72
    65
 73
     0
 40
0.0
  0
LTYPE
  2
CONTINUOUS
 70
    64
  3
実線
 72
    65
 73
     0
 40
0.0
  0
LTYPE
  2
CONTINUOUS
 70
    64
  3
実線
 72
    65
 73
     0
 40
0.0
  0
LTYPE
  2
CONTINUOUS
 70
    64
  3
実線
 72
    65
 73
     0
 40
0.0
  0
LTYPE
  2
CONTINUOUS
 70
    64
  3
実線
 72
    65
 73
     0
 40
0.0
  0
ENDTAB
  0
TABLE
  2
LAYER
 70
    34
  0
LAYER
  2
通り芯
 70
     0
 62
    15
  6
CONTINUOUS
  0
LAYER
  2
補助線
 70
     0
 62
    16
  6
DOT
  0
LAYER
  2
躯体
 70
     0
 62
    31
  6
CONTINUOUS
  0
LAYER
  2
型材
 70
     0
 62
    32
  6
CONTINUOUS
  0
LAYER
  2
型材断面
 70
     0
 62
    47
  6
CONTINUOUS
  0
LAYER
  2
ガラス
 70
     0
 62
    48
  6
CONTINUOUS
  0
LAYER
  2
ゴム等
 70
     0
 62
    63
  6
CONTINUOUS
  0
LAYER
  2
ボルト／ビス
 70
     0
 62
    64
  6
CONTINUOUS
  0
LAYER
  2
文字
 70
     0
 62
    79
  6
CONTINUOUS
  0
LAYER
  2
寸法
 70
     0
 62
    80
  6
CONTINUOUS
  0
LAYER
  2
ﾊｯﾁﾝｸﾞ
 70
     0
 62
    95
  6
CONTINUOUS
  0
LAYER
  2
別途部材
 70
     0
 62
    96
  6
CONTINUOUS
  0
LAYER
  2
曲げ物
 70
     0
 62
   111
  6
CONTINUOUS
  0
LAYER
  2
鉄骨等
 70
     0
 62
   112
  6
CONTINUOUS
  0
LAYER
  2
St
 70
     0
 62
   127
  6
CONTINUOUS
  0
LAYER
  2
その他部品等
 70
     0
 62
   128
  6
CONTINUOUS
  0
LAYER
  2
ｶﾞｽｹｯﾄ
 70
     0
 62
   143
  6
CONTINUOUS
  0
LAYER
  2
ｽｹｯﾁ
 70
     0
 62
    14
  6
CONTINUOUS
  0
LAYER
  2
0
 70
     0
 62
    17
  6
CONTINUOUS
  0
LAYER
  2
1
 70
     0
 62
    30
  6
CONTINUOUS
  0
LAYER
  2
4
 70
     0
 62
    33
  6
CONTINUOUS
  0
LAYER
  2
ﾚｲﾔ3
 70
     0
 62
    46
  6
CONTINUOUS
  0
LAYER
  2
外形線
 70
     0
 62
    49
  6
CONTINUOUS
  0
LAYER
  2
部品
 70
     0
 62
    14
  6
CONTINUOUS
  0
LAYER
  2
サッシ芯
 70
     0
 62
    17
  6
DASHDOTX2
  0
LAYER
  2
寸法線
 70
     0
 62
    62
  6
CONTINUOUS
  0
LAYER
  2
姿図外形線
 70
     0
 62
    65
  6
CONTINUOUS
  0
LAYER
  2
姿補助線
 70
     0
 62
    30
  6
CONTINUOUS
  0
LAYER
  2
透視線
 70
     0
 62
    78
  6
DOT
  0
LAYER
  2
用紙
 70
     0
 62
    81
  6
CONTINUOUS
  0
LAYER
  2
実線図枠
 70
     0
 62
    94
  6
CONTINUOUS
  0
LAYER
  2
補助図枠
 70
     0
 62
    97
  6
CONTINUOUS
  0
LAYER
  2
建具記号
 70
     0
 62
   110
  6
CONTINUOUS
  0
LAYER
  2
補助文字
 70
     0
 62
   113
  6
CONTINUOUS
  0
ENDTAB
  0
TABLE
  2
STYLE
 70
    10
  0
STYLE
  2
STANDARD
 70
     0
 40
1.0
 41
1.0
 42
1.0
 50
0.0
 71
     0
  3
TXT
  4
BIGFONT
  0
STYLE
  2
TATE
 70
     4
 40
1.0
 41
1.0
 42
1.0
 50
0.0
 71
     0
  3
TXT
  4
BIGFONT
  0
STYLE
  2
TextStyle03
 70
     0
 40
1.0
 41
1.0
 42
1.0
 50
0.0
 71
     0
  3
MONOTXT
  4
BIGFONT
  0
STYLE
  2
TextStyle04
 70
     0
 40
1.0
 41
1.0
 42
1.0
 50
0.0
 71
     0
  3
MONOTXT
  4
BIGFONT
  0
STYLE
  2
TextStyle05
 70
     0
 40
1.0
 41
1.0
 42
1.0
 50
0.0
 71
     0
  3
MONOTXT
  4
BIGFONT
  0
STYLE
  2
TextStyle06
 70
     0
 40
1.0
 41
1.0
 42
1.0
 50
0.0
 71
     0
  3
MONOTXT
  4
BIGFONT
  0
STYLE
  2
TextStyle07
 70
     0
 40
1.0
 41
1.0
 42
1.0
 50
0.0
 71
     0
  3
MONOTXT
  4
BIGFONT
  0
STYLE
  2
TextStyle08
 70
     0
 40
1.0
 41
1.0
 42
1.0
 50
0.0
 71
     0
  3
MONOTXT
  4
BIGFONT
  0
STYLE
  2
TextStyle09
 70
     0
 40
1.0
 41
1.0
 42
1.0
 50
0.0
 71
     0
  3
MONOTXT
  4
BIGFONT
  0
STYLE
  2
TextStyle10
 70
     0
 40
1.0
 41
1.0
 42
1.0
 50
0.0
 71
     0
  3
MONOTXT
  4
BIGFONT
  0
ENDTAB
  0
ENDSEC
  0
SECTION
  2
BLOCKS
  0
BLOCK
  2
*GRP_0001
 70
    65
 10
0.0
 20
0.0
  0
LINE
  8
型材断面
  6
CONTINUOUS
 10
195.0
 20
133.5
 11
195.0
 21
-133.5
  0
LINE
  8
型材断面
  6
CONTINUOUS
 10
195.0
 20
-133.5
 11
-185.0
 21
-133.5
  0
LINE
  8
型材断面
  6
CONTINUOUS
 10
-185.0
 20
-133.5
 11
-185.0
 21
133.5
  0
LINE
  8
型材断面
  6
CONTINUOUS
 10
195.0
 20
133.5
 11
-185.0
 21
133.5
  0
LINE
  8
型材断面
  6
CONTINUOUS
 10
145.0
 20
-133.5
 11
145.0
 21
-118.5
  0
LINE
  8
型材断面
  6
CONTINUOUS
 10
195.0
 20
-118.5
 11
145.0
 21
-118.5
  0
ENDBLK
  0
BLOCK
  2
*DIM_0002
 70
    65
 10
0.0
 20
0.0
  0
LINE
  8
寸法
  6
BYBLOCK
 62
     0
 10
0.668223
 20
-67.95793
 11
37.30454
 21
-67.95793
  0
LINE
  8
寸法
  6
BYBLOCK
 62
     0
 10
37.30454
 20
-79.624597
 11
37.30454
 21
-67.95793
  0
POINT
  8
寸法
 62
     0
 10
37.30454
 20
-79.624597
  0
POINT
  8
寸法
 62
     0
 10
37.30454
 20
-67.95793
  0
TEXT
  7
TextStyle03
  8
寸法
  6
CONTINUOUS
 62
     0
 10
36.975
 20
-76.2375
  1
350
 40
3.0
 50
90.0
 72
     5
 11
36.975
 21
-71.3625
  0
ENDBLK
  0
BLOCK
  2
*DIM_0003
 70
    65
 10
0.0
 20
0.0
  0
LINE
  8
寸法
  6
BYBLOCK
 62
     0
 10
55.35454
 20
13.399048
 11
55.35454
 21
56.73238
  0
POINT
  8
寸法
 62
     0
 10
55.35454
 20
13.399048
  0
POINT
  8
寸法
 62
     0
 10
55.35454
 20
56.73238
  0
TEXT
  7
TextStyle03
  8
寸法
  6
CONTINUOUS
 62
     0
 10
55.025
 20
23.33125
  1
呼称寸法　1300
 40
3.0
 50
90.0
 72
     5
 11
55.025
 21
46.76875
  0
ENDBLK
  0
BLOCK
  2
*DIM_0004
 70
    65
 10
0.0
 20
0.0
  0
LINE
  8
寸法
  6
BYBLOCK
 62
     0
 10
99.201488
 20
36.065715
 11
99.201488
 21
72.668433
  0
LINE
  8
寸法
  6
BYBLOCK
 62
     0
 10
110.868155
 20
72.668433
 11
99.201488
 21
72.668433
  0
POINT
  8
寸法
 62
     0
 10
99.201488
 20
72.668433
  0
TEXT
  7
TextStyle03
  8
寸法
  6
CONTINUOUS
 62
     0
 10
102.6375
 20
73.025
  1
350
 40
3.0
 72
     5
 11
107.5125
 21
73.025
  0
ENDBLK
  0
BLOCK
  2
*DIM_0005
 70
    65
 10
0.0
 20
0.0
  0
LINE
  8
寸法
  6
BYBLOCK
 62
     0
 10
117.421445
 20
-49.867045
 11
125.856293
 21
-49.867045
  0
LINE
  8
寸法
  6
BYBLOCK
 62
     0
 10
117.421445
 20
-92.533713
 11
125.856293
 21
-92.533713
  0
LINE
  8
寸法
  6
BYBLOCK
 62
     0
 10
125.856293
 20
-49.867045
 11
125.856293
 21
-92.533713
  0
POINT
  8
寸法
 62
     0
 10
125.856293
 20
-49.867045
  0
POINT
  8
寸法
 62
     0
 10
125.856293
 20
-92.533713
  0
TEXT
  7
TextStyle03
  8
寸法
  6
CONTINUOUS
 62
     0
 10
125.525
 20
-74.48125
  1
1280
 40
3.0
 50
90.0
 72
     5
 11
125.525
 21
-67.91875
  0
ENDBLK
  0
BLOCK
  2
*DIM_0006
 70
    65
 10
0.0
 20
0.0
  0
LINE
  8
寸法
  6
BYBLOCK
 62
     0
 10
21.33489
 20
-22.536362
 11
-45.331778
 21
-22.536362
  0
POINT
  8
寸法
 62
     0
 10
21.33489
 20
-22.536362
  0
POINT
  8
寸法
 62
     0
 10
-45.331778
 20
-22.536362
  0
TEXT
  7
TextStyle03
  8
寸法
  6
CONTINUOUS
 62
     0
 10
-23.71875
 20
-22.175
  1
呼称寸法　2000
 40
3.0
 72
     5
 11
-0.28125
 21
-22.175
  0
ENDBLK
  0
BLOCK
  2
*DIM_0007
 70
    65
 10
0.0
 20
0.0
  0
LINE
  8
寸法
  6
BYBLOCK
 62
     0
 10
116.421445
 20
-48.867045
 11
116.421445
 21
-41.525
  0
LINE
  8
寸法
  6
BYBLOCK
 62
     0
 10
83.954777
 20
-48.867045
 11
83.954777
 21
-41.525
  0
LINE
  8
寸法
  6
BYBLOCK
 62
     0
 10
116.421445
 20
-41.525
 11
83.954777
 21
-41.525
  0
POINT
  8
寸法
 62
     0
 10
116.421445
 20
-41.525
  0
POINT
  8
寸法
 62
     0
 10
83.954777
 20
-41.525
  0
TEXT
  7
TextStyle03
  8
寸法
  6
CONTINUOUS
 62
     0
 10
97.7375
 20
-41.15
  1
974
 40
3.0
 72
     5
 11
102.6125
 21
-41.15
  0
ENDBLK
  0
BLOCK
  2
*DIM_0008
 70
    65
 10
0.0
 20
0.0
  0
LINE
  8
寸法
  6
BYBLOCK
 62
     0
 10
-28.66511
 20
9.76892
 11
-28.66511
 21
4.711185
  0
LINE
  8
寸法
  6
BYBLOCK
 62
     0
 10
4.668225
 20
9.76892
 11
4.668225
 21
4.711185
  0
LINE
  8
寸法
  6
BYBLOCK
 62
     0
 10
-28.66511
 20
4.711185
 11
4.668225
 21
4.711185
  0
POINT
  8
寸法
 62
     0
 10
-28.66511
 20
4.711185
  0
POINT
  8
寸法
 62
     0
 10
4.668225
 20
4.711185
  0
TEXT
  7
TextStyle03
  8
寸法
  6
CONTINUOUS
 62
     0
 10
-15.28125
 20
5.075
  1
1000
 40
3.0
 72
     5
 11
-8.71875
 21
5.075
  0
ENDBLK
  0
BLOCK
  2
*DIM_0009
 70
    65
 10
0.0
 20
0.0
  0
LINE
  8
寸法
  6
BYBLOCK
 62
     0
 10
22.33489
 20
56.732382
 11
32.059173
 21
56.732382
  0
LINE
  8
寸法
  6
BYBLOCK
 62
     0
 10
24.96502
 20
53.032382
 11
32.059173
 21
53.032382
  0
LINE
  8
寸法
  6
BYBLOCK
 62
     0
 10
32.059173
 20
56.732382
 11
32.059173
 21
53.032382
  0
POINT
  8
寸法
 62
     0
 10
32.059173
 20
56.732382
  0
POINT
  8
寸法
 62
     0
 10
32.059173
 20
53.032382
  0
TEXT
  7
TextStyle03
  8
寸法
  6
CONTINUOUS
 62
     0
 10
31.75
 20
57.7125
  1
111
 40
3.0
 50
90.0
 72
     5
 11
31.75
 21
62.5875
  0
ENDBLK
  0
BLOCK
  2
*DIM_0010
 70
    65
 10
0.0
 20
0.0
  0
LINE
  8
寸法
  6
BYBLOCK
 62
     0
 10
22.33489
 20
13.399048
 11
32.059173
 21
13.399045
  0
LINE
  8
寸法
  6
BYBLOCK
 62
     0
 10
24.96502
 20
17.099048
 11
32.059173
 21
17.099045
  0
LINE
  8
寸法
  6
BYBLOCK
 62
     0
 10
32.059173
 20
13.399045
 11
32.059173
 21
17.099045
  0
POINT
  8
寸法
 62
     0
 10
32.059173
 20
13.399045
  0
POINT
  8
寸法
 62
     0
 10
32.059173
 20
17.099045
  0
TEXT
  7
TextStyle03
  8
寸法
  6
CONTINUOUS
 62
     0
 10
31.725
 20
7.5375
  1
111
 40
3.0
 50
90.0
 72
     5
 11
31.725
 21
12.4125
  0
ENDBLK
  0
BLOCK
  2
*GRP_0011
 70
    65
 10
0.0
 20
0.0
  0
LINE
  8
別途部材
  6
CONTINUOUS
 62
    96
 10
-46.998442
 20
-79.624597
 11
-47.398442
 21
-80.624597
  0
LINE
  8
別途部材
  6
CONTINUOUS
 10
-47.398442
 20
-80.624597
 11
-11.998442
 21
-80.624597
  0
LINE
  8
別途部材
  6
CONTINUOUS
 62
    96
 10
-46.998442
 20
-79.624597
 11
-11.998442
 21
-79.624597
  0
LINE
  8
別途部材
  6
CONTINUOUS
 10
-12.498442
 20
-66.95793
 11
-13.498442
 21
-67.95793
  0
LINE
  8
別途部材
  6
CONTINUOUS
 10
-14.498442
 20
-67.95793
 11
-15.498442
 21
-66.95793
  0
LINE
  8
別途部材
  6
CONTINUOUS
 10
-16.498442
 20
-66.95793
 11
-17.498442
 21
-67.95793
  0
LINE
  8
別途部材
  6
CONTINUOUS
 10
-15.498442
 20
-66.95793
 11
-16.498442
 21
-66.95793
  0
LINE
  8
別途部材
  6
CONTINUOUS
 10
-12.498442
 20
-66.95793
 11
-11.998442
 21
-66.95793
  0
LINE
  8
別途部材
  6
CONTINUOUS
 10
-18.498442
 20
-67.95793
 11
-19.498442
 21
-66.95793
  0
LINE
  8
別途部材
  6
CONTINUOUS
 10
-20.498442
 20
-66.95793
 11
-21.498442
 21
-67.95793
  0
LINE
  8
別途部材
  6
CONTINUOUS
 10
-19.498442
 20
-66.95793
 11
-20.498442
 21
-66.95793
  0
LINE
  8
別途部材
  6
CONTINUOUS
 10
-22.498442
 20
-67.95793
 11
-23.498442
 21
-66.95793
  0
LINE
  8
別途部材
  6
CONTINUOUS
 10
-24.498442
 20
-66.95793
 11
-25.498442
 21
-67.95793
  0
LINE
  8
別途部材
  6
CONTINUOUS
 10
-23.498442
 20
-66.95793
 11
-24.498442
 21
-66.95793
  0
LINE
  8
別途部材
  6
CONTINUOUS
 10
-21.498442
 20
-67.95793
 11
-22.498442
 21
-67.95793
  0
LINE
  8
別途部材
  6
CONTINUOUS
 10
-17.498442
 20
-67.95793
 11
-18.498442
 21
-67.95793
  0
LINE
  8
別途部材
  6
CONTINUOUS
 10
-14.498442
 20
-67.95793
 11
-13.498442
 21
-67.95793
  0
LINE
  8
別途部材
  6
CONTINUOUS
 10
-17.498442
 20
-67.95793
 11
-17.498442
 21
-79.624597
  0
LINE
  8
別途部材
  6
CONTINUOUS
 10
-12.498442
 20
-66.95793
 11
-12.498442
 21
-79.624597
  0
LINE
  8
別途部材
  6
CONTINUOUS
 10
-13.498442
 20
-67.95793
 11
-13.498442
 21
-79.624597
  0
LINE
  8
別途部材
  6
CONTINUOUS
 10
-15.498442
 20
-66.95793
 11
-15.498442
 21
-79.624597
  0
LINE
  8
別途部材
  6
CONTINUOUS
 10
-16.498442
 20
-66.95793
 11
-16.498442
 21
-79.624597
  0
LINE
  8
別途部材
  6
CONTINUOUS
 10
-18.498442
 20
-67.95793
 11
-18.498442
 21
-79.624597
  0
LINE
  8
別途部材
  6
CONTINUOUS
 10
-25.498442
 20
-67.95793
 11
-25.498442
 21
-79.624597
  0
LINE
  8
別途部材
  6
CONTINUOUS
 10
-24.498442
 20
-66.95793
 11
-24.498442
 21
-79.624597
  0
LINE
  8
別途部材
  6
CONTINUOUS
 10
-22.498442
 20
-67.95793
 11
-22.498442
 21
-79.624597
  0
LINE
  8
別途部材
  6
CONTINUOUS
 10
-23.498442
 20
-66.95793
 11
-23.498442
 21
-79.624597
  0
LINE
  8
別途部材
  6
CONTINUOUS
 10
-21.498442
 20
-67.95793
 11
-21.498442
 21
-79.624597
  0
LINE
  8
別途部材
  6
CONTINUOUS
 10
-19.498442
 20
-66.95793
 11
-19.498442
 21
-79.624597
  0
LINE
  8
別途部材
  6
CONTINUOUS
 10
-20.498442
 20
-66.95793
 11
-20.498442
 21
-79.624597
  0
LINE
  8
別途部材
  6
CONTINUOUS
 10
-14.498442
 20
-67.95793
 11
-14.498442
 21
-79.624597
  0
ARC
  8
別途部材
  6
CONTINUOUS
 10
-23.665107
 20
-93.910309
 40
25.952382
 50
94.050879
 51
146.601512
  0
LINE
  8
別途部材
  6
CONTINUOUS
 62
    96
 10
23.001557
 20
-79.624597
 11
23.401557
 21
-80.624597
  0
LINE
  8
別途部材
  6
CONTINUOUS
 10
23.401557
 20
-80.624597
 11
-11.998442
 21
-80.624597
  0
LINE
  8
別途部材
  6
CONTINUOUS
 62
    96
 10
23.001557
 20
-79.624597
 11
-11.998442
 21
-79.624597
  0
LINE
  8
別途部材
  6
CONTINUOUS
 10
-11.498442
 20
-66.95793
 11
-10.498442
 21
-67.95793
  0
LINE
  8
別途部材
  6
CONTINUOUS
 10
-9.498442
 20
-67.95793
 11
-8.498442
 21
-66.95793
  0
LINE
  8
別途部材
  6
CONTINUOUS
 10
-7.498442
 20
-66.95793
 11
-6.498442
 21
-67.95793
  0
LINE
  8
別途部材
  6
CONTINUOUS
 10
-8.498442
 20
-66.95793
 11
-7.498442
 21
-66.95793
  0
LINE
  8
別途部材
  6
CONTINUOUS
 10
-11.498442
 20
-66.95793
 11
-11.998442
 21
-66.95793
  0
LINE
  8
別途部材
  6
CONTINUOUS
 10
-5.498442
 20
-67.95793
 11
-4.498442
 21
-66.95793
  0
LINE
  8
別途部材
  6
CONTINUOUS
 10
-3.498442
 20
-66.95793
 11
-2.498442
 21
-67.95793
  0
LINE
  8
別途部材
  6
CONTINUOUS
 10
-4.498442
 20
-66.95793
 11
-3.498442
 21
-66.95793
  0
LINE
  8
別途部材
  6
CONTINUOUS
 10
-1.498442
 20
-67.95793
 11
-0.498442
 21
-66.95793
  0
LINE
  8
別途部材
  6
CONTINUOUS
 10
0.501557
 20
-66.95793
 11
1.501557
 21
-67.95793
  0
LINE
  8
別途部材
  6
CONTINUOUS
 10
-0.498442
 20
-66.95793
 11
0.501557
 21
-66.95793
  0
LINE
  8
別途部材
  6
CONTINUOUS
 10
-2.498442
 20
-67.95793
 11
-1.498442
 21
-67.95793
  0
LINE
  8
別途部材
  6
CONTINUOUS
 10
-6.498442
 20
-67.95793
 11
-5.498442
 21
-67.95793
  0
LINE
  8
別途部材
  6
CONTINUOUS
 10
-9.498442
 20
-67.95793
 11
-10.498442
 21
-67.95793
  0
LINE
  8
別途部材
  6
CONTINUOUS
 10
-6.498442
 20
-67.95793
 11
-6.498442
 21
-79.624597
  0
LINE
  8
別途部材
  6
CONTINUOUS
 10
-11.498442
 20
-66.95793
 11
-11.498442
 21
-79.624597
  0
LINE
  8
別途部材
  6
CONTINUOUS
 10
-10.498442
 20
-67.95793
 11
-10.498442
 21
-79.624597
  0
LINE
  8
別途部材
  6
CONTINUOUS
 10
-8.498442
 20
-66.95793
 11
-8.498442
 21
-79.624597
  0
LINE
  8
別途部材
  6
CONTINUOUS
 10
-7.498442
 20
-66.95793
 11
-7.498442
 21
-79.624597
  0
LINE
  8
別途部材
  6
CONTINUOUS
 10
-5.498442
 20
-67.95793
 11
-5.498442
 21
-79.624597
  0
LINE
  8
別途部材
  6
CONTINUOUS
 10
1.501557
 20
-67.95793
 11
1.501557
 21
-79.624597
  0
LINE
  8
別途部材
  6
CONTINUOUS
 10
0.501557
 20
-66.95793
 11
0.501557
 21
-79.624597
  0
LINE
  8
別途部材
  6
CONTINUOUS
 10
-1.498442
 20
-67.95793
 11
-1.498442
 21
-79.624597
  0
LINE
  8
別途部材
  6
CONTINUOUS
 10
-0.498442
 20
-66.95793
 11
-0.498442
 21
-79.624597
  0
LINE
  8
別途部材
  6
CONTINUOUS
 10
-2.498442
 20
-67.95793
 11
-2.498442
 21
-79.624597
  0
LINE
  8
別途部材
  6
CONTINUOUS
 10
-4.498442
 20
-66.95793
 11
-4.498442
 21
-79.624597
  0
LINE
  8
別途部材
  6
CONTINUOUS
 10
-3.498442
 20
-66.95793
 11
-3.498442
 21
-79.624597
  0
LINE
  8
別途部材
  6
CONTINUOUS
 10
-9.498442
 20
-67.95793
 11
-9.498442
 21
-79.624597
  0
ARC
  8
別途部材
  6
CONTINUOUS
 10
-0.331778
 20
-93.910309
 40
25.952382
 50
33.398488
 51
85.949121
  0
ENDBLK
  0
BLOCK
  2
*GRP_0012
 70
    65
 10
0.0
 20
0.0
  0
LINE
  8
補助線
  6
BYBLOCK
 62
    64
 10
-41.940545
 20
-84.524827
 11
-42.05634
 21
-84.644697
  0
LINE
  8
補助線
  6
BYBLOCK
 62
    64
 10
-42.05838
 20
-84.526862
 11
-41.938508
 21
-84.64266
  0
LINE
  8
補助線
  6
BYBLOCK
 62
    64
 10
-34.22847
 20
-76.54147
 11
-34.34427
 21
-76.66134
  0
LINE
  8
補助線
  6
BYBLOCK
 62
    64
 10
-34.346305
 20
-76.543505
 11
-34.226435
 21
-76.659303
  0
LINE
  8
補助線
  6
BYBLOCK
 62
    64
 10
-26.632197
 20
-68.677982
 11
-26.5164
 21
-68.558112
  0
LINE
  8
補助線
  6
BYBLOCK
 62
    64
 10
-26.634235
 20
-68.560148
 11
-26.514362
 21
-68.675945
  0
LINE
  8
型材断面
  6
CONTINUOUS
 10
-42.829385
 20
-84.24552
 11
-42.817165
 21
-84.95252
  0
LINE
  8
型材断面
  6
CONTINUOUS
 10
-42.817165
 20
-84.95252
 11
-42.337683
 21
-85.415708
  0
LINE
  8
型材断面
  6
CONTINUOUS
 10
-42.337683
 20
-85.415708
 11
-41.630682
 21
-85.403488
  0
LINE
  8
型材断面
  6
CONTINUOUS
 10
-26.942058
 20
-67.799323
 11
-26.235055
 21
-67.787105
  0
LINE
  8
型材断面
  6
CONTINUOUS
 10
-26.235055
 20
-67.787105
 11
-25.755573
 21
-68.25029
  0
LINE
  8
型材断面
  6
CONTINUOUS
 10
-25.755573
 20
-68.25029
 11
-25.743353
 21
-68.957293
  0
LINE
  8
型材断面
  6
CONTINUOUS
 10
-42.829385
 20
-84.24552
 11
-26.942058
 21
-67.799323
  0
LINE
  8
型材断面
  6
CONTINUOUS
 10
-41.630682
 20
-85.403488
 11
-25.743353
 21
-68.957293
  0
CIRCLE
  8
ボルト／ビス
  6
CONTINUOUS
 10
-41.998442
 20
-84.584763
 40
0.250185
  0
CIRCLE
  8
ボルト／ビス
  6
CONTINUOUS
 10
-41.998442
 20
-84.584763
 40
0.301025
  0
LINE
  8
ボルト／ビス
  6
CONTINUOUS
 62
    64
 10
-42.238947
 20
-84.653683
 11
-42.17838
 21
-84.41094
  0
LINE
  8
ボルト／ビス
  6
CONTINUOUS
 62
    64
 10
-41.937875
 20
-84.342018
 11
-42.17838
 21
-84.41094
  0
LINE
  8
ボルト／ビス
  6
CONTINUOUS
 62
    64
 10
-42.05901
 20
-84.827507
 11
-41.818505
 21
-84.758585
  0
LINE
  8
ボルト／ビス
  6
CONTINUOUS
 62
    64
 10
-41.757935
 20
-84.515842
 11
-41.818505
 21
-84.758585
  0
LINE
  8
ボルト／ビス
  6
CONTINUOUS
 62
    64
 10
-42.238947
 20
-84.653683
 11
-42.05901
 21
-84.827507
  0
LINE
  8
ボルト／ビス
  6
CONTINUOUS
 62
    64
 10
-41.937875
 20
-84.342018
 11
-41.757935
 21
-84.515842
  0
CIRCLE
  8
ボルト／ビス
  6
CONTINUOUS
 62
    64
 10
-41.998442
 20
-84.584763
 40
0.216668
  0
CIRCLE
  8
ボルト／ビス
  6
CONTINUOUS
 10
-34.28637
 20
-76.601405
 40
0.250185
  0
CIRCLE
  8
ボルト／ビス
  6
CONTINUOUS
 10
-34.28637
 20
-76.601405
 40
0.301025
  0
LINE
  8
ボルト／ビス
  6
CONTINUOUS
 62
    64
 10
-34.526875
 20
-76.670323
 11
-34.46631
 21
-76.42758
  0
LINE
  8
ボルト／ビス
  6
CONTINUOUS
 62
    64
 10
-34.225803
 20
-76.35866
 11
-34.46631
 21
-76.42758
  0
LINE
  8
ボルト／ビス
  6
CONTINUOUS
 62
    64
 10
-34.346937
 20
-76.84415
 11
-34.106433
 21
-76.775227
  0
LINE
  8
ボルト／ビス
  6
CONTINUOUS
 62
    64
 10
-34.045863
 20
-76.532485
 11
-34.106433
 21
-76.775227
  0
LINE
  8
ボルト／ビス
  6
CONTINUOUS
 62
    64
 10
-34.526875
 20
-76.670323
 11
-34.346937
 21
-76.84415
  0
LINE
  8
ボルト／ビス
  6
CONTINUOUS
 62
    64
 10
-34.225803
 20
-76.35866
 11
-34.045863
 21
-76.532485
  0
CIRCLE
  8
ボルト／ビス
  6
CONTINUOUS
 62
    64
 10
-34.28637
 20
-76.601405
 40
0.216668
  0
CIRCLE
  8
ボルト／ビス
  6
CONTINUOUS
 10
-26.574298
 20
-68.618048
 40
0.250185
  0
CIRCLE
  8
ボルト／ビス
  6
CONTINUOUS
 10
-26.574298
 20
-68.618048
 40
0.301025
  0
LINE
  8
ボルト／ビス
  6
CONTINUOUS
 62
    64
 10
-26.51373
 20
-68.375303
 11
-26.754235
 21
-68.444225
  0
LINE
  8
ボルト／ビス
  6
CONTINUOUS
 62
    64
 10
-26.814805
 20
-68.686967
 11
-26.754235
 21
-68.444225
  0
LINE
  8
ボルト／ビス
  6
CONTINUOUS
 62
    64
 10
-26.333792
 20
-68.549125
 11
-26.39436
 21
-68.79187
  0
LINE
  8
ボルト／ビス
  6
CONTINUOUS
 62
    64
 10
-26.634865
 20
-68.86079
 11
-26.39436
 21
-68.79187
  0
LINE
  8
ボルト／ビス
  6
CONTINUOUS
 62
    64
 10
-26.51373
 20
-68.375303
 11
-26.333792
 21
-68.549125
  0
LINE
  8
ボルト／ビス
  6
CONTINUOUS
 62
    64
 10
-26.814805
 20
-68.686967
 11
-26.634865
 21
-68.86079
  0
CIRCLE
  8
ボルト／ビス
  6
CONTINUOUS
 62
    64
 10
-26.574298
 20
-68.618048
 40
0.216668
  0
ENDBLK
  0
BLOCK
  2
*GRP_0013
 70
    65
 10
0.0
 20
0.0
  0
LINE
  8
補助線
  6
BYBLOCK
 62
    64
 10
-26.632195
 20
-84.524827
 11
-26.5164
 21
-84.644697
  0
LINE
  8
補助線
  6
BYBLOCK
 62
    64
 10
-26.51436
 20
-84.526862
 11
-26.634232
 21
-84.64266
  0
LINE
  8
補助線
  6
BYBLOCK
 62
    64
 10
-34.34427
 20
-76.54147
 11
-34.22847
 21
-76.66134
  0
LINE
  8
補助線
  6
BYBLOCK
 62
    64
 10
-34.226435
 20
-76.543505
 11
-34.346305
 21
-76.659303
  0
LINE
  8
補助線
  6
BYBLOCK
 62
    64
 10
-41.940542
 20
-68.677982
 11
-42.05634
 21
-68.558112
  0
LINE
  8
補助線
  6
BYBLOCK
 62
    64
 10
-41.938505
 20
-68.560148
 11
-42.058378
 21
-68.675945
  0
LINE
  8
型材断面
  6
CONTINUOUS
 10
-25.743355
 20
-84.24552
 11
-25.755575
 21
-84.95252
  0
LINE
  8
型材断面
  6
CONTINUOUS
 10
-25.755575
 20
-84.95252
 11
-26.235058
 21
-85.415708
  0
LINE
  8
型材断面
  6
CONTINUOUS
 10
-26.235058
 20
-85.415708
 11
-26.942058
 21
-85.403488
  0
LINE
  8
型材断面
  6
CONTINUOUS
 10
-41.630682
 20
-67.799323
 11
-42.337685
 21
-67.787105
  0
LINE
  8
型材断面
  6
CONTINUOUS
 10
-42.337685
 20
-67.787105
 11
-42.817167
 21
-68.25029
  0
LINE
  8
型材断面
  6
CONTINUOUS
 10
-42.817167
 20
-68.25029
 11
-42.829388
 21
-68.957293
  0
LINE
  8
型材断面
  6
CONTINUOUS
 10
-25.743355
 20
-84.24552
 11
-41.630682
 21
-67.799323
  0
LINE
  8
型材断面
  6
CONTINUOUS
 10
-26.942058
 20
-85.403488
 11
-42.829388
 21
-68.957293
  0
CIRCLE
  8
ボルト／ビス
  6
CONTINUOUS
 10
-26.574298
 20
-84.584763
 40
0.250185
  0
CIRCLE
  8
ボルト／ビス
  6
CONTINUOUS
 10
-26.574298
 20
-84.584763
 40
0.301025
  0
LINE
  8
ボルト／ビス
  6
CONTINUOUS
 62
    64
 10
-26.333792
 20
-84.653683
 11
-26.39436
 21
-84.41094
  0
LINE
  8
ボルト／ビス
  6
CONTINUOUS
 62
    64
 10
-26.634865
 20
-84.342018
 11
-26.39436
 21
-84.41094
  0
LINE
  8
ボルト／ビス
  6
CONTINUOUS
 62
    64
 10
-26.51373
 20
-84.827507
 11
-26.754235
 21
-84.758585
  0
LINE
  8
ボルト／ビス
  6
CONTINUOUS
 62
    64
 10
-26.814805
 20
-84.515842
 11
-26.754235
 21
-84.758585
  0
LINE
  8
ボルト／ビス
  6
CONTINUOUS
 62
    64
 10
-26.333792
 20
-84.653683
 11
-26.51373
 21
-84.827507
  0
LINE
  8
ボルト／ビス
  6
CONTINUOUS
 62
    64
 10
-26.634865
 20
-84.342018
 11
-26.814805
 21
-84.515842
  0
CIRCLE
  8
ボルト／ビス
  6
CONTINUOUS
 62
    64
 10
-26.574298
 20
-84.584763
 40
0.216668
  0
CIRCLE
  8
ボルト／ビス
  6
CONTINUOUS
 10
-34.28637
 20
-76.601405
 40
0.250185
  0
CIRCLE
  8
ボルト／ビス
  6
CONTINUOUS
 10
-34.28637
 20
-76.601405
 40
0.301025
  0
LINE
  8
ボルト／ビス
  6
CONTINUOUS
 62
    64
 10
-34.045865
 20
-76.670323
 11
-34.10643
 21
-76.42758
  0
LINE
  8
ボルト／ビス
  6
CONTINUOUS
 62
    64
 10
-34.346937
 20
-76.35866
 11
-34.10643
 21
-76.42758
  0
LINE
  8
ボルト／ビス
  6
CONTINUOUS
 62
    64
 10
-34.225803
 20
-76.84415
 11
-34.466308
 21
-76.775227
  0
LINE
  8
ボルト／ビス
  6
CONTINUOUS
 62
    64
 10
-34.526877
 20
-76.532485
 11
-34.466308
 21
-76.775227
  0
LINE
  8
ボルト／ビス
  6
CONTINUOUS
 62
    64
 10
-34.045865
 20
-76.670323
 11
-34.225803
 21
-76.84415
  0
LINE
  8
ボルト／ビス
  6
CONTINUOUS
 62
    64
 10
-34.346937
 20
-76.35866
 11
-34.526877
 21
-76.532485
  0
CIRCLE
  8
ボルト／ビス
  6
CONTINUOUS
 62
    64
 10
-34.28637
 20
-76.601405
 40
0.216668
  0
CIRCLE
  8
ボルト／ビス
  6
CONTINUOUS
 10
-41.998442
 20
-68.618048
 40
0.250185
  0
CIRCLE
  8
ボルト／ビス
  6
CONTINUOUS
 10
-41.998442
 20
-68.618048
 40
0.301025
  0
LINE
  8
ボルト／ビス
  6
CONTINUOUS
 62
    64
 10
-42.05901
 20
-68.375303
 11
-41.818505
 21
-68.444225
  0
LINE
  8
ボルト／ビス
  6
CONTINUOUS
 62
    64
 10
-41.757935
 20
-68.686967
 11
-41.818505
 21
-68.444225
  0
LINE
  8
ボルト／ビス
  6
CONTINUOUS
 62
    64
 10
-42.238947
 20
-68.549125
 11
-42.17838
 21
-68.79187
  0
LINE
  8
ボルト／ビス
  6
CONTINUOUS
 62
    64
 10
-41.937875
 20
-68.86079
 11
-42.17838
 21
-68.79187
  0
LINE
  8
ボルト／ビス
  6
CONTINUOUS
 62
    64
 10
-42.05901
 20
-68.375303
 11
-42.238947
 21
-68.549125
  0
LINE
  8
ボルト／ビス
  6
CONTINUOUS
 62
    64
 10
-41.757935
 20
-68.686967
 11
-41.937875
 21
-68.86079
  0
CIRCLE
  8
ボルト／ビス
  6
CONTINUOUS
 62
    64
 10
-41.998442
 20
-68.618048
 40
0.216668
  0
ENDBLK
  0
BLOCK
  2
*GRP_0014
 70
    65
 10
0.0
 20
0.0
  0
LINE
  8
補助線
  6
BYBLOCK
 62
    64
 10
17.94366
 20
-84.524827
 11
18.059455
 21
-84.644697
  0
LINE
  8
補助線
  6
BYBLOCK
 62
    64
 10
18.061495
 20
-84.526862
 11
17.941623
 21
-84.64266
  0
LINE
  8
補助線
  6
BYBLOCK
 62
    64
 10
10.231585
 20
-76.54147
 11
10.347385
 21
-76.66134
  0
LINE
  8
補助線
  6
BYBLOCK
 62
    64
 10
10.34942
 20
-76.543505
 11
10.22955
 21
-76.659303
  0
LINE
  8
補助線
  6
BYBLOCK
 62
    64
 10
2.635312
 20
-68.677982
 11
2.519515
 21
-68.558112
  0
LINE
  8
補助線
  6
BYBLOCK
 62
    64
 10
2.63735
 20
-68.560148
 11
2.517477
 21
-68.675945
  0
LINE
  8
型材断面
  6
CONTINUOUS
 10
18.8325
 20
-84.24552
 11
18.82028
 21
-84.95252
  0
LINE
  8
型材断面
  6
CONTINUOUS
 10
18.82028
 20
-84.95252
 11
18.340798
 21
-85.415708
  0
LINE
  8
型材断面
  6
CONTINUOUS
 10
18.340798
 20
-85.415708
 11
17.633798
 21
-85.403488
  0
LINE
  8
型材断面
  6
CONTINUOUS
 10
2.945173
 20
-67.799323
 11
2.23817
 21
-67.787105
  0
LINE
  8
型材断面
  6
CONTINUOUS
 10
2.23817
 20
-67.787105
 11
1.758688
 21
-68.25029
  0
LINE
  8
型材断面
  6
CONTINUOUS
 10
1.758688
 20
-68.25029
 11
1.746467
 21
-68.957293
  0
LINE
  8
型材断面
  6
CONTINUOUS
 10
18.8325
 20
-84.24552
 11
2.945173
 21
-67.799323
  0
LINE
  8
型材断面
  6
CONTINUOUS
 10
17.633798
 20
-85.403488
 11
1.746467
 21
-68.957293
  0
CIRCLE
  8
ボルト／ビス
  6
CONTINUOUS
 10
18.001557
 20
-84.584763
 40
0.250185
  0
CIRCLE
  8
ボルト／ビス
  6
CONTINUOUS
 10
18.001557
 20
-84.584763
 40
0.301025
  0
LINE
  8
ボルト／ビス
  6
CONTINUOUS
 62
    64
 10
18.242063
 20
-84.653683
 11
18.181495
 21
-84.41094
  0
LINE
  8
ボルト／ビス
  6
CONTINUOUS
 62
    64
 10
17.94099
 20
-84.342018
 11
18.181495
 21
-84.41094
  0
LINE
  8
ボルト／ビス
  6
CONTINUOUS
 62
    64
 10
18.062125
 20
-84.827507
 11
17.82162
 21
-84.758585
  0
LINE
  8
ボルト／ビス
  6
CONTINUOUS
 62
    64
 10
17.76105
 20
-84.515842
 11
17.82162
 21
-84.758585
  0
LINE
  8
ボルト／ビス
  6
CONTINUOUS
 62
    64
 10
18.242063
 20
-84.653683
 11
18.062125
 21
-84.827507
  0
LINE
  8
ボルト／ビス
  6
CONTINUOUS
 62
    64
 10
17.94099
 20
-84.342018
 11
17.76105
 21
-84.515842
  0
CIRCLE
  8
ボルト／ビス
  6
CONTINUOUS
 62
    64
 10
18.001557
 20
-84.584763
 40
0.216668
  0
CIRCLE
  8
ボルト／ビス
  6
CONTINUOUS
 10
10.289485
 20
-76.601405
 40
0.250185
  0
CIRCLE
  8
ボルト／ビス
  6
CONTINUOUS
 10
10.289485
 20
-76.601405
 40
0.301025
  0
LINE
  8
ボルト／ビス
  6
CONTINUOUS
 62
    64
 10
10.52999
 20
-76.670323
 11
10.469425
 21
-76.42758
  0
LINE
  8
ボルト／ビス
  6
CONTINUOUS
 62
    64
 10
10.228917
 20
-76.35866
 11
10.469425
 21
-76.42758
  0
LINE
  8
ボルト／ビス
  6
CONTINUOUS
 62
    64
 10
10.350052
 20
-76.84415
 11
10.109548
 21
-76.775227
  0
LINE
  8
ボルト／ビス
  6
CONTINUOUS
 62
    64
 10
10.048978
 20
-76.532485
 11
10.109548
 21
-76.775227
  0
LINE
  8
ボルト／ビス
  6
CONTINUOUS
 62
    64
 10
10.52999
 20
-76.670323
 11
10.350052
 21
-76.84415
  0
LINE
  8
ボルト／ビス
  6
CONTINUOUS
 62
    64
 10
10.228917
 20
-76.35866
 11
10.048978
 21
-76.532485
  0
CIRCLE
  8
ボルト／ビス
  6
CONTINUOUS
 62
    64
 10
10.289485
 20
-76.601405
 40
0.216668
  0
CIRCLE
  8
ボルト／ビス
  6
CONTINUOUS
 10
2.577412
 20
-68.618048
 40
0.250185
  0
CIRCLE
  8
ボルト／ビス
  6
CONTINUOUS
 10
2.577412
 20
-68.618048
 40
0.301025
  0
LINE
  8
ボルト／ビス
  6
CONTINUOUS
 62
    64
 10
2.516845
 20
-68.375303
 11
2.75735
 21
-68.444225
  0
LINE
  8
ボルト／ビス
  6
CONTINUOUS
 62
    64
 10
2.81792
 20
-68.686967
 11
2.75735
 21
-68.444225
  0
LINE
  8
ボルト／ビス
  6
CONTINUOUS
 62
    64
 10
2.336908
 20
-68.549125
 11
2.397475
 21
-68.79187
  0
LINE
  8
ボルト／ビス
  6
CONTINUOUS
 62
    64
 10
2.63798
 20
-68.86079
 11
2.397475
 21
-68.79187
  0
LINE
  8
ボルト／ビス
  6
CONTINUOUS
 62
    64
 10
2.516845
 20
-68.375303
 11
2.336908
 21
-68.549125
  0
LINE
  8
ボルト／ビス
  6
CONTINUOUS
 62
    64
 10
2.81792
 20
-68.686967
 11
2.63798
 21
-68.86079
  0
CIRCLE
  8
ボルト／ビス
  6
CONTINUOUS
 62
    64
 10
2.577412
 20
-68.618048
 40
0.216668
  0
ENDBLK
  0
BLOCK
  2
*GRP_0015
 70
    65
 10
0.0
 20
0.0
  0
LINE
  8
補助線
  6
BYBLOCK
 62
    64
 10
2.63531
 20
-84.524827
 11
2.519515
 21
-84.644697
  0
LINE
  8
補助線
  6
BYBLOCK
 62
    64
 10
2.517475
 20
-84.526862
 11
2.637348
 21
-84.64266
  0
LINE
  8
補助線
  6
BYBLOCK
 62
    64
 10
10.347385
 20
-76.54147
 11
10.231585
 21
-76.66134
  0
LINE
  8
補助線
  6
BYBLOCK
 62
    64
 10
10.22955
 20
-76.543505
 11
10.34942
 21
-76.659303
  0
LINE
  8
補助線
  6
BYBLOCK
 62
    64
 10
17.943657
 20
-68.677982
 11
18.059455
 21
-68.558112
  0
LINE
  8
補助線
  6
BYBLOCK
 62
    64
 10
17.94162
 20
-68.560148
 11
18.061492
 21
-68.675945
  0
LINE
  8
型材断面
  6
CONTINUOUS
 10
1.74647
 20
-84.24552
 11
1.75869
 21
-84.95252
  0
LINE
  8
型材断面
  6
CONTINUOUS
 10
1.75869
 20
-84.95252
 11
2.238172
 21
-85.415708
  0
LINE
  8
型材断面
  6
CONTINUOUS
 10
2.238172
 20
-85.415708
 11
2.945173
 21
-85.403488
  0
LINE
  8
型材断面
  6
CONTINUOUS
 10
17.633798
 20
-67.799323
 11
18.3408
 21
-67.787105
  0
LINE
  8
型材断面
  6
CONTINUOUS
 10
18.3408
 20
-67.787105
 11
18.820283
 21
-68.25029
  0
LINE
  8
型材断面
  6
CONTINUOUS
 10
18.820283
 20
-68.25029
 11
18.832503
 21
-68.957293
  0
LINE
  8
型材断面
  6
CONTINUOUS
 10
1.74647
 20
-84.24552
 11
17.633798
 21
-67.799323
  0
LINE
  8
型材断面
  6
CONTINUOUS
 10
2.945173
 20
-85.403488
 11
18.832503
 21
-68.957293
  0
CIRCLE
  8
ボルト／ビス
  6
CONTINUOUS
 10
2.577412
 20
-84.584763
 40
0.250185
  0
CIRCLE
  8
ボルト／ビス
  6
CONTINUOUS
 10
2.577412
 20
-84.584763
 40
0.301025
  0
LINE
  8
ボルト／ビス
  6
CONTINUOUS
 62
    64
 10
2.336908
 20
-84.653683
 11
2.397475
 21
-84.41094
  0
LINE
  8
ボルト／ビス
  6
CONTINUOUS
 62
    64
 10
2.63798
 20
-84.342018
 11
2.397475
 21
-84.41094
  0
LINE
  8
ボルト／ビス
  6
CONTINUOUS
 62
    64
 10
2.516845
 20
-84.827507
 11
2.75735
 21
-84.758585
  0
LINE
  8
ボルト／ビス
  6
CONTINUOUS
 62
    64
 10
2.81792
 20
-84.515842
 11
2.75735
 21
-84.758585
  0
LINE
  8
ボルト／ビス
  6
CONTINUOUS
 62
    64
 10
2.336908
 20
-84.653683
 11
2.516845
 21
-84.827507
  0
LINE
  8
ボルト／ビス
  6
CONTINUOUS
 62
    64
 10
2.63798
 20
-84.342018
 11
2.81792
 21
-84.515842
  0
CIRCLE
  8
ボルト／ビス
  6
CONTINUOUS
 62
    64
 10
2.577412
 20
-84.584763
 40
0.216668
  0
CIRCLE
  8
ボルト／ビス
  6
CONTINUOUS
 10
10.289485
 20
-76.601405
 40
0.250185
  0
CIRCLE
  8
ボルト／ビス
  6
CONTINUOUS
 10
10.289485
 20
-76.601405
 40
0.301025
  0
LINE
  8
ボルト／ビス
  6
CONTINUOUS
 62
    64
 10
10.04898
 20
-76.670323
 11
10.109545
 21
-76.42758
  0
LINE
  8
ボルト／ビス
  6
CONTINUOUS
 62
    64
 10
10.350052
 20
-76.35866
 11
10.109545
 21
-76.42758
  0
LINE
  8
ボルト／ビス
  6
CONTINUOUS
 62
    64
 10
10.228917
 20
-76.84415
 11
10.469422
 21
-76.775227
  0
LINE
  8
ボルト／ビス
  6
CONTINUOUS
 62
    64
 10
10.529992
 20
-76.532485
 11
10.469422
 21
-76.775227
  0
LINE
  8
ボルト／ビス
  6
CONTINUOUS
 62
    64
 10
10.04898
 20
-76.670323
 11
10.228917
 21
-76.84415
  0
LINE
  8
ボルト／ビス
  6
CONTINUOUS
 62
    64
 10
10.350052
 20
-76.35866
 11
10.529992
 21
-76.532485
  0
CIRCLE
  8
ボルト／ビス
  6
CONTINUOUS
 62
    64
 10
10.289485
 20
-76.601405
 40
0.216668
  0
CIRCLE
  8
ボルト／ビス
  6
CONTINUOUS
 10
18.001557
 20
-68.618048
 40
0.250185
  0
CIRCLE
  8
ボルト／ビス
  6
CONTINUOUS
 10
18.001557
 20
-68.618048
 40
0.301025
  0
LINE
  8
ボルト／ビス
  6
CONTINUOUS
 62
    64
 10
18.062125
 20
-68.375303
 11
17.82162
 21
-68.444225
  0
LINE
  8
ボルト／ビス
  6
CONTINUOUS
 62
    64
 10
17.76105
 20
-68.686967
 11
17.82162
 21
-68.444225
  0
LINE
  8
ボルト／ビス
  6
CONTINUOUS
 62
    64
 10
18.242063
 20
-68.549125
 11
18.181495
 21
-68.79187
  0
LINE
  8
ボルト／ビス
  6
CONTINUOUS
 62
    64
 10
17.94099
 20
-68.86079
 11
18.181495
 21
-68.79187
  0
LINE
  8
ボルト／ビス
  6
CONTINUOUS
 62
    64
 10
18.062125
 20
-68.375303
 11
18.242063
 21
-68.549125
  0
LINE
  8
ボルト／ビス
  6
CONTINUOUS
 62
    64
 10
17.76105
 20
-68.686967
 11
17.94099
 21
-68.86079
  0
CIRCLE
  8
ボルト／ビス
  6
CONTINUOUS
 62
    64
 10
18.001557
 20
-68.618048
 40
0.216668
  0
ENDBLK
  0
BLOCK
  2
*DIM_0016
 70
    65
 10
0.0
 20
0.0
  0
LINE
  8
寸法
  6
BYBLOCK
 62
     0
 10
110.868155
 20
61.39905
 11
110.868155
 21
72.668433
  0
LINE
  8
寸法
  6
BYBLOCK
 62
     0
 10
117.901657
 20
61.715715
 11
117.901657
 21
72.668433
  0
LINE
  8
寸法
  6
BYBLOCK
 62
     0
 10
110.868155
 20
72.668433
 11
117.901657
 21
72.668433
  0
POINT
  8
寸法
 62
     0
 10
110.868155
 20
72.668433
  0
POINT
  8
寸法
 62
     0
 10
117.901657
 20
72.668433
  0
TEXT
  7
TextStyle03
  8
寸法
  6
CONTINUOUS
 62
     0
 10
111.9375
 20
73.025
  1
211
 40
3.0
 72
     5
 11
116.8125
 21
73.025
  0
ENDBLK
  0
BLOCK
  2
*DIM_0017
 70
    65
 10
0.0
 20
0.0
  0
LINE
  8
寸法
  6
BYBLOCK
 62
     0
 10
109.24494
 20
58.715715
 11
55.35454
 21
58.715715
  0
LINE
  8
寸法
  6
BYBLOCK
 62
     0
 10
55.35454
 20
56.73238
 11
55.35454
 21
58.715715
  0
POINT
  8
寸法
 62
     0
 10
55.35454
 20
56.73238
  0
POINT
  8
寸法
 62
     0
 10
55.35454
 20
58.715715
  0
TEXT
  7
TextStyle03
  8
寸法
  6
CONTINUOUS
 62
     0
 10
54.975
 20
61.16875
  1
59.5
 40
3.0
 50
90.0
 72
     5
 11
54.975
 21
67.73125
  0
ENDBLK
  0
BLOCK
  2
*DIM_0018
 70
    65
 10
0.0
 20
0.0
  0
LINE
  8
寸法
  6
BYBLOCK
 62
     0
 10
109.24494
 20
11.415715
 11
55.35454
 21
11.415715
  0
LINE
  8
寸法
  6
BYBLOCK
 62
     0
 10
55.35454
 20
13.399048
 11
55.35454
 21
11.415715
  0
POINT
  8
寸法
 62
     0
 10
55.35454
 20
13.399048
  0
POINT
  8
寸法
 62
     0
 10
55.35454
 20
11.415715
  0
TEXT
  7
TextStyle03
  8
寸法
  6
CONTINUOUS
 62
     0
 10
54.975
 20
2.36875
  1
59.5
 40
3.0
 50
90.0
 72
     5
 11
54.975
 21
8.93125
  0
ENDBLK
  0
BLOCK
  2
*DIM_0019
 70
    65
 10
0.0
 20
0.0
  0
LINE
  8
寸法
  6
BYBLOCK
 62
     0
 10
26.001557
 20
-79.624597
 11
37.30454
 21
-79.624597
  0
LINE
  8
寸法
  6
BYBLOCK
 62
     0
 10
26.318223
 20
-86.6581
 11
37.30454
 21
-86.6581
  0
LINE
  8
寸法
  6
BYBLOCK
 62
     0
 10
37.30454
 20
-79.624597
 11
37.30454
 21
-86.6581
  0
POINT
  8
寸法
 62
     0
 10
37.30454
 20
-79.624597
  0
POINT
  8
寸法
 62
     0
 10
37.30454
 20
-86.6581
  0
TEXT
  7
TextStyle03
  8
寸法
  6
CONTINUOUS
 62
     0
 10
36.925
 20
-85.5875
  1
211
 40
3.0
 50
90.0
 72
     5
 11
36.925
 21
-80.7125
  0
ENDBLK
  0
BLOCK
  2
*DIM_0020
 70
    65
 10
0.0
 20
0.0
  0
LINE
  8
寸法
  6
BYBLOCK
 62
     0
 10
23.318223
 20
-78.001383
 11
23.318223
 21
-22.536362
  0
LINE
  8
寸法
  6
BYBLOCK
 62
     0
 10
21.33489
 20
-22.536362
 11
23.318223
 21
-22.536362
  0
POINT
  8
寸法
 62
     0
 10
21.33489
 20
-22.536362
  0
POINT
  8
寸法
 62
     0
 10
23.318223
 20
-22.536362
  0
TEXT
  7
TextStyle03
  8
寸法
  6
CONTINUOUS
 62
     0
 10
25.79375
 20
-22.15
  1
59.5
 40
3.0
 72
     5
 11
32.35625
 21
-22.15
  0
ENDBLK
  0
BLOCK
  2
*DIM_0021
 70
    65
 10
0.0
 20
0.0
  0
LINE
  8
寸法
  6
BYBLOCK
 62
     0
 10
-47.315107
 20
-78.001383
 11
-47.315107
 21
-22.536362
  0
LINE
  8
寸法
  6
BYBLOCK
 62
     0
 10
-45.331778
 20
-22.536362
 11
-47.315107
 21
-22.536362
  0
POINT
  8
寸法
 62
     0
 10
-45.331778
 20
-22.536362
  0
POINT
  8
寸法
 62
     0
 10
-47.315107
 20
-22.536362
  0
TEXT
  7
TextStyle03
  8
寸法
  6
CONTINUOUS
 62
     0
 10
-56.35625
 20
-22.15
  1
59.5
 40
3.0
 72
     5
 11
-49.79375
 21
-22.15
  0
ENDBLK
  0
BLOCK
  2
*DIM_0022
 70
    65
 10
0.0
 20
0.0
  0
LINE
  8
寸法
  6
BYBLOCK
 62
     0
 10
-48.331778
 20
23.399048
 11
-77.276943
 21
23.399048
  0
LINE
  8
寸法
  6
BYBLOCK
 62
     0
 10
-48.331778
 20
46.732382
 11
-77.276943
 21
46.732382
  0
LINE
  8
寸法
  6
BYBLOCK
 62
     0
 10
-77.276943
 20
23.399048
 11
-77.276943
 21
46.732382
  0
POINT
  8
寸法
 62
     0
 10
-77.276943
 20
23.399048
  0
POINT
  8
寸法
 62
     0
 10
-77.276943
 20
46.732382
  0
TEXT
  7
TextStyle03
  8
寸法
  6
CONTINUOUS
 62
     0
 10
-77.675
 20
32.6125
  1
700
 40
3.0
 50
90.0
 72
     5
 11
-77.675
 21
37.4875
  0
ENDBLK
  0
BLOCK
  2
*DIM_0023
 70
    65
 10
0.0
 20
0.0
  0
LINE
  8
寸法
  6
BYBLOCK
 62
     0
 10
-35.331775
 20
59.73238
 11
-35.331775
 21
88.66
  0
LINE
  8
寸法
  6
BYBLOCK
 62
     0
 10
-11.998442
 20
59.73238
 11
-11.998442
 21
88.66
  0
LINE
  8
寸法
  6
BYBLOCK
 62
     0
 10
-35.331775
 20
88.66
 11
-11.998442
 21
88.66
  0
POINT
  8
寸法
 62
     0
 10
-35.331775
 20
88.66
  0
POINT
  8
寸法
 62
     0
 10
-11.998442
 20
88.66
  0
TEXT
  7
TextStyle03
  8
寸法
  6
CONTINUOUS
 62
     0
 10
-26.1125
 20
89.025
  1
700
 40
3.0
 72
     5
 11
-21.2375
 21
89.025
  0
ENDBLK
  0
BLOCK
  2
*DIM_0024
 70
    65
 10
0.0
 20
0.0
  0
LINE
  8
寸法
  6
BYBLOCK
 62
     0
 10
11.33489
 20
59.73238
 11
11.33489
 21
88.66
  0
LINE
  8
寸法
  6
BYBLOCK
 62
     0
 10
-11.998442
 20
88.66
 11
11.33489
 21
88.66
  0
POINT
  8
寸法
 62
     0
 10
11.33489
 20
88.66
  0
TEXT
  7
TextStyle03
  8
寸法
  6
CONTINUOUS
 62
     0
 10
-2.7875
 20
89.025
  1
700
 40
3.0
 72
     5
 11
2.0875
 21
89.025
  0
ENDBLK
  0
BLOCK
  2
*GRP_0026
 70
    65
 10
0.0
 20
0.0
  0
LINE
  8
ボルト／ビス
  6
CONTINUOUS
 10
110.868155
 20
12.73238
 11
110.40149
 21
12.73238
  0
LINE
  8
ボルト／ビス
  6
CONTINUOUS
 10
110.868155
 20
12.365715
 11
110.80149
 21
12.365715
  0
LINE
  8
ボルト／ビス
  6
CONTINUOUS
 10
110.80149
 20
12.365715
 11
110.80149
 21
13.099048
  0
LINE
  8
ボルト／ビス
  6
CONTINUOUS
 10
110.80149
 20
13.099048
 11
110.868155
 21
13.099048
  0
LINE
  8
ボルト／ビス
  6
CONTINUOUS
 10
110.868155
 20
12.365715
 11
110.868155
 21
13.099048
  0
LINE
  8
ボルト／ビス
  6
CONTINUOUS
 10
110.768155
 20
12.43238
 11
110.80149
 21
12.43238
  0
LINE
  8
ボルト／ビス
  6
CONTINUOUS
 10
110.768155
 20
12.43238
 11
110.768155
 21
13.03238
  0
LINE
  8
ボルト／ビス
  6
CONTINUOUS
 10
110.768155
 20
13.03238
 11
110.80149
 21
13.03238
  0
LINE
  8
ボルト／ビス
  6
CONTINUOUS
 62
    64
 10
110.568155
 20
12.572005
 11
110.57983
 21
12.53993
  0
ARC
  8
ボルト／ビス
  6
CONTINUOUS
 62
    64
 10
110.673134
 20
12.588044
 40
0.104978
 50
152.721967
 51
180.0
  0
ARC
  8
ボルト／ビス
  6
CONTINUOUS
 62
    64
 10
110.970558
 20
12.732382
 40
0.402402
 50
166.165002
 51
193.834985
  0
LINE
  8
ボルト／ビス
  6
CONTINUOUS
 62
    64
 10
110.568155
 20
12.892755
 11
110.57983
 21
12.92483
  0
ARC
  8
ボルト／ビス
  6
CONTINUOUS
 62
    64
 10
110.673134
 20
12.876719
 40
0.104978
 50
180.0
 51
207.278033
  0
LINE
  8
ボルト／ビス
  6
CONTINUOUS
 62
    64
 10
110.568155
 20
12.572005
 11
110.568155
 21
12.892755
  0
LINE
  8
ボルト／ビス
  6
CONTINUOUS
 62
    64
 10
110.57983
 20
12.92483
 11
110.70149
 21
12.92483
  0
LINE
  8
ボルト／ビス
  6
CONTINUOUS
 62
    64
 10
110.57983
 20
12.828605
 11
110.70149
 21
12.828605
  0
LINE
  8
ボルト／ビス
  6
CONTINUOUS
 62
    64
 10
110.57983
 20
12.53993
 11
110.70149
 21
12.53993
  0
LINE
  8
ボルト／ビス
  6
CONTINUOUS
 62
    64
 10
110.57983
 20
12.636155
 11
110.70149
 21
12.636155
  0
LINE
  8
ボルト／ビス
  6
CONTINUOUS
 10
110.70149
 20
12.53993
 11
110.70149
 21
12.92483
  0
LINE
  8
ボルト／ビス
  6
CONTINUOUS
 10
110.70149
 20
12.53238
 11
110.768155
 21
12.53238
  0
LINE
  8
ボルト／ビス
  6
CONTINUOUS
 10
110.70149
 20
12.53238
 11
110.70149
 21
12.93238
  0
LINE
  8
ボルト／ビス
  6
CONTINUOUS
 10
110.70149
 20
12.93238
 11
110.768155
 21
12.93238
  0
ENDBLK
  0
BLOCK
  2
*GRP_0027
 70
    65
 10
0.0
 20
0.0
  0
LINE
  8
ボルト／ビス
  6
CONTINUOUS
 10
110.868155
 20
57.39905
 11
110.40149
 21
57.39905
  0
LINE
  8
ボルト／ビス
  6
CONTINUOUS
 10
110.868155
 20
57.765715
 11
110.80149
 21
57.765715
  0
LINE
  8
ボルト／ビス
  6
CONTINUOUS
 10
110.80149
 20
57.765715
 11
110.80149
 21
57.032382
  0
LINE
  8
ボルト／ビス
  6
CONTINUOUS
 10
110.80149
 20
57.032382
 11
110.868155
 21
57.032382
  0
LINE
  8
ボルト／ビス
  6
CONTINUOUS
 10
110.868155
 20
57.765715
 11
110.868155
 21
57.032382
  0
LINE
  8
ボルト／ビス
  6
CONTINUOUS
 10
110.768155
 20
57.69905
 11
110.80149
 21
57.69905
  0
LINE
  8
ボルト／ビス
  6
CONTINUOUS
 10
110.768155
 20
57.69905
 11
110.768155
 21
57.09905
  0
LINE
  8
ボルト／ビス
  6
CONTINUOUS
 10
110.768155
 20
57.09905
 11
110.80149
 21
57.09905
  0
LINE
  8
ボルト／ビス
  6
CONTINUOUS
 62
    64
 10
110.568155
 20
57.559425
 11
110.57983
 21
57.5915
  0
ARC
  8
ボルト／ビス
  6
CONTINUOUS
 62
    64
 10
110.673134
 20
57.543386
 40
0.104978
 50
180.0
 51
207.278033
  0
ARC
  8
ボルト／ビス
  6
CONTINUOUS
 62
    64
 10
110.970558
 20
57.399048
 40
0.402402
 50
166.165015
 51
193.834998
  0
LINE
  8
ボルト／ビス
  6
CONTINUOUS
 62
    64
 10
110.568155
 20
57.238675
 11
110.57983
 21
57.2066
  0
ARC
  8
ボルト／ビス
  6
CONTINUOUS
 62
    64
 10
110.673134
 20
57.254711
 40
0.104978
 50
152.721967
 51
180.0
  0
LINE
  8
ボルト／ビス
  6
CONTINUOUS
 62
    64
 10
110.568155
 20
57.559425
 11
110.568155
 21
57.238675
  0
LINE
  8
ボルト／ビス
  6
CONTINUOUS
 62
    64
 10
110.57983
 20
57.2066
 11
110.70149
 21
57.2066
  0
LINE
  8
ボルト／ビス
  6
CONTINUOUS
 62
    64
 10
110.57983
 20
57.302825
 11
110.70149
 21
57.302825
  0
LINE
  8
ボルト／ビス
  6
CONTINUOUS
 62
    64
 10
110.57983
 20
57.5915
 11
110.70149
 21
57.5915
  0
LINE
  8
ボルト／ビス
  6
CONTINUOUS
 62
    64
 10
110.57983
 20
57.495275
 11
110.70149
 21
57.495275
  0
LINE
  8
ボルト／ビス
  6
CONTINUOUS
 10
110.70149
 20
57.5915
 11
110.70149
 21
57.2066
  0
LINE
  8
ボルト／ビス
  6
CONTINUOUS
 10
110.70149
 20
57.59905
 11
110.768155
 21
57.59905
  0
LINE
  8
ボルト／ビス
  6
CONTINUOUS
 10
110.70149
 20
57.59905
 11
110.70149
 21
57.19905
  0
LINE
  8
ボルト／ビス
  6
CONTINUOUS
 10
110.70149
 20
57.19905
 11
110.768155
 21
57.19905
  0
ENDBLK
  0
BLOCK
  2
*GRP_0028
 70
    65
 10
0.0
 20
0.0
  0
LINE
  8
ボルト／ビス
  6
CONTINUOUS
 10
22.001557
 20
-79.624597
 11
22.001557
 21
-79.157932
  0
LINE
  8
ボルト／ビス
  6
CONTINUOUS
 10
22.368223
 20
-79.624597
 11
22.368223
 21
-79.557932
  0
LINE
  8
ボルト／ビス
  6
CONTINUOUS
 10
22.368223
 20
-79.557932
 11
21.63489
 21
-79.557932
  0
LINE
  8
ボルト／ビス
  6
CONTINUOUS
 10
21.63489
 20
-79.557932
 11
21.63489
 21
-79.624597
  0
LINE
  8
ボルト／ビス
  6
CONTINUOUS
 10
22.368223
 20
-79.624597
 11
21.63489
 21
-79.624597
  0
LINE
  8
ボルト／ビス
  6
CONTINUOUS
 10
22.301557
 20
-79.524597
 11
22.301557
 21
-79.557932
  0
LINE
  8
ボルト／ビス
  6
CONTINUOUS
 10
22.301557
 20
-79.524597
 11
21.701557
 21
-79.524597
  0
LINE
  8
ボルト／ビス
  6
CONTINUOUS
 10
21.701557
 20
-79.524597
 11
21.701557
 21
-79.557932
  0
LINE
  8
ボルト／ビス
  6
CONTINUOUS
 62
    64
 10
22.161932
 20
-79.324597
 11
22.194008
 21
-79.336272
  0
ARC
  8
ボルト／ビス
  6
CONTINUOUS
 62
    64
 10
22.145894
 20
-79.429577
 40
0.104978
 50
90.0
 51
117.278033
  0
ARC
  8
ボルト／ビス
  6
CONTINUOUS
 62
    64
 10
22.001556
 20
-79.727001
 40
0.402402
 50
76.165015
 51
103.834998
  0
LINE
  8
ボルト／ビス
  6
CONTINUOUS
 62
    64
 10
21.841182
 20
-79.324597
 11
21.809108
 21
-79.336272
  0
ARC
  8
ボルト／ビス
  6
CONTINUOUS
 62
    64
 10
21.857219
 20
-79.429577
 40
0.104978
 50
62.721967
 51
90.0
  0
LINE
  8
ボルト／ビス
  6
CONTINUOUS
 62
    64
 10
22.161932
 20
-79.324597
 11
21.841182
 21
-79.324597
  0
LINE
  8
ボルト／ビス
  6
CONTINUOUS
 62
    64
 10
21.809108
 20
-79.336272
 11
21.809108
 21
-79.457932
  0
LINE
  8
ボルト／ビス
  6
CONTINUOUS
 62
    64
 10
21.905333
 20
-79.336272
 11
21.905333
 21
-79.457932
  0
LINE
  8
ボルト／ビス
  6
CONTINUOUS
 62
    64
 10
22.194008
 20
-79.336272
 11
22.194008
 21
-79.457932
  0
LINE
  8
ボルト／ビス
  6
CONTINUOUS
 62
    64
 10
22.097782
 20
-79.336272
 11
22.097782
 21
-79.457932
  0
LINE
  8
ボルト／ビス
  6
CONTINUOUS
 10
22.194008
 20
-79.457932
 11
21.809108
 21
-79.457932
  0
LINE
  8
ボルト／ビス
  6
CONTINUOUS
 10
22.201557
 20
-79.457932
 11
22.201557
 21
-79.524597
  0
LINE
  8
ボルト／ビス
  6
CONTINUOUS
 10
22.201557
 20
-79.457932
 11
21.801557
 21
-79.457932
  0
LINE
  8
ボルト／ビス
  6
CONTINUOUS
 10
21.801557
 20
-79.457932
 11
21.801557
 21
-79.524597
  0
ENDBLK
  0
BLOCK
  2
*GRP_0029
 70
    65
 10
0.0
 20
0.0
  0
LINE
  8
ボルト／ビス
  6
DOT
 10
22.001557
 20
-66.291265
 11
22.001557
 21
-65.8246
  0
LINE
  8
ボルト／ビス
  6
DOT
 10
22.368223
 20
-66.291265
 11
22.368223
 21
-66.2246
  0
LINE
  8
ボルト／ビス
  6
DOT
 10
22.368223
 20
-66.2246
 11
21.63489
 21
-66.2246
  0
LINE
  8
ボルト／ビス
  6
DOT
 10
21.63489
 20
-66.2246
 11
21.63489
 21
-66.291265
  0
LINE
  8
ボルト／ビス
  6
DOT
 10
22.368223
 20
-66.291265
 11
21.63489
 21
-66.291265
  0
LINE
  8
ボルト／ビス
  6
DOT
 10
22.301557
 20
-66.191265
 11
22.301557
 21
-66.2246
  0
LINE
  8
ボルト／ビス
  6
DOT
 10
22.301557
 20
-66.191265
 11
21.701557
 21
-66.191265
  0
LINE
  8
ボルト／ビス
  6
DOT
 10
21.701557
 20
-66.191265
 11
21.701557
 21
-66.2246
  0
LINE
  8
ボルト／ビス
  6
DOT
 62
    64
 10
22.161932
 20
-65.991265
 11
22.194008
 21
-66.00294
  0
ARC
  8
ボルト／ビス
  6
DOT
 62
    64
 10
22.145894
 20
-66.096245
 40
0.104978
 50
90.0
 51
117.278033
  0
ARC
  8
ボルト／ビス
  6
DOT
 62
    64
 10
22.001556
 20
-66.393669
 40
0.402402
 50
76.165015
 51
103.834998
  0
LINE
  8
ボルト／ビス
  6
DOT
 62
    64
 10
21.841182
 20
-65.991265
 11
21.809108
 21
-66.00294
  0
ARC
  8
ボルト／ビス
  6
DOT
 62
    64
 10
21.857219
 20
-66.096245
 40
0.104978
 50
62.721967
 51
90.0
  0
LINE
  8
ボルト／ビス
  6
DOT
 62
    64
 10
22.161932
 20
-65.991265
 11
21.841182
 21
-65.991265
  0
LINE
  8
ボルト／ビス
  6
DOT
 62
    64
 10
21.809108
 20
-66.00294
 11
21.809108
 21
-66.1246
  0
LINE
  8
ボルト／ビス
  6
DOT
 62
    64
 10
21.905333
 20
-66.00294
 11
21.905333
 21
-66.1246
  0
LINE
  8
ボルト／ビス
  6
DOT
 62
    64
 10
22.194008
 20
-66.00294
 11
22.194008
 21
-66.1246
  0
LINE
  8
ボルト／ビス
  6
DOT
 62
    64
 10
22.097782
 20
-66.00294
 11
22.097782
 21
-66.1246
  0
LINE
  8
ボルト／ビス
  6
DOT
 10
22.194008
 20
-66.1246
 11
21.809108
 21
-66.1246
  0
LINE
  8
ボルト／ビス
  6
DOT
 10
22.201557
 20
-66.1246
 11
22.201557
 21
-66.191265
  0
LINE
  8
ボルト／ビス
  6
DOT
 10
22.201557
 20
-66.1246
 11
21.801557
 21
-66.1246
  0
LINE
  8
ボルト／ビス
  6
DOT
 10
21.801557
 20
-66.1246
 11
21.801557
 21
-66.191265
  0
ENDBLK
  0
BLOCK
  2
*GRP_0030
 70
    65
 10
0.0
 20
0.0
  0
LINE
  8
ボルト／ビス
  6
CONTINUOUS
 10
-45.998442
 20
-79.624597
 11
-45.998442
 21
-79.157932
  0
LINE
  8
ボルト／ビス
  6
CONTINUOUS
 10
-46.365107
 20
-79.624597
 11
-46.365107
 21
-79.557932
  0
LINE
  8
ボルト／ビス
  6
CONTINUOUS
 10
-46.365107
 20
-79.557932
 11
-45.631775
 21
-79.557932
  0
LINE
  8
ボルト／ビス
  6
CONTINUOUS
 10
-45.631775
 20
-79.557932
 11
-45.631775
 21
-79.624597
  0
LINE
  8
ボルト／ビス
  6
CONTINUOUS
 10
-46.365107
 20
-79.624597
 11
-45.631775
 21
-79.624597
  0
LINE
  8
ボルト／ビス
  6
CONTINUOUS
 10
-46.298442
 20
-79.524597
 11
-46.298442
 21
-79.557932
  0
LINE
  8
ボルト／ビス
  6
CONTINUOUS
 10
-46.298442
 20
-79.524597
 11
-45.698442
 21
-79.524597
  0
LINE
  8
ボルト／ビス
  6
CONTINUOUS
 10
-45.698442
 20
-79.524597
 11
-45.698442
 21
-79.557932
  0
LINE
  8
ボルト／ビス
  6
CONTINUOUS
 62
    64
 10
-46.158817
 20
-79.324597
 11
-46.190892
 21
-79.336272
  0
ARC
  8
ボルト／ビス
  6
CONTINUOUS
 62
    64
 10
-46.142779
 20
-79.429577
 40
0.104978
 50
62.721967
 51
90.0
  0
ARC
  8
ボルト／ビス
  6
CONTINUOUS
 62
    64
 10
-45.998441
 20
-79.727001
 40
0.402402
 50
76.165002
 51
103.834985
  0
LINE
  8
ボルト／ビス
  6
CONTINUOUS
 62
    64
 10
-45.838068
 20
-79.324597
 11
-45.805992
 21
-79.336272
  0
ARC
  8
ボルト／ビス
  6
CONTINUOUS
 62
    64
 10
-45.854104
 20
-79.429577
 40
0.104978
 50
90.0
 51
117.278033
  0
LINE
  8
ボルト／ビス
  6
CONTINUOUS
 62
    64
 10
-46.158817
 20
-79.324597
 11
-45.838068
 21
-79.324597
  0
LINE
  8
ボルト／ビス
  6
CONTINUOUS
 62
    64
 10
-45.805992
 20
-79.336272
 11
-45.805992
 21
-79.457932
  0
LINE
  8
ボルト／ビス
  6
CONTINUOUS
 62
    64
 10
-45.902218
 20
-79.336272
 11
-45.902218
 21
-79.457932
  0
LINE
  8
ボルト／ビス
  6
CONTINUOUS
 62
    64
 10
-46.190892
 20
-79.336272
 11
-46.190892
 21
-79.457932
  0
LINE
  8
ボルト／ビス
  6
CONTINUOUS
 62
    64
 10
-46.094668
 20
-79.336272
 11
-46.094668
 21
-79.457932
  0
LINE
  8
ボルト／ビス
  6
CONTINUOUS
 10
-46.190892
 20
-79.457932
 11
-45.805992
 21
-79.457932
  0
LINE
  8
ボルト／ビス
  6
CONTINUOUS
 10
-46.198442
 20
-79.457932
 11
-46.198442
 21
-79.524597
  0
LINE
  8
ボルト／ビス
  6
CONTINUOUS
 10
-46.198442
 20
-79.457932
 11
-45.798442
 21
-79.457932
  0
LINE
  8
ボルト／ビス
  6
CONTINUOUS
 10
-45.798442
 20
-79.457932
 11
-45.798442
 21
-79.524597
  0
ENDBLK
  0
BLOCK
  2
*GRP_0031
 70
    65
 10
0.0
 20
0.0
  0
LINE
  8
ボルト／ビス
  6
DOT
 10
-45.998442
 20
-66.291265
 11
-45.998442
 21
-65.8246
  0
LINE
  8
ボルト／ビス
  6
DOT
 10
-46.365107
 20
-66.291265
 11
-46.365107
 21
-66.2246
  0
LINE
  8
ボルト／ビス
  6
DOT
 10
-46.365107
 20
-66.2246
 11
-45.631775
 21
-66.2246
  0
LINE
  8
ボルト／ビス
  6
DOT
 10
-45.631775
 20
-66.2246
 11
-45.631775
 21
-66.291265
  0
LINE
  8
ボルト／ビス
  6
DOT
 10
-46.365107
 20
-66.291265
 11
-45.631775
 21
-66.291265
  0
LINE
  8
ボルト／ビス
  6
DOT
 10
-46.298442
 20
-66.191265
 11
-46.298442
 21
-66.2246
  0
LINE
  8
ボルト／ビス
  6
DOT
 10
-46.298442
 20
-66.191265
 11
-45.698442
 21
-66.191265
  0
LINE
  8
ボルト／ビス
  6
DOT
 10
-45.698442
 20
-66.191265
 11
-45.698442
 21
-66.2246
  0
LINE
  8
ボルト／ビス
  6
DOT
 62
    64
 10
-46.158817
 20
-65.991265
 11
-46.190892
 21
-66.00294
  0
ARC
  8
ボルト／ビス
  6
DOT
 62
    64
 10
-46.142779
 20
-66.096245
 40
0.104978
 50
62.721967
 51
90.0
  0
ARC
  8
ボルト／ビス
  6
DOT
 62
    64
 10
-45.998441
 20
-66.393669
 40
0.402402
 50
76.165002
 51
103.834985
  0
LINE
  8
ボルト／ビス
  6
DOT
 62
    64
 10
-45.838068
 20
-65.991265
 11
-45.805992
 21
-66.00294
  0
ARC
  8
ボルト／ビス
  6
DOT
 62
    64
 10
-45.854104
 20
-66.096245
 40
0.104978
 50
90.0
 51
117.278033
  0
LINE
  8
ボルト／ビス
  6
DOT
 62
    64
 10
-46.158817
 20
-65.991265
 11
-45.838068
 21
-65.991265
  0
LINE
  8
ボルト／ビス
  6
DOT
 62
    64
 10
-45.805992
 20
-66.00294
 11
-45.805992
 21
-66.1246
  0
LINE
  8
ボルト／ビス
  6
DOT
 62
    64
 10
-45.902218
 20
-66.00294
 11
-45.902218
 21
-66.1246
  0
LINE
  8
ボルト／ビス
  6
DOT
 62
    64
 10
-46.190892
 20
-66.00294
 11
-46.190892
 21
-66.1246
  0
LINE
  8
ボルト／ビス
  6
DOT
 62
    64
 10
-46.094668
 20
-66.00294
 11
-46.094668
 21
-66.1246
  0
LINE
  8
ボルト／ビス
  6
DOT
 10
-46.190892
 20
-66.1246
 11
-45.805992
 21
-66.1246
  0
LINE
  8
ボルト／ビス
  6
DOT
 10
-46.198442
 20
-66.1246
 11
-46.198442
 21
-66.191265
  0
LINE
  8
ボルト／ビス
  6
DOT
 10
-46.198442
 20
-66.1246
 11
-45.798442
 21
-66.1246
  0
LINE
  8
ボルト／ビス
  6
DOT
 10
-45.798442
 20
-66.1246
 11
-45.798442
 21
-66.191265
  0
ENDBLK
  0
BLOCK
  2
*DIM_0032
 70
    65
 10
0.0
 20
0.0
  0
LINE
  8
寸法
  6
BYBLOCK
 62
     0
 10
2.668223
 20
-54.624597
 11
37.30454
 21
-54.624597
  0
LINE
  8
寸法
  6
BYBLOCK
 62
     0
 10
37.30454
 20
-67.95793
 11
37.30454
 21
-54.624597
  0
POINT
  8
寸法
 62
     0
 10
37.30454
 20
-67.95793
  0
POINT
  8
寸法
 62
     0
 10
37.30454
 20
-54.624597
  0
TEXT
  7
TextStyle03
  8
寸法
  6
CONTINUOUS
 62
     0
 10
36.075
 20
-52.7125
  1
上昇高さ400
 40
3.0
 50
90.0
 72
     5
 11
36.075
 21
-34.3375
  0
ENDBLK
  0
ENDSEC
  0
SECTION
  2
ENTITIES
  0
POLYLINE
  8
通り芯
  6
CONTINUOUS
 66
     1
 70
     1
  0
VERTEX
  8
通り芯
 10
-210.0
 20
-148.5
  0
VERTEX
  8
通り芯
 10
210.0
 20
-148.5
  0
VERTEX
  8
通り芯
 10
210.0
 20
148.5
  0
VERTEX
  8
通り芯
 10
-210.0
 20
148.5
  0
SEQEND
  0
INSERT
  2
*GRP_0001
  8
型材断面
  6
CONTINUOUS
 10
0.0
 20
0.0
  0
LINE
  8
型材断面
  6
DASHDOT
 10
21.33489
 20
-87.251428
 11
21.33489
 21
56.73238
  0
LINE
  8
型材断面
  6
DASHDOT
 10
-11.998442
 20
-87.251428
 11
-11.998442
 21
56.73238
  0
LINE
  8
型材断面
  6
DASHDOT
 10
-45.331778
 20
-87.251428
 11
-45.331778
 21
56.73238
  0
LINE
  8
型材断面
  6
DOT
 10
-10.748442
 20
13.399048
 11
-10.748442
 21
56.73238
  0
LINE
  8
型材断面
  6
DOT
 10
-13.248442
 20
13.399048
 11
-13.248442
 21
56.73238
  0
LINE
  8
型材断面
  6
DASHDOT
 10
119.011652
 20
56.73238
 11
-45.331778
 21
56.73238
  0
LINE
  8
型材断面
  6
DASHDOT
 10
119.011652
 20
35.065715
 11
-45.331778
 21
35.065715
  0
LINE
  8
型材断面
  6
DASHDOT
 10
119.011652
 20
13.399048
 11
-45.331778
 21
13.399048
  0
POLYLINE
  8
型材断面
  6
CONTINUOUS
 66
     1
 70
     1
  0
VERTEX
  8
型材断面
 10
-2.516932
 20
66.508305
  0
VERTEX
  8
型材断面
 10
-21.288862
 20
66.508305
  0
VERTEX
  8
型材断面
 10
-21.288862
 20
71.245147
  0
VERTEX
  8
型材断面
 10
-2.516932
 20
71.245147
  0
SEQEND
  0
POLYLINE
  8
型材断面
  6
CONTINUOUS
 66
     1
 70
     1
  0
VERTEX
  8
型材断面
 10
-2.516932
 20
3.623125
  0
VERTEX
  8
型材断面
 10
-21.288862
 20
3.623125
  0
VERTEX
  8
型材断面
 10
-21.288862
 20
-1.113717
  0
VERTEX
  8
型材断面
 10
-2.516932
 20
-1.113717
  0
SEQEND
  0
LINE
  8
型材断面
  6
CONTINUOUS
 10
-47.961907
 20
35.065715
 11
-50.552415
 21
36.561345
  0
LINE
  8
型材断面
  6
CONTINUOUS
 10
-47.961907
 20
35.065715
 11
-50.552415
 21
33.570085
  0
LINE
  8
型材断面
  6
CONTINUOUS
 10
-50.552415
 20
33.570085
 11
-50.552415
 21
36.561345
  0
LINE
  8
型材断面
  6
CONTINUOUS
 10
-28.66511
 20
59.36251
 11
-30.16074
 21
61.953017
  0
LINE
  8
型材断面
  6
CONTINUOUS
 10
-28.66511
 20
59.36251
 11
-27.16948
 21
61.953017
  0
LINE
  8
型材断面
  6
CONTINUOUS
 10
-27.16948
 20
61.953017
 11
-30.16074
 21
61.953017
  0
LINE
  8
型材断面
  6
CONTINUOUS
 10
-86.183985
 20
94.709852
 11
-85.58793
 21
92.119345
  0
LINE
  8
型材断面
  6
CONTINUOUS
 10
-86.183985
 20
94.709852
 11
-86.780043
 21
92.119345
  0
LINE
  8
型材断面
  6
CONTINUOUS
 10
-86.780043
 20
92.119345
 11
-85.58793
 21
92.119345
  0
LINE
  8
型材断面
  6
CONTINUOUS
 10
-92.206573
 20
88.840452
 11
-45.964795
 21
88.840452
  0
LINE
  8
型材断面
  6
CONTINUOUS
 10
-86.183985
 20
101.239727
 11
-87.679615
 21
98.64922
  0
LINE
  8
型材断面
  6
CONTINUOUS
 10
-86.183985
 20
101.239727
 11
-84.688355
 21
98.64922
  0
LINE
  8
型材断面
  6
CONTINUOUS
 10
-84.688355
 20
98.64922
 11
-87.679615
 21
98.64922
  0
LINE
  8
型材断面
  6
CONTINUOUS
 10
-92.206573
 20
97.710625
 11
-45.964795
 21
97.710625
  0
LINE
  8
型材断面
  6
CONTINUOUS
 10
-92.206573
 20
83.05242
 11
-45.964795
 21
83.05242
  0
LINE
  8
型材断面
  6
CONTINUOUS
 10
-28.66511
 20
10.76892
 11
-30.16074
 21
8.178413
  0
LINE
  8
型材断面
  6
CONTINUOUS
 10
-28.66511
 20
10.76892
 11
-27.16948
 21
8.178413
  0
LINE
  8
型材断面
  6
CONTINUOUS
 10
-27.16948
 20
8.178413
 11
-30.16074
 21
8.178413
  0
LINE
  8
型材断面
  6
CONTINUOUS
 10
23.965022
 20
35.065715
 11
26.55553
 21
36.561345
  0
LINE
  8
型材断面
  6
CONTINUOUS
 10
23.965022
 20
35.065715
 11
26.55553
 21
33.570085
  0
LINE
  8
型材断面
  6
CONTINUOUS
 10
26.55553
 20
33.570085
 11
26.55553
 21
36.561345
  0
LINE
  8
型材断面
  6
CONTINUOUS
 10
4.668225
 20
59.36251
 11
6.163855
 21
61.953017
  0
LINE
  8
型材断面
  6
CONTINUOUS
 10
4.668225
 20
59.36251
 11
3.172595
 21
61.953017
  0
LINE
  8
型材断面
  6
CONTINUOUS
 10
3.172595
 20
61.953017
 11
6.163855
 21
61.953017
  0
LINE
  8
型材断面
  6
CONTINUOUS
 10
4.668225
 20
10.76892
 11
6.163855
 21
8.178413
  0
LINE
  8
型材断面
  6
CONTINUOUS
 10
4.668225
 20
10.76892
 11
3.172595
 21
8.178413
  0
LINE
  8
型材断面
  6
CONTINUOUS
 10
3.172595
 20
8.178413
 11
6.163855
 21
8.178413
  0
LINE
  8
型材断面
  6
CONTINUOUS
 10
23.96502
 20
53.032382
 11
26.55553
 21
52.43633
  0
LINE
  8
型材断面
  6
CONTINUOUS
 10
23.96502
 20
53.032382
 11
26.555528
 21
53.628442
  0
LINE
  8
型材断面
  6
CONTINUOUS
 10
26.555528
 20
53.628442
 11
26.55553
 21
52.43633
  0
LINE
  8
型材断面
  6
CONTINUOUS
 10
23.96502
 20
17.099048
 11
26.55553
 21
17.6951
  0
LINE
  8
型材断面
  6
CONTINUOUS
 10
23.96502
 20
17.099048
 11
26.555528
 21
16.502988
  0
LINE
  8
型材断面
  6
CONTINUOUS
 10
26.555528
 20
16.502988
 11
26.55553
 21
17.6951
  0
LINE
  8
型材断面
  6
CONTINUOUS
 10
-47.961905
 20
53.032382
 11
-50.552415
 21
52.43633
  0
LINE
  8
型材断面
  6
CONTINUOUS
 10
-47.961905
 20
53.032382
 11
-50.552412
 21
53.628442
  0
LINE
  8
型材断面
  6
CONTINUOUS
 10
-50.552412
 20
53.628442
 11
-50.552415
 21
52.43633
  0
LINE
  8
型材断面
  6
CONTINUOUS
 10
-47.961905
 20
17.099048
 11
-50.552415
 21
17.6951
  0
LINE
  8
型材断面
  6
CONTINUOUS
 10
-47.961905
 20
17.099048
 11
-50.552412
 21
16.502988
  0
LINE
  8
型材断面
  6
CONTINUOUS
 10
-50.552412
 20
16.502988
 11
-50.552415
 21
17.6951
  0
INSERT
  2
*GRP_0012
  8
型材断面
  6
CONTINUOUS
 10
0.0
 20
0.0
  0
INSERT
  2
*GRP_0013
  8
型材断面
  6
CONTINUOUS
 10
0.0
 20
0.0
  0
INSERT
  2
*GRP_0014
  8
型材断面
  6
CONTINUOUS
 10
0.0
 20
0.0
  0
INSERT
  2
*GRP_0015
  8
型材断面
  6
CONTINUOUS
 10
0.0
 20
0.0
  0
LINE
  8
型材断面
  6
CONTINUOUS
 62
    47
 10
118.401657
 20
11.915715
 11
117.901657
 21
11.915715
  0
LINE
  8
型材断面
  6
CONTINUOUS
 62
    47
 10
117.901657
 20
11.415715
 11
114.58499
 21
11.415715
  0
LINE
  8
型材断面
  6
CONTINUOUS
 62
    47
 10
112.24494
 20
11.415715
 11
114.418273
 21
11.415715
  0
LINE
  8
型材断面
  6
CONTINUOUS
 62
    47
 10
112.24494
 20
12.299048
 11
111.868155
 21
12.299048
  0
LINE
  8
型材断面
  6
CONTINUOUS
 62
    47
 10
112.24494
 20
11.415715
 11
112.24494
 21
35.065715
  0
LINE
  8
型材断面
  6
CONTINUOUS
 62
    47
 10
114.58499
 20
11.415715
 11
114.584943
 21
35.065715
  0
LINE
  8
型材断面
  6
CONTINUOUS
 62
    47
 10
114.418273
 20
11.415715
 11
114.418273
 21
35.065715
  0
LINE
  8
型材断面
  6
CONTINUOUS
 62
    47
 10
118.401657
 20
11.915715
 11
118.401657
 21
35.065715
  0
LINE
  8
型材断面
  6
CONTINUOUS
 62
    47
 10
117.901657
 20
11.415715
 11
117.901657
 21
35.065715
  0
LINE
  8
型材断面
  6
CONTINUOUS
 62
    47
 10
118.401657
 20
58.215715
 11
117.901657
 21
58.215715
  0
LINE
  8
型材断面
  6
CONTINUOUS
 62
    47
 10
117.901657
 20
58.715715
 11
114.58499
 21
58.715715
  0
LINE
  8
型材断面
  6
CONTINUOUS
 62
    47
 10
112.24494
 20
58.715715
 11
114.418273
 21
58.715715
  0
LINE
  8
型材断面
  6
CONTINUOUS
 62
    47
 10
112.24494
 20
57.832382
 11
111.868155
 21
57.832382
  0
LINE
  8
型材断面
  6
CONTINUOUS
 62
    47
 10
112.24494
 20
58.715715
 11
112.24494
 21
35.065715
  0
LINE
  8
型材断面
  6
CONTINUOUS
 62
    47
 10
114.58499
 20
58.715715
 11
114.584943
 21
35.065715
  0
LINE
  8
型材断面
  6
CONTINUOUS
 62
    47
 10
114.418273
 20
58.715715
 11
114.418273
 21
35.065715
  0
LINE
  8
型材断面
  6
CONTINUOUS
 62
    47
 10
118.401657
 20
58.215715
 11
118.401657
 21
35.065715
  0
LINE
  8
型材断面
  6
CONTINUOUS
 62
    47
 10
117.901657
 20
58.715715
 11
117.901657
 21
35.065715
  0
LINE
  8
型材断面
  6
CONTINUOUS
 62
    47
 10
-46.815107
 20
-87.1581
 11
-46.815107
 21
-86.6581
  0
LINE
  8
型材断面
  6
CONTINUOUS
 62
    47
 10
-47.315107
 20
-86.6581
 11
-47.315107
 21
-83.341432
  0
LINE
  8
型材断面
  6
CONTINUOUS
 62
    47
 10
-47.315107
 20
-81.001383
 11
-47.315107
 21
-83.174715
  0
LINE
  8
型材断面
  6
CONTINUOUS
 62
    47
 10
-46.431775
 20
-81.001383
 11
-46.431775
 21
-80.624597
  0
LINE
  8
型材断面
  6
CONTINUOUS
 62
    47
 10
-47.315107
 20
-81.001383
 11
-11.998442
 21
-81.001383
  0
LINE
  8
型材断面
  6
CONTINUOUS
 62
    47
 10
-47.315107
 20
-83.341432
 11
-11.998442
 21
-83.341365
  0
LINE
  8
型材断面
  6
CONTINUOUS
 62
    47
 10
-47.315107
 20
-83.174715
 11
-11.998442
 21
-83.174715
  0
LINE
  8
型材断面
  6
CONTINUOUS
 62
    47
 10
-46.815107
 20
-87.1581
 11
-11.998442
 21
-87.1581
  0
LINE
  8
型材断面
  6
CONTINUOUS
 62
    47
 10
-47.315107
 20
-86.6581
 11
-11.998442
 21
-86.6581
  0
LINE
  8
型材断面
  6
CONTINUOUS
 62
    47
 10
22.818223
 20
-87.1581
 11
22.818223
 21
-86.6581
  0
LINE
  8
型材断面
  6
CONTINUOUS
 62
    47
 10
23.318223
 20
-86.6581
 11
23.318223
 21
-83.341432
  0
LINE
  8
型材断面
  6
CONTINUOUS
 62
    47
 10
23.318223
 20
-81.001383
 11
23.318223
 21
-83.174715
  0
LINE
  8
型材断面
  6
CONTINUOUS
 62
    47
 10
22.43489
 20
-81.001383
 11
22.43489
 21
-80.624597
  0
LINE
  8
型材断面
  6
CONTINUOUS
 62
    47
 10
23.318223
 20
-81.001383
 11
-11.998442
 21
-81.001383
  0
LINE
  8
型材断面
  6
CONTINUOUS
 62
    47
 10
23.318223
 20
-83.341432
 11
-11.998442
 21
-83.341365
  0
LINE
  8
型材断面
  6
CONTINUOUS
 62
    47
 10
23.318223
 20
-83.174715
 11
-11.998442
 21
-83.174715
  0
LINE
  8
型材断面
  6
CONTINUOUS
 62
    47
 10
22.818223
 20
-87.1581
 11
-11.998442
 21
-87.1581
  0
LINE
  8
型材断面
  6
CONTINUOUS
 62
    47
 10
23.318223
 20
-86.6581
 11
-11.998442
 21
-86.6581
  0
LINE
  8
型材断面
  6
CONTINUOUS
 10
-92.206573
 20
77.264387
 11
-45.964795
 21
77.264387
  0
TEXT
  7
TextStyle03
  8
文字
  6
CONTINUOUS
 10
97.9
 20
-86.1
  1
網入り6.8t
 40
3.0
 72
     5
 11
114.5875
 21
-86.1
  0
TEXT
  7
TextStyle03
  8
文字
  6
CONTINUOUS
 10
104.575
 20
-90.775
  1
×２枚
 40
3.0
 72
     5
 11
114.325
 21
-90.775
  0
TEXT
  7
TextStyle03
  8
文字
  6
CONTINUOUS
 10
-20.25
 20
67.2
  1
可動装置側
 40
3.0
 72
     5
 11
-3.75
 21
67.2
  0
TEXT
  7
TextStyle03
  8
文字
  6
CONTINUOUS
 10
-20.25
 20
-0.075
  1
可動装置側
 40
3.0
 72
     5
 11
-3.75
 21
-0.075
  0
TEXT
  7
TextStyle03
  8
文字
  6
CONTINUOUS
 10
-83.45
 20
93.325
  1
はケーシング位置を示す
 40
3.0
 72
     5
 11
-46.7
 21
93.325
  0
TEXT
  7
TextStyle03
  8
文字
  6
CONTINUOUS
 10
-83.45
 20
89.95
  1
４ヶ所中1ヶ所に設定
 40
3.0
 72
     5
 11
-51.7625
 21
89.95
  0
TEXT
  7
TextStyle03
  8
文字
  6
CONTINUOUS
 10
-83.45
 20
98.85
  1
は排水穴位置を示す
 40
3.0
 72
     5
 11
-53.45
 21
98.85
  0
TEXT
  7
TextStyle03
  8
文字
  6
CONTINUOUS
 10
-87.175
 20
83.975
  1
アンカー数量　１０ヶ所
 40
3.0
 72
     5
 11
-50.425
 21
83.975
  0
TEXT
  7
TextStyle03
  8
文字
  6
CONTINUOUS
 10
-82.875
 20
23.975
  1
アンカーピッチ
 40
3.0
 50
90.0
 72
     5
 11
-82.875
 21
47.225
  0
TEXT
  7
TextStyle03
  8
文字
  6
CONTINUOUS
 10
-37.9
 20
93.575
  1
アンカーピッチ
 40
3.0
 72
     5
 11
-14.65
 21
93.575
  0
TEXT
  7
TextStyle03
  8
文字
  6
CONTINUOUS
 10
-87.175
 20
78.2
  1
アームユニット数　４ヶ所
 40
3.0
 72
     5
 11
-47.05
 21
78.2
  0
TEXT
  7
TextStyle03
  8
文字
  6
CONTINUOUS
 10
78.1
 20
125.25
  1
シリーズ：ＴＤ２Ｌ
 40
5.0
 72
     5
 11
128.1
 21
125.25
  0
TEXT
  7
TextStyle03
  8
文字
  6
CONTINUOUS
 10
78.1
 20
119.625
  1
　　　　　（上下可動）1300×2000タイプ
 40
5.0
 72
     5
 11
184.35
 21
119.625
  0
TEXT
  7
TextStyle03
  8
文字
  6
CONTINUOUS
 10
78.1
 20
114.0
  1
図面名　：外観姿図
 40
5.0
 72
     5
 11
128.1
 21
114.0
  0
TEXT
  7
TextStyle03
  8
文字
  6
CONTINUOUS
 10
78.1
 20
108.375
  1
　　　　　　
 40
5.0
 72
     5
 11
111.225
 21
108.375
  0
TEXT
  7
TextStyle03
  8
文字
  6
CONTINUOUS
 10
77.125
 20
103.95
  1
ＮＳコード：ＮＳＤＺＬ
 40
5.0
 72
     5
 11
138.375
 21
103.95
  0
INSERT
  2
*DIM_0002
  8
寸法
  6
CONTINUOUS
 10
0.0
 20
0.0
  0
INSERT
  2
*DIM_0003
  8
寸法
  6
CONTINUOUS
 10
0.0
 20
0.0
  0
INSERT
  2
*DIM_0004
  8
寸法
  6
CONTINUOUS
 10
0.0
 20
0.0
  0
INSERT
  2
*DIM_0005
  8
寸法
  6
CONTINUOUS
 10
0.0
 20
0.0
  0
INSERT
  2
*DIM_0006
  8
寸法
  6
CONTINUOUS
 10
0.0
 20
0.0
  0
INSERT
  2
*DIM_0007
  8
寸法
  6
CONTINUOUS
 10
0.0
 20
0.0
  0
INSERT
  2
*DIM_0008
  8
寸法
  6
CONTINUOUS
 10
0.0
 20
0.0
  0
INSERT
  2
*DIM_0009
  8
寸法
  6
CONTINUOUS
 10
0.0
 20
0.0
  0
INSERT
  2
*DIM_0010
  8
寸法
  6
CONTINUOUS
 10
0.0
 20
0.0
  0
INSERT
  2
*DIM_0016
  8
寸法
  6
CONTINUOUS
 10
0.0
 20
0.0
  0
INSERT
  2
*DIM_0017
  8
寸法
  6
CONTINUOUS
 10
0.0
 20
0.0
  0
INSERT
  2
*DIM_0018
  8
寸法
  6
CONTINUOUS
 10
0.0
 20
0.0
  0
INSERT
  2
*DIM_0019
  8
寸法
  6
CONTINUOUS
 10
0.0
 20
0.0
  0
INSERT
  2
*DIM_0020
  8
寸法
  6
CONTINUOUS
 10
0.0
 20
0.0
  0
INSERT
  2
*DIM_0021
  8
寸法
  6
CONTINUOUS
 10
0.0
 20
0.0
  0
INSERT
  2
*DIM_0022
  8
寸法
  6
CONTINUOUS
 10
0.0
 20
0.0
  0
INSERT
  2
*DIM_0023
  8
寸法
  6
CONTINUOUS
 10
0.0
 20
0.0
  0
INSERT
  2
*DIM_0024
  8
寸法
  6
CONTINUOUS
 10
0.0
 20
0.0
  0
INSERT
  2
*DIM_0032
  8
寸法
  6
CONTINUOUS
 10
0.0
 20
0.0
  0
LINE
  8
別途部材
  6
CONTINUOUS
 10
23.401557
 20
11.33238
 11
23.001557
 21
11.73238
  0
LINE
  8
別途部材
  6
CONTINUOUS
 10
21.33489
 20
13.399048
 11
13.275635
 21
21.458305
  0
LINE
  8
別途部材
  6
CONTINUOUS
 62
    96
 10
110.868155
 20
11.73238
 11
111.868155
 21
11.33238
  0
LINE
  8
別途部材
  6
CONTINUOUS
 10
23.001557
 20
11.73238
 11
23.001557
 21
35.065715
  0
LINE
  8
別途部材
  6
CONTINUOUS
 10
23.401557
 20
11.33238
 11
23.401557
 21
35.065715
  0
LINE
  8
別途部材
  6
CONTINUOUS
 10
23.401557
 20
58.79905
 11
23.001557
 21
58.39905
  0
LINE
  8
別途部材
  6
CONTINUOUS
 10
21.33489
 20
56.732382
 11
13.275635
 21
48.673125
  0
LINE
  8
別途部材
  6
CONTINUOUS
 10
23.001557
 20
58.39905
 11
23.001557
 21
35.065715
  0
LINE
  8
別途部材
  6
CONTINUOUS
 10
23.401557
 20
58.79905
 11
23.401557
 21
35.065715
  0
LINE
  8
別途部材
  6
CONTINUOUS
 10
111.868155
 20
11.33238
 11
111.868155
 21
35.065715
  0
LINE
  8
別途部材
  6
CONTINUOUS
 62
    96
 10
110.868155
 20
11.73238
 11
110.868155
 21
35.065715
  0
LINE
  8
別途部材
  6
CONTINUOUS
 62
    96
 10
110.868155
 20
58.39905
 11
111.868155
 21
58.79905
  0
LINE
  8
別途部材
  6
CONTINUOUS
 10
111.868155
 20
58.79905
 11
111.868155
 21
35.065715
  0
LINE
  8
別途部材
  6
CONTINUOUS
 62
    96
 10
110.868155
 20
58.39905
 11
110.868155
 21
35.065715
  0
ARC
  8
別途部材
  6
CONTINUOUS
 10
125.153867
 20
35.065713
 40
25.95238
 50
123.398485
 51
236.601515
  0
LINE
  8
別途部材
  6
CONTINUOUS
 10
23.401557
 20
11.33238
 11
-11.998442
 21
11.33238
  0
LINE
  8
別途部材
  6
CONTINUOUS
 10
23.001557
 20
11.73238
 11
-11.998442
 21
11.73238
  0
LINE
  8
別途部材
  6
CONTINUOUS
 10
23.401557
 20
58.79905
 11
-11.998442
 21
58.79905
  0
LINE
  8
別途部材
  6
CONTINUOUS
 10
23.001557
 20
58.39905
 11
-11.998442
 21
58.39905
  0
LINE
  8
別途部材
  6
CONTINUOUS
 10
-47.398442
 20
11.33238
 11
-46.998442
 21
11.73238
  0
LINE
  8
別途部材
  6
CONTINUOUS
 10
-45.331775
 20
13.399048
 11
-37.27252
 21
21.458305
  0
LINE
  8
別途部材
  6
CONTINUOUS
 10
-46.998442
 20
11.73238
 11
-46.998442
 21
35.065715
  0
LINE
  8
別途部材
  6
CONTINUOUS
 10
-47.398442
 20
11.33238
 11
-47.398442
 21
35.065715
  0
LINE
  8
別途部材
  6
CONTINUOUS
 10
-47.398442
 20
58.79905
 11
-46.998442
 21
58.39905
  0
LINE
  8
別途部材
  6
CONTINUOUS
 10
-45.331775
 20
56.732382
 11
-37.27252
 21
48.673125
  0
LINE
  8
別途部材
  6
CONTINUOUS
 10
-46.998442
 20
58.39905
 11
-46.998442
 21
35.065715
  0
LINE
  8
別途部材
  6
CONTINUOUS
 10
-47.398442
 20
58.79905
 11
-47.398442
 21
35.065715
  0
LINE
  8
別途部材
  6
CONTINUOUS
 10
-47.398442
 20
11.33238
 11
-11.998442
 21
11.33238
  0
LINE
  8
別途部材
  6
CONTINUOUS
 10
-46.998442
 20
11.73238
 11
-11.998442
 21
11.73238
  0
LINE
  8
別途部材
  6
CONTINUOUS
 10
-47.398442
 20
58.79905
 11
-11.998442
 21
58.79905
  0
LINE
  8
別途部材
  6
CONTINUOUS
 10
-46.998442
 20
58.39905
 11
-11.998442
 21
58.39905
  0
LINE
  8
別途部材
  6
DOT
 62
    96
 10
23.001557
 20
-66.291265
 11
23.401557
 21
-67.291265
  0
ARC
  8
別途部材
  6
DOT
 10
-0.331778
 20
-80.57698
 40
25.952382
 50
33.398488
 51
90.0
  0
LINE
  8
別途部材
  6
DOT
 10
-0.331778
 20
-54.624597
 11
-11.998442
 21
-54.624597
  0
LINE
  8
別途部材
  6
DOT
 10
23.401557
 20
-67.291265
 11
-11.998442
 21
-67.291265
  0
LINE
  8
別途部材
  6
DOT
 62
    96
 10
23.001557
 20
-66.291265
 11
-11.998442
 21
-66.291265
  0
LINE
  8
別途部材
  6
DOT
 62
    96
 10
-46.998442
 20
-66.291265
 11
-47.398442
 21
-67.291265
  0
ARC
  8
別途部材
  6
DOT
 10
-23.665107
 20
-80.57698
 40
25.952382
 50
90.0
 51
146.601512
  0
LINE
  8
別途部材
  6
DOT
 10
-23.665107
 20
-54.624597
 11
-11.998442
 21
-54.624597
  0
LINE
  8
別途部材
  6
DOT
 10
-47.398442
 20
-67.291265
 11
-11.998442
 21
-67.291265
  0
LINE
  8
別途部材
  6
DOT
 62
    96
 10
-46.998442
 20
-66.291265
 11
-11.998442
 21
-66.291265
  0
INSERT
  2
*GRP_0011
  8
別途部材
  6
CONTINUOUS
 10
0.0
 20
0.0
  0
INSERT
  2
*GRP_0026
  8
別途部材
  6
DOT
 10
0.0
 20
0.0
  0
INSERT
  2
*GRP_0027
  8
別途部材
  6
DOT
 10
0.0
 20
0.0
  0
INSERT
  2
*GRP_0028
  8
別途部材
  6
DOT
 10
0.0
 20
0.0
  0
INSERT
  2
*GRP_0029
  8
別途部材
  6
DOT
 10
0.0
 20
0.0
  0
INSERT
  2
*GRP_0030
  8
別途部材
  6
DOT
 10
0.0
 20
0.0
  0
INSERT
  2
*GRP_0031
  8
別途部材
  6
DOT
 10
0.0
 20
0.0
  0
LINE
  8
曲げ物
  6
CONTINUOUS
 10
116.421445
 20
-92.533713
 11
116.421445
 21
-49.867045
  0
LINE
  8
曲げ物
  6
CONTINUOUS
 10
116.421445
 20
-49.867045
 11
83.954777
 21
-49.867045
  0
LINE
  8
曲げ物
  6
CONTINUOUS
 10
83.954777
 20
-49.867045
 11
83.954777
 21
-92.533713
  0
LINE
  8
曲げ物
  6
CONTINUOUS
 10
116.421445
 20
-92.533713
 11
83.954777
 21
-92.533713
  0
ENDSEC
  0
EOF
