  0
SECTION
  2
HEADER
  9
$EXTMIN
 10
-210.0
 20
-148.5
  9
$EXTMAX
 10
210.0
 20
148.5
  9
$PDMODE
 70
    32
  9
$PDSIZE
 40
1.5
  9
$LTSCALE
 40
10.0
  0
ENDSEC
  0
SECTION
  2
TABLES
  0
TABLE
  2
LTYPE
 70
    15
  0
LTYPE
  2
CONTINUOUS
 70
    64
  3
実線
 72
    65
 73
     0
 40
0.0
  0
LTYPE
  2
DASHED
 70
    64
  3
破線A
 72
    65
 73
     2
 40
0.6
 49
0.4
 49
-0.2
  0
LTYPE
  2
DASHEDX2
 70
    64
  3
破線B
 72
    65
 73
     2
 40
1.3
 49
0.9
 49
-0.4
  0
LTYPE
  2
DASHDOT
 70
    64
  3
１点鎖線A
 72
    65
 73
     4
 40
0.5375
 49
0.375
 49
-0.05
 49
0.0625
 49
-0.05
  0
LTYPE
  2
DASHDOTX2
 70
    64
  3
１点鎖線B
 72
    65
 73
     4
 40
1.075
 49
0.75
 49
-0.1
 49
0.125
 49
-0.1
  0
LTYPE
  2
DIVIDE2
 70
    64
  3
２点鎖線A
 72
    65
 73
     6
 40
0.5125
 49
0.3
 49
-0.0375
 49
0.05
 49
-0.0375
 49
0.05
 49
-0.0375
  0
LTYPE
  2
DIVIDE
 70
    64
  3
２点鎖線B
 72
    65
 73
     6
 40
1.05
 49
0.55
 49
-0.1
 49
0.1
 49
-0.1
 49
0.1
 49
-0.1
  0
LTYPE
  2
DOT
 70
    64
  3
点線A
 72
    65
 73
     2
 40
0.1125
 49
0.0625
 49
-0.05
  0
LTYPE
  2
DOTX2
 70
    64
  3
点線B
 72
    65
 73
     2
 40
0.275
 49
0.15
 49
-0.125
  0
LTYPE
  2
CONTINUOUS
 70
    64
  3
実線
 72
    65
 73
     0
 40
0.0
  0
LTYPE
  2
CONTINUOUS
 70
    64
  3
実線
 72
    65
 73
     0
 40
0.0
  0
LTYPE
  2
CONTINUOUS
 70
    64
  3
実線
 72
    65
 73
     0
 40
0.0
  0
LTYPE
  2
CONTINUOUS
 70
    64
  3
実線
 72
    65
 73
     0
 40
0.0
  0
LTYPE
  2
CONTINUOUS
 70
    64
  3
実線
 72
    65
 73
     0
 40
0.0
  0
LTYPE
  2
CONTINUOUS
 70
    64
  3
実線
 72
    65
 73
     0
 40
0.0
  0
ENDTAB
  0
TABLE
  2
LAYER
 70
    34
  0
LAYER
  2
通り芯
 70
     0
 62
    15
  6
CONTINUOUS
  0
LAYER
  2
補助線
 70
     0
 62
    16
  6
DOT
  0
LAYER
  2
躯体
 70
     0
 62
    31
  6
CONTINUOUS
  0
LAYER
  2
型材
 70
     0
 62
    32
  6
CONTINUOUS
  0
LAYER
  2
型材断面
 70
     0
 62
    47
  6
CONTINUOUS
  0
LAYER
  2
ガラス
 70
     0
 62
    48
  6
CONTINUOUS
  0
LAYER
  2
ゴム等
 70
     0
 62
    63
  6
CONTINUOUS
  0
LAYER
  2
ボルト／ビス
 70
     0
 62
    64
  6
CONTINUOUS
  0
LAYER
  2
文字
 70
     0
 62
    79
  6
CONTINUOUS
  0
LAYER
  2
寸法
 70
     0
 62
    80
  6
CONTINUOUS
  0
LAYER
  2
ﾊｯﾁﾝｸﾞ
 70
     0
 62
    95
  6
CONTINUOUS
  0
LAYER
  2
別途部材
 70
     0
 62
    96
  6
CONTINUOUS
  0
LAYER
  2
曲げ物
 70
     0
 62
   111
  6
CONTINUOUS
  0
LAYER
  2
鉄骨等
 70
     0
 62
   112
  6
CONTINUOUS
  0
LAYER
  2
St
 70
     0
 62
   127
  6
CONTINUOUS
  0
LAYER
  2
その他部品等
 70
     0
 62
   128
  6
CONTINUOUS
  0
LAYER
  2
ｶﾞｽｹｯﾄ
 70
     0
 62
   143
  6
CONTINUOUS
  0
LAYER
  2
ｽｹｯﾁ
 70
     0
 62
    14
  6
CONTINUOUS
  0
LAYER
  2
0
 70
     0
 62
    17
  6
CONTINUOUS
  0
LAYER
  2
1
 70
     0
 62
    30
  6
CONTINUOUS
  0
LAYER
  2
4
 70
     0
 62
    33
  6
CONTINUOUS
  0
LAYER
  2
ﾚｲﾔ3
 70
     0
 62
    46
  6
CONTINUOUS
  0
LAYER
  2
外形線
 70
     0
 62
    49
  6
CONTINUOUS
  0
LAYER
  2
部品
 70
     0
 62
    14
  6
CONTINUOUS
  0
LAYER
  2
サッシ芯
 70
     0
 62
    17
  6
DASHDOTX2
  0
LAYER
  2
寸法線
 70
     0
 62
    62
  6
CONTINUOUS
  0
LAYER
  2
姿図外形線
 70
     0
 62
    65
  6
CONTINUOUS
  0
LAYER
  2
姿補助線
 70
     0
 62
    30
  6
CONTINUOUS
  0
LAYER
  2
透視線
 70
     0
 62
    78
  6
DOT
  0
LAYER
  2
用紙
 70
     0
 62
    81
  6
CONTINUOUS
  0
LAYER
  2
実線図枠
 70
     0
 62
    94
  6
CONTINUOUS
  0
LAYER
  2
補助図枠
 70
     0
 62
    97
  6
CONTINUOUS
  0
LAYER
  2
建具記号
 70
     0
 62
   110
  6
CONTINUOUS
  0
LAYER
  2
補助文字
 70
     0
 62
   113
  6
CONTINUOUS
  0
ENDTAB
  0
TABLE
  2
STYLE
 70
    10
  0
STYLE
  2
STANDARD
 70
     0
 40
1.0
 41
1.0
 42
1.0
 50
0.0
 71
     0
  3
TXT
  4
BIGFONT
  0
STYLE
  2
TATE
 70
     4
 40
1.0
 41
1.0
 42
1.0
 50
0.0
 71
     0
  3
TXT
  4
BIGFONT
  0
STYLE
  2
TextStyle03
 70
     0
 40
1.0
 41
1.0
 42
1.0
 50
0.0
 71
     0
  3
MONOTXT
  4
BIGFONT
  0
STYLE
  2
TextStyle04
 70
     0
 40
1.0
 41
1.0
 42
1.0
 50
0.0
 71
     0
  3
MONOTXT
  4
BIGFONT
  0
STYLE
  2
TextStyle05
 70
     0
 40
1.0
 41
1.0
 42
1.0
 50
0.0
 71
     0
  3
MONOTXT
  4
BIGFONT
  0
STYLE
  2
TextStyle06
 70
     0
 40
1.0
 41
1.0
 42
1.0
 50
0.0
 71
     0
  3
MONOTXT
  4
BIGFONT
  0
STYLE
  2
TextStyle07
 70
     0
 40
1.0
 41
1.0
 42
1.0
 50
0.0
 71
     0
  3
MONOTXT
  4
BIGFONT
  0
STYLE
  2
TextStyle08
 70
     0
 40
1.0
 41
1.0
 42
1.0
 50
0.0
 71
     0
  3
MONOTXT
  4
BIGFONT
  0
STYLE
  2
TextStyle09
 70
     0
 40
1.0
 41
1.0
 42
1.0
 50
0.0
 71
     0
  3
MONOTXT
  4
BIGFONT
  0
STYLE
  2
TextStyle10
 70
     0
 40
1.0
 41
1.0
 42
1.0
 50
0.0
 71
     0
  3
MONOTXT
  4
BIGFONT
  0
ENDTAB
  0
ENDSEC
  0
SECTION
  2
BLOCKS
  0
BLOCK
  2
*GRP_0001
 70
    65
 10
0.0
 20
0.0
  0
LINE
  8
型材断面
  6
CONTINUOUS
 10
195.0
 20
133.5
 11
195.0
 21
-133.5
  0
LINE
  8
型材断面
  6
CONTINUOUS
 10
195.0
 20
-133.5
 11
-185.0
 21
-133.5
  0
LINE
  8
型材断面
  6
CONTINUOUS
 10
-185.0
 20
-133.5
 11
-185.0
 21
133.5
  0
LINE
  8
型材断面
  6
CONTINUOUS
 10
195.0
 20
133.5
 11
-185.0
 21
133.5
  0
LINE
  8
型材断面
  6
CONTINUOUS
 10
145.0
 20
-133.5
 11
145.0
 21
-118.5
  0
LINE
  8
型材断面
  6
CONTINUOUS
 10
195.0
 20
-118.5
 11
145.0
 21
-118.5
  0
ENDBLK
  0
BLOCK
  2
*DIM_0002
 70
    65
 10
0.0
 20
0.0
  0
LINE
  8
寸法
  6
BYBLOCK
 62
     0
 10
0.668223
 20
-67.95793
 11
37.30454
 21
-67.95793
  0
LINE
  8
寸法
  6
BYBLOCK
 62
     0
 10
37.30454
 20
-79.624597
 11
37.30454
 21
-67.95793
  0
POINT
  8
寸法
 62
     0
 10
37.30454
 20
-79.624597
  0
POINT
  8
寸法
 62
     0
 10
37.30454
 20
-67.95793
  0
TEXT
  7
TextStyle03
  8
寸法
  6
CONTINUOUS
 62
     0
 10
36.975
 20
-76.2375
  1
350
 40
3.0
 50
90.0
 72
     5
 11
36.975
 21
-71.3625
  0
ENDBLK
  0
BLOCK
  2
*DIM_0003
 70
    65
 10
0.0
 20
0.0
  0
LINE
  8
寸法
  6
BYBLOCK
 62
     0
 10
55.35454
 20
13.399048
 11
55.35454
 21
56.73238
  0
POINT
  8
寸法
 62
     0
 10
55.35454
 20
13.399048
  0
POINT
  8
寸法
 62
     0
 10
55.35454
 20
56.73238
  0
TEXT
  7
TextStyle03
  8
寸法
  6
CONTINUOUS
 62
     0
 10
55.025
 20
23.33125
  1
呼称寸法　1300
 40
3.0
 50
90.0
 72
     5
 11
55.025
 21
46.76875
  0
ENDBLK
  0
BLOCK
  2
*DIM_0004
 70
    65
 10
0.0
 20
0.0
  0
LINE
  8
寸法
  6
BYBLOCK
 62
     0
 10
99.201488
 20
36.065715
 11
99.201488
 21
72.668433
  0
LINE
  8
寸法
  6
BYBLOCK
 62
     0
 10
110.868155
 20
72.668433
 11
99.201488
 21
72.668433
  0
POINT
  8
寸法
 62
     0
 10
99.201488
 20
72.668433
  0
TEXT
  7
TextStyle03
  8
寸法
  6
CONTINUOUS
 62
     0
 10
102.6375
 20
73.025
  1
350
 40
3.0
 72
     5
 11
107.5125
 21
73.025
  0
ENDBLK
  0
BLOCK
  2
*DIM_0005
 70
    65
 10
0.0
 20
0.0
  0
LINE
  8
寸法
  6
BYBLOCK
 62
     0
 10
117.421445
 20
-49.867045
 11
125.856293
 21
-49.867045
  0
LINE
  8
寸法
  6
BYBLOCK
 62
     0
 10
117.421445
 20
-92.533713
 11
125.856293
 21
-92.533713
  0
LINE
  8
寸法
  6
BYBLOCK
 62
     0
 10
125.856293
 20
-49.867045
 11
125.856293
 21
-92.533713
  0
POINT
  8
寸法
 62
     0
 10
125.856293
 20
-49.867045
  0
POINT
  8
寸法
 62
     0
 10
125.856293
 20
-92.533713
  0
TEXT
  7
TextStyle03
  8
寸法
  6
CONTINUOUS
 62
     0
 10
125.525
 20
-74.48125
  1
1280
 40
3.0
 50
90.0
 72
     5
 11
125.525
 21
-67.91875
  0
ENDBLK
  0
BLOCK
  2
*DIM_0006
 70
    65
 10
0.0
 20
0.0
  0
LINE
  8
寸法
  6
BYBLOCK
 62
     0
 10
21.33489
 20
-22.536362
 11
-95.331778
 21
-22.536362
  0
POINT
  8
寸法
 62
     0
 10
21.33489
 20
-22.536362
  0
POINT
  8
寸法
 62
     0
 10
-95.331778
 20
-22.536362
  0
TEXT
  7
TextStyle03
  8
寸法
  6
CONTINUOUS
 62
     0
 10
-48.71875
 20
-22.175
  1
呼称寸法　3500
 40
3.0
 72
     5
 11
-25.28125
 21
-22.175
  0
ENDBLK
  0
BLOCK
  2
*DIM_0007
 70
    65
 10
0.0
 20
0.0
  0
LINE
  8
寸法
  6
BYBLOCK
 62
     0
 10
116.421445
 20
-48.867045
 11
116.421445
 21
-41.671252
  0
LINE
  8
寸法
  6
BYBLOCK
 62
     0
 10
78.468112
 20
-48.867045
 11
78.468112
 21
-41.671252
  0
LINE
  8
寸法
  6
BYBLOCK
 62
     0
 10
116.421445
 20
-41.671252
 11
78.468112
 21
-41.671252
  0
POINT
  8
寸法
 62
     0
 10
116.421445
 20
-41.671252
  0
POINT
  8
寸法
 62
     0
 10
78.468112
 20
-41.671252
  0
TEXT
  7
TextStyle03
  8
寸法
  6
CONTINUOUS
 62
     0
 10
92.45625
 20
-41.3
  1
1138.6
 40
3.0
 72
     5
 11
102.39375
 21
-41.3
  0
ENDBLK
  0
BLOCK
  2
*DIM_0008
 70
    65
 10
0.0
 20
0.0
  0
LINE
  8
寸法
  6
BYBLOCK
 62
     0
 10
-78.66511
 20
9.76892
 11
-78.66511
 21
4.551973
  0
LINE
  8
寸法
  6
BYBLOCK
 62
     0
 10
4.668225
 20
9.76892
 11
4.668225
 21
4.551973
  0
LINE
  8
寸法
  6
BYBLOCK
 62
     0
 10
-78.66511
 20
4.551973
 11
4.668225
 21
4.551973
  0
POINT
  8
寸法
 62
     0
 10
-78.66511
 20
4.551973
  0
POINT
  8
寸法
 62
     0
 10
4.668225
 20
4.551973
  0
TEXT
  7
TextStyle03
  8
寸法
  6
CONTINUOUS
 62
     0
 10
-40.28125
 20
4.925
  1
2500
 40
3.0
 72
     5
 11
-33.71875
 21
4.925
  0
ENDBLK
  0
BLOCK
  2
*DIM_0009
 70
    65
 10
0.0
 20
0.0
  0
LINE
  8
寸法
  6
BYBLOCK
 62
     0
 10
22.33489
 20
56.732382
 11
32.059173
 21
56.732382
  0
LINE
  8
寸法
  6
BYBLOCK
 62
     0
 10
24.96502
 20
53.032382
 11
32.059173
 21
53.032382
  0
LINE
  8
寸法
  6
BYBLOCK
 62
     0
 10
32.059173
 20
56.732382
 11
32.059173
 21
53.032382
  0
POINT
  8
寸法
 62
     0
 10
32.059173
 20
56.732382
  0
POINT
  8
寸法
 62
     0
 10
32.059173
 20
53.032382
  0
TEXT
  7
TextStyle03
  8
寸法
  6
CONTINUOUS
 62
     0
 10
31.75
 20
57.7125
  1
111
 40
3.0
 50
90.0
 72
     5
 11
31.75
 21
62.5875
  0
ENDBLK
  0
BLOCK
  2
*DIM_0010
 70
    65
 10
0.0
 20
0.0
  0
LINE
  8
寸法
  6
BYBLOCK
 62
     0
 10
22.33489
 20
13.399048
 11
32.059173
 21
13.399045
  0
LINE
  8
寸法
  6
BYBLOCK
 62
     0
 10
24.96502
 20
17.099048
 11
32.059173
 21
17.099045
  0
LINE
  8
寸法
  6
BYBLOCK
 62
     0
 10
32.059173
 20
13.399045
 11
32.059173
 21
17.099045
  0
POINT
  8
寸法
 62
     0
 10
32.059173
 20
13.399045
  0
POINT
  8
寸法
 62
     0
 10
32.059173
 20
17.099045
  0
TEXT
  7
TextStyle03
  8
寸法
  6
CONTINUOUS
 62
     0
 10
31.725
 20
7.5375
  1
111
 40
3.0
 50
90.0
 72
     5
 11
31.725
 21
12.4125
  0
ENDBLK
  0
BLOCK
  2
*GRP_0011
 70
    65
 10
0.0
 20
0.0
  0
LINE
  8
別途部材
  6
CONTINUOUS
 62
    96
 10
-96.998442
 20
-79.624597
 11
-97.398442
 21
-80.624597
  0
LINE
  8
別途部材
  6
CONTINUOUS
 10
-97.398442
 20
-80.624597
 11
-36.998442
 21
-80.624597
  0
LINE
  8
別途部材
  6
CONTINUOUS
 62
    96
 10
-96.998442
 20
-79.624597
 11
-36.998442
 21
-79.624597
  0
LINE
  8
別途部材
  6
CONTINUOUS
 10
-37.498442
 20
-66.95793
 11
-38.498442
 21
-67.95793
  0
LINE
  8
別途部材
  6
CONTINUOUS
 10
-39.498442
 20
-67.95793
 11
-40.498442
 21
-66.95793
  0
LINE
  8
別途部材
  6
CONTINUOUS
 10
-41.498442
 20
-66.95793
 11
-42.498442
 21
-67.95793
  0
LINE
  8
別途部材
  6
CONTINUOUS
 10
-40.498442
 20
-66.95793
 11
-41.498442
 21
-66.95793
  0
LINE
  8
別途部材
  6
CONTINUOUS
 10
-37.498442
 20
-66.95793
 11
-36.998442
 21
-66.95793
  0
LINE
  8
別途部材
  6
CONTINUOUS
 10
-43.498442
 20
-67.95793
 11
-44.498442
 21
-66.95793
  0
LINE
  8
別途部材
  6
CONTINUOUS
 10
-45.498442
 20
-66.95793
 11
-46.498442
 21
-67.95793
  0
LINE
  8
別途部材
  6
CONTINUOUS
 10
-44.498442
 20
-66.95793
 11
-45.498442
 21
-66.95793
  0
LINE
  8
別途部材
  6
CONTINUOUS
 10
-47.498442
 20
-67.95793
 11
-48.498442
 21
-66.95793
  0
LINE
  8
別途部材
  6
CONTINUOUS
 10
-49.498442
 20
-66.95793
 11
-50.498442
 21
-67.95793
  0
LINE
  8
別途部材
  6
CONTINUOUS
 10
-48.498442
 20
-66.95793
 11
-49.498442
 21
-66.95793
  0
LINE
  8
別途部材
  6
CONTINUOUS
 10
-51.498442
 20
-67.95793
 11
-52.498442
 21
-66.95793
  0
LINE
  8
別途部材
  6
CONTINUOUS
 10
-53.498442
 20
-66.95793
 11
-54.498442
 21
-67.95793
  0
LINE
  8
別途部材
  6
CONTINUOUS
 10
-52.498442
 20
-66.95793
 11
-53.498442
 21
-66.95793
  0
LINE
  8
別途部材
  6
CONTINUOUS
 10
-55.498442
 20
-67.95793
 11
-56.498442
 21
-66.95793
  0
LINE
  8
別途部材
  6
CONTINUOUS
 10
-57.498442
 20
-66.95793
 11
-58.498442
 21
-67.95793
  0
LINE
  8
別途部材
  6
CONTINUOUS
 10
-56.498442
 20
-66.95793
 11
-57.498442
 21
-66.95793
  0
LINE
  8
別途部材
  6
CONTINUOUS
 10
-59.498442
 20
-67.95793
 11
-60.498442
 21
-66.95793
  0
LINE
  8
別途部材
  6
CONTINUOUS
 10
-61.498442
 20
-66.95793
 11
-62.498442
 21
-67.95793
  0
LINE
  8
別途部材
  6
CONTINUOUS
 10
-60.498442
 20
-66.95793
 11
-61.498442
 21
-66.95793
  0
LINE
  8
別途部材
  6
CONTINUOUS
 10
-63.498442
 20
-67.95793
 11
-64.498442
 21
-66.95793
  0
LINE
  8
別途部材
  6
CONTINUOUS
 10
-65.498442
 20
-66.95793
 11
-66.498442
 21
-67.95793
  0
LINE
  8
別途部材
  6
CONTINUOUS
 10
-64.498442
 20
-66.95793
 11
-65.498442
 21
-66.95793
  0
LINE
  8
別途部材
  6
CONTINUOUS
 10
-67.498442
 20
-67.95793
 11
-68.498442
 21
-66.95793
  0
LINE
  8
別途部材
  6
CONTINUOUS
 10
-69.498442
 20
-66.95793
 11
-70.498442
 21
-67.95793
  0
LINE
  8
別途部材
  6
CONTINUOUS
 10
-68.498442
 20
-66.95793
 11
-69.498442
 21
-66.95793
  0
LINE
  8
別途部材
  6
CONTINUOUS
 10
-71.498442
 20
-67.95793
 11
-72.498442
 21
-66.95793
  0
LINE
  8
別途部材
  6
CONTINUOUS
 10
-73.498442
 20
-66.95793
 11
-74.498442
 21
-67.95793
  0
LINE
  8
別途部材
  6
CONTINUOUS
 10
-72.498442
 20
-66.95793
 11
-73.498442
 21
-66.95793
  0
LINE
  8
別途部材
  6
CONTINUOUS
 10
-70.498442
 20
-67.95793
 11
-71.498442
 21
-67.95793
  0
LINE
  8
別途部材
  6
CONTINUOUS
 10
-66.498442
 20
-67.95793
 11
-67.498442
 21
-67.95793
  0
LINE
  8
別途部材
  6
CONTINUOUS
 10
-62.498442
 20
-67.95793
 11
-63.498442
 21
-67.95793
  0
LINE
  8
別途部材
  6
CONTINUOUS
 10
-58.498442
 20
-67.95793
 11
-59.498442
 21
-67.95793
  0
LINE
  8
別途部材
  6
CONTINUOUS
 10
-54.498442
 20
-67.95793
 11
-55.498442
 21
-67.95793
  0
LINE
  8
別途部材
  6
CONTINUOUS
 10
-50.498442
 20
-67.95793
 11
-51.498442
 21
-67.95793
  0
LINE
  8
別途部材
  6
CONTINUOUS
 10
-46.498442
 20
-67.95793
 11
-47.498442
 21
-67.95793
  0
LINE
  8
別途部材
  6
CONTINUOUS
 10
-42.498442
 20
-67.95793
 11
-43.498442
 21
-67.95793
  0
LINE
  8
別途部材
  6
CONTINUOUS
 10
-39.498442
 20
-67.95793
 11
-38.498442
 21
-67.95793
  0
LINE
  8
別途部材
  6
CONTINUOUS
 10
-71.498442
 20
-67.95793
 11
-71.498442
 21
-79.624597
  0
LINE
  8
別途部材
  6
CONTINUOUS
 10
-73.498442
 20
-66.95793
 11
-73.498442
 21
-79.624597
  0
LINE
  8
別途部材
  6
CONTINUOUS
 10
-74.498442
 20
-67.95793
 11
-74.498442
 21
-79.624597
  0
LINE
  8
別途部材
  6
CONTINUOUS
 10
-72.498442
 20
-66.95793
 11
-72.498442
 21
-79.624597
  0
LINE
  8
別途部材
  6
CONTINUOUS
 10
-70.498442
 20
-67.95793
 11
-70.498442
 21
-79.624597
  0
LINE
  8
別途部材
  6
CONTINUOUS
 10
-69.498442
 20
-66.95793
 11
-69.498442
 21
-79.624597
  0
LINE
  8
別途部材
  6
CONTINUOUS
 10
-59.498442
 20
-67.95793
 11
-59.498442
 21
-79.624597
  0
LINE
  8
別途部材
  6
CONTINUOUS
 10
-53.498442
 20
-66.95793
 11
-53.498442
 21
-79.624597
  0
LINE
  8
別途部材
  6
CONTINUOUS
 10
-52.498442
 20
-66.95793
 11
-52.498442
 21
-79.624597
  0
LINE
  8
別途部材
  6
CONTINUOUS
 10
-42.498442
 20
-67.95793
 11
-42.498442
 21
-79.624597
  0
LINE
  8
別途部材
  6
CONTINUOUS
 10
-37.498442
 20
-66.95793
 11
-37.498442
 21
-79.624597
  0
LINE
  8
別途部材
  6
CONTINUOUS
 10
-38.498442
 20
-67.95793
 11
-38.498442
 21
-79.624597
  0
LINE
  8
別途部材
  6
CONTINUOUS
 10
-40.498442
 20
-66.95793
 11
-40.498442
 21
-79.624597
  0
LINE
  8
別途部材
  6
CONTINUOUS
 10
-41.498442
 20
-66.95793
 11
-41.498442
 21
-79.624597
  0
LINE
  8
別途部材
  6
CONTINUOUS
 10
-43.498442
 20
-67.95793
 11
-43.498442
 21
-79.624597
  0
LINE
  8
別途部材
  6
CONTINUOUS
 10
-54.498442
 20
-67.95793
 11
-54.498442
 21
-79.624597
  0
LINE
  8
別途部材
  6
CONTINUOUS
 10
-55.498442
 20
-67.95793
 11
-55.498442
 21
-79.624597
  0
LINE
  8
別途部材
  6
CONTINUOUS
 10
-60.498442
 20
-66.95793
 11
-60.498442
 21
-79.624597
  0
LINE
  8
別途部材
  6
CONTINUOUS
 10
-62.498442
 20
-67.95793
 11
-62.498442
 21
-79.624597
  0
LINE
  8
別途部材
  6
CONTINUOUS
 10
-65.498442
 20
-66.95793
 11
-65.498442
 21
-79.624597
  0
LINE
  8
別途部材
  6
CONTINUOUS
 10
-68.498442
 20
-66.95793
 11
-68.498442
 21
-79.624597
  0
LINE
  8
別途部材
  6
CONTINUOUS
 10
-61.498442
 20
-66.95793
 11
-61.498442
 21
-79.624597
  0
LINE
  8
別途部材
  6
CONTINUOUS
 10
-63.498442
 20
-67.95793
 11
-63.498442
 21
-79.624597
  0
LINE
  8
別途部材
  6
CONTINUOUS
 10
-66.498442
 20
-67.95793
 11
-66.498442
 21
-79.624597
  0
LINE
  8
別途部材
  6
CONTINUOUS
 10
-67.498442
 20
-67.95793
 11
-67.498442
 21
-79.624597
  0
LINE
  8
別途部材
  6
CONTINUOUS
 10
-57.498442
 20
-66.95793
 11
-57.498442
 21
-79.624597
  0
LINE
  8
別途部材
  6
CONTINUOUS
 10
-56.498442
 20
-66.95793
 11
-56.498442
 21
-79.624597
  0
LINE
  8
別途部材
  6
CONTINUOUS
 10
-58.498442
 20
-67.95793
 11
-58.498442
 21
-79.624597
  0
LINE
  8
別途部材
  6
CONTINUOUS
 10
-64.498442
 20
-66.95793
 11
-64.498442
 21
-79.624597
  0
LINE
  8
別途部材
  6
CONTINUOUS
 10
-50.498442
 20
-67.95793
 11
-50.498442
 21
-79.624597
  0
LINE
  8
別途部材
  6
CONTINUOUS
 10
-51.498442
 20
-67.95793
 11
-51.498442
 21
-79.624597
  0
LINE
  8
別途部材
  6
CONTINUOUS
 10
-49.498442
 20
-66.95793
 11
-49.498442
 21
-79.624597
  0
LINE
  8
別途部材
  6
CONTINUOUS
 10
-47.498442
 20
-67.95793
 11
-47.498442
 21
-79.624597
  0
LINE
  8
別途部材
  6
CONTINUOUS
 10
-48.498442
 20
-66.95793
 11
-48.498442
 21
-79.624597
  0
LINE
  8
別途部材
  6
CONTINUOUS
 10
-46.498442
 20
-67.95793
 11
-46.498442
 21
-79.624597
  0
LINE
  8
別途部材
  6
CONTINUOUS
 10
-44.498442
 20
-66.95793
 11
-44.498442
 21
-79.624597
  0
LINE
  8
別途部材
  6
CONTINUOUS
 10
-45.498442
 20
-66.95793
 11
-45.498442
 21
-79.624597
  0
LINE
  8
別途部材
  6
CONTINUOUS
 10
-39.498442
 20
-67.95793
 11
-39.498442
 21
-79.624597
  0
ARC
  8
別途部材
  6
CONTINUOUS
 10
-73.665107
 20
-93.91031
 40
25.952382
 50
91.840094
 51
146.601512
  0
LINE
  8
別途部材
  6
CONTINUOUS
 62
    96
 10
23.001557
 20
-79.624597
 11
23.401557
 21
-80.624597
  0
LINE
  8
別途部材
  6
CONTINUOUS
 10
23.401557
 20
-80.624597
 11
-36.998442
 21
-80.624597
  0
LINE
  8
別途部材
  6
CONTINUOUS
 62
    96
 10
23.001557
 20
-79.624597
 11
-36.998442
 21
-79.624597
  0
LINE
  8
別途部材
  6
CONTINUOUS
 10
-36.498442
 20
-66.95793
 11
-35.498442
 21
-67.95793
  0
LINE
  8
別途部材
  6
CONTINUOUS
 10
-34.498442
 20
-67.95793
 11
-33.498442
 21
-66.95793
  0
LINE
  8
別途部材
  6
CONTINUOUS
 10
-32.498442
 20
-66.95793
 11
-31.498442
 21
-67.95793
  0
LINE
  8
別途部材
  6
CONTINUOUS
 10
-33.498442
 20
-66.95793
 11
-32.498442
 21
-66.95793
  0
LINE
  8
別途部材
  6
CONTINUOUS
 10
-36.498442
 20
-66.95793
 11
-36.998442
 21
-66.95793
  0
LINE
  8
別途部材
  6
CONTINUOUS
 10
-30.498442
 20
-67.95793
 11
-29.498442
 21
-66.95793
  0
LINE
  8
別途部材
  6
CONTINUOUS
 10
-28.498442
 20
-66.95793
 11
-27.498442
 21
-67.95793
  0
LINE
  8
別途部材
  6
CONTINUOUS
 10
-29.498442
 20
-66.95793
 11
-28.498442
 21
-66.95793
  0
LINE
  8
別途部材
  6
CONTINUOUS
 10
-26.498442
 20
-67.95793
 11
-25.498442
 21
-66.95793
  0
LINE
  8
別途部材
  6
CONTINUOUS
 10
-24.498442
 20
-66.95793
 11
-23.498442
 21
-67.95793
  0
LINE
  8
別途部材
  6
CONTINUOUS
 10
-25.498442
 20
-66.95793
 11
-24.498442
 21
-66.95793
  0
LINE
  8
別途部材
  6
CONTINUOUS
 10
-22.498442
 20
-67.95793
 11
-21.498442
 21
-66.95793
  0
LINE
  8
別途部材
  6
CONTINUOUS
 10
-20.498442
 20
-66.95793
 11
-19.498442
 21
-67.95793
  0
LINE
  8
別途部材
  6
CONTINUOUS
 10
-21.498442
 20
-66.95793
 11
-20.498442
 21
-66.95793
  0
LINE
  8
別途部材
  6
CONTINUOUS
 10
-18.498442
 20
-67.95793
 11
-17.498442
 21
-66.95793
  0
LINE
  8
別途部材
  6
CONTINUOUS
 10
-16.498442
 20
-66.95793
 11
-15.498442
 21
-67.95793
  0
LINE
  8
別途部材
  6
CONTINUOUS
 10
-17.498442
 20
-66.95793
 11
-16.498442
 21
-66.95793
  0
LINE
  8
別途部材
  6
CONTINUOUS
 10
-14.498442
 20
-67.95793
 11
-13.498442
 21
-66.95793
  0
LINE
  8
別途部材
  6
CONTINUOUS
 10
-12.498442
 20
-66.95793
 11
-11.498442
 21
-67.95793
  0
LINE
  8
別途部材
  6
CONTINUOUS
 10
-13.498442
 20
-66.95793
 11
-12.498442
 21
-66.95793
  0
LINE
  8
別途部材
  6
CONTINUOUS
 10
-10.498442
 20
-67.95793
 11
-9.498442
 21
-66.95793
  0
LINE
  8
別途部材
  6
CONTINUOUS
 10
-8.498442
 20
-66.95793
 11
-7.498442
 21
-67.95793
  0
LINE
  8
別途部材
  6
CONTINUOUS
 10
-9.498442
 20
-66.95793
 11
-8.498442
 21
-66.95793
  0
LINE
  8
別途部材
  6
CONTINUOUS
 10
-6.498442
 20
-67.95793
 11
-5.498442
 21
-66.95793
  0
LINE
  8
別途部材
  6
CONTINUOUS
 10
-4.498442
 20
-66.95793
 11
-3.498442
 21
-67.95793
  0
LINE
  8
別途部材
  6
CONTINUOUS
 10
-5.498442
 20
-66.95793
 11
-4.498442
 21
-66.95793
  0
LINE
  8
別途部材
  6
CONTINUOUS
 10
-2.498442
 20
-67.95793
 11
-1.498442
 21
-66.95793
  0
LINE
  8
別途部材
  6
CONTINUOUS
 10
-0.498442
 20
-66.95793
 11
0.501557
 21
-67.95793
  0
LINE
  8
別途部材
  6
CONTINUOUS
 10
-1.498442
 20
-66.95793
 11
-0.498442
 21
-66.95793
  0
LINE
  8
別途部材
  6
CONTINUOUS
 10
-3.498442
 20
-67.95793
 11
-2.498442
 21
-67.95793
  0
LINE
  8
別途部材
  6
CONTINUOUS
 10
-7.498442
 20
-67.95793
 11
-6.498442
 21
-67.95793
  0
LINE
  8
別途部材
  6
CONTINUOUS
 10
-11.498442
 20
-67.95793
 11
-10.498442
 21
-67.95793
  0
LINE
  8
別途部材
  6
CONTINUOUS
 10
-15.498442
 20
-67.95793
 11
-14.498442
 21
-67.95793
  0
LINE
  8
別途部材
  6
CONTINUOUS
 10
-19.498442
 20
-67.95793
 11
-18.498442
 21
-67.95793
  0
LINE
  8
別途部材
  6
CONTINUOUS
 10
-23.498442
 20
-67.95793
 11
-22.498442
 21
-67.95793
  0
LINE
  8
別途部材
  6
CONTINUOUS
 10
-27.498442
 20
-67.95793
 11
-26.498442
 21
-67.95793
  0
LINE
  8
別途部材
  6
CONTINUOUS
 10
-31.498442
 20
-67.95793
 11
-30.498442
 21
-67.95793
  0
LINE
  8
別途部材
  6
CONTINUOUS
 10
-34.498442
 20
-67.95793
 11
-35.498442
 21
-67.95793
  0
LINE
  8
別途部材
  6
CONTINUOUS
 10
-2.498442
 20
-67.95793
 11
-2.498442
 21
-79.624597
  0
LINE
  8
別途部材
  6
CONTINUOUS
 10
-0.498442
 20
-66.95793
 11
-0.498442
 21
-79.624597
  0
LINE
  8
別途部材
  6
CONTINUOUS
 10
0.501557
 20
-67.95793
 11
0.501557
 21
-79.624597
  0
LINE
  8
別途部材
  6
CONTINUOUS
 10
-1.498442
 20
-66.95793
 11
-1.498442
 21
-79.624597
  0
LINE
  8
別途部材
  6
CONTINUOUS
 10
-3.498442
 20
-67.95793
 11
-3.498442
 21
-79.624597
  0
LINE
  8
別途部材
  6
CONTINUOUS
 10
-4.498442
 20
-66.95793
 11
-4.498442
 21
-79.624597
  0
LINE
  8
別途部材
  6
CONTINUOUS
 10
-14.498442
 20
-67.95793
 11
-14.498442
 21
-79.624597
  0
LINE
  8
別途部材
  6
CONTINUOUS
 10
-20.498442
 20
-66.95793
 11
-20.498442
 21
-79.624597
  0
LINE
  8
別途部材
  6
CONTINUOUS
 10
-21.498442
 20
-66.95793
 11
-21.498442
 21
-79.624597
  0
LINE
  8
別途部材
  6
CONTINUOUS
 10
-31.498442
 20
-67.95793
 11
-31.498442
 21
-79.624597
  0
LINE
  8
別途部材
  6
CONTINUOUS
 10
-36.498442
 20
-66.95793
 11
-36.498442
 21
-79.624597
  0
LINE
  8
別途部材
  6
CONTINUOUS
 10
-35.498442
 20
-67.95793
 11
-35.498442
 21
-79.624597
  0
LINE
  8
別途部材
  6
CONTINUOUS
 10
-33.498442
 20
-66.95793
 11
-33.498442
 21
-79.624597
  0
LINE
  8
別途部材
  6
CONTINUOUS
 10
-32.498442
 20
-66.95793
 11
-32.498442
 21
-79.624597
  0
LINE
  8
別途部材
  6
CONTINUOUS
 10
-30.498442
 20
-67.95793
 11
-30.498442
 21
-79.624597
  0
LINE
  8
別途部材
  6
CONTINUOUS
 10
-19.498442
 20
-67.95793
 11
-19.498442
 21
-79.624597
  0
LINE
  8
別途部材
  6
CONTINUOUS
 10
-18.498442
 20
-67.95793
 11
-18.498442
 21
-79.624597
  0
LINE
  8
別途部材
  6
CONTINUOUS
 10
-13.498442
 20
-66.95793
 11
-13.498442
 21
-79.624597
  0
LINE
  8
別途部材
  6
CONTINUOUS
 10
-11.498442
 20
-67.95793
 11
-11.498442
 21
-79.624597
  0
LINE
  8
別途部材
  6
CONTINUOUS
 10
-8.498442
 20
-66.95793
 11
-8.498442
 21
-79.624597
  0
LINE
  8
別途部材
  6
CONTINUOUS
 10
-5.498442
 20
-66.95793
 11
-5.498442
 21
-79.624597
  0
LINE
  8
別途部材
  6
CONTINUOUS
 10
-12.498442
 20
-66.95793
 11
-12.498442
 21
-79.624597
  0
LINE
  8
別途部材
  6
CONTINUOUS
 10
-10.498442
 20
-67.95793
 11
-10.498442
 21
-79.624597
  0
LINE
  8
別途部材
  6
CONTINUOUS
 10
-7.498442
 20
-67.95793
 11
-7.498442
 21
-79.624597
  0
LINE
  8
別途部材
  6
CONTINUOUS
 10
-6.498442
 20
-67.95793
 11
-6.498442
 21
-79.624597
  0
LINE
  8
別途部材
  6
CONTINUOUS
 10
-16.498442
 20
-66.95793
 11
-16.498442
 21
-79.624597
  0
LINE
  8
別途部材
  6
CONTINUOUS
 10
-17.498442
 20
-66.95793
 11
-17.498442
 21
-79.624597
  0
LINE
  8
別途部材
  6
CONTINUOUS
 10
-15.498442
 20
-67.95793
 11
-15.498442
 21
-79.624597
  0
LINE
  8
別途部材
  6
CONTINUOUS
 10
-9.498442
 20
-66.95793
 11
-9.498442
 21
-79.624597
  0
LINE
  8
別途部材
  6
CONTINUOUS
 10
-23.498442
 20
-67.95793
 11
-23.498442
 21
-79.624597
  0
LINE
  8
別途部材
  6
CONTINUOUS
 10
-22.498442
 20
-67.95793
 11
-22.498442
 21
-79.624597
  0
LINE
  8
別途部材
  6
CONTINUOUS
 10
-24.498442
 20
-66.95793
 11
-24.498442
 21
-79.624597
  0
LINE
  8
別途部材
  6
CONTINUOUS
 10
-26.498442
 20
-67.95793
 11
-26.498442
 21
-79.624597
  0
LINE
  8
別途部材
  6
CONTINUOUS
 10
-25.498442
 20
-66.95793
 11
-25.498442
 21
-79.624597
  0
LINE
  8
別途部材
  6
CONTINUOUS
 10
-27.498442
 20
-67.95793
 11
-27.498442
 21
-79.624597
  0
LINE
  8
別途部材
  6
CONTINUOUS
 10
-29.498442
 20
-66.95793
 11
-29.498442
 21
-79.624597
  0
LINE
  8
別途部材
  6
CONTINUOUS
 10
-28.498442
 20
-66.95793
 11
-28.498442
 21
-79.624597
  0
LINE
  8
別途部材
  6
CONTINUOUS
 10
-34.498442
 20
-67.95793
 11
-34.498442
 21
-79.624597
  0
ARC
  8
別途部材
  6
CONTINUOUS
 10
-0.331778
 20
-93.91031
 40
25.952382
 50
33.398488
 51
88.159906
  0
ENDBLK
  0
BLOCK
  2
*GRP_0012
 70
    65
 10
0.0
 20
0.0
  0
LINE
  8
補助線
  6
BYBLOCK
 62
    64
 10
-83.599168
 20
-84.53381
 11
-83.731052
 21
-84.635715
  0
LINE
  8
補助線
  6
BYBLOCK
 62
    64
 10
-83.716063
 20
-84.51882
 11
-83.614157
 21
-84.650705
  0
LINE
  8
補助線
  6
BYBLOCK
 62
    64
 10
-72.188543
 20
-75.71712
 11
-72.320428
 21
-75.819023
  0
LINE
  8
補助線
  6
BYBLOCK
 62
    64
 10
-72.305437
 20
-75.702128
 11
-72.203535
 21
-75.834012
  0
LINE
  8
補助線
  6
BYBLOCK
 62
    64
 10
-60.9098
 20
-67.002333
 11
-60.77792
 21
-66.900428
  0
LINE
  8
補助線
  6
BYBLOCK
 62
    64
 10
-60.894812
 20
-66.885435
 11
-60.79291
 21
-67.017322
  0
LINE
  8
型材断面
  6
CONTINUOUS
 10
-84.438395
 20
-84.129148
 11
-84.528337
 21
-84.830512
  0
LINE
  8
型材断面
  6
CONTINUOUS
 10
-84.528337
 20
-84.830512
 11
-84.120723
 21
-85.35805
  0
LINE
  8
型材断面
  6
CONTINUOUS
 10
-84.120723
 20
-85.35805
 11
-83.41936
 21
-85.44799
  0
LINE
  8
型材断面
  6
CONTINUOUS
 10
-61.08961
 20
-66.088152
 11
-60.388248
 21
-66.178095
  0
LINE
  8
型材断面
  6
CONTINUOUS
 10
-60.388248
 20
-66.178095
 11
-59.980632
 21
-66.705632
  0
LINE
  8
型材断面
  6
CONTINUOUS
 10
-59.980632
 20
-66.705632
 11
-60.070575
 21
-67.406998
  0
LINE
  8
型材断面
  6
CONTINUOUS
 10
-83.41936
 20
-85.44799
 11
-60.070575
 21
-67.406998
  0
LINE
  8
型材断面
  6
CONTINUOUS
 10
-84.438395
 20
-84.129148
 11
-61.08961
 21
-66.088152
  0
CIRCLE
  8
ボルト／ビス
  6
CONTINUOUS
 10
-83.66511
 20
-84.584763
 40
0.250185
  0
CIRCLE
  8
ボルト／ビス
  6
CONTINUOUS
 10
-83.66511
 20
-84.584763
 40
0.301025
  0
LINE
  8
ボルト／ビス
  6
CONTINUOUS
 62
    64
 10
-83.913045
 20
-84.618253
 11
-83.81808
 21
-84.38679
  0
LINE
  8
ボルト／ビス
  6
CONTINUOUS
 62
    64
 10
-83.570145
 20
-84.3533
 11
-83.81808
 21
-84.38679
  0
LINE
  8
ボルト／ビス
  6
CONTINUOUS
 62
    64
 10
-83.760075
 20
-84.816225
 11
-83.51214
 21
-84.782735
  0
LINE
  8
ボルト／ビス
  6
CONTINUOUS
 62
    64
 10
-83.417175
 20
-84.551272
 11
-83.51214
 21
-84.782735
  0
LINE
  8
ボルト／ビス
  6
CONTINUOUS
 62
    64
 10
-83.913045
 20
-84.618253
 11
-83.760075
 21
-84.816225
  0
LINE
  8
ボルト／ビス
  6
CONTINUOUS
 62
    64
 10
-83.570145
 20
-84.3533
 11
-83.417175
 21
-84.551272
  0
CIRCLE
  8
ボルト／ビス
  6
CONTINUOUS
 62
    64
 10
-83.66511
 20
-84.584763
 40
0.216668
  0
CIRCLE
  8
ボルト／ビス
  6
CONTINUOUS
 10
-72.254485
 20
-75.768073
 40
0.250185
  0
CIRCLE
  8
ボルト／ビス
  6
CONTINUOUS
 10
-72.254485
 20
-75.768073
 40
0.301025
  0
LINE
  8
ボルト／ビス
  6
CONTINUOUS
 62
    64
 10
-72.50242
 20
-75.80156
 11
-72.407455
 21
-75.5701
  0
LINE
  8
ボルト／ビス
  6
CONTINUOUS
 62
    64
 10
-72.15952
 20
-75.53661
 11
-72.407455
 21
-75.5701
  0
LINE
  8
ボルト／ビス
  6
CONTINUOUS
 62
    64
 10
-72.349453
 20
-75.999532
 11
-72.101518
 21
-75.966043
  0
LINE
  8
ボルト／ビス
  6
CONTINUOUS
 62
    64
 10
-72.00655
 20
-75.734583
 11
-72.101518
 21
-75.966043
  0
LINE
  8
ボルト／ビス
  6
CONTINUOUS
 62
    64
 10
-72.50242
 20
-75.80156
 11
-72.349453
 21
-75.999532
  0
LINE
  8
ボルト／ビス
  6
CONTINUOUS
 62
    64
 10
-72.15952
 20
-75.53661
 11
-72.00655
 21
-75.734583
  0
CIRCLE
  8
ボルト／ビス
  6
CONTINUOUS
 62
    64
 10
-72.254485
 20
-75.768073
 40
0.216668
  0
CIRCLE
  8
ボルト／ビス
  6
CONTINUOUS
 10
-60.843862
 20
-66.95138
 40
0.250185
  0
CIRCLE
  8
ボルト／ビス
  6
CONTINUOUS
 10
-60.843862
 20
-66.95138
 40
0.301025
  0
LINE
  8
ボルト／ビス
  6
CONTINUOUS
 62
    64
 10
-60.748895
 20
-66.719917
 11
-60.996828
 21
-66.753407
  0
LINE
  8
ボルト／ビス
  6
CONTINUOUS
 62
    64
 10
-61.091792
 20
-66.98487
 11
-60.996828
 21
-66.753407
  0
LINE
  8
ボルト／ビス
  6
CONTINUOUS
 62
    64
 10
-60.595928
 20
-66.91789
 11
-60.690892
 21
-67.149352
  0
LINE
  8
ボルト／ビス
  6
CONTINUOUS
 62
    64
 10
-60.938828
 20
-67.182842
 11
-60.690892
 21
-67.149352
  0
LINE
  8
ボルト／ビス
  6
CONTINUOUS
 62
    64
 10
-60.748895
 20
-66.719917
 11
-60.595928
 21
-66.91789
  0
LINE
  8
ボルト／ビス
  6
CONTINUOUS
 62
    64
 10
-61.091792
 20
-66.98487
 11
-60.938828
 21
-67.182842
  0
CIRCLE
  8
ボルト／ビス
  6
CONTINUOUS
 62
    64
 10
-60.843862
 20
-66.95138
 40
0.216668
  0
ENDBLK
  0
BLOCK
  2
*GRP_0013
 70
    65
 10
0.0
 20
0.0
  0
LINE
  8
補助線
  6
BYBLOCK
 62
    64
 10
-60.909803
 20
-84.53381
 11
-60.777917
 21
-84.635715
  0
LINE
  8
補助線
  6
BYBLOCK
 62
    64
 10
-60.792907
 20
-84.51882
 11
-60.894812
 21
-84.650705
  0
LINE
  8
補助線
  6
BYBLOCK
 62
    64
 10
-72.320428
 20
-75.71712
 11
-72.188543
 21
-75.819023
  0
LINE
  8
補助線
  6
BYBLOCK
 62
    64
 10
-72.203532
 20
-75.702128
 11
-72.305435
 21
-75.834012
  0
LINE
  8
補助線
  6
BYBLOCK
 62
    64
 10
-83.59917
 20
-67.002333
 11
-83.73105
 21
-66.900428
  0
LINE
  8
補助線
  6
BYBLOCK
 62
    64
 10
-83.614157
 20
-66.885435
 11
-83.71606
 21
-67.017322
  0
LINE
  8
型材断面
  6
CONTINUOUS
 10
-60.070575
 20
-84.129148
 11
-59.980632
 21
-84.830512
  0
LINE
  8
型材断面
  6
CONTINUOUS
 10
-59.980632
 20
-84.830512
 11
-60.388248
 21
-85.35805
  0
LINE
  8
型材断面
  6
CONTINUOUS
 10
-60.388248
 20
-85.35805
 11
-61.08961
 21
-85.44799
  0
LINE
  8
型材断面
  6
CONTINUOUS
 10
-83.41936
 20
-66.088152
 11
-84.120723
 21
-66.178095
  0
LINE
  8
型材断面
  6
CONTINUOUS
 10
-84.120723
 20
-66.178095
 11
-84.528337
 21
-66.705632
  0
LINE
  8
型材断面
  6
CONTINUOUS
 10
-84.528337
 20
-66.705632
 11
-84.438395
 21
-67.406998
  0
LINE
  8
型材断面
  6
CONTINUOUS
 10
-61.08961
 20
-85.44799
 11
-84.438395
 21
-67.406998
  0
LINE
  8
型材断面
  6
CONTINUOUS
 10
-60.070575
 20
-84.129148
 11
-83.41936
 21
-66.088152
  0
CIRCLE
  8
ボルト／ビス
  6
CONTINUOUS
 10
-60.84386
 20
-84.584763
 40
0.250185
  0
CIRCLE
  8
ボルト／ビス
  6
CONTINUOUS
 10
-60.84386
 20
-84.584763
 40
0.301025
  0
LINE
  8
ボルト／ビス
  6
CONTINUOUS
 62
    64
 10
-60.595925
 20
-84.618253
 11
-60.69089
 21
-84.38679
  0
LINE
  8
ボルト／ビス
  6
CONTINUOUS
 62
    64
 10
-60.938825
 20
-84.3533
 11
-60.69089
 21
-84.38679
  0
LINE
  8
ボルト／ビス
  6
CONTINUOUS
 62
    64
 10
-60.748895
 20
-84.816225
 11
-60.99683
 21
-84.782735
  0
LINE
  8
ボルト／ビス
  6
CONTINUOUS
 62
    64
 10
-61.091795
 20
-84.551272
 11
-60.99683
 21
-84.782735
  0
LINE
  8
ボルト／ビス
  6
CONTINUOUS
 62
    64
 10
-60.595925
 20
-84.618253
 11
-60.748895
 21
-84.816225
  0
LINE
  8
ボルト／ビス
  6
CONTINUOUS
 62
    64
 10
-60.938825
 20
-84.3533
 11
-61.091795
 21
-84.551272
  0
CIRCLE
  8
ボルト／ビス
  6
CONTINUOUS
 62
    64
 10
-60.84386
 20
-84.584763
 40
0.216668
  0
CIRCLE
  8
ボルト／ビス
  6
CONTINUOUS
 10
-72.254485
 20
-75.768073
 40
0.250185
  0
CIRCLE
  8
ボルト／ビス
  6
CONTINUOUS
 10
-72.254485
 20
-75.768073
 40
0.301025
  0
LINE
  8
ボルト／ビス
  6
CONTINUOUS
 62
    64
 10
-72.00655
 20
-75.80156
 11
-72.101515
 21
-75.5701
  0
LINE
  8
ボルト／ビス
  6
CONTINUOUS
 62
    64
 10
-72.34945
 20
-75.53661
 11
-72.101515
 21
-75.5701
  0
LINE
  8
ボルト／ビス
  6
CONTINUOUS
 62
    64
 10
-72.159518
 20
-75.999532
 11
-72.407453
 21
-75.966043
  0
LINE
  8
ボルト／ビス
  6
CONTINUOUS
 62
    64
 10
-72.50242
 20
-75.734583
 11
-72.407453
 21
-75.966043
  0
LINE
  8
ボルト／ビス
  6
CONTINUOUS
 62
    64
 10
-72.00655
 20
-75.80156
 11
-72.159518
 21
-75.999532
  0
LINE
  8
ボルト／ビス
  6
CONTINUOUS
 62
    64
 10
-72.34945
 20
-75.53661
 11
-72.50242
 21
-75.734583
  0
CIRCLE
  8
ボルト／ビス
  6
CONTINUOUS
 62
    64
 10
-72.254485
 20
-75.768073
 40
0.216668
  0
CIRCLE
  8
ボルト／ビス
  6
CONTINUOUS
 10
-83.665107
 20
-66.95138
 40
0.250185
  0
CIRCLE
  8
ボルト／ビス
  6
CONTINUOUS
 10
-83.665107
 20
-66.95138
 40
0.301025
  0
LINE
  8
ボルト／ビス
  6
CONTINUOUS
 62
    64
 10
-83.760075
 20
-66.719917
 11
-83.512143
 21
-66.753407
  0
LINE
  8
ボルト／ビス
  6
CONTINUOUS
 62
    64
 10
-83.417177
 20
-66.98487
 11
-83.512143
 21
-66.753407
  0
LINE
  8
ボルト／ビス
  6
CONTINUOUS
 62
    64
 10
-83.913043
 20
-66.91789
 11
-83.818077
 21
-67.149352
  0
LINE
  8
ボルト／ビス
  6
CONTINUOUS
 62
    64
 10
-83.570143
 20
-67.182842
 11
-83.818077
 21
-67.149352
  0
LINE
  8
ボルト／ビス
  6
CONTINUOUS
 62
    64
 10
-83.760075
 20
-66.719917
 11
-83.913043
 21
-66.91789
  0
LINE
  8
ボルト／ビス
  6
CONTINUOUS
 62
    64
 10
-83.417177
 20
-66.98487
 11
-83.570143
 21
-67.182842
  0
CIRCLE
  8
ボルト／ビス
  6
CONTINUOUS
 62
    64
 10
-83.665107
 20
-66.95138
 40
0.216668
  0
ENDBLK
  0
BLOCK
  2
*GRP_0014
 70
    65
 10
0.0
 20
0.0
  0
LINE
  8
補助線
  6
BYBLOCK
 62
    64
 10
9.602283
 20
-84.53381
 11
9.734167
 21
-84.635715
  0
LINE
  8
補助線
  6
BYBLOCK
 62
    64
 10
9.719177
 20
-84.51882
 11
9.617273
 21
-84.650705
  0
LINE
  8
補助線
  6
BYBLOCK
 62
    64
 10
-1.808342
 20
-75.71712
 11
-1.676458
 21
-75.819023
  0
LINE
  8
補助線
  6
BYBLOCK
 62
    64
 10
-1.691447
 20
-75.702128
 11
-1.79335
 21
-75.834012
  0
LINE
  8
補助線
  6
BYBLOCK
 62
    64
 10
-13.087085
 20
-67.002333
 11
-13.218965
 21
-66.900428
  0
LINE
  8
補助線
  6
BYBLOCK
 62
    64
 10
-13.102073
 20
-66.885435
 11
-13.203975
 21
-67.017322
  0
LINE
  8
型材断面
  6
CONTINUOUS
 10
10.44151
 20
-84.129148
 11
10.531452
 21
-84.830512
  0
LINE
  8
型材断面
  6
CONTINUOUS
 10
10.531452
 20
-84.830512
 11
10.123838
 21
-85.35805
  0
LINE
  8
型材断面
  6
CONTINUOUS
 10
10.123838
 20
-85.35805
 11
9.422475
 21
-85.44799
  0
LINE
  8
型材断面
  6
CONTINUOUS
 10
-12.907275
 20
-66.088152
 11
-13.608637
 21
-66.178095
  0
LINE
  8
型材断面
  6
CONTINUOUS
 10
-13.608637
 20
-66.178095
 11
-14.016252
 21
-66.705632
  0
LINE
  8
型材断面
  6
CONTINUOUS
 10
-14.016252
 20
-66.705632
 11
-13.92631
 21
-67.406998
  0
LINE
  8
型材断面
  6
CONTINUOUS
 10
9.422475
 20
-85.44799
 11
-13.92631
 21
-67.406998
  0
LINE
  8
型材断面
  6
CONTINUOUS
 10
10.44151
 20
-84.129148
 11
-12.907275
 21
-66.088152
  0
CIRCLE
  8
ボルト／ビス
  6
CONTINUOUS
 10
9.668225
 20
-84.584763
 40
0.250185
  0
CIRCLE
  8
ボルト／ビス
  6
CONTINUOUS
 10
9.668225
 20
-84.584763
 40
0.301025
  0
LINE
  8
ボルト／ビス
  6
CONTINUOUS
 62
    64
 10
9.91616
 20
-84.618253
 11
9.821195
 21
-84.38679
  0
LINE
  8
ボルト／ビス
  6
CONTINUOUS
 62
    64
 10
9.57326
 20
-84.3533
 11
9.821195
 21
-84.38679
  0
LINE
  8
ボルト／ビス
  6
CONTINUOUS
 62
    64
 10
9.76319
 20
-84.816225
 11
9.515255
 21
-84.782735
  0
LINE
  8
ボルト／ビス
  6
CONTINUOUS
 62
    64
 10
9.42029
 20
-84.551272
 11
9.515255
 21
-84.782735
  0
LINE
  8
ボルト／ビス
  6
CONTINUOUS
 62
    64
 10
9.91616
 20
-84.618253
 11
9.76319
 21
-84.816225
  0
LINE
  8
ボルト／ビス
  6
CONTINUOUS
 62
    64
 10
9.57326
 20
-84.3533
 11
9.42029
 21
-84.551272
  0
CIRCLE
  8
ボルト／ビス
  6
CONTINUOUS
 62
    64
 10
9.668225
 20
-84.584763
 40
0.216668
  0
CIRCLE
  8
ボルト／ビス
  6
CONTINUOUS
 10
-1.7424
 20
-75.768073
 40
0.250185
  0
CIRCLE
  8
ボルト／ビス
  6
CONTINUOUS
 10
-1.7424
 20
-75.768073
 40
0.301025
  0
LINE
  8
ボルト／ビス
  6
CONTINUOUS
 62
    64
 10
-1.494465
 20
-75.80156
 11
-1.58943
 21
-75.5701
  0
LINE
  8
ボルト／ビス
  6
CONTINUOUS
 62
    64
 10
-1.837365
 20
-75.53661
 11
-1.58943
 21
-75.5701
  0
LINE
  8
ボルト／ビス
  6
CONTINUOUS
 62
    64
 10
-1.647433
 20
-75.999532
 11
-1.895367
 21
-75.966043
  0
LINE
  8
ボルト／ビス
  6
CONTINUOUS
 62
    64
 10
-1.990335
 20
-75.734583
 11
-1.895367
 21
-75.966043
  0
LINE
  8
ボルト／ビス
  6
CONTINUOUS
 62
    64
 10
-1.494465
 20
-75.80156
 11
-1.647433
 21
-75.999532
  0
LINE
  8
ボルト／ビス
  6
CONTINUOUS
 62
    64
 10
-1.837365
 20
-75.53661
 11
-1.990335
 21
-75.734583
  0
CIRCLE
  8
ボルト／ビス
  6
CONTINUOUS
 62
    64
 10
-1.7424
 20
-75.768073
 40
0.216668
  0
CIRCLE
  8
ボルト／ビス
  6
CONTINUOUS
 10
-13.153023
 20
-66.95138
 40
0.250185
  0
CIRCLE
  8
ボルト／ビス
  6
CONTINUOUS
 10
-13.153023
 20
-66.95138
 40
0.301025
  0
LINE
  8
ボルト／ビス
  6
CONTINUOUS
 62
    64
 10
-13.24799
 20
-66.719917
 11
-13.000058
 21
-66.753407
  0
LINE
  8
ボルト／ビス
  6
CONTINUOUS
 62
    64
 10
-12.905092
 20
-66.98487
 11
-13.000058
 21
-66.753407
  0
LINE
  8
ボルト／ビス
  6
CONTINUOUS
 62
    64
 10
-13.400958
 20
-66.91789
 11
-13.305992
 21
-67.149352
  0
LINE
  8
ボルト／ビス
  6
CONTINUOUS
 62
    64
 10
-13.058057
 20
-67.182842
 11
-13.305992
 21
-67.149352
  0
LINE
  8
ボルト／ビス
  6
CONTINUOUS
 62
    64
 10
-13.24799
 20
-66.719917
 11
-13.400958
 21
-66.91789
  0
LINE
  8
ボルト／ビス
  6
CONTINUOUS
 62
    64
 10
-12.905092
 20
-66.98487
 11
-13.058057
 21
-67.182842
  0
CIRCLE
  8
ボルト／ビス
  6
CONTINUOUS
 62
    64
 10
-13.153023
 20
-66.95138
 40
0.216668
  0
ENDBLK
  0
BLOCK
  2
*GRP_0015
 70
    65
 10
0.0
 20
0.0
  0
LINE
  8
補助線
  6
BYBLOCK
 62
    64
 10
-13.087082
 20
-84.53381
 11
-13.218967
 21
-84.635715
  0
LINE
  8
補助線
  6
BYBLOCK
 62
    64
 10
-13.203978
 20
-84.51882
 11
-13.102073
 21
-84.650705
  0
LINE
  8
補助線
  6
BYBLOCK
 62
    64
 10
-1.676458
 20
-75.71712
 11
-1.808342
 21
-75.819023
  0
LINE
  8
補助線
  6
BYBLOCK
 62
    64
 10
-1.793353
 20
-75.702128
 11
-1.69145
 21
-75.834012
  0
LINE
  8
補助線
  6
BYBLOCK
 62
    64
 10
9.602285
 20
-67.002333
 11
9.734165
 21
-66.900428
  0
LINE
  8
補助線
  6
BYBLOCK
 62
    64
 10
9.617273
 20
-66.885435
 11
9.719175
 21
-67.017322
  0
LINE
  8
型材断面
  6
CONTINUOUS
 10
-13.92631
 20
-84.129148
 11
-14.016252
 21
-84.830512
  0
LINE
  8
型材断面
  6
CONTINUOUS
 10
-14.016252
 20
-84.830512
 11
-13.608637
 21
-85.35805
  0
LINE
  8
型材断面
  6
CONTINUOUS
 10
-13.608637
 20
-85.35805
 11
-12.907275
 21
-85.44799
  0
LINE
  8
型材断面
  6
CONTINUOUS
 10
9.422475
 20
-66.088152
 11
10.123838
 21
-66.178095
  0
LINE
  8
型材断面
  6
CONTINUOUS
 10
10.123838
 20
-66.178095
 11
10.531452
 21
-66.705632
  0
LINE
  8
型材断面
  6
CONTINUOUS
 10
10.531452
 20
-66.705632
 11
10.44151
 21
-67.406998
  0
LINE
  8
型材断面
  6
CONTINUOUS
 10
-12.907275
 20
-85.44799
 11
10.44151
 21
-67.406998
  0
LINE
  8
型材断面
  6
CONTINUOUS
 10
-13.92631
 20
-84.129148
 11
9.422475
 21
-66.088152
  0
CIRCLE
  8
ボルト／ビス
  6
CONTINUOUS
 10
-13.153025
 20
-84.584763
 40
0.250185
  0
CIRCLE
  8
ボルト／ビス
  6
CONTINUOUS
 10
-13.153025
 20
-84.584763
 40
0.301025
  0
LINE
  8
ボルト／ビス
  6
CONTINUOUS
 62
    64
 10
-13.40096
 20
-84.618253
 11
-13.305995
 21
-84.38679
  0
LINE
  8
ボルト／ビス
  6
CONTINUOUS
 62
    64
 10
-13.05806
 20
-84.3533
 11
-13.305995
 21
-84.38679
  0
LINE
  8
ボルト／ビス
  6
CONTINUOUS
 62
    64
 10
-13.24799
 20
-84.816225
 11
-13.000055
 21
-84.782735
  0
LINE
  8
ボルト／ビス
  6
CONTINUOUS
 62
    64
 10
-12.90509
 20
-84.551272
 11
-13.000055
 21
-84.782735
  0
LINE
  8
ボルト／ビス
  6
CONTINUOUS
 62
    64
 10
-13.40096
 20
-84.618253
 11
-13.24799
 21
-84.816225
  0
LINE
  8
ボルト／ビス
  6
CONTINUOUS
 62
    64
 10
-13.05806
 20
-84.3533
 11
-12.90509
 21
-84.551272
  0
CIRCLE
  8
ボルト／ビス
  6
CONTINUOUS
 62
    64
 10
-13.153025
 20
-84.584763
 40
0.216668
  0
CIRCLE
  8
ボルト／ビス
  6
CONTINUOUS
 10
-1.7424
 20
-75.768073
 40
0.250185
  0
CIRCLE
  8
ボルト／ビス
  6
CONTINUOUS
 10
-1.7424
 20
-75.768073
 40
0.301025
  0
LINE
  8
ボルト／ビス
  6
CONTINUOUS
 62
    64
 10
-1.990335
 20
-75.80156
 11
-1.89537
 21
-75.5701
  0
LINE
  8
ボルト／ビス
  6
CONTINUOUS
 62
    64
 10
-1.647435
 20
-75.53661
 11
-1.89537
 21
-75.5701
  0
LINE
  8
ボルト／ビス
  6
CONTINUOUS
 62
    64
 10
-1.837367
 20
-75.999532
 11
-1.589433
 21
-75.966043
  0
LINE
  8
ボルト／ビス
  6
CONTINUOUS
 62
    64
 10
-1.494465
 20
-75.734583
 11
-1.589433
 21
-75.966043
  0
LINE
  8
ボルト／ビス
  6
CONTINUOUS
 62
    64
 10
-1.990335
 20
-75.80156
 11
-1.837367
 21
-75.999532
  0
LINE
  8
ボルト／ビス
  6
CONTINUOUS
 62
    64
 10
-1.647435
 20
-75.53661
 11
-1.494465
 21
-75.734583
  0
CIRCLE
  8
ボルト／ビス
  6
CONTINUOUS
 62
    64
 10
-1.7424
 20
-75.768073
 40
0.216668
  0
CIRCLE
  8
ボルト／ビス
  6
CONTINUOUS
 10
9.668223
 20
-66.95138
 40
0.250185
  0
CIRCLE
  8
ボルト／ビス
  6
CONTINUOUS
 10
9.668223
 20
-66.95138
 40
0.301025
  0
LINE
  8
ボルト／ビス
  6
CONTINUOUS
 62
    64
 10
9.76319
 20
-66.719917
 11
9.515258
 21
-66.753407
  0
LINE
  8
ボルト／ビス
  6
CONTINUOUS
 62
    64
 10
9.420292
 20
-66.98487
 11
9.515258
 21
-66.753407
  0
LINE
  8
ボルト／ビス
  6
CONTINUOUS
 62
    64
 10
9.916158
 20
-66.91789
 11
9.821192
 21
-67.149352
  0
LINE
  8
ボルト／ビス
  6
CONTINUOUS
 62
    64
 10
9.573258
 20
-67.182842
 11
9.821192
 21
-67.149352
  0
LINE
  8
ボルト／ビス
  6
CONTINUOUS
 62
    64
 10
9.76319
 20
-66.719917
 11
9.916158
 21
-66.91789
  0
LINE
  8
ボルト／ビス
  6
CONTINUOUS
 62
    64
 10
9.420292
 20
-66.98487
 11
9.573258
 21
-67.182842
  0
CIRCLE
  8
ボルト／ビス
  6
CONTINUOUS
 62
    64
 10
9.668223
 20
-66.95138
 40
0.216668
  0
ENDBLK
  0
BLOCK
  2
*DIM_0016
 70
    65
 10
0.0
 20
0.0
  0
LINE
  8
寸法
  6
BYBLOCK
 62
     0
 10
110.868155
 20
61.39905
 11
110.868155
 21
72.668433
  0
LINE
  8
寸法
  6
BYBLOCK
 62
     0
 10
117.901657
 20
61.715715
 11
117.901657
 21
72.668433
  0
LINE
  8
寸法
  6
BYBLOCK
 62
     0
 10
110.868155
 20
72.668433
 11
117.901657
 21
72.668433
  0
POINT
  8
寸法
 62
     0
 10
110.868155
 20
72.668433
  0
POINT
  8
寸法
 62
     0
 10
117.901657
 20
72.668433
  0
TEXT
  7
TextStyle03
  8
寸法
  6
CONTINUOUS
 62
     0
 10
111.9375
 20
73.025
  1
211
 40
3.0
 72
     5
 11
116.8125
 21
73.025
  0
ENDBLK
  0
BLOCK
  2
*DIM_0017
 70
    65
 10
0.0
 20
0.0
  0
LINE
  8
寸法
  6
BYBLOCK
 62
     0
 10
109.24494
 20
58.715715
 11
55.35454
 21
58.715715
  0
LINE
  8
寸法
  6
BYBLOCK
 62
     0
 10
55.35454
 20
56.73238
 11
55.35454
 21
58.715715
  0
POINT
  8
寸法
 62
     0
 10
55.35454
 20
56.73238
  0
POINT
  8
寸法
 62
     0
 10
55.35454
 20
58.715715
  0
TEXT
  7
TextStyle03
  8
寸法
  6
CONTINUOUS
 62
     0
 10
54.975
 20
61.16875
  1
59.5
 40
3.0
 50
90.0
 72
     5
 11
54.975
 21
67.73125
  0
ENDBLK
  0
BLOCK
  2
*DIM_0018
 70
    65
 10
0.0
 20
0.0
  0
LINE
  8
寸法
  6
BYBLOCK
 62
     0
 10
109.24494
 20
11.415715
 11
55.35454
 21
11.415715
  0
LINE
  8
寸法
  6
BYBLOCK
 62
     0
 10
55.35454
 20
13.399048
 11
55.35454
 21
11.415715
  0
POINT
  8
寸法
 62
     0
 10
55.35454
 20
13.399048
  0
POINT
  8
寸法
 62
     0
 10
55.35454
 20
11.415715
  0
TEXT
  7
TextStyle03
  8
寸法
  6
CONTINUOUS
 62
     0
 10
54.975
 20
2.36875
  1
59.5
 40
3.0
 50
90.0
 72
     5
 11
54.975
 21
8.93125
  0
ENDBLK
  0
BLOCK
  2
*DIM_0019
 70
    65
 10
0.0
 20
0.0
  0
LINE
  8
寸法
  6
BYBLOCK
 62
     0
 10
26.001557
 20
-79.624597
 11
37.30454
 21
-79.624597
  0
LINE
  8
寸法
  6
BYBLOCK
 62
     0
 10
26.318225
 20
-86.6581
 11
37.30454
 21
-86.6581
  0
LINE
  8
寸法
  6
BYBLOCK
 62
     0
 10
37.30454
 20
-79.624597
 11
37.30454
 21
-86.6581
  0
POINT
  8
寸法
 62
     0
 10
37.30454
 20
-79.624597
  0
POINT
  8
寸法
 62
     0
 10
37.30454
 20
-86.6581
  0
TEXT
  7
TextStyle03
  8
寸法
  6
CONTINUOUS
 62
     0
 10
36.925
 20
-85.5875
  1
211
 40
3.0
 50
90.0
 72
     5
 11
36.925
 21
-80.7125
  0
ENDBLK
  0
BLOCK
  2
*DIM_0020
 70
    65
 10
0.0
 20
0.0
  0
LINE
  8
寸法
  6
BYBLOCK
 62
     0
 10
23.318225
 20
-78.001383
 11
23.318225
 21
-22.536362
  0
LINE
  8
寸法
  6
BYBLOCK
 62
     0
 10
21.33489
 20
-22.536362
 11
23.318225
 21
-22.536362
  0
POINT
  8
寸法
 62
     0
 10
21.33489
 20
-22.536362
  0
POINT
  8
寸法
 62
     0
 10
23.318225
 20
-22.536362
  0
TEXT
  7
TextStyle03
  8
寸法
  6
CONTINUOUS
 62
     0
 10
25.79375
 20
-22.15
  1
59.5
 40
3.0
 72
     5
 11
32.35625
 21
-22.15
  0
ENDBLK
  0
BLOCK
  2
*DIM_0021
 70
    65
 10
0.0
 20
0.0
  0
LINE
  8
寸法
  6
BYBLOCK
 62
     0
 10
-97.31511
 20
-78.001383
 11
-97.31511
 21
-22.536362
  0
LINE
  8
寸法
  6
BYBLOCK
 62
     0
 10
-95.331778
 20
-22.536362
 11
-97.31511
 21
-22.536362
  0
POINT
  8
寸法
 62
     0
 10
-95.331778
 20
-22.536362
  0
POINT
  8
寸法
 62
     0
 10
-97.31511
 20
-22.536362
  0
TEXT
  7
TextStyle03
  8
寸法
  6
CONTINUOUS
 62
     0
 10
-106.35625
 20
-22.15
  1
59.5
 40
3.0
 72
     5
 11
-99.79375
 21
-22.15
  0
ENDBLK
  0
BLOCK
  2
*DIM_0022
 70
    65
 10
0.0
 20
0.0
  0
LINE
  8
寸法
  6
BYBLOCK
 62
     0
 10
-98.331778
 20
23.399048
 11
-127.276943
 21
23.399048
  0
LINE
  8
寸法
  6
BYBLOCK
 62
     0
 10
-98.331778
 20
46.732382
 11
-127.276943
 21
46.732382
  0
LINE
  8
寸法
  6
BYBLOCK
 62
     0
 10
-127.276943
 20
23.399048
 11
-127.276943
 21
46.732382
  0
POINT
  8
寸法
 62
     0
 10
-127.276943
 20
23.399048
  0
POINT
  8
寸法
 62
     0
 10
-127.276943
 20
46.732382
  0
TEXT
  7
TextStyle03
  8
寸法
  6
CONTINUOUS
 62
     0
 10
-127.625
 20
32.6125
  1
700
 40
3.0
 50
90.0
 72
     5
 11
-127.625
 21
37.4875
  0
ENDBLK
  0
BLOCK
  2
*DIM_0023
 70
    65
 10
0.0
 20
0.0
  0
LINE
  8
寸法
  6
BYBLOCK
 62
     0
 10
-90.331775
 20
59.73238
 11
-90.331775
 21
88.840452
  0
LINE
  8
寸法
  6
BYBLOCK
 62
     0
 10
-63.66511
 20
59.73238
 11
-63.66511
 21
88.840452
  0
LINE
  8
寸法
  6
BYBLOCK
 62
     0
 10
-90.331775
 20
88.840452
 11
-63.66511
 21
88.840452
  0
POINT
  8
寸法
 62
     0
 10
-90.331775
 20
88.840452
  0
POINT
  8
寸法
 62
     0
 10
-63.66511
 20
88.840452
  0
TEXT
  7
TextStyle03
  8
寸法
  6
CONTINUOUS
 62
     0
 10
-79.4375
 20
89.2
  1
800
 40
3.0
 72
     5
 11
-74.5625
 21
89.2
  0
ENDBLK
  0
BLOCK
  2
*DIM_0024
 70
    65
 10
0.0
 20
0.0
  0
LINE
  8
寸法
  6
BYBLOCK
 62
     0
 10
-36.998442
 20
59.73238
 11
-36.998442
 21
88.840452
  0
LINE
  8
寸法
  6
BYBLOCK
 62
     0
 10
-63.66511
 20
88.840452
 11
-36.998442
 21
88.840452
  0
POINT
  8
寸法
 62
     0
 10
-36.998442
 20
88.840452
  0
TEXT
  7
TextStyle03
  8
寸法
  6
CONTINUOUS
 62
     0
 10
-52.7875
 20
89.2
  1
800
 40
3.0
 72
     5
 11
-47.9125
 21
89.2
  0
ENDBLK
  0
BLOCK
  2
*DIM_0025
 70
    65
 10
0.0
 20
0.0
  0
LINE
  8
寸法
  6
BYBLOCK
 62
     0
 10
-10.331775
 20
59.73238
 11
-10.331775
 21
88.840452
  0
LINE
  8
寸法
  6
BYBLOCK
 62
     0
 10
-36.998442
 20
88.840452
 11
-10.331775
 21
88.840452
  0
POINT
  8
寸法
 62
     0
 10
-10.331775
 20
88.840452
  0
TEXT
  7
TextStyle03
  8
寸法
  6
CONTINUOUS
 62
     0
 10
-26.1125
 20
89.2
  1
800
 40
3.0
 72
     5
 11
-21.2375
 21
89.2
  0
ENDBLK
  0
BLOCK
  2
*DIM_0026
 70
    65
 10
0.0
 20
0.0
  0
LINE
  8
寸法
  6
BYBLOCK
 62
     0
 10
16.33489
 20
59.73238
 11
16.33489
 21
88.840452
  0
LINE
  8
寸法
  6
BYBLOCK
 62
     0
 10
-10.331775
 20
88.840452
 11
16.33489
 21
88.840452
  0
POINT
  8
寸法
 62
     0
 10
16.33489
 20
88.840452
  0
TEXT
  7
TextStyle03
  8
寸法
  6
CONTINUOUS
 62
     0
 10
0.5625
 20
89.2
  1
800
 40
3.0
 72
     5
 11
5.4375
 21
89.2
  0
ENDBLK
  0
BLOCK
  2
*GRP_0028
 70
    65
 10
0.0
 20
0.0
  0
LINE
  8
ボルト／ビス
  6
CONTINUOUS
 10
110.868155
 20
12.73238
 11
110.40149
 21
12.73238
  0
LINE
  8
ボルト／ビス
  6
CONTINUOUS
 10
110.868155
 20
12.365715
 11
110.80149
 21
12.365715
  0
LINE
  8
ボルト／ビス
  6
CONTINUOUS
 10
110.80149
 20
12.365715
 11
110.80149
 21
13.099048
  0
LINE
  8
ボルト／ビス
  6
CONTINUOUS
 10
110.80149
 20
13.099048
 11
110.868155
 21
13.099048
  0
LINE
  8
ボルト／ビス
  6
CONTINUOUS
 10
110.868155
 20
12.365715
 11
110.868155
 21
13.099048
  0
LINE
  8
ボルト／ビス
  6
CONTINUOUS
 10
110.768155
 20
12.43238
 11
110.80149
 21
12.43238
  0
LINE
  8
ボルト／ビス
  6
CONTINUOUS
 10
110.768155
 20
12.43238
 11
110.768155
 21
13.03238
  0
LINE
  8
ボルト／ビス
  6
CONTINUOUS
 10
110.768155
 20
13.03238
 11
110.80149
 21
13.03238
  0
LINE
  8
ボルト／ビス
  6
CONTINUOUS
 62
    64
 10
110.568155
 20
12.572005
 11
110.57983
 21
12.53993
  0
ARC
  8
ボルト／ビス
  6
CONTINUOUS
 62
    64
 10
110.673134
 20
12.588044
 40
0.104978
 50
152.721967
 51
180.0
  0
ARC
  8
ボルト／ビス
  6
CONTINUOUS
 62
    64
 10
110.970558
 20
12.732382
 40
0.402402
 50
166.165002
 51
193.834985
  0
LINE
  8
ボルト／ビス
  6
CONTINUOUS
 62
    64
 10
110.568155
 20
12.892755
 11
110.57983
 21
12.92483
  0
ARC
  8
ボルト／ビス
  6
CONTINUOUS
 62
    64
 10
110.673134
 20
12.876719
 40
0.104978
 50
180.0
 51
207.278033
  0
LINE
  8
ボルト／ビス
  6
CONTINUOUS
 62
    64
 10
110.568155
 20
12.572005
 11
110.568155
 21
12.892755
  0
LINE
  8
ボルト／ビス
  6
CONTINUOUS
 62
    64
 10
110.57983
 20
12.92483
 11
110.70149
 21
12.92483
  0
LINE
  8
ボルト／ビス
  6
CONTINUOUS
 62
    64
 10
110.57983
 20
12.828605
 11
110.70149
 21
12.828605
  0
LINE
  8
ボルト／ビス
  6
CONTINUOUS
 62
    64
 10
110.57983
 20
12.53993
 11
110.70149
 21
12.53993
  0
LINE
  8
ボルト／ビス
  6
CONTINUOUS
 62
    64
 10
110.57983
 20
12.636155
 11
110.70149
 21
12.636155
  0
LINE
  8
ボルト／ビス
  6
CONTINUOUS
 10
110.70149
 20
12.53993
 11
110.70149
 21
12.92483
  0
LINE
  8
ボルト／ビス
  6
CONTINUOUS
 10
110.70149
 20
12.53238
 11
110.768155
 21
12.53238
  0
LINE
  8
ボルト／ビス
  6
CONTINUOUS
 10
110.70149
 20
12.53238
 11
110.70149
 21
12.93238
  0
LINE
  8
ボルト／ビス
  6
CONTINUOUS
 10
110.70149
 20
12.93238
 11
110.768155
 21
12.93238
  0
ENDBLK
  0
BLOCK
  2
*GRP_0029
 70
    65
 10
0.0
 20
0.0
  0
LINE
  8
ボルト／ビス
  6
CONTINUOUS
 10
110.868155
 20
57.39905
 11
110.40149
 21
57.39905
  0
LINE
  8
ボルト／ビス
  6
CONTINUOUS
 10
110.868155
 20
57.765715
 11
110.80149
 21
57.765715
  0
LINE
  8
ボルト／ビス
  6
CONTINUOUS
 10
110.80149
 20
57.765715
 11
110.80149
 21
57.032382
  0
LINE
  8
ボルト／ビス
  6
CONTINUOUS
 10
110.80149
 20
57.032382
 11
110.868155
 21
57.032382
  0
LINE
  8
ボルト／ビス
  6
CONTINUOUS
 10
110.868155
 20
57.765715
 11
110.868155
 21
57.032382
  0
LINE
  8
ボルト／ビス
  6
CONTINUOUS
 10
110.768155
 20
57.69905
 11
110.80149
 21
57.69905
  0
LINE
  8
ボルト／ビス
  6
CONTINUOUS
 10
110.768155
 20
57.69905
 11
110.768155
 21
57.09905
  0
LINE
  8
ボルト／ビス
  6
CONTINUOUS
 10
110.768155
 20
57.09905
 11
110.80149
 21
57.09905
  0
LINE
  8
ボルト／ビス
  6
CONTINUOUS
 62
    64
 10
110.568155
 20
57.559425
 11
110.57983
 21
57.5915
  0
ARC
  8
ボルト／ビス
  6
CONTINUOUS
 62
    64
 10
110.673134
 20
57.543386
 40
0.104978
 50
180.0
 51
207.278033
  0
ARC
  8
ボルト／ビス
  6
CONTINUOUS
 62
    64
 10
110.970558
 20
57.399048
 40
0.402402
 50
166.165015
 51
193.834998
  0
LINE
  8
ボルト／ビス
  6
CONTINUOUS
 62
    64
 10
110.568155
 20
57.238675
 11
110.57983
 21
57.2066
  0
ARC
  8
ボルト／ビス
  6
CONTINUOUS
 62
    64
 10
110.673134
 20
57.254711
 40
0.104978
 50
152.721967
 51
180.0
  0
LINE
  8
ボルト／ビス
  6
CONTINUOUS
 62
    64
 10
110.568155
 20
57.559425
 11
110.568155
 21
57.238675
  0
LINE
  8
ボルト／ビス
  6
CONTINUOUS
 62
    64
 10
110.57983
 20
57.2066
 11
110.70149
 21
57.2066
  0
LINE
  8
ボルト／ビス
  6
CONTINUOUS
 62
    64
 10
110.57983
 20
57.302825
 11
110.70149
 21
57.302825
  0
LINE
  8
ボルト／ビス
  6
CONTINUOUS
 62
    64
 10
110.57983
 20
57.5915
 11
110.70149
 21
57.5915
  0
LINE
  8
ボルト／ビス
  6
CONTINUOUS
 62
    64
 10
110.57983
 20
57.495275
 11
110.70149
 21
57.495275
  0
LINE
  8
ボルト／ビス
  6
CONTINUOUS
 10
110.70149
 20
57.5915
 11
110.70149
 21
57.2066
  0
LINE
  8
ボルト／ビス
  6
CONTINUOUS
 10
110.70149
 20
57.59905
 11
110.768155
 21
57.59905
  0
LINE
  8
ボルト／ビス
  6
CONTINUOUS
 10
110.70149
 20
57.59905
 11
110.70149
 21
57.19905
  0
LINE
  8
ボルト／ビス
  6
CONTINUOUS
 10
110.70149
 20
57.19905
 11
110.768155
 21
57.19905
  0
ENDBLK
  0
BLOCK
  2
*GRP_0030
 70
    65
 10
0.0
 20
0.0
  0
LINE
  8
ボルト／ビス
  6
CONTINUOUS
 10
22.001557
 20
-79.624597
 11
22.001557
 21
-79.157932
  0
LINE
  8
ボルト／ビス
  6
CONTINUOUS
 10
21.634893
 20
-79.624597
 11
21.634893
 21
-79.557932
  0
LINE
  8
ボルト／ビス
  6
CONTINUOUS
 10
21.634893
 20
-79.557932
 11
22.368225
 21
-79.557932
  0
LINE
  8
ボルト／ビス
  6
CONTINUOUS
 10
22.368225
 20
-79.557932
 11
22.368225
 21
-79.624597
  0
LINE
  8
ボルト／ビス
  6
CONTINUOUS
 10
21.634893
 20
-79.624597
 11
22.368225
 21
-79.624597
  0
LINE
  8
ボルト／ビス
  6
CONTINUOUS
 10
21.701557
 20
-79.524597
 11
21.701557
 21
-79.557932
  0
LINE
  8
ボルト／ビス
  6
CONTINUOUS
 10
21.701557
 20
-79.524597
 11
22.301557
 21
-79.524597
  0
LINE
  8
ボルト／ビス
  6
CONTINUOUS
 10
22.301557
 20
-79.524597
 11
22.301557
 21
-79.557932
  0
LINE
  8
ボルト／ビス
  6
CONTINUOUS
 62
    64
 10
21.841182
 20
-79.324597
 11
21.809108
 21
-79.336272
  0
ARC
  8
ボルト／ビス
  6
CONTINUOUS
 62
    64
 10
21.857221
 20
-79.429577
 40
0.104978
 50
62.721967
 51
90.0
  0
ARC
  8
ボルト／ビス
  6
CONTINUOUS
 62
    64
 10
22.001559
 20
-79.727001
 40
0.402402
 50
76.165002
 51
103.834985
  0
LINE
  8
ボルト／ビス
  6
CONTINUOUS
 62
    64
 10
22.161932
 20
-79.324597
 11
22.194008
 21
-79.336272
  0
ARC
  8
ボルト／ビス
  6
CONTINUOUS
 62
    64
 10
22.145896
 20
-79.429577
 40
0.104978
 50
90.0
 51
117.278033
  0
LINE
  8
ボルト／ビス
  6
CONTINUOUS
 62
    64
 10
21.841182
 20
-79.324597
 11
22.161932
 21
-79.324597
  0
LINE
  8
ボルト／ビス
  6
CONTINUOUS
 62
    64
 10
22.194008
 20
-79.336272
 11
22.194008
 21
-79.457932
  0
LINE
  8
ボルト／ビス
  6
CONTINUOUS
 62
    64
 10
22.097782
 20
-79.336272
 11
22.097782
 21
-79.457932
  0
LINE
  8
ボルト／ビス
  6
CONTINUOUS
 62
    64
 10
21.809108
 20
-79.336272
 11
21.809108
 21
-79.457932
  0
LINE
  8
ボルト／ビス
  6
CONTINUOUS
 62
    64
 10
21.905333
 20
-79.336272
 11
21.905333
 21
-79.457932
  0
LINE
  8
ボルト／ビス
  6
CONTINUOUS
 10
21.809108
 20
-79.457932
 11
22.194008
 21
-79.457932
  0
LINE
  8
ボルト／ビス
  6
CONTINUOUS
 10
21.801557
 20
-79.457932
 11
21.801557
 21
-79.524597
  0
LINE
  8
ボルト／ビス
  6
CONTINUOUS
 10
21.801557
 20
-79.457932
 11
22.201557
 21
-79.457932
  0
LINE
  8
ボルト／ビス
  6
CONTINUOUS
 10
22.201557
 20
-79.457932
 11
22.201557
 21
-79.524597
  0
ENDBLK
  0
BLOCK
  2
*GRP_0031
 70
    65
 10
0.0
 20
0.0
  0
LINE
  8
ボルト／ビス
  6
DOT
 10
22.001557
 20
-64.624597
 11
22.001557
 21
-64.157932
  0
LINE
  8
ボルト／ビス
  6
DOT
 10
21.634893
 20
-64.624597
 11
21.634893
 21
-64.557932
  0
LINE
  8
ボルト／ビス
  6
DOT
 10
21.634893
 20
-64.557932
 11
22.368225
 21
-64.557932
  0
LINE
  8
ボルト／ビス
  6
DOT
 10
22.368225
 20
-64.557932
 11
22.368225
 21
-64.624597
  0
LINE
  8
ボルト／ビス
  6
DOT
 10
21.634893
 20
-64.624597
 11
22.368225
 21
-64.624597
  0
LINE
  8
ボルト／ビス
  6
DOT
 10
21.701557
 20
-64.524597
 11
21.701557
 21
-64.557932
  0
LINE
  8
ボルト／ビス
  6
DOT
 10
21.701557
 20
-64.524597
 11
22.301557
 21
-64.524597
  0
LINE
  8
ボルト／ビス
  6
DOT
 10
22.301557
 20
-64.524597
 11
22.301557
 21
-64.557932
  0
LINE
  8
ボルト／ビス
  6
DOT
 62
    64
 10
21.841182
 20
-64.324597
 11
21.809108
 21
-64.336272
  0
ARC
  8
ボルト／ビス
  6
DOT
 62
    64
 10
21.857221
 20
-64.429577
 40
0.104978
 50
62.721967
 51
90.0
  0
ARC
  8
ボルト／ビス
  6
DOT
 62
    64
 10
22.001559
 20
-64.727001
 40
0.402402
 50
76.165002
 51
103.834985
  0
LINE
  8
ボルト／ビス
  6
DOT
 62
    64
 10
22.161932
 20
-64.324597
 11
22.194008
 21
-64.336272
  0
ARC
  8
ボルト／ビス
  6
DOT
 62
    64
 10
22.145896
 20
-64.429577
 40
0.104978
 50
90.0
 51
117.278033
  0
LINE
  8
ボルト／ビス
  6
DOT
 62
    64
 10
21.841182
 20
-64.324597
 11
22.161932
 21
-64.324597
  0
LINE
  8
ボルト／ビス
  6
DOT
 62
    64
 10
22.194008
 20
-64.336272
 11
22.194008
 21
-64.457932
  0
LINE
  8
ボルト／ビス
  6
DOT
 62
    64
 10
22.097782
 20
-64.336272
 11
22.097782
 21
-64.457932
  0
LINE
  8
ボルト／ビス
  6
DOT
 62
    64
 10
21.809108
 20
-64.336272
 11
21.809108
 21
-64.457932
  0
LINE
  8
ボルト／ビス
  6
DOT
 62
    64
 10
21.905333
 20
-64.336272
 11
21.905333
 21
-64.457932
  0
LINE
  8
ボルト／ビス
  6
DOT
 10
21.809108
 20
-64.457932
 11
22.194008
 21
-64.457932
  0
LINE
  8
ボルト／ビス
  6
DOT
 10
21.801557
 20
-64.457932
 11
21.801557
 21
-64.524597
  0
LINE
  8
ボルト／ビス
  6
DOT
 10
21.801557
 20
-64.457932
 11
22.201557
 21
-64.457932
  0
LINE
  8
ボルト／ビス
  6
DOT
 10
22.201557
 20
-64.457932
 11
22.201557
 21
-64.524597
  0
ENDBLK
  0
BLOCK
  2
*GRP_0032
 70
    65
 10
0.0
 20
0.0
  0
LINE
  8
ボルト／ビス
  6
CONTINUOUS
 10
-95.998442
 20
-79.624597
 11
-95.998442
 21
-79.157932
  0
LINE
  8
ボルト／ビス
  6
CONTINUOUS
 10
-95.631778
 20
-79.624597
 11
-95.631778
 21
-79.557932
  0
LINE
  8
ボルト／ビス
  6
CONTINUOUS
 10
-95.631778
 20
-79.557932
 11
-96.36511
 21
-79.557932
  0
LINE
  8
ボルト／ビス
  6
CONTINUOUS
 10
-96.36511
 20
-79.557932
 11
-96.36511
 21
-79.624597
  0
LINE
  8
ボルト／ビス
  6
CONTINUOUS
 10
-95.631778
 20
-79.624597
 11
-96.36511
 21
-79.624597
  0
LINE
  8
ボルト／ビス
  6
CONTINUOUS
 10
-95.698442
 20
-79.524597
 11
-95.698442
 21
-79.557932
  0
LINE
  8
ボルト／ビス
  6
CONTINUOUS
 10
-95.698442
 20
-79.524597
 11
-96.298442
 21
-79.524597
  0
LINE
  8
ボルト／ビス
  6
CONTINUOUS
 10
-96.298442
 20
-79.524597
 11
-96.298442
 21
-79.557932
  0
LINE
  8
ボルト／ビス
  6
CONTINUOUS
 62
    64
 10
-95.838068
 20
-79.324597
 11
-95.805992
 21
-79.336272
  0
ARC
  8
ボルト／ビス
  6
CONTINUOUS
 62
    64
 10
-95.854106
 20
-79.429577
 40
0.104978
 50
90.0
 51
117.278033
  0
ARC
  8
ボルト／ビス
  6
CONTINUOUS
 62
    64
 10
-95.998444
 20
-79.727001
 40
0.402402
 50
76.165015
 51
103.834998
  0
LINE
  8
ボルト／ビス
  6
CONTINUOUS
 62
    64
 10
-96.158817
 20
-79.324597
 11
-96.190892
 21
-79.336272
  0
ARC
  8
ボルト／ビス
  6
CONTINUOUS
 62
    64
 10
-96.142781
 20
-79.429577
 40
0.104978
 50
62.721967
 51
90.0
  0
LINE
  8
ボルト／ビス
  6
CONTINUOUS
 62
    64
 10
-95.838068
 20
-79.324597
 11
-96.158817
 21
-79.324597
  0
LINE
  8
ボルト／ビス
  6
CONTINUOUS
 62
    64
 10
-96.190892
 20
-79.336272
 11
-96.190892
 21
-79.457932
  0
LINE
  8
ボルト／ビス
  6
CONTINUOUS
 62
    64
 10
-96.094668
 20
-79.336272
 11
-96.094668
 21
-79.457932
  0
LINE
  8
ボルト／ビス
  6
CONTINUOUS
 62
    64
 10
-95.805992
 20
-79.336272
 11
-95.805992
 21
-79.457932
  0
LINE
  8
ボルト／ビス
  6
CONTINUOUS
 62
    64
 10
-95.902218
 20
-79.336272
 11
-95.902218
 21
-79.457932
  0
LINE
  8
ボルト／ビス
  6
CONTINUOUS
 10
-95.805992
 20
-79.457932
 11
-96.190892
 21
-79.457932
  0
LINE
  8
ボルト／ビス
  6
CONTINUOUS
 10
-95.798442
 20
-79.457932
 11
-95.798442
 21
-79.524597
  0
LINE
  8
ボルト／ビス
  6
CONTINUOUS
 10
-95.798442
 20
-79.457932
 11
-96.198442
 21
-79.457932
  0
LINE
  8
ボルト／ビス
  6
CONTINUOUS
 10
-96.198442
 20
-79.457932
 11
-96.198442
 21
-79.524597
  0
ENDBLK
  0
BLOCK
  2
*GRP_0033
 70
    65
 10
0.0
 20
0.0
  0
LINE
  8
ボルト／ビス
  6
DOT
 10
-95.998442
 20
-64.624597
 11
-95.998442
 21
-64.157932
  0
LINE
  8
ボルト／ビス
  6
DOT
 10
-95.631778
 20
-64.624597
 11
-95.631778
 21
-64.557932
  0
LINE
  8
ボルト／ビス
  6
DOT
 10
-95.631778
 20
-64.557932
 11
-96.36511
 21
-64.557932
  0
LINE
  8
ボルト／ビス
  6
DOT
 10
-96.36511
 20
-64.557932
 11
-96.36511
 21
-64.624597
  0
LINE
  8
ボルト／ビス
  6
DOT
 10
-95.631778
 20
-64.624597
 11
-96.36511
 21
-64.624597
  0
LINE
  8
ボルト／ビス
  6
DOT
 10
-95.698442
 20
-64.524597
 11
-95.698442
 21
-64.557932
  0
LINE
  8
ボルト／ビス
  6
DOT
 10
-95.698442
 20
-64.524597
 11
-96.298442
 21
-64.524597
  0
LINE
  8
ボルト／ビス
  6
DOT
 10
-96.298442
 20
-64.524597
 11
-96.298442
 21
-64.557932
  0
LINE
  8
ボルト／ビス
  6
DOT
 62
    64
 10
-95.838068
 20
-64.324597
 11
-95.805992
 21
-64.336272
  0
ARC
  8
ボルト／ビス
  6
DOT
 62
    64
 10
-95.854106
 20
-64.429577
 40
0.104978
 50
90.0
 51
117.278033
  0
ARC
  8
ボルト／ビス
  6
DOT
 62
    64
 10
-95.998444
 20
-64.727001
 40
0.402402
 50
76.165015
 51
103.834998
  0
LINE
  8
ボルト／ビス
  6
DOT
 62
    64
 10
-96.158817
 20
-64.324597
 11
-96.190892
 21
-64.336272
  0
ARC
  8
ボルト／ビス
  6
DOT
 62
    64
 10
-96.142781
 20
-64.429577
 40
0.104978
 50
62.721967
 51
90.0
  0
LINE
  8
ボルト／ビス
  6
DOT
 62
    64
 10
-95.838068
 20
-64.324597
 11
-96.158817
 21
-64.324597
  0
LINE
  8
ボルト／ビス
  6
DOT
 62
    64
 10
-96.190892
 20
-64.336272
 11
-96.190892
 21
-64.457932
  0
LINE
  8
ボルト／ビス
  6
DOT
 62
    64
 10
-96.094668
 20
-64.336272
 11
-96.094668
 21
-64.457932
  0
LINE
  8
ボルト／ビス
  6
DOT
 62
    64
 10
-95.805992
 20
-64.336272
 11
-95.805992
 21
-64.457932
  0
LINE
  8
ボルト／ビス
  6
DOT
 62
    64
 10
-95.902218
 20
-64.336272
 11
-95.902218
 21
-64.457932
  0
LINE
  8
ボルト／ビス
  6
DOT
 10
-95.805992
 20
-64.457932
 11
-96.190892
 21
-64.457932
  0
LINE
  8
ボルト／ビス
  6
DOT
 10
-95.798442
 20
-64.457932
 11
-95.798442
 21
-64.524597
  0
LINE
  8
ボルト／ビス
  6
DOT
 10
-95.798442
 20
-64.457932
 11
-96.198442
 21
-64.457932
  0
LINE
  8
ボルト／ビス
  6
DOT
 10
-96.198442
 20
-64.457932
 11
-96.198442
 21
-64.524597
  0
ENDBLK
  0
BLOCK
  2
*DIM_0034
 70
    65
 10
0.0
 20
0.0
  0
LINE
  8
寸法
  6
BYBLOCK
 62
     0
 10
2.668223
 20
-52.95793
 11
37.30454
 21
-52.95793
  0
LINE
  8
寸法
  6
BYBLOCK
 62
     0
 10
37.30454
 20
-67.95793
 11
37.30454
 21
-52.95793
  0
POINT
  8
寸法
 62
     0
 10
37.30454
 20
-67.95793
  0
POINT
  8
寸法
 62
     0
 10
37.30454
 20
-52.95793
  0
TEXT
  7
TextStyle03
  8
寸法
  6
CONTINUOUS
 62
     0
 10
36.5
 20
-51.0625
  1
上昇高さ450
 40
3.0
 50
90.0
 72
     5
 11
36.5
 21
-32.6875
  0
ENDBLK
  0
ENDSEC
  0
SECTION
  2
ENTITIES
  0
POLYLINE
  8
通り芯
  6
CONTINUOUS
 66
     1
 70
     1
  0
VERTEX
  8
通り芯
 10
-210.0
 20
-148.5
  0
VERTEX
  8
通り芯
 10
210.0
 20
-148.5
  0
VERTEX
  8
通り芯
 10
210.0
 20
148.5
  0
VERTEX
  8
通り芯
 10
-210.0
 20
148.5
  0
SEQEND
  0
INSERT
  2
*GRP_0001
  8
型材断面
  6
CONTINUOUS
 10
0.0
 20
0.0
  0
LINE
  8
型材断面
  6
DASHDOT
 10
21.33489
 20
-87.251428
 11
21.33489
 21
56.73238
  0
LINE
  8
型材断面
  6
DASHDOT
 10
-36.998442
 20
-87.251428
 11
-36.998442
 21
56.73238
  0
LINE
  8
型材断面
  6
DASHDOT
 10
-95.331778
 20
-87.251428
 11
-95.331778
 21
56.73238
  0
LINE
  8
型材断面
  6
DASHDOT
 10
119.011652
 20
13.399048
 11
-95.331778
 21
13.399048
  0
LINE
  8
型材断面
  6
DASHDOT
 10
119.011652
 20
35.065715
 11
-95.331778
 21
35.065715
  0
LINE
  8
型材断面
  6
DASHDOT
 10
119.011652
 20
56.73238
 11
-95.331778
 21
56.73238
  0
POLYLINE
  8
型材断面
  6
CONTINUOUS
 66
     1
 70
     1
  0
VERTEX
  8
型材断面
 10
-27.464395
 20
66.508305
  0
VERTEX
  8
型材断面
 10
-46.236325
 20
66.508305
  0
VERTEX
  8
型材断面
 10
-46.236325
 20
71.245147
  0
VERTEX
  8
型材断面
 10
-27.464395
 20
71.245147
  0
SEQEND
  0
POLYLINE
  8
型材断面
  6
CONTINUOUS
 66
     1
 70
     1
  0
VERTEX
  8
型材断面
 10
-27.464395
 20
3.623125
  0
VERTEX
  8
型材断面
 10
-46.236325
 20
3.623125
  0
VERTEX
  8
型材断面
 10
-46.236325
 20
-1.113717
  0
VERTEX
  8
型材断面
 10
-27.464395
 20
-1.113717
  0
SEQEND
  0
LINE
  8
型材断面
  6
CONTINUOUS
 10
-97.961907
 20
35.065715
 11
-100.552415
 21
36.561345
  0
LINE
  8
型材断面
  6
CONTINUOUS
 10
-97.961907
 20
35.065715
 11
-100.552415
 21
33.570085
  0
LINE
  8
型材断面
  6
CONTINUOUS
 10
-100.552415
 20
33.570085
 11
-100.552415
 21
36.561345
  0
LINE
  8
型材断面
  6
CONTINUOUS
 10
-78.66511
 20
59.36251
 11
-80.16074
 21
61.953017
  0
LINE
  8
型材断面
  6
CONTINUOUS
 10
-78.66511
 20
59.36251
 11
-77.16948
 21
61.953017
  0
LINE
  8
型材断面
  6
CONTINUOUS
 10
-77.16948
 20
61.953017
 11
-80.16074
 21
61.953017
  0
LINE
  8
型材断面
  6
CONTINUOUS
 10
-136.183985
 20
94.709852
 11
-135.58793
 21
92.119345
  0
LINE
  8
型材断面
  6
CONTINUOUS
 10
-136.183985
 20
94.709852
 11
-136.780043
 21
92.119345
  0
LINE
  8
型材断面
  6
CONTINUOUS
 10
-136.780043
 20
92.119345
 11
-135.58793
 21
92.119345
  0
LINE
  8
型材断面
  6
CONTINUOUS
 10
-142.206573
 20
88.840452
 11
-95.964795
 21
88.840452
  0
LINE
  8
型材断面
  6
CONTINUOUS
 10
-136.183985
 20
101.239727
 11
-137.679615
 21
98.64922
  0
LINE
  8
型材断面
  6
CONTINUOUS
 10
-136.183985
 20
101.239727
 11
-134.688355
 21
98.64922
  0
LINE
  8
型材断面
  6
CONTINUOUS
 10
-134.688355
 20
98.64922
 11
-137.679615
 21
98.64922
  0
LINE
  8
型材断面
  6
CONTINUOUS
 10
-142.206573
 20
97.710625
 11
-95.964795
 21
97.710625
  0
LINE
  8
型材断面
  6
CONTINUOUS
 10
-142.206573
 20
83.05242
 11
-95.964795
 21
83.05242
  0
LINE
  8
型材断面
  6
CONTINUOUS
 10
-78.66511
 20
10.76892
 11
-80.16074
 21
8.178413
  0
LINE
  8
型材断面
  6
CONTINUOUS
 10
-78.66511
 20
10.76892
 11
-77.16948
 21
8.178413
  0
LINE
  8
型材断面
  6
CONTINUOUS
 10
-77.16948
 20
8.178413
 11
-80.16074
 21
8.178413
  0
LINE
  8
型材断面
  6
CONTINUOUS
 10
23.965022
 20
35.065715
 11
26.55553
 21
36.561345
  0
LINE
  8
型材断面
  6
CONTINUOUS
 10
23.965022
 20
35.065715
 11
26.55553
 21
33.570085
  0
LINE
  8
型材断面
  6
CONTINUOUS
 10
26.55553
 20
33.570085
 11
26.55553
 21
36.561345
  0
LINE
  8
型材断面
  6
CONTINUOUS
 10
4.668225
 20
59.36251
 11
6.163855
 21
61.953017
  0
LINE
  8
型材断面
  6
CONTINUOUS
 10
4.668225
 20
59.36251
 11
3.172595
 21
61.953017
  0
LINE
  8
型材断面
  6
CONTINUOUS
 10
3.172595
 20
61.953017
 11
6.163855
 21
61.953017
  0
LINE
  8
型材断面
  6
CONTINUOUS
 10
4.668225
 20
10.76892
 11
6.163855
 21
8.178413
  0
LINE
  8
型材断面
  6
CONTINUOUS
 10
4.668225
 20
10.76892
 11
3.172595
 21
8.178413
  0
LINE
  8
型材断面
  6
CONTINUOUS
 10
3.172595
 20
8.178413
 11
6.163855
 21
8.178413
  0
LINE
  8
型材断面
  6
CONTINUOUS
 10
23.96502
 20
53.032382
 11
26.55553
 21
52.43633
  0
LINE
  8
型材断面
  6
CONTINUOUS
 10
23.96502
 20
53.032382
 11
26.555528
 21
53.628442
  0
LINE
  8
型材断面
  6
CONTINUOUS
 10
26.555528
 20
53.628442
 11
26.55553
 21
52.43633
  0
LINE
  8
型材断面
  6
CONTINUOUS
 10
23.96502
 20
17.099048
 11
26.55553
 21
17.6951
  0
LINE
  8
型材断面
  6
CONTINUOUS
 10
23.96502
 20
17.099048
 11
26.555528
 21
16.502988
  0
LINE
  8
型材断面
  6
CONTINUOUS
 10
26.555528
 20
16.502988
 11
26.55553
 21
17.6951
  0
LINE
  8
型材断面
  6
CONTINUOUS
 10
-97.961905
 20
53.032382
 11
-100.552415
 21
52.43633
  0
LINE
  8
型材断面
  6
CONTINUOUS
 10
-97.961905
 20
53.032382
 11
-100.552412
 21
53.628442
  0
LINE
  8
型材断面
  6
CONTINUOUS
 10
-100.552412
 20
53.628442
 11
-100.552415
 21
52.43633
  0
LINE
  8
型材断面
  6
CONTINUOUS
 10
-97.961905
 20
17.099048
 11
-100.552415
 21
17.6951
  0
LINE
  8
型材断面
  6
CONTINUOUS
 10
-97.961905
 20
17.099048
 11
-100.552412
 21
16.502988
  0
LINE
  8
型材断面
  6
CONTINUOUS
 10
-100.552412
 20
16.502988
 11
-100.552415
 21
17.6951
  0
INSERT
  2
*GRP_0012
  8
型材断面
  6
CONTINUOUS
 10
0.0
 20
0.0
  0
INSERT
  2
*GRP_0013
  8
型材断面
  6
CONTINUOUS
 10
0.0
 20
0.0
  0
INSERT
  2
*GRP_0014
  8
型材断面
  6
CONTINUOUS
 10
0.0
 20
0.0
  0
INSERT
  2
*GRP_0015
  8
型材断面
  6
CONTINUOUS
 10
0.0
 20
0.0
  0
LINE
  8
型材断面
  6
CONTINUOUS
 62
    47
 10
118.401657
 20
11.915715
 11
117.901657
 21
11.915715
  0
LINE
  8
型材断面
  6
CONTINUOUS
 62
    47
 10
117.901657
 20
11.415715
 11
114.58499
 21
11.415715
  0
LINE
  8
型材断面
  6
CONTINUOUS
 62
    47
 10
112.24494
 20
11.415715
 11
114.418273
 21
11.415715
  0
LINE
  8
型材断面
  6
CONTINUOUS
 62
    47
 10
112.24494
 20
12.299048
 11
111.868155
 21
12.299048
  0
LINE
  8
型材断面
  6
CONTINUOUS
 62
    47
 10
112.24494
 20
11.415715
 11
112.24494
 21
35.065715
  0
LINE
  8
型材断面
  6
CONTINUOUS
 62
    47
 10
114.58499
 20
11.415715
 11
114.584943
 21
35.065715
  0
LINE
  8
型材断面
  6
CONTINUOUS
 62
    47
 10
114.418273
 20
11.415715
 11
114.418273
 21
35.065715
  0
LINE
  8
型材断面
  6
CONTINUOUS
 62
    47
 10
118.401657
 20
11.915715
 11
118.401657
 21
35.065715
  0
LINE
  8
型材断面
  6
CONTINUOUS
 62
    47
 10
117.901657
 20
11.415715
 11
117.901657
 21
35.065715
  0
LINE
  8
型材断面
  6
CONTINUOUS
 62
    47
 10
118.401657
 20
58.215715
 11
117.901657
 21
58.215715
  0
LINE
  8
型材断面
  6
CONTINUOUS
 62
    47
 10
117.901657
 20
58.715715
 11
114.58499
 21
58.715715
  0
LINE
  8
型材断面
  6
CONTINUOUS
 62
    47
 10
112.24494
 20
58.715715
 11
114.418273
 21
58.715715
  0
LINE
  8
型材断面
  6
CONTINUOUS
 62
    47
 10
112.24494
 20
57.832382
 11
111.868155
 21
57.832382
  0
LINE
  8
型材断面
  6
CONTINUOUS
 62
    47
 10
112.24494
 20
58.715715
 11
112.24494
 21
35.065715
  0
LINE
  8
型材断面
  6
CONTINUOUS
 62
    47
 10
114.58499
 20
58.715715
 11
114.584943
 21
35.065715
  0
LINE
  8
型材断面
  6
CONTINUOUS
 62
    47
 10
114.418273
 20
58.715715
 11
114.418273
 21
35.065715
  0
LINE
  8
型材断面
  6
CONTINUOUS
 62
    47
 10
118.401657
 20
58.215715
 11
118.401657
 21
35.065715
  0
LINE
  8
型材断面
  6
CONTINUOUS
 62
    47
 10
117.901657
 20
58.715715
 11
117.901657
 21
35.065715
  0
LINE
  8
型材断面
  6
CONTINUOUS
 62
    47
 10
-96.81511
 20
-87.1581
 11
-96.81511
 21
-86.6581
  0
LINE
  8
型材断面
  6
CONTINUOUS
 62
    47
 10
-97.31511
 20
-86.6581
 11
-97.31511
 21
-83.341432
  0
LINE
  8
型材断面
  6
CONTINUOUS
 62
    47
 10
-97.31511
 20
-81.001383
 11
-97.31511
 21
-83.174715
  0
LINE
  8
型材断面
  6
CONTINUOUS
 62
    47
 10
-96.431778
 20
-81.001383
 11
-96.431778
 21
-80.624597
  0
LINE
  8
型材断面
  6
CONTINUOUS
 62
    47
 10
-96.81511
 20
-87.1581
 11
-36.998442
 21
-87.1581
  0
LINE
  8
型材断面
  6
CONTINUOUS
 62
    47
 10
-97.31511
 20
-86.6581
 11
-36.998442
 21
-86.6581
  0
LINE
  8
型材断面
  6
CONTINUOUS
 62
    47
 10
-97.31511
 20
-83.341432
 11
-36.998442
 21
-83.341317
  0
LINE
  8
型材断面
  6
CONTINUOUS
 62
    47
 10
-97.31511
 20
-83.174715
 11
-36.998442
 21
-83.174715
  0
LINE
  8
型材断面
  6
CONTINUOUS
 62
    47
 10
-97.31511
 20
-81.001383
 11
-36.998442
 21
-81.001383
  0
LINE
  8
型材断面
  6
CONTINUOUS
 62
    47
 10
22.818225
 20
-87.1581
 11
22.818225
 21
-86.6581
  0
LINE
  8
型材断面
  6
CONTINUOUS
 62
    47
 10
23.318225
 20
-86.6581
 11
23.318225
 21
-83.341432
  0
LINE
  8
型材断面
  6
CONTINUOUS
 62
    47
 10
23.318225
 20
-81.001383
 11
23.318225
 21
-83.174715
  0
LINE
  8
型材断面
  6
CONTINUOUS
 62
    47
 10
22.434893
 20
-81.001383
 11
22.434893
 21
-80.624597
  0
LINE
  8
型材断面
  6
CONTINUOUS
 62
    47
 10
22.818225
 20
-87.1581
 11
-36.998442
 21
-87.1581
  0
LINE
  8
型材断面
  6
CONTINUOUS
 62
    47
 10
23.318225
 20
-86.6581
 11
-36.998442
 21
-86.6581
  0
LINE
  8
型材断面
  6
CONTINUOUS
 62
    47
 10
23.318225
 20
-83.341432
 11
-36.998442
 21
-83.341317
  0
LINE
  8
型材断面
  6
CONTINUOUS
 62
    47
 10
23.318225
 20
-83.174715
 11
-36.998442
 21
-83.174715
  0
LINE
  8
型材断面
  6
CONTINUOUS
 62
    47
 10
23.318225
 20
-81.001383
 11
-36.998442
 21
-81.001383
  0
LINE
  8
型材断面
  6
CONTINUOUS
 10
-142.206573
 20
77.264387
 11
-95.964795
 21
77.264387
  0
LINE
  8
型材断面
  6
DASHDOT
 10
-56.508443
 20
13.399048
 11
-56.508443
 21
56.73238
  0
LINE
  8
型材断面
  6
DOT
 10
-55.258443
 20
13.399048
 11
-55.258443
 21
56.73238
  0
LINE
  8
型材断面
  6
DOT
 10
-57.758443
 20
13.399048
 11
-57.758443
 21
56.73238
  0
LINE
  8
型材断面
  6
DASHDOT
 10
-17.488443
 20
13.399048
 11
-17.488443
 21
56.73238
  0
LINE
  8
型材断面
  6
DOT
 10
-18.738443
 20
13.399048
 11
-18.738443
 21
56.73238
  0
LINE
  8
型材断面
  6
DOT
 10
-16.238443
 20
13.399048
 11
-16.238443
 21
56.73238
  0
TEXT
  7
TextStyle03
  8
文字
  6
CONTINUOUS
 10
97.9
 20
-86.1
  1
網入り6.8t
 40
3.0
 72
     5
 11
114.5875
 21
-86.1
  0
TEXT
  7
TextStyle03
  8
文字
  6
CONTINUOUS
 10
-45.175
 20
67.2
  1
可動装置側
 40
3.0
 72
     5
 11
-28.675
 21
67.2
  0
TEXT
  7
TextStyle03
  8
文字
  6
CONTINUOUS
 10
-45.175
 20
-0.075
  1
可動装置側
 40
3.0
 72
     5
 11
-28.675
 21
-0.075
  0
TEXT
  7
TextStyle03
  8
文字
  6
CONTINUOUS
 10
104.575
 20
-90.775
  1
×３枚
 40
3.0
 72
     5
 11
114.325
 21
-90.775
  0
TEXT
  7
TextStyle03
  8
文字
  6
CONTINUOUS
 10
-133.4
 20
93.325
  1
はケーシング位置を示す
 40
3.0
 72
     5
 11
-96.65
 21
93.325
  0
TEXT
  7
TextStyle03
  8
文字
  6
CONTINUOUS
 10
-133.4
 20
89.95
  1
４ヶ所中1ヶ所に設定
 40
3.0
 72
     5
 11
-101.7125
 21
89.95
  0
TEXT
  7
TextStyle03
  8
文字
  6
CONTINUOUS
 10
-133.4
 20
98.85
  1
は排水穴位置を示す
 40
3.0
 72
     5
 11
-103.4
 21
98.85
  0
TEXT
  7
TextStyle03
  8
文字
  6
CONTINUOUS
 10
-132.825
 20
23.975
  1
アンカーピッチ
 40
3.0
 50
90.0
 72
     5
 11
-132.825
 21
47.225
  0
TEXT
  7
TextStyle03
  8
文字
  6
CONTINUOUS
 10
-84.175
 20
93.675
  1
アンカーピッチ
 40
3.0
 72
     5
 11
-60.925
 21
93.675
  0
TEXT
  7
TextStyle03
  8
文字
  6
CONTINUOUS
 10
-137.125
 20
83.975
  1
アンカー数量　１４ヶ所
 40
3.0
 72
     5
 11
-100.375
 21
83.975
  0
TEXT
  7
TextStyle03
  8
文字
  6
CONTINUOUS
 10
-137.125
 20
78.2
  1
アームユニット数　４ヶ所
 40
3.0
 72
     5
 11
-97.0
 21
78.2
  0
TEXT
  7
TextStyle03
  8
文字
  6
CONTINUOUS
 10
78.1
 20
125.25
  1
シリーズ：ＴＤ２Ｌ
 40
5.0
 72
     5
 11
128.1
 21
125.25
  0
TEXT
  7
TextStyle03
  8
文字
  6
CONTINUOUS
 10
78.1
 20
119.625
  1
　　　　　（上下可動）1300×3500タイプ
 40
5.0
 72
     5
 11
184.35
 21
119.625
  0
TEXT
  7
TextStyle03
  8
文字
  6
CONTINUOUS
 10
78.1
 20
114.0
  1
図面名　：外観姿図
 40
5.0
 72
     5
 11
128.1
 21
114.0
  0
TEXT
  7
TextStyle03
  8
文字
  6
CONTINUOUS
 10
78.1
 20
108.375
  1
　　　　　　
 40
5.0
 72
     5
 11
111.225
 21
108.375
  0
TEXT
  7
TextStyle03
  8
文字
  6
CONTINUOUS
 10
77.125
 20
103.95
  1
ＮＳコード：ＮＳＤＺＬ
 40
5.0
 72
     5
 11
138.375
 21
103.95
  0
INSERT
  2
*DIM_0002
  8
寸法
  6
CONTINUOUS
 10
0.0
 20
0.0
  0
INSERT
  2
*DIM_0003
  8
寸法
  6
CONTINUOUS
 10
0.0
 20
0.0
  0
INSERT
  2
*DIM_0004
  8
寸法
  6
CONTINUOUS
 10
0.0
 20
0.0
  0
INSERT
  2
*DIM_0005
  8
寸法
  6
CONTINUOUS
 10
0.0
 20
0.0
  0
INSERT
  2
*DIM_0006
  8
寸法
  6
CONTINUOUS
 10
0.0
 20
0.0
  0
INSERT
  2
*DIM_0007
  8
寸法
  6
CONTINUOUS
 10
0.0
 20
0.0
  0
INSERT
  2
*DIM_0008
  8
寸法
  6
CONTINUOUS
 10
0.0
 20
0.0
  0
INSERT
  2
*DIM_0009
  8
寸法
  6
CONTINUOUS
 10
0.0
 20
0.0
  0
INSERT
  2
*DIM_0010
  8
寸法
  6
CONTINUOUS
 10
0.0
 20
0.0
  0
INSERT
  2
*DIM_0016
  8
寸法
  6
CONTINUOUS
 10
0.0
 20
0.0
  0
INSERT
  2
*DIM_0017
  8
寸法
  6
CONTINUOUS
 10
0.0
 20
0.0
  0
INSERT
  2
*DIM_0018
  8
寸法
  6
CONTINUOUS
 10
0.0
 20
0.0
  0
INSERT
  2
*DIM_0019
  8
寸法
  6
CONTINUOUS
 10
0.0
 20
0.0
  0
INSERT
  2
*DIM_0020
  8
寸法
  6
CONTINUOUS
 10
0.0
 20
0.0
  0
INSERT
  2
*DIM_0021
  8
寸法
  6
CONTINUOUS
 10
0.0
 20
0.0
  0
INSERT
  2
*DIM_0022
  8
寸法
  6
CONTINUOUS
 10
0.0
 20
0.0
  0
INSERT
  2
*DIM_0023
  8
寸法
  6
CONTINUOUS
 10
0.0
 20
0.0
  0
INSERT
  2
*DIM_0024
  8
寸法
  6
CONTINUOUS
 10
0.0
 20
0.0
  0
INSERT
  2
*DIM_0025
  8
寸法
  6
CONTINUOUS
 10
0.0
 20
0.0
  0
INSERT
  2
*DIM_0026
  8
寸法
  6
CONTINUOUS
 10
0.0
 20
0.0
  0
INSERT
  2
*DIM_0034
  8
寸法
  6
CONTINUOUS
 10
0.0
 20
0.0
  0
LINE
  8
別途部材
  6
CONTINUOUS
 10
23.401557
 20
11.33238
 11
23.001557
 21
11.73238
  0
LINE
  8
別途部材
  6
CONTINUOUS
 10
21.33489
 20
13.399048
 11
13.275635
 21
21.458305
  0
LINE
  8
別途部材
  6
CONTINUOUS
 62
    96
 10
110.868155
 20
11.73238
 11
111.868155
 21
11.33238
  0
LINE
  8
別途部材
  6
CONTINUOUS
 10
23.001557
 20
11.73238
 11
23.001557
 21
35.065715
  0
LINE
  8
別途部材
  6
CONTINUOUS
 10
23.401557
 20
11.33238
 11
23.401557
 21
35.065715
  0
LINE
  8
別途部材
  6
CONTINUOUS
 10
23.401557
 20
58.79905
 11
23.001557
 21
58.39905
  0
LINE
  8
別途部材
  6
CONTINUOUS
 10
21.33489
 20
56.732382
 11
13.275635
 21
48.673125
  0
LINE
  8
別途部材
  6
CONTINUOUS
 10
23.001557
 20
58.39905
 11
23.001557
 21
35.065715
  0
LINE
  8
別途部材
  6
CONTINUOUS
 10
23.401557
 20
58.79905
 11
23.401557
 21
35.065715
  0
LINE
  8
別途部材
  6
CONTINUOUS
 10
111.868155
 20
11.33238
 11
111.868155
 21
35.065715
  0
LINE
  8
別途部材
  6
CONTINUOUS
 62
    96
 10
110.868155
 20
11.73238
 11
110.868155
 21
35.065715
  0
LINE
  8
別途部材
  6
CONTINUOUS
 62
    96
 10
110.868155
 20
58.39905
 11
111.868155
 21
58.79905
  0
LINE
  8
別途部材
  6
CONTINUOUS
 10
111.868155
 20
58.79905
 11
111.868155
 21
35.065715
  0
LINE
  8
別途部材
  6
CONTINUOUS
 62
    96
 10
110.868155
 20
58.39905
 11
110.868155
 21
35.065715
  0
ARC
  8
別途部材
  6
CONTINUOUS
 10
125.153867
 20
35.065713
 40
25.95238
 50
123.398485
 51
236.601515
  0
LINE
  8
別途部材
  6
CONTINUOUS
 10
23.401557
 20
58.79905
 11
-36.998442
 21
58.79905
  0
LINE
  8
別途部材
  6
CONTINUOUS
 10
23.001557
 20
58.39905
 11
-36.998442
 21
58.39905
  0
LINE
  8
別途部材
  6
CONTINUOUS
 10
23.001557
 20
11.73238
 11
-36.998442
 21
11.73238
  0
LINE
  8
別途部材
  6
CONTINUOUS
 10
23.401557
 20
11.33238
 11
-36.998442
 21
11.33238
  0
LINE
  8
別途部材
  6
CONTINUOUS
 10
-97.398442
 20
11.33238
 11
-96.998442
 21
11.73238
  0
LINE
  8
別途部材
  6
CONTINUOUS
 10
-95.331775
 20
13.399048
 11
-87.27252
 21
21.458305
  0
LINE
  8
別途部材
  6
CONTINUOUS
 10
-96.998442
 20
11.73238
 11
-96.998442
 21
35.065715
  0
LINE
  8
別途部材
  6
CONTINUOUS
 10
-97.398442
 20
11.33238
 11
-97.398442
 21
35.065715
  0
LINE
  8
別途部材
  6
CONTINUOUS
 10
-97.398442
 20
58.79905
 11
-96.998442
 21
58.39905
  0
LINE
  8
別途部材
  6
CONTINUOUS
 10
-95.331775
 20
56.732382
 11
-87.27252
 21
48.673125
  0
LINE
  8
別途部材
  6
CONTINUOUS
 10
-96.998442
 20
58.39905
 11
-96.998442
 21
35.065715
  0
LINE
  8
別途部材
  6
CONTINUOUS
 10
-97.398442
 20
58.79905
 11
-97.398442
 21
35.065715
  0
LINE
  8
別途部材
  6
CONTINUOUS
 10
-97.398442
 20
58.79905
 11
-36.998442
 21
58.79905
  0
LINE
  8
別途部材
  6
CONTINUOUS
 10
-96.998442
 20
58.39905
 11
-36.998442
 21
58.39905
  0
LINE
  8
別途部材
  6
CONTINUOUS
 10
-96.998442
 20
11.73238
 11
-36.998442
 21
11.73238
  0
LINE
  8
別途部材
  6
CONTINUOUS
 10
-97.398442
 20
11.33238
 11
-36.998442
 21
11.33238
  0
LINE
  8
別途部材
  6
DOT
 62
    96
 10
23.001557
 20
-64.624597
 11
23.401557
 21
-65.624597
  0
ARC
  8
別途部材
  6
DOT
 10
-0.331778
 20
-78.910312
 40
25.952382
 50
33.398488
 51
90.0
  0
LINE
  8
別途部材
  6
DOT
 10
-0.331778
 20
-52.95793
 11
-36.998442
 21
-52.95793
  0
LINE
  8
別途部材
  6
DOT
 10
23.401557
 20
-65.624597
 11
-36.998442
 21
-65.624597
  0
LINE
  8
別途部材
  6
DOT
 62
    96
 10
23.001557
 20
-64.624597
 11
-36.998442
 21
-64.624597
  0
LINE
  8
別途部材
  6
DOT
 62
    96
 10
-96.998442
 20
-64.624597
 11
-97.398442
 21
-65.624597
  0
ARC
  8
別途部材
  6
DOT
 10
-73.665107
 20
-78.910312
 40
25.952382
 50
90.0
 51
146.601512
  0
LINE
  8
別途部材
  6
DOT
 10
-73.665107
 20
-52.95793
 11
-36.998442
 21
-52.95793
  0
LINE
  8
別途部材
  6
DOT
 10
-97.398442
 20
-65.624597
 11
-36.998442
 21
-65.624597
  0
LINE
  8
別途部材
  6
DOT
 62
    96
 10
-96.998442
 20
-64.624597
 11
-36.998442
 21
-64.624597
  0
INSERT
  2
*GRP_0011
  8
別途部材
  6
CONTINUOUS
 10
0.0
 20
0.0
  0
INSERT
  2
*GRP_0028
  8
別途部材
  6
DOT
 10
0.0
 20
0.0
  0
INSERT
  2
*GRP_0029
  8
別途部材
  6
DOT
 10
0.0
 20
0.0
  0
INSERT
  2
*GRP_0030
  8
別途部材
  6
DOT
 10
0.0
 20
0.0
  0
INSERT
  2
*GRP_0031
  8
別途部材
  6
DOT
 10
0.0
 20
0.0
  0
INSERT
  2
*GRP_0032
  8
別途部材
  6
DOT
 10
0.0
 20
0.0
  0
INSERT
  2
*GRP_0033
  8
別途部材
  6
DOT
 10
0.0
 20
0.0
  0
LINE
  8
曲げ物
  6
CONTINUOUS
 10
116.421445
 20
-92.533713
 11
116.421445
 21
-49.867045
  0
LINE
  8
曲げ物
  6
CONTINUOUS
 10
78.468112
 20
-92.533713
 11
78.468112
 21
-49.867045
  0
LINE
  8
曲げ物
  6
CONTINUOUS
 10
116.421445
 20
-49.867045
 11
78.468112
 21
-49.867045
  0
LINE
  8
曲げ物
  6
CONTINUOUS
 10
116.421445
 20
-92.533713
 11
78.468112
 21
-92.533713
  0
ENDSEC
  0
EOF
