  0
SECTION
  2
HEADER
  9
$EXTMIN
 10
-210.0
 20
-148.5
  9
$EXTMAX
 10
210.0
 20
148.5
  9
$PDMODE
 70
    32
  9
$PDSIZE
 40
1.5
  9
$LTSCALE
 40
10.0
  0
ENDSEC
  0
SECTION
  2
TABLES
  0
TABLE
  2
LTYPE
 70
    15
  0
LTYPE
  2
CONTINUOUS
 70
    64
  3
実線
 72
    65
 73
     0
 40
0.0
  0
LTYPE
  2
DASHED
 70
    64
  3
破線A
 72
    65
 73
     2
 40
0.6
 49
0.4
 49
-0.2
  0
LTYPE
  2
DASHEDX2
 70
    64
  3
破線B
 72
    65
 73
     2
 40
1.3
 49
0.9
 49
-0.4
  0
LTYPE
  2
DASHDOT
 70
    64
  3
１点鎖線A
 72
    65
 73
     4
 40
0.5375
 49
0.375
 49
-0.05
 49
0.0625
 49
-0.05
  0
LTYPE
  2
DASHDOTX2
 70
    64
  3
１点鎖線B
 72
    65
 73
     4
 40
1.075
 49
0.75
 49
-0.1
 49
0.125
 49
-0.1
  0
LTYPE
  2
DIVIDE2
 70
    64
  3
２点鎖線A
 72
    65
 73
     6
 40
0.5125
 49
0.3
 49
-0.0375
 49
0.05
 49
-0.0375
 49
0.05
 49
-0.0375
  0
LTYPE
  2
DIVIDE
 70
    64
  3
２点鎖線B
 72
    65
 73
     6
 40
1.05
 49
0.55
 49
-0.1
 49
0.1
 49
-0.1
 49
0.1
 49
-0.1
  0
LTYPE
  2
DOT
 70
    64
  3
点線A
 72
    65
 73
     2
 40
0.1125
 49
0.0625
 49
-0.05
  0
LTYPE
  2
DOTX2
 70
    64
  3
点線B
 72
    65
 73
     2
 40
0.275
 49
0.15
 49
-0.125
  0
LTYPE
  2
CONTINUOUS
 70
    64
  3
実線
 72
    65
 73
     0
 40
0.0
  0
LTYPE
  2
CONTINUOUS
 70
    64
  3
実線
 72
    65
 73
     0
 40
0.0
  0
LTYPE
  2
CONTINUOUS
 70
    64
  3
実線
 72
    65
 73
     0
 40
0.0
  0
LTYPE
  2
CONTINUOUS
 70
    64
  3
実線
 72
    65
 73
     0
 40
0.0
  0
LTYPE
  2
CONTINUOUS
 70
    64
  3
実線
 72
    65
 73
     0
 40
0.0
  0
LTYPE
  2
CONTINUOUS
 70
    64
  3
実線
 72
    65
 73
     0
 40
0.0
  0
ENDTAB
  0
TABLE
  2
LAYER
 70
    34
  0
LAYER
  2
通り芯
 70
     0
 62
    15
  6
CONTINUOUS
  0
LAYER
  2
補助線
 70
     0
 62
    16
  6
DOT
  0
LAYER
  2
躯体
 70
     0
 62
    31
  6
CONTINUOUS
  0
LAYER
  2
型材
 70
     0
 62
    32
  6
CONTINUOUS
  0
LAYER
  2
型材断面
 70
     0
 62
    47
  6
CONTINUOUS
  0
LAYER
  2
ガラス
 70
     0
 62
    48
  6
CONTINUOUS
  0
LAYER
  2
ゴム等
 70
     0
 62
    63
  6
CONTINUOUS
  0
LAYER
  2
ボルト／ビス
 70
     0
 62
    64
  6
CONTINUOUS
  0
LAYER
  2
文字
 70
     0
 62
    79
  6
CONTINUOUS
  0
LAYER
  2
寸法
 70
     0
 62
    80
  6
CONTINUOUS
  0
LAYER
  2
ﾊｯﾁﾝｸﾞ
 70
     0
 62
    95
  6
CONTINUOUS
  0
LAYER
  2
別途部材
 70
     0
 62
    96
  6
CONTINUOUS
  0
LAYER
  2
曲げ物
 70
     0
 62
   111
  6
CONTINUOUS
  0
LAYER
  2
鉄骨等
 70
     0
 62
   112
  6
CONTINUOUS
  0
LAYER
  2
St
 70
     0
 62
   127
  6
CONTINUOUS
  0
LAYER
  2
その他部品等
 70
     0
 62
   128
  6
CONTINUOUS
  0
LAYER
  2
ｶﾞｽｹｯﾄ
 70
     0
 62
   143
  6
CONTINUOUS
  0
LAYER
  2
ｽｹｯﾁ
 70
     0
 62
    14
  6
CONTINUOUS
  0
LAYER
  2
0
 70
     0
 62
    17
  6
CONTINUOUS
  0
LAYER
  2
1
 70
     0
 62
    30
  6
CONTINUOUS
  0
LAYER
  2
4
 70
     0
 62
    33
  6
CONTINUOUS
  0
LAYER
  2
ﾚｲﾔ3
 70
     0
 62
    46
  6
CONTINUOUS
  0
LAYER
  2
外形線
 70
     0
 62
    49
  6
CONTINUOUS
  0
LAYER
  2
部品
 70
     0
 62
    14
  6
CONTINUOUS
  0
LAYER
  2
サッシ芯
 70
     0
 62
    17
  6
DASHDOTX2
  0
LAYER
  2
寸法線
 70
     0
 62
    62
  6
CONTINUOUS
  0
LAYER
  2
姿図外形線
 70
     0
 62
    65
  6
CONTINUOUS
  0
LAYER
  2
姿補助線
 70
     0
 62
    30
  6
CONTINUOUS
  0
LAYER
  2
透視線
 70
     0
 62
    78
  6
DOT
  0
LAYER
  2
用紙
 70
     0
 62
    81
  6
CONTINUOUS
  0
LAYER
  2
実線図枠
 70
     0
 62
    94
  6
CONTINUOUS
  0
LAYER
  2
補助図枠
 70
     0
 62
    97
  6
CONTINUOUS
  0
LAYER
  2
建具記号
 70
     0
 62
   110
  6
CONTINUOUS
  0
LAYER
  2
補助文字
 70
     0
 62
   113
  6
CONTINUOUS
  0
ENDTAB
  0
TABLE
  2
STYLE
 70
    10
  0
STYLE
  2
STANDARD
 70
     0
 40
1.0
 41
1.0
 42
1.0
 50
0.0
 71
     0
  3
TXT
  4
BIGFONT
  0
STYLE
  2
TATE
 70
     4
 40
1.0
 41
1.0
 42
1.0
 50
0.0
 71
     0
  3
TXT
  4
BIGFONT
  0
STYLE
  2
TextStyle03
 70
     0
 40
1.0
 41
1.0
 42
1.0
 50
0.0
 71
     0
  3
MONOTXT
  4
BIGFONT
  0
STYLE
  2
TextStyle04
 70
     0
 40
1.0
 41
1.0
 42
1.0
 50
0.0
 71
     0
  3
MONOTXT
  4
BIGFONT
  0
STYLE
  2
TextStyle05
 70
     0
 40
1.0
 41
1.0
 42
1.0
 50
0.0
 71
     0
  3
MONOTXT
  4
BIGFONT
  0
STYLE
  2
TextStyle06
 70
     0
 40
1.0
 41
1.0
 42
1.0
 50
0.0
 71
     0
  3
MONOTXT
  4
BIGFONT
  0
STYLE
  2
TextStyle07
 70
     0
 40
1.0
 41
1.0
 42
1.0
 50
0.0
 71
     0
  3
MONOTXT
  4
BIGFONT
  0
STYLE
  2
TextStyle08
 70
     0
 40
1.0
 41
1.0
 42
1.0
 50
0.0
 71
     0
  3
MONOTXT
  4
BIGFONT
  0
STYLE
  2
TextStyle09
 70
     0
 40
1.0
 41
1.0
 42
1.0
 50
0.0
 71
     0
  3
MONOTXT
  4
BIGFONT
  0
STYLE
  2
TextStyle10
 70
     0
 40
1.0
 41
1.0
 42
1.0
 50
0.0
 71
     0
  3
MONOTXT
  4
BIGFONT
  0
ENDTAB
  0
ENDSEC
  0
SECTION
  2
BLOCKS
  0
BLOCK
  2
*GRP_0001
 70
    65
 10
0.0
 20
0.0
  0
LINE
  8
型材断面
  6
CONTINUOUS
 10
195.0
 20
133.5
 11
195.0
 21
-133.5
  0
LINE
  8
型材断面
  6
CONTINUOUS
 10
195.0
 20
-133.5
 11
-185.0
 21
-133.5
  0
LINE
  8
型材断面
  6
CONTINUOUS
 10
-185.0
 20
-133.5
 11
-185.0
 21
133.5
  0
LINE
  8
型材断面
  6
CONTINUOUS
 10
195.0
 20
133.5
 11
-185.0
 21
133.5
  0
LINE
  8
型材断面
  6
CONTINUOUS
 10
145.0
 20
-133.5
 11
145.0
 21
-118.5
  0
LINE
  8
型材断面
  6
CONTINUOUS
 10
195.0
 20
-118.5
 11
145.0
 21
-118.5
  0
ENDBLK
  0
BLOCK
  2
*DIM_0002
 70
    65
 10
0.0
 20
0.0
  0
LINE
  8
寸法
  6
BYBLOCK
 62
     0
 10
13.246443
 20
-62.95793
 11
61.549425
 21
-62.95793
  0
LINE
  8
寸法
  6
BYBLOCK
 62
     0
 10
61.549425
 20
-79.624597
 11
61.549425
 21
-62.95793
  0
POINT
  8
寸法
 62
     0
 10
61.549425
 20
-62.95793
  0
TEXT
  7
TextStyle03
  8
寸法
  6
CONTINUOUS
 62
     0
 10
61.175
 20
-73.7375
  1
500
 40
3.0
 50
90.0
 72
     5
 11
61.175
 21
-68.8625
  0
ENDBLK
  0
BLOCK
  2
*DIM_0003
 70
    65
 10
0.0
 20
0.0
  0
LINE
  8
寸法
  6
BYBLOCK
 62
     0
 10
82.949083
 20
64.756625
 11
82.21224
 21
64.756625
  0
LINE
  8
寸法
  6
BYBLOCK
 62
     0
 10
82.949083
 20
-1.910042
 11
82.21224
 21
-1.910042
  0
LINE
  8
寸法
  6
BYBLOCK
 62
     0
 10
82.21224
 20
64.756625
 11
82.21224
 21
-1.910042
  0
POINT
  8
寸法
 62
     0
 10
82.21224
 20
64.756625
  0
POINT
  8
寸法
 62
     0
 10
82.21224
 20
-1.910042
  0
TEXT
  7
TextStyle03
  8
寸法
  6
CONTINUOUS
 62
     0
 10
81.825
 20
19.68125
  1
呼称寸法　2000
 40
3.0
 50
90.0
 72
     5
 11
81.825
 21
43.11875
  0
ENDBLK
  0
BLOCK
  2
*DIM_0004
 70
    65
 10
0.0
 20
0.0
  0
LINE
  8
寸法
  6
BYBLOCK
 62
     0
 10
118.446372
 20
32.42329
 11
118.446372
 21
86.5884
  0
LINE
  8
寸法
  6
BYBLOCK
 62
     0
 10
135.11304
 20
86.5884
 11
118.446372
 21
86.5884
  0
POINT
  8
寸法
 62
     0
 10
135.11304
 20
86.5884
  0
POINT
  8
寸法
 62
     0
 10
118.446372
 20
86.5884
  0
TEXT
  7
TextStyle03
  8
寸法
  6
CONTINUOUS
 62
     0
 10
124.3375
 20
86.95
  1
500
 40
3.0
 72
     5
 11
129.2125
 21
86.95
  0
ENDBLK
  0
BLOCK
  2
*DIM_0005
 70
    65
 10
0.0
 20
0.0
  0
LINE
  8
寸法
  6
BYBLOCK
 62
     0
 10
100.883267
 20
-57.292845
 11
100.883267
 21
-49.060088
  0
LINE
  8
寸法
  6
BYBLOCK
 62
     0
 10
133.249935
 20
-57.292845
 11
133.249935
 21
-49.060088
  0
LINE
  8
寸法
  6
BYBLOCK
 62
     0
 10
100.883267
 20
-49.060088
 11
133.249935
 21
-49.060088
  0
POINT
  8
寸法
 62
     0
 10
100.883267
 20
-49.060088
  0
POINT
  8
寸法
 62
     0
 10
133.249935
 20
-49.060088
  0
TEXT
  7
TextStyle03
  8
寸法
  6
CONTINUOUS
 62
     0
 10
114.6125
 20
-48.7
  1
971
 40
3.0
 72
     5
 11
119.4875
 21
-48.7
  0
ENDBLK
  0
BLOCK
  2
*DIM_0006
 70
    65
 10
0.0
 20
0.0
  0
LINE
  8
寸法
  6
BYBLOCK
 62
     0
 10
135.58933
 20
-58.292845
 11
144.54524
 21
-58.292845
  0
LINE
  8
寸法
  6
BYBLOCK
 62
     0
 10
135.58933
 20
-90.759512
 11
144.54524
 21
-90.759512
  0
LINE
  8
寸法
  6
BYBLOCK
 62
     0
 10
144.54524
 20
-58.292845
 11
144.54524
 21
-90.759512
  0
POINT
  8
寸法
 62
     0
 10
144.54524
 20
-58.292845
  0
POINT
  8
寸法
 62
     0
 10
144.54524
 20
-90.759512
  0
TEXT
  7
TextStyle03
  8
寸法
  6
CONTINUOUS
 62
     0
 10
144.15
 20
-76.9625
  1
974
 40
3.0
 50
90.0
 72
     5
 11
144.15
 21
-72.0875
  0
ENDBLK
  0
BLOCK
  2
*DIM_0007
 70
    65
 10
0.0
 20
0.0
  0
LINE
  8
寸法
  6
BYBLOCK
 62
     0
 10
-71.08689
 20
-5.54017
 11
-71.08689
 21
-10.3375
  0
LINE
  8
寸法
  6
BYBLOCK
 62
     0
 10
28.913105
 20
-5.54017
 11
28.913105
 21
-10.3375
  0
LINE
  8
寸法
  6
BYBLOCK
 62
     0
 10
-71.08689
 20
-10.3375
 11
28.913105
 21
-10.3375
  0
POINT
  8
寸法
 62
     0
 10
-71.08689
 20
-10.3375
  0
POINT
  8
寸法
 62
     0
 10
28.913105
 20
-10.3375
  0
TEXT
  7
TextStyle03
  8
寸法
  6
CONTINUOUS
 62
     0
 10
-24.38125
 20
-9.975
  1
3000
 40
3.0
 72
     5
 11
-17.81875
 21
-9.975
  0
ENDBLK
  0
BLOCK
  2
*DIM_0008
 70
    65
 10
0.0
 20
0.0
  0
LINE
  8
寸法
  6
BYBLOCK
 62
     0
 10
46.579775
 20
64.756627
 11
56.304058
 21
64.756627
  0
LINE
  8
寸法
  6
BYBLOCK
 62
     0
 10
49.209905
 20
61.056627
 11
56.304058
 21
61.056627
  0
LINE
  8
寸法
  6
BYBLOCK
 62
     0
 10
56.304058
 20
64.756627
 11
56.304058
 21
61.056627
  0
POINT
  8
寸法
 62
     0
 10
56.304058
 20
64.756627
  0
POINT
  8
寸法
 62
     0
 10
56.304058
 20
61.056627
  0
TEXT
  7
TextStyle03
  8
寸法
  6
CONTINUOUS
 62
     0
 10
55.975
 20
65.7125
  1
111
 40
3.0
 50
90.0
 72
     5
 11
55.975
 21
70.5875
  0
ENDBLK
  0
BLOCK
  2
*DIM_0009
 70
    65
 10
0.0
 20
0.0
  0
LINE
  8
寸法
  6
BYBLOCK
 62
     0
 10
46.579775
 20
-1.910042
 11
56.304058
 21
-1.910045
  0
LINE
  8
寸法
  6
BYBLOCK
 62
     0
 10
49.209905
 20
1.789957
 11
56.304058
 21
1.789955
  0
LINE
  8
寸法
  6
BYBLOCK
 62
     0
 10
56.304058
 20
-1.910045
 11
56.304058
 21
1.789955
  0
POINT
  8
寸法
 62
     0
 10
56.304058
 20
-1.910045
  0
POINT
  8
寸法
 62
     0
 10
56.304058
 20
1.789955
  0
TEXT
  7
TextStyle03
  8
寸法
  6
CONTINUOUS
 62
     0
 10
55.925
 20
-7.7625
  1
111
 40
3.0
 50
90.0
 72
     5
 11
55.925
 21
-2.8875
  0
ENDBLK
  0
BLOCK
  2
*GRP_0010
 70
    65
 10
0.0
 20
0.0
  0
LINE
  8
別途部材
  6
CONTINUOUS
 62
    96
 10
-89.420225
 20
-79.624597
 11
-89.820225
 21
-80.624597
  0
LINE
  8
別途部材
  6
CONTINUOUS
 62
    96
 10
-89.420225
 20
-79.624597
 11
-21.08689
 21
-79.624597
  0
LINE
  8
別途部材
  6
CONTINUOUS
 10
-89.820225
 20
-80.624597
 11
-21.08689
 21
-80.624597
  0
LINE
  8
別途部材
  6
CONTINUOUS
 10
-21.58689
 20
-79.624597
 11
-21.58689
 21
-61.95793
  0
LINE
  8
別途部材
  6
CONTINUOUS
 10
-24.58689
 20
-79.624597
 11
-24.58689
 21
-61.95793
  0
LINE
  8
別途部材
  6
CONTINUOUS
 10
-21.58689
 20
-61.95793
 11
-22.58689
 21
-62.95793
  0
LINE
  8
別途部材
  6
CONTINUOUS
 10
-25.58689
 20
-79.624597
 11
-25.58689
 21
-61.95793
  0
LINE
  8
別途部材
  6
CONTINUOUS
 10
-23.58689
 20
-62.95793
 11
-24.58689
 21
-61.95793
  0
LINE
  8
別途部材
  6
CONTINUOUS
 10
-25.58689
 20
-61.95793
 11
-26.58689
 21
-62.95793
  0
LINE
  8
別途部材
  6
CONTINUOUS
 10
-24.58689
 20
-61.95793
 11
-25.58689
 21
-61.95793
  0
LINE
  8
別途部材
  6
CONTINUOUS
 10
-21.58689
 20
-61.95793
 11
-21.08689
 21
-61.95793
  0
LINE
  8
別途部材
  6
CONTINUOUS
 10
-27.58689
 20
-62.95793
 11
-28.58689
 21
-61.95793
  0
LINE
  8
別途部材
  6
CONTINUOUS
 10
-29.58689
 20
-61.95793
 11
-30.58689
 21
-62.95793
  0
LINE
  8
別途部材
  6
CONTINUOUS
 10
-28.58689
 20
-61.95793
 11
-29.58689
 21
-61.95793
  0
LINE
  8
別途部材
  6
CONTINUOUS
 10
-23.58689
 20
-79.624597
 11
-23.58689
 21
-62.95793
  0
LINE
  8
別途部材
  6
CONTINUOUS
 10
-26.58689
 20
-79.624597
 11
-26.58689
 21
-62.95793
  0
LINE
  8
別途部材
  6
CONTINUOUS
 10
-27.58689
 20
-79.624597
 11
-27.58689
 21
-62.95793
  0
LINE
  8
別途部材
  6
CONTINUOUS
 10
-28.58689
 20
-79.624597
 11
-28.58689
 21
-61.95793
  0
LINE
  8
別途部材
  6
CONTINUOUS
 10
-29.58689
 20
-79.624597
 11
-29.58689
 21
-61.95793
  0
LINE
  8
別途部材
  6
CONTINUOUS
 10
-30.58689
 20
-79.624597
 11
-30.58689
 21
-62.95793
  0
LINE
  8
別途部材
  6
CONTINUOUS
 10
-31.58689
 20
-62.95793
 11
-32.58689
 21
-61.95793
  0
LINE
  8
別途部材
  6
CONTINUOUS
 10
-33.58689
 20
-61.95793
 11
-34.58689
 21
-62.95793
  0
LINE
  8
別途部材
  6
CONTINUOUS
 10
-32.58689
 20
-61.95793
 11
-33.58689
 21
-61.95793
  0
LINE
  8
別途部材
  6
CONTINUOUS
 10
-31.58689
 20
-79.624597
 11
-31.58689
 21
-62.95793
  0
LINE
  8
別途部材
  6
CONTINUOUS
 10
-32.58689
 20
-79.624597
 11
-32.58689
 21
-61.95793
  0
LINE
  8
別途部材
  6
CONTINUOUS
 10
-33.58689
 20
-79.624597
 11
-33.58689
 21
-61.95793
  0
LINE
  8
別途部材
  6
CONTINUOUS
 10
-34.58689
 20
-79.624597
 11
-34.58689
 21
-62.95793
  0
LINE
  8
別途部材
  6
CONTINUOUS
 10
-36.58689
 20
-79.624597
 11
-36.58689
 21
-61.95793
  0
LINE
  8
別途部材
  6
CONTINUOUS
 10
-37.58689
 20
-79.624597
 11
-37.58689
 21
-61.95793
  0
LINE
  8
別途部材
  6
CONTINUOUS
 10
-35.58689
 20
-62.95793
 11
-36.58689
 21
-61.95793
  0
LINE
  8
別途部材
  6
CONTINUOUS
 10
-37.58689
 20
-61.95793
 11
-38.58689
 21
-62.95793
  0
LINE
  8
別途部材
  6
CONTINUOUS
 10
-36.58689
 20
-61.95793
 11
-37.58689
 21
-61.95793
  0
LINE
  8
別途部材
  6
CONTINUOUS
 10
-39.58689
 20
-62.95793
 11
-40.58689
 21
-61.95793
  0
LINE
  8
別途部材
  6
CONTINUOUS
 10
-41.58689
 20
-61.95793
 11
-42.58689
 21
-62.95793
  0
LINE
  8
別途部材
  6
CONTINUOUS
 10
-40.58689
 20
-61.95793
 11
-41.58689
 21
-61.95793
  0
LINE
  8
別途部材
  6
CONTINUOUS
 10
-35.58689
 20
-79.624597
 11
-35.58689
 21
-62.95793
  0
LINE
  8
別途部材
  6
CONTINUOUS
 10
-38.58689
 20
-79.624597
 11
-38.58689
 21
-62.95793
  0
LINE
  8
別途部材
  6
CONTINUOUS
 10
-39.58689
 20
-79.624597
 11
-39.58689
 21
-62.95793
  0
LINE
  8
別途部材
  6
CONTINUOUS
 10
-40.58689
 20
-79.624597
 11
-40.58689
 21
-61.95793
  0
LINE
  8
別途部材
  6
CONTINUOUS
 10
-41.58689
 20
-79.624597
 11
-41.58689
 21
-61.95793
  0
LINE
  8
別途部材
  6
CONTINUOUS
 10
-42.58689
 20
-79.624597
 11
-42.58689
 21
-62.95793
  0
LINE
  8
別途部材
  6
CONTINUOUS
 10
-43.58689
 20
-62.95793
 11
-44.58689
 21
-61.95793
  0
LINE
  8
別途部材
  6
CONTINUOUS
 10
-45.58689
 20
-61.95793
 11
-46.58689
 21
-62.95793
  0
LINE
  8
別途部材
  6
CONTINUOUS
 10
-44.58689
 20
-61.95793
 11
-45.58689
 21
-61.95793
  0
LINE
  8
別途部材
  6
CONTINUOUS
 10
-43.58689
 20
-79.624597
 11
-43.58689
 21
-62.95793
  0
LINE
  8
別途部材
  6
CONTINUOUS
 10
-44.58689
 20
-79.624597
 11
-44.58689
 21
-61.95793
  0
LINE
  8
別途部材
  6
CONTINUOUS
 10
-45.58689
 20
-79.624597
 11
-45.58689
 21
-61.95793
  0
LINE
  8
別途部材
  6
CONTINUOUS
 10
-46.58689
 20
-79.624597
 11
-46.58689
 21
-62.95793
  0
LINE
  8
別途部材
  6
CONTINUOUS
 10
-48.58689
 20
-79.624597
 11
-48.58689
 21
-61.95793
  0
LINE
  8
別途部材
  6
CONTINUOUS
 10
-49.58689
 20
-79.624597
 11
-49.58689
 21
-61.95793
  0
LINE
  8
別途部材
  6
CONTINUOUS
 10
-47.58689
 20
-62.95793
 11
-48.58689
 21
-61.95793
  0
LINE
  8
別途部材
  6
CONTINUOUS
 10
-49.58689
 20
-61.95793
 11
-50.58689
 21
-62.95793
  0
LINE
  8
別途部材
  6
CONTINUOUS
 10
-48.58689
 20
-61.95793
 11
-49.58689
 21
-61.95793
  0
LINE
  8
別途部材
  6
CONTINUOUS
 10
-51.58689
 20
-62.95793
 11
-52.58689
 21
-61.95793
  0
LINE
  8
別途部材
  6
CONTINUOUS
 10
-53.58689
 20
-61.95793
 11
-54.58689
 21
-62.95793
  0
LINE
  8
別途部材
  6
CONTINUOUS
 10
-52.58689
 20
-61.95793
 11
-53.58689
 21
-61.95793
  0
LINE
  8
別途部材
  6
CONTINUOUS
 10
-47.58689
 20
-79.624597
 11
-47.58689
 21
-62.95793
  0
LINE
  8
別途部材
  6
CONTINUOUS
 10
-50.58689
 20
-79.624597
 11
-50.58689
 21
-62.95793
  0
LINE
  8
別途部材
  6
CONTINUOUS
 10
-51.58689
 20
-79.624597
 11
-51.58689
 21
-62.95793
  0
LINE
  8
別途部材
  6
CONTINUOUS
 10
-52.58689
 20
-79.624597
 11
-52.58689
 21
-61.95793
  0
LINE
  8
別途部材
  6
CONTINUOUS
 10
-53.58689
 20
-79.624597
 11
-53.58689
 21
-61.95793
  0
LINE
  8
別途部材
  6
CONTINUOUS
 10
-54.58689
 20
-79.624597
 11
-54.58689
 21
-62.95793
  0
LINE
  8
別途部材
  6
CONTINUOUS
 10
-50.58689
 20
-62.95793
 11
-51.58689
 21
-62.95793
  0
LINE
  8
別途部材
  6
CONTINUOUS
 10
-46.58689
 20
-62.95793
 11
-47.58689
 21
-62.95793
  0
LINE
  8
別途部材
  6
CONTINUOUS
 10
-42.58689
 20
-62.95793
 11
-43.58689
 21
-62.95793
  0
LINE
  8
別途部材
  6
CONTINUOUS
 10
-38.58689
 20
-62.95793
 11
-39.58689
 21
-62.95793
  0
LINE
  8
別途部材
  6
CONTINUOUS
 10
-34.58689
 20
-62.95793
 11
-35.58689
 21
-62.95793
  0
LINE
  8
別途部材
  6
CONTINUOUS
 10
-30.58689
 20
-62.95793
 11
-31.58689
 21
-62.95793
  0
LINE
  8
別途部材
  6
CONTINUOUS
 10
-26.58689
 20
-62.95793
 11
-27.58689
 21
-62.95793
  0
LINE
  8
別途部材
  6
CONTINUOUS
 10
-22.58689
 20
-79.624597
 11
-22.58689
 21
-62.95793
  0
LINE
  8
別途部材
  6
CONTINUOUS
 10
-23.58689
 20
-62.95793
 11
-22.58689
 21
-62.95793
  0
ARC
  8
別途部材
  6
CONTINUOUS
 10
-71.086891
 20
-79.624597
 40
16.666667
 50
90.0
 51
180.0
  0
LINE
  8
別途部材
  6
CONTINUOUS
 10
-55.58689
 20
-62.95793
 11
-56.58689
 21
-61.95793
  0
LINE
  8
別途部材
  6
CONTINUOUS
 10
-57.58689
 20
-61.95793
 11
-58.58689
 21
-62.95793
  0
LINE
  8
別途部材
  6
CONTINUOUS
 10
-56.58689
 20
-61.95793
 11
-57.58689
 21
-61.95793
  0
LINE
  8
別途部材
  6
CONTINUOUS
 10
-55.58689
 20
-79.624597
 11
-55.58689
 21
-62.95793
  0
LINE
  8
別途部材
  6
CONTINUOUS
 10
-56.58689
 20
-79.624597
 11
-56.58689
 21
-61.95793
  0
LINE
  8
別途部材
  6
CONTINUOUS
 10
-57.58689
 20
-79.624597
 11
-57.58689
 21
-61.95793
  0
LINE
  8
別途部材
  6
CONTINUOUS
 10
-58.58689
 20
-79.624597
 11
-58.58689
 21
-62.95793
  0
LINE
  8
別途部材
  6
CONTINUOUS
 10
-59.58689
 20
-62.95793
 11
-60.58689
 21
-61.95793
  0
LINE
  8
別途部材
  6
CONTINUOUS
 10
-61.58689
 20
-61.95793
 11
-62.58689
 21
-62.95793
  0
LINE
  8
別途部材
  6
CONTINUOUS
 10
-60.58689
 20
-61.95793
 11
-61.58689
 21
-61.95793
  0
LINE
  8
別途部材
  6
CONTINUOUS
 10
-59.58689
 20
-79.624597
 11
-59.58689
 21
-62.95793
  0
LINE
  8
別途部材
  6
CONTINUOUS
 10
-60.58689
 20
-79.624597
 11
-60.58689
 21
-61.95793
  0
LINE
  8
別途部材
  6
CONTINUOUS
 10
-61.58689
 20
-79.624597
 11
-61.58689
 21
-61.95793
  0
LINE
  8
別途部材
  6
CONTINUOUS
 10
-62.58689
 20
-79.624597
 11
-62.58689
 21
-62.95793
  0
LINE
  8
別途部材
  6
CONTINUOUS
 10
-64.58689
 20
-79.624597
 11
-64.58689
 21
-61.95793
  0
LINE
  8
別途部材
  6
CONTINUOUS
 10
-65.58689
 20
-79.624597
 11
-65.58689
 21
-61.95793
  0
LINE
  8
別途部材
  6
CONTINUOUS
 10
-63.58689
 20
-62.95793
 11
-64.58689
 21
-61.95793
  0
LINE
  8
別途部材
  6
CONTINUOUS
 10
-65.58689
 20
-61.95793
 11
-66.58689
 21
-62.95793
  0
LINE
  8
別途部材
  6
CONTINUOUS
 10
-64.58689
 20
-61.95793
 11
-65.58689
 21
-61.95793
  0
LINE
  8
別途部材
  6
CONTINUOUS
 10
-67.58689
 20
-62.95793
 11
-68.58689
 21
-61.95793
  0
LINE
  8
別途部材
  6
CONTINUOUS
 10
-69.58689
 20
-61.95793
 11
-70.58689
 21
-62.95793
  0
LINE
  8
別途部材
  6
CONTINUOUS
 10
-68.58689
 20
-61.95793
 11
-69.58689
 21
-61.95793
  0
LINE
  8
別途部材
  6
CONTINUOUS
 10
-63.58689
 20
-79.624597
 11
-63.58689
 21
-62.95793
  0
LINE
  8
別途部材
  6
CONTINUOUS
 10
-66.58689
 20
-79.624597
 11
-66.58689
 21
-62.95793
  0
LINE
  8
別途部材
  6
CONTINUOUS
 10
-67.58689
 20
-79.624597
 11
-67.58689
 21
-62.95793
  0
LINE
  8
別途部材
  6
CONTINUOUS
 10
-68.58689
 20
-79.624597
 11
-68.58689
 21
-61.95793
  0
LINE
  8
別途部材
  6
CONTINUOUS
 10
-69.58689
 20
-79.624597
 11
-69.58689
 21
-61.95793
  0
LINE
  8
別途部材
  6
CONTINUOUS
 10
-70.58689
 20
-79.624597
 11
-70.58689
 21
-62.95793
  0
LINE
  8
別途部材
  6
CONTINUOUS
 10
-66.58689
 20
-62.95793
 11
-67.58689
 21
-62.95793
  0
LINE
  8
別途部材
  6
CONTINUOUS
 10
-62.58689
 20
-62.95793
 11
-63.58689
 21
-62.95793
  0
LINE
  8
別途部材
  6
CONTINUOUS
 10
-58.58689
 20
-62.95793
 11
-59.58689
 21
-62.95793
  0
LINE
  8
別途部材
  6
CONTINUOUS
 10
-54.58689
 20
-62.95793
 11
-55.58689
 21
-62.95793
  0
LINE
  8
別途部材
  6
CONTINUOUS
 10
-71.08689
 20
-62.95793
 11
-70.58689
 21
-62.95793
  0
LINE
  8
別途部材
  6
CONTINUOUS
 62
    96
 10
47.246443
 20
-79.624597
 11
47.646443
 21
-80.624597
  0
LINE
  8
別途部材
  6
CONTINUOUS
 62
    96
 10
47.246443
 20
-79.624597
 11
-21.08689
 21
-79.624597
  0
LINE
  8
別途部材
  6
CONTINUOUS
 10
47.646443
 20
-80.624597
 11
-21.08689
 21
-80.624597
  0
LINE
  8
別途部材
  6
CONTINUOUS
 10
-20.58689
 20
-79.624597
 11
-20.58689
 21
-61.95793
  0
LINE
  8
別途部材
  6
CONTINUOUS
 10
-17.58689
 20
-79.624597
 11
-17.58689
 21
-61.95793
  0
LINE
  8
別途部材
  6
CONTINUOUS
 10
-20.58689
 20
-61.95793
 11
-19.58689
 21
-62.95793
  0
LINE
  8
別途部材
  6
CONTINUOUS
 10
-16.58689
 20
-79.624597
 11
-16.58689
 21
-61.95793
  0
LINE
  8
別途部材
  6
CONTINUOUS
 10
-18.58689
 20
-62.95793
 11
-17.58689
 21
-61.95793
  0
LINE
  8
別途部材
  6
CONTINUOUS
 10
-16.58689
 20
-61.95793
 11
-15.58689
 21
-62.95793
  0
LINE
  8
別途部材
  6
CONTINUOUS
 10
-17.58689
 20
-61.95793
 11
-16.58689
 21
-61.95793
  0
LINE
  8
別途部材
  6
CONTINUOUS
 10
-20.58689
 20
-61.95793
 11
-21.08689
 21
-61.95793
  0
LINE
  8
別途部材
  6
CONTINUOUS
 10
-14.58689
 20
-62.95793
 11
-13.58689
 21
-61.95793
  0
LINE
  8
別途部材
  6
CONTINUOUS
 10
-12.58689
 20
-61.95793
 11
-11.58689
 21
-62.95793
  0
LINE
  8
別途部材
  6
CONTINUOUS
 10
-13.58689
 20
-61.95793
 11
-12.58689
 21
-61.95793
  0
LINE
  8
別途部材
  6
CONTINUOUS
 10
-18.58689
 20
-79.624597
 11
-18.58689
 21
-62.95793
  0
LINE
  8
別途部材
  6
CONTINUOUS
 10
-15.58689
 20
-79.624597
 11
-15.58689
 21
-62.95793
  0
LINE
  8
別途部材
  6
CONTINUOUS
 10
-14.58689
 20
-79.624597
 11
-14.58689
 21
-62.95793
  0
LINE
  8
別途部材
  6
CONTINUOUS
 10
-13.58689
 20
-79.624597
 11
-13.58689
 21
-61.95793
  0
LINE
  8
別途部材
  6
CONTINUOUS
 10
-12.58689
 20
-79.624597
 11
-12.58689
 21
-61.95793
  0
LINE
  8
別途部材
  6
CONTINUOUS
 10
-11.58689
 20
-79.624597
 11
-11.58689
 21
-62.95793
  0
LINE
  8
別途部材
  6
CONTINUOUS
 10
-10.58689
 20
-62.95793
 11
-9.58689
 21
-61.95793
  0
LINE
  8
別途部材
  6
CONTINUOUS
 10
-8.58689
 20
-61.95793
 11
-7.58689
 21
-62.95793
  0
LINE
  8
別途部材
  6
CONTINUOUS
 10
-9.58689
 20
-61.95793
 11
-8.58689
 21
-61.95793
  0
LINE
  8
別途部材
  6
CONTINUOUS
 10
-10.58689
 20
-79.624597
 11
-10.58689
 21
-62.95793
  0
LINE
  8
別途部材
  6
CONTINUOUS
 10
-9.58689
 20
-79.624597
 11
-9.58689
 21
-61.95793
  0
LINE
  8
別途部材
  6
CONTINUOUS
 10
-8.58689
 20
-79.624597
 11
-8.58689
 21
-61.95793
  0
LINE
  8
別途部材
  6
CONTINUOUS
 10
-7.58689
 20
-79.624597
 11
-7.58689
 21
-62.95793
  0
LINE
  8
別途部材
  6
CONTINUOUS
 10
-5.58689
 20
-79.624597
 11
-5.58689
 21
-61.95793
  0
LINE
  8
別途部材
  6
CONTINUOUS
 10
-4.58689
 20
-79.624597
 11
-4.58689
 21
-61.95793
  0
LINE
  8
別途部材
  6
CONTINUOUS
 10
-6.58689
 20
-62.95793
 11
-5.58689
 21
-61.95793
  0
LINE
  8
別途部材
  6
CONTINUOUS
 10
-4.58689
 20
-61.95793
 11
-3.58689
 21
-62.95793
  0
LINE
  8
別途部材
  6
CONTINUOUS
 10
-5.58689
 20
-61.95793
 11
-4.58689
 21
-61.95793
  0
LINE
  8
別途部材
  6
CONTINUOUS
 10
-2.58689
 20
-62.95793
 11
-1.58689
 21
-61.95793
  0
LINE
  8
別途部材
  6
CONTINUOUS
 10
-0.58689
 20
-61.95793
 11
0.41311
 21
-62.95793
  0
LINE
  8
別途部材
  6
CONTINUOUS
 10
-1.58689
 20
-61.95793
 11
-0.58689
 21
-61.95793
  0
LINE
  8
別途部材
  6
CONTINUOUS
 10
-6.58689
 20
-79.624597
 11
-6.58689
 21
-62.95793
  0
LINE
  8
別途部材
  6
CONTINUOUS
 10
-3.58689
 20
-79.624597
 11
-3.58689
 21
-62.95793
  0
LINE
  8
別途部材
  6
CONTINUOUS
 10
-2.58689
 20
-79.624597
 11
-2.58689
 21
-62.95793
  0
LINE
  8
別途部材
  6
CONTINUOUS
 10
-1.58689
 20
-79.624597
 11
-1.58689
 21
-61.95793
  0
LINE
  8
別途部材
  6
CONTINUOUS
 10
-0.58689
 20
-79.624597
 11
-0.58689
 21
-61.95793
  0
LINE
  8
別途部材
  6
CONTINUOUS
 10
0.41311
 20
-79.624597
 11
0.41311
 21
-62.95793
  0
LINE
  8
別途部材
  6
CONTINUOUS
 10
1.41311
 20
-62.95793
 11
2.41311
 21
-61.95793
  0
LINE
  8
別途部材
  6
CONTINUOUS
 10
3.41311
 20
-61.95793
 11
4.41311
 21
-62.95793
  0
LINE
  8
別途部材
  6
CONTINUOUS
 10
2.41311
 20
-61.95793
 11
3.41311
 21
-61.95793
  0
LINE
  8
別途部材
  6
CONTINUOUS
 10
1.41311
 20
-79.624597
 11
1.41311
 21
-62.95793
  0
LINE
  8
別途部材
  6
CONTINUOUS
 10
2.41311
 20
-79.624597
 11
2.41311
 21
-61.95793
  0
LINE
  8
別途部材
  6
CONTINUOUS
 10
3.41311
 20
-79.624597
 11
3.41311
 21
-61.95793
  0
LINE
  8
別途部材
  6
CONTINUOUS
 10
4.41311
 20
-79.624597
 11
4.41311
 21
-62.95793
  0
LINE
  8
別途部材
  6
CONTINUOUS
 10
6.41311
 20
-79.624597
 11
6.41311
 21
-61.95793
  0
LINE
  8
別途部材
  6
CONTINUOUS
 10
7.41311
 20
-79.624597
 11
7.41311
 21
-61.95793
  0
LINE
  8
別途部材
  6
CONTINUOUS
 10
5.41311
 20
-62.95793
 11
6.41311
 21
-61.95793
  0
LINE
  8
別途部材
  6
CONTINUOUS
 10
7.41311
 20
-61.95793
 11
8.41311
 21
-62.95793
  0
LINE
  8
別途部材
  6
CONTINUOUS
 10
6.41311
 20
-61.95793
 11
7.41311
 21
-61.95793
  0
LINE
  8
別途部材
  6
CONTINUOUS
 10
9.41311
 20
-62.95793
 11
10.41311
 21
-61.95793
  0
LINE
  8
別途部材
  6
CONTINUOUS
 10
11.41311
 20
-61.95793
 11
12.41311
 21
-62.95793
  0
LINE
  8
別途部材
  6
CONTINUOUS
 10
10.41311
 20
-61.95793
 11
11.41311
 21
-61.95793
  0
LINE
  8
別途部材
  6
CONTINUOUS
 10
5.41311
 20
-79.624597
 11
5.41311
 21
-62.95793
  0
LINE
  8
別途部材
  6
CONTINUOUS
 10
8.41311
 20
-79.624597
 11
8.41311
 21
-62.95793
  0
LINE
  8
別途部材
  6
CONTINUOUS
 10
9.41311
 20
-79.624597
 11
9.41311
 21
-62.95793
  0
LINE
  8
別途部材
  6
CONTINUOUS
 10
10.41311
 20
-79.624597
 11
10.41311
 21
-61.95793
  0
LINE
  8
別途部材
  6
CONTINUOUS
 10
11.41311
 20
-79.624597
 11
11.41311
 21
-61.95793
  0
LINE
  8
別途部材
  6
CONTINUOUS
 10
12.41311
 20
-79.624597
 11
12.41311
 21
-62.95793
  0
LINE
  8
別途部材
  6
CONTINUOUS
 10
8.41311
 20
-62.95793
 11
9.41311
 21
-62.95793
  0
LINE
  8
別途部材
  6
CONTINUOUS
 10
4.41311
 20
-62.95793
 11
5.41311
 21
-62.95793
  0
LINE
  8
別途部材
  6
CONTINUOUS
 10
0.41311
 20
-62.95793
 11
1.41311
 21
-62.95793
  0
LINE
  8
別途部材
  6
CONTINUOUS
 10
-3.58689
 20
-62.95793
 11
-2.58689
 21
-62.95793
  0
LINE
  8
別途部材
  6
CONTINUOUS
 10
-7.58689
 20
-62.95793
 11
-6.58689
 21
-62.95793
  0
LINE
  8
別途部材
  6
CONTINUOUS
 10
-11.58689
 20
-62.95793
 11
-10.58689
 21
-62.95793
  0
LINE
  8
別途部材
  6
CONTINUOUS
 10
-15.58689
 20
-62.95793
 11
-14.58689
 21
-62.95793
  0
LINE
  8
別途部材
  6
CONTINUOUS
 10
-19.58689
 20
-79.624597
 11
-19.58689
 21
-62.95793
  0
LINE
  8
別途部材
  6
CONTINUOUS
 10
-18.58689
 20
-62.95793
 11
-19.58689
 21
-62.95793
  0
ARC
  8
別途部材
  6
CONTINUOUS
 10
28.913109
 20
-79.624597
 40
16.666667
 50
0.0
 51
90.0
  0
LINE
  8
別途部材
  6
CONTINUOUS
 10
13.41311
 20
-62.95793
 11
14.41311
 21
-61.95793
  0
LINE
  8
別途部材
  6
CONTINUOUS
 10
15.41311
 20
-61.95793
 11
16.41311
 21
-62.95793
  0
LINE
  8
別途部材
  6
CONTINUOUS
 10
14.41311
 20
-61.95793
 11
15.41311
 21
-61.95793
  0
LINE
  8
別途部材
  6
CONTINUOUS
 10
13.41311
 20
-79.624597
 11
13.41311
 21
-62.95793
  0
LINE
  8
別途部材
  6
CONTINUOUS
 10
14.41311
 20
-79.624597
 11
14.41311
 21
-61.95793
  0
LINE
  8
別途部材
  6
CONTINUOUS
 10
15.41311
 20
-79.624597
 11
15.41311
 21
-61.95793
  0
LINE
  8
別途部材
  6
CONTINUOUS
 10
16.41311
 20
-79.624597
 11
16.41311
 21
-62.95793
  0
LINE
  8
別途部材
  6
CONTINUOUS
 10
17.41311
 20
-62.95793
 11
18.41311
 21
-61.95793
  0
LINE
  8
別途部材
  6
CONTINUOUS
 10
19.41311
 20
-61.95793
 11
20.41311
 21
-62.95793
  0
LINE
  8
別途部材
  6
CONTINUOUS
 10
18.41311
 20
-61.95793
 11
19.41311
 21
-61.95793
  0
LINE
  8
別途部材
  6
CONTINUOUS
 10
17.41311
 20
-79.624597
 11
17.41311
 21
-62.95793
  0
LINE
  8
別途部材
  6
CONTINUOUS
 10
18.41311
 20
-79.624597
 11
18.41311
 21
-61.95793
  0
LINE
  8
別途部材
  6
CONTINUOUS
 10
19.41311
 20
-79.624597
 11
19.41311
 21
-61.95793
  0
LINE
  8
別途部材
  6
CONTINUOUS
 10
20.41311
 20
-79.624597
 11
20.41311
 21
-62.95793
  0
LINE
  8
別途部材
  6
CONTINUOUS
 10
22.41311
 20
-79.624597
 11
22.41311
 21
-61.95793
  0
LINE
  8
別途部材
  6
CONTINUOUS
 10
23.41311
 20
-79.624597
 11
23.41311
 21
-61.95793
  0
LINE
  8
別途部材
  6
CONTINUOUS
 10
21.41311
 20
-62.95793
 11
22.41311
 21
-61.95793
  0
LINE
  8
別途部材
  6
CONTINUOUS
 10
23.41311
 20
-61.95793
 11
24.41311
 21
-62.95793
  0
LINE
  8
別途部材
  6
CONTINUOUS
 10
22.41311
 20
-61.95793
 11
23.41311
 21
-61.95793
  0
LINE
  8
別途部材
  6
CONTINUOUS
 10
25.41311
 20
-62.95793
 11
26.41311
 21
-61.95793
  0
LINE
  8
別途部材
  6
CONTINUOUS
 10
27.41311
 20
-61.95793
 11
28.41311
 21
-62.95793
  0
LINE
  8
別途部材
  6
CONTINUOUS
 10
26.41311
 20
-61.95793
 11
27.41311
 21
-61.95793
  0
LINE
  8
別途部材
  6
CONTINUOUS
 10
21.41311
 20
-79.624597
 11
21.41311
 21
-62.95793
  0
LINE
  8
別途部材
  6
CONTINUOUS
 10
24.41311
 20
-79.624597
 11
24.41311
 21
-62.95793
  0
LINE
  8
別途部材
  6
CONTINUOUS
 10
25.41311
 20
-79.624597
 11
25.41311
 21
-62.95793
  0
LINE
  8
別途部材
  6
CONTINUOUS
 10
26.41311
 20
-79.624597
 11
26.41311
 21
-61.95793
  0
LINE
  8
別途部材
  6
CONTINUOUS
 10
27.41311
 20
-79.624597
 11
27.41311
 21
-61.95793
  0
LINE
  8
別途部材
  6
CONTINUOUS
 10
28.41311
 20
-79.624597
 11
28.41311
 21
-62.95793
  0
LINE
  8
別途部材
  6
CONTINUOUS
 10
24.41311
 20
-62.95793
 11
25.41311
 21
-62.95793
  0
LINE
  8
別途部材
  6
CONTINUOUS
 10
20.41311
 20
-62.95793
 11
21.41311
 21
-62.95793
  0
LINE
  8
別途部材
  6
CONTINUOUS
 10
16.41311
 20
-62.95793
 11
17.41311
 21
-62.95793
  0
LINE
  8
別途部材
  6
CONTINUOUS
 10
12.41311
 20
-62.95793
 11
13.41311
 21
-62.95793
  0
LINE
  8
別途部材
  6
CONTINUOUS
 10
28.91311
 20
-62.95793
 11
28.41311
 21
-62.95793
  0
ENDBLK
  0
BLOCK
  2
*GRP_0011
 70
    65
 10
0.0
 20
0.0
  0
LINE
  8
補助線
  6
BYBLOCK
 62
    64
 10
-76.02952
 20
-84.524323
 11
-76.144265
 21
-84.645202
  0
LINE
  8
補助線
  6
BYBLOCK
 62
    64
 10
-76.147332
 20
-84.527387
 11
-76.026452
 21
-84.642135
  0
LINE
  8
補助線
  6
BYBLOCK
 62
    64
 10
-65.12874
 20
-73.040967
 11
-65.243485
 21
-73.161842
  0
LINE
  8
補助線
  6
BYBLOCK
 62
    64
 10
-65.246552
 20
-73.044032
 11
-65.125675
 21
-73.158777
  0
LINE
  8
補助線
  6
BYBLOCK
 62
    64
 10
-54.342705
 20
-61.678488
 11
-54.227963
 21
-61.55761
  0
LINE
  8
補助線
  6
BYBLOCK
 62
    64
 10
-54.345773
 20
-61.560672
 11
-54.224895
 21
-61.67542
  0
LINE
  8
型材断面
  6
CONTINUOUS
 10
-76.92077
 20
-84.252793
 11
-76.90237
 21
-84.95966
  0
LINE
  8
型材断面
  6
CONTINUOUS
 10
-76.90237
 20
-84.95966
 11
-76.41886
 21
-85.41864
  0
LINE
  8
型材断面
  6
CONTINUOUS
 10
-76.41886
 20
-85.41864
 11
-75.711992
 21
-85.400242
  0
LINE
  8
型材断面
  6
CONTINUOUS
 10
-54.66023
 20
-60.80257
 11
-53.953363
 21
-60.784173
  0
LINE
  8
型材断面
  6
CONTINUOUS
 10
-53.953363
 20
-60.784173
 11
-53.469852
 21
-61.243152
  0
LINE
  8
型材断面
  6
CONTINUOUS
 10
-53.469852
 20
-61.243152
 11
-53.451455
 21
-61.95002
  0
LINE
  8
型材断面
  6
CONTINUOUS
 10
-76.92077
 20
-84.252793
 11
-54.66023
 21
-60.80257
  0
LINE
  8
型材断面
  6
CONTINUOUS
 10
-75.711992
 20
-85.400242
 11
-53.451455
 21
-61.95002
  0
CIRCLE
  8
ボルト／ビス
  6
CONTINUOUS
 10
-76.086892
 20
-84.584763
 40
0.250185
  0
CIRCLE
  8
ボルト／ビス
  6
CONTINUOUS
 10
-76.086892
 20
-84.584763
 40
0.301025
  0
LINE
  8
ボルト／ビス
  6
CONTINUOUS
 62
    64
 10
-76.326787
 20
-84.65578
 11
-76.268343
 21
-84.412518
  0
LINE
  8
ボルト／ビス
  6
CONTINUOUS
 62
    64
 10
-76.028448
 20
-84.341497
 11
-76.268343
 21
-84.412518
  0
LINE
  8
ボルト／ビス
  6
CONTINUOUS
 62
    64
 10
-76.145338
 20
-84.828028
 11
-75.905443
 21
-84.757007
  0
LINE
  8
ボルト／ビス
  6
CONTINUOUS
 62
    64
 10
-75.846998
 20
-84.513745
 11
-75.905443
 21
-84.757007
  0
LINE
  8
ボルト／ビス
  6
CONTINUOUS
 62
    64
 10
-76.326787
 20
-84.65578
 11
-76.145338
 21
-84.828028
  0
LINE
  8
ボルト／ビス
  6
CONTINUOUS
 62
    64
 10
-76.028448
 20
-84.341497
 11
-75.846998
 21
-84.513745
  0
CIRCLE
  8
ボルト／ビス
  6
CONTINUOUS
 62
    64
 10
-76.086892
 20
-84.584763
 40
0.216668
  0
CIRCLE
  8
ボルト／ビス
  6
CONTINUOUS
 10
-65.186113
 20
-73.101405
 40
0.250185
  0
CIRCLE
  8
ボルト／ビス
  6
CONTINUOUS
 10
-65.186113
 20
-73.101405
 40
0.301025
  0
LINE
  8
ボルト／ビス
  6
CONTINUOUS
 62
    64
 10
-65.426008
 20
-73.172425
 11
-65.367562
 21
-72.92916
  0
LINE
  8
ボルト／ビス
  6
CONTINUOUS
 62
    64
 10
-65.127668
 20
-72.858143
 11
-65.367562
 21
-72.92916
  0
LINE
  8
ボルト／ビス
  6
CONTINUOUS
 62
    64
 10
-65.244557
 20
-73.344668
 11
-65.004662
 21
-73.27365
  0
LINE
  8
ボルト／ビス
  6
CONTINUOUS
 62
    64
 10
-64.946217
 20
-73.030385
 11
-65.004662
 21
-73.27365
  0
LINE
  8
ボルト／ビス
  6
CONTINUOUS
 62
    64
 10
-65.426008
 20
-73.172425
 11
-65.244557
 21
-73.344668
  0
LINE
  8
ボルト／ビス
  6
CONTINUOUS
 62
    64
 10
-65.127668
 20
-72.858143
 11
-64.946217
 21
-73.030385
  0
CIRCLE
  8
ボルト／ビス
  6
CONTINUOUS
 62
    64
 10
-65.186113
 20
-73.101405
 40
0.216668
  0
CIRCLE
  8
ボルト／ビス
  6
CONTINUOUS
 10
-54.285333
 20
-61.618048
 40
0.250185
  0
CIRCLE
  8
ボルト／ビス
  6
CONTINUOUS
 10
-54.285333
 20
-61.618048
 40
0.301025
  0
LINE
  8
ボルト／ビス
  6
CONTINUOUS
 62
    64
 10
-54.226887
 20
-61.374783
 11
-54.466783
 21
-61.445802
  0
LINE
  8
ボルト／ビス
  6
CONTINUOUS
 62
    64
 10
-54.525227
 20
-61.689065
 11
-54.466783
 21
-61.445802
  0
LINE
  8
ボルト／ビス
  6
CONTINUOUS
 62
    64
 10
-54.045438
 20
-61.54703
 11
-54.103882
 21
-61.790293
  0
LINE
  8
ボルト／ビス
  6
CONTINUOUS
 62
    64
 10
-54.343778
 20
-61.861312
 11
-54.103882
 21
-61.790293
  0
LINE
  8
ボルト／ビス
  6
CONTINUOUS
 62
    64
 10
-54.226887
 20
-61.374783
 11
-54.045438
 21
-61.54703
  0
LINE
  8
ボルト／ビス
  6
CONTINUOUS
 62
    64
 10
-54.525227
 20
-61.689065
 11
-54.343778
 21
-61.861312
  0
CIRCLE
  8
ボルト／ビス
  6
CONTINUOUS
 62
    64
 10
-54.285333
 20
-61.618048
 40
0.216668
  0
ENDBLK
  0
BLOCK
  2
*GRP_0012
 70
    65
 10
0.0
 20
0.0
  0
LINE
  8
補助線
  6
BYBLOCK
 62
    64
 10
-54.342705
 20
-84.524323
 11
-54.22796
 21
-84.645202
  0
LINE
  8
補助線
  6
BYBLOCK
 62
    64
 10
-54.224892
 20
-84.527387
 11
-54.345773
 21
-84.642135
  0
LINE
  8
補助線
  6
BYBLOCK
 62
    64
 10
-65.243485
 20
-73.040967
 11
-65.12874
 21
-73.161842
  0
LINE
  8
補助線
  6
BYBLOCK
 62
    64
 10
-65.125673
 20
-73.044032
 11
-65.24655
 21
-73.158777
  0
LINE
  8
補助線
  6
BYBLOCK
 62
    64
 10
-76.02952
 20
-61.678488
 11
-76.144262
 21
-61.55761
  0
LINE
  8
補助線
  6
BYBLOCK
 62
    64
 10
-76.026452
 20
-61.560672
 11
-76.14733
 21
-61.67542
  0
LINE
  8
型材断面
  6
CONTINUOUS
 10
-53.451455
 20
-84.252793
 11
-53.469855
 21
-84.95966
  0
LINE
  8
型材断面
  6
CONTINUOUS
 10
-53.469855
 20
-84.95966
 11
-53.953365
 21
-85.41864
  0
LINE
  8
型材断面
  6
CONTINUOUS
 10
-53.953365
 20
-85.41864
 11
-54.660232
 21
-85.400242
  0
LINE
  8
型材断面
  6
CONTINUOUS
 10
-75.711995
 20
-60.80257
 11
-76.418862
 21
-60.784173
  0
LINE
  8
型材断面
  6
CONTINUOUS
 10
-76.418862
 20
-60.784173
 11
-76.902372
 21
-61.243152
  0
LINE
  8
型材断面
  6
CONTINUOUS
 10
-76.902372
 20
-61.243152
 11
-76.92077
 21
-61.95002
  0
LINE
  8
型材断面
  6
CONTINUOUS
 10
-53.451455
 20
-84.252793
 11
-75.711995
 21
-60.80257
  0
LINE
  8
型材断面
  6
CONTINUOUS
 10
-54.660232
 20
-85.400242
 11
-76.92077
 21
-61.95002
  0
CIRCLE
  8
ボルト／ビス
  6
CONTINUOUS
 10
-54.285333
 20
-84.584763
 40
0.250185
  0
CIRCLE
  8
ボルト／ビス
  6
CONTINUOUS
 10
-54.285333
 20
-84.584763
 40
0.301025
  0
LINE
  8
ボルト／ビス
  6
CONTINUOUS
 62
    64
 10
-54.045438
 20
-84.65578
 11
-54.103882
 21
-84.412518
  0
LINE
  8
ボルト／ビス
  6
CONTINUOUS
 62
    64
 10
-54.343778
 20
-84.341497
 11
-54.103882
 21
-84.412518
  0
LINE
  8
ボルト／ビス
  6
CONTINUOUS
 62
    64
 10
-54.226887
 20
-84.828028
 11
-54.466783
 21
-84.757007
  0
LINE
  8
ボルト／ビス
  6
CONTINUOUS
 62
    64
 10
-54.525227
 20
-84.513745
 11
-54.466783
 21
-84.757007
  0
LINE
  8
ボルト／ビス
  6
CONTINUOUS
 62
    64
 10
-54.045438
 20
-84.65578
 11
-54.226887
 21
-84.828028
  0
LINE
  8
ボルト／ビス
  6
CONTINUOUS
 62
    64
 10
-54.343778
 20
-84.341497
 11
-54.525227
 21
-84.513745
  0
CIRCLE
  8
ボルト／ビス
  6
CONTINUOUS
 62
    64
 10
-54.285333
 20
-84.584763
 40
0.216668
  0
CIRCLE
  8
ボルト／ビス
  6
CONTINUOUS
 10
-65.186113
 20
-73.101405
 40
0.250185
  0
CIRCLE
  8
ボルト／ビス
  6
CONTINUOUS
 10
-65.186113
 20
-73.101405
 40
0.301025
  0
LINE
  8
ボルト／ビス
  6
CONTINUOUS
 62
    64
 10
-64.946217
 20
-73.172425
 11
-65.004662
 21
-72.92916
  0
LINE
  8
ボルト／ビス
  6
CONTINUOUS
 62
    64
 10
-65.244557
 20
-72.858143
 11
-65.004662
 21
-72.92916
  0
LINE
  8
ボルト／ビス
  6
CONTINUOUS
 62
    64
 10
-65.127668
 20
-73.344668
 11
-65.367562
 21
-73.27365
  0
LINE
  8
ボルト／ビス
  6
CONTINUOUS
 62
    64
 10
-65.426008
 20
-73.030385
 11
-65.367562
 21
-73.27365
  0
LINE
  8
ボルト／ビス
  6
CONTINUOUS
 62
    64
 10
-64.946217
 20
-73.172425
 11
-65.127668
 21
-73.344668
  0
LINE
  8
ボルト／ビス
  6
CONTINUOUS
 62
    64
 10
-65.244557
 20
-72.858143
 11
-65.426008
 21
-73.030385
  0
CIRCLE
  8
ボルト／ビス
  6
CONTINUOUS
 62
    64
 10
-65.186113
 20
-73.101405
 40
0.216668
  0
CIRCLE
  8
ボルト／ビス
  6
CONTINUOUS
 10
-76.086892
 20
-61.618048
 40
0.250185
  0
CIRCLE
  8
ボルト／ビス
  6
CONTINUOUS
 10
-76.086892
 20
-61.618048
 40
0.301025
  0
LINE
  8
ボルト／ビス
  6
CONTINUOUS
 62
    64
 10
-76.145338
 20
-61.374783
 11
-75.905443
 21
-61.445802
  0
LINE
  8
ボルト／ビス
  6
CONTINUOUS
 62
    64
 10
-75.846998
 20
-61.689065
 11
-75.905443
 21
-61.445802
  0
LINE
  8
ボルト／ビス
  6
CONTINUOUS
 62
    64
 10
-76.326787
 20
-61.54703
 11
-76.268343
 21
-61.790293
  0
LINE
  8
ボルト／ビス
  6
CONTINUOUS
 62
    64
 10
-76.028448
 20
-61.861312
 11
-76.268343
 21
-61.790293
  0
LINE
  8
ボルト／ビス
  6
CONTINUOUS
 62
    64
 10
-76.145338
 20
-61.374783
 11
-76.326787
 21
-61.54703
  0
LINE
  8
ボルト／ビス
  6
CONTINUOUS
 62
    64
 10
-75.846998
 20
-61.689065
 11
-76.028448
 21
-61.861312
  0
CIRCLE
  8
ボルト／ビス
  6
CONTINUOUS
 62
    64
 10
-76.086892
 20
-61.618048
 40
0.216668
  0
ENDBLK
  0
BLOCK
  2
*GRP_0013
 70
    65
 10
0.0
 20
0.0
  0
LINE
  8
補助線
  6
BYBLOCK
 62
    64
 10
33.855735
 20
-84.524323
 11
33.97048
 21
-84.645202
  0
LINE
  8
補助線
  6
BYBLOCK
 62
    64
 10
33.973547
 20
-84.527387
 11
33.852667
 21
-84.642135
  0
LINE
  8
補助線
  6
BYBLOCK
 62
    64
 10
22.954955
 20
-73.040967
 11
23.0697
 21
-73.161842
  0
LINE
  8
補助線
  6
BYBLOCK
 62
    64
 10
23.072768
 20
-73.044032
 11
22.95189
 21
-73.158777
  0
LINE
  8
補助線
  6
BYBLOCK
 62
    64
 10
12.16892
 20
-61.678488
 11
12.054177
 21
-61.55761
  0
LINE
  8
補助線
  6
BYBLOCK
 62
    64
 10
12.171988
 20
-61.560672
 11
12.05111
 21
-61.67542
  0
LINE
  8
型材断面
  6
CONTINUOUS
 10
34.746985
 20
-84.252793
 11
34.728585
 21
-84.95966
  0
LINE
  8
型材断面
  6
CONTINUOUS
 10
34.728585
 20
-84.95966
 11
34.245075
 21
-85.41864
  0
LINE
  8
型材断面
  6
CONTINUOUS
 10
34.245075
 20
-85.41864
 11
33.538207
 21
-85.400242
  0
LINE
  8
型材断面
  6
CONTINUOUS
 10
12.486445
 20
-60.80257
 11
11.779578
 21
-60.784173
  0
LINE
  8
型材断面
  6
CONTINUOUS
 10
11.779578
 20
-60.784173
 11
11.296068
 21
-61.243152
  0
LINE
  8
型材断面
  6
CONTINUOUS
 10
11.296068
 20
-61.243152
 11
11.27767
 21
-61.95002
  0
LINE
  8
型材断面
  6
CONTINUOUS
 10
34.746985
 20
-84.252793
 11
12.486445
 21
-60.80257
  0
LINE
  8
型材断面
  6
CONTINUOUS
 10
33.538207
 20
-85.400242
 11
11.27767
 21
-61.95002
  0
CIRCLE
  8
ボルト／ビス
  6
CONTINUOUS
 10
33.913107
 20
-84.584763
 40
0.250185
  0
CIRCLE
  8
ボルト／ビス
  6
CONTINUOUS
 10
33.913107
 20
-84.584763
 40
0.301025
  0
LINE
  8
ボルト／ビス
  6
CONTINUOUS
 62
    64
 10
34.153002
 20
-84.65578
 11
34.094557
 21
-84.412518
  0
LINE
  8
ボルト／ビス
  6
CONTINUOUS
 62
    64
 10
33.854663
 20
-84.341497
 11
34.094557
 21
-84.412518
  0
LINE
  8
ボルト／ビス
  6
CONTINUOUS
 62
    64
 10
33.971552
 20
-84.828028
 11
33.731658
 21
-84.757007
  0
LINE
  8
ボルト／ビス
  6
CONTINUOUS
 62
    64
 10
33.673213
 20
-84.513745
 11
33.731658
 21
-84.757007
  0
LINE
  8
ボルト／ビス
  6
CONTINUOUS
 62
    64
 10
34.153002
 20
-84.65578
 11
33.971552
 21
-84.828028
  0
LINE
  8
ボルト／ビス
  6
CONTINUOUS
 62
    64
 10
33.854663
 20
-84.341497
 11
33.673213
 21
-84.513745
  0
CIRCLE
  8
ボルト／ビス
  6
CONTINUOUS
 62
    64
 10
33.913107
 20
-84.584763
 40
0.216668
  0
CIRCLE
  8
ボルト／ビス
  6
CONTINUOUS
 10
23.012327
 20
-73.101405
 40
0.250185
  0
CIRCLE
  8
ボルト／ビス
  6
CONTINUOUS
 10
23.012327
 20
-73.101405
 40
0.301025
  0
LINE
  8
ボルト／ビス
  6
CONTINUOUS
 62
    64
 10
23.252223
 20
-73.172425
 11
23.193778
 21
-72.92916
  0
LINE
  8
ボルト／ビス
  6
CONTINUOUS
 62
    64
 10
22.953882
 20
-72.858143
 11
23.193778
 21
-72.92916
  0
LINE
  8
ボルト／ビス
  6
CONTINUOUS
 62
    64
 10
23.070773
 20
-73.344668
 11
22.830877
 21
-73.27365
  0
LINE
  8
ボルト／ビス
  6
CONTINUOUS
 62
    64
 10
22.772432
 20
-73.030385
 11
22.830877
 21
-73.27365
  0
LINE
  8
ボルト／ビス
  6
CONTINUOUS
 62
    64
 10
23.252223
 20
-73.172425
 11
23.070773
 21
-73.344668
  0
LINE
  8
ボルト／ビス
  6
CONTINUOUS
 62
    64
 10
22.953882
 20
-72.858143
 11
22.772432
 21
-73.030385
  0
CIRCLE
  8
ボルト／ビス
  6
CONTINUOUS
 62
    64
 10
23.012327
 20
-73.101405
 40
0.216668
  0
CIRCLE
  8
ボルト／ビス
  6
CONTINUOUS
 10
12.111548
 20
-61.618048
 40
0.250185
  0
CIRCLE
  8
ボルト／ビス
  6
CONTINUOUS
 10
12.111548
 20
-61.618048
 40
0.301025
  0
LINE
  8
ボルト／ビス
  6
CONTINUOUS
 62
    64
 10
12.053103
 20
-61.374783
 11
12.292997
 21
-61.445802
  0
LINE
  8
ボルト／ビス
  6
CONTINUOUS
 62
    64
 10
12.351442
 20
-61.689065
 11
12.292997
 21
-61.445802
  0
LINE
  8
ボルト／ビス
  6
CONTINUOUS
 62
    64
 10
11.871652
 20
-61.54703
 11
11.930098
 21
-61.790293
  0
LINE
  8
ボルト／ビス
  6
CONTINUOUS
 62
    64
 10
12.169993
 20
-61.861312
 11
11.930098
 21
-61.790293
  0
LINE
  8
ボルト／ビス
  6
CONTINUOUS
 62
    64
 10
12.053103
 20
-61.374783
 11
11.871652
 21
-61.54703
  0
LINE
  8
ボルト／ビス
  6
CONTINUOUS
 62
    64
 10
12.351442
 20
-61.689065
 11
12.169993
 21
-61.861312
  0
CIRCLE
  8
ボルト／ビス
  6
CONTINUOUS
 62
    64
 10
12.111548
 20
-61.618048
 40
0.216668
  0
ENDBLK
  0
BLOCK
  2
*GRP_0014
 70
    65
 10
0.0
 20
0.0
  0
LINE
  8
補助線
  6
BYBLOCK
 62
    64
 10
12.16892
 20
-84.524323
 11
12.054175
 21
-84.645202
  0
LINE
  8
補助線
  6
BYBLOCK
 62
    64
 10
12.051108
 20
-84.527387
 11
12.171988
 21
-84.642135
  0
LINE
  8
補助線
  6
BYBLOCK
 62
    64
 10
23.0697
 20
-73.040967
 11
22.954955
 21
-73.161842
  0
LINE
  8
補助線
  6
BYBLOCK
 62
    64
 10
22.951887
 20
-73.044032
 11
23.072765
 21
-73.158777
  0
LINE
  8
補助線
  6
BYBLOCK
 62
    64
 10
33.855735
 20
-61.678488
 11
33.970478
 21
-61.55761
  0
LINE
  8
補助線
  6
BYBLOCK
 62
    64
 10
33.852667
 20
-61.560672
 11
33.973545
 21
-61.67542
  0
LINE
  8
型材断面
  6
CONTINUOUS
 10
11.27767
 20
-84.252793
 11
11.29607
 21
-84.95966
  0
LINE
  8
型材断面
  6
CONTINUOUS
 10
11.29607
 20
-84.95966
 11
11.77958
 21
-85.41864
  0
LINE
  8
型材断面
  6
CONTINUOUS
 10
11.77958
 20
-85.41864
 11
12.486448
 21
-85.400242
  0
LINE
  8
型材断面
  6
CONTINUOUS
 10
33.53821
 20
-60.80257
 11
34.245077
 21
-60.784173
  0
LINE
  8
型材断面
  6
CONTINUOUS
 10
34.245077
 20
-60.784173
 11
34.728587
 21
-61.243152
  0
LINE
  8
型材断面
  6
CONTINUOUS
 10
34.728587
 20
-61.243152
 11
34.746985
 21
-61.95002
  0
LINE
  8
型材断面
  6
CONTINUOUS
 10
11.27767
 20
-84.252793
 11
33.53821
 21
-60.80257
  0
LINE
  8
型材断面
  6
CONTINUOUS
 10
12.486448
 20
-85.400242
 11
34.746985
 21
-61.95002
  0
CIRCLE
  8
ボルト／ビス
  6
CONTINUOUS
 10
12.111548
 20
-84.584763
 40
0.250185
  0
CIRCLE
  8
ボルト／ビス
  6
CONTINUOUS
 10
12.111548
 20
-84.584763
 40
0.301025
  0
LINE
  8
ボルト／ビス
  6
CONTINUOUS
 62
    64
 10
11.871652
 20
-84.65578
 11
11.930098
 21
-84.412518
  0
LINE
  8
ボルト／ビス
  6
CONTINUOUS
 62
    64
 10
12.169993
 20
-84.341497
 11
11.930098
 21
-84.412518
  0
LINE
  8
ボルト／ビス
  6
CONTINUOUS
 62
    64
 10
12.053103
 20
-84.828028
 11
12.292997
 21
-84.757007
  0
LINE
  8
ボルト／ビス
  6
CONTINUOUS
 62
    64
 10
12.351442
 20
-84.513745
 11
12.292997
 21
-84.757007
  0
LINE
  8
ボルト／ビス
  6
CONTINUOUS
 62
    64
 10
11.871652
 20
-84.65578
 11
12.053103
 21
-84.828028
  0
LINE
  8
ボルト／ビス
  6
CONTINUOUS
 62
    64
 10
12.169993
 20
-84.341497
 11
12.351442
 21
-84.513745
  0
CIRCLE
  8
ボルト／ビス
  6
CONTINUOUS
 62
    64
 10
12.111548
 20
-84.584763
 40
0.216668
  0
CIRCLE
  8
ボルト／ビス
  6
CONTINUOUS
 10
23.012327
 20
-73.101405
 40
0.250185
  0
CIRCLE
  8
ボルト／ビス
  6
CONTINUOUS
 10
23.012327
 20
-73.101405
 40
0.301025
  0
LINE
  8
ボルト／ビス
  6
CONTINUOUS
 62
    64
 10
22.772432
 20
-73.172425
 11
22.830877
 21
-72.92916
  0
LINE
  8
ボルト／ビス
  6
CONTINUOUS
 62
    64
 10
23.070773
 20
-72.858143
 11
22.830877
 21
-72.92916
  0
LINE
  8
ボルト／ビス
  6
CONTINUOUS
 62
    64
 10
22.953882
 20
-73.344668
 11
23.193778
 21
-73.27365
  0
LINE
  8
ボルト／ビス
  6
CONTINUOUS
 62
    64
 10
23.252223
 20
-73.030385
 11
23.193778
 21
-73.27365
  0
LINE
  8
ボルト／ビス
  6
CONTINUOUS
 62
    64
 10
22.772432
 20
-73.172425
 11
22.953882
 21
-73.344668
  0
LINE
  8
ボルト／ビス
  6
CONTINUOUS
 62
    64
 10
23.070773
 20
-72.858143
 11
23.252223
 21
-73.030385
  0
CIRCLE
  8
ボルト／ビス
  6
CONTINUOUS
 62
    64
 10
23.012327
 20
-73.101405
 40
0.216668
  0
CIRCLE
  8
ボルト／ビス
  6
CONTINUOUS
 10
33.913107
 20
-61.618048
 40
0.250185
  0
CIRCLE
  8
ボルト／ビス
  6
CONTINUOUS
 10
33.913107
 20
-61.618048
 40
0.301025
  0
LINE
  8
ボルト／ビス
  6
CONTINUOUS
 62
    64
 10
33.971552
 20
-61.374783
 11
33.731658
 21
-61.445802
  0
LINE
  8
ボルト／ビス
  6
CONTINUOUS
 62
    64
 10
33.673213
 20
-61.689065
 11
33.731658
 21
-61.445802
  0
LINE
  8
ボルト／ビス
  6
CONTINUOUS
 62
    64
 10
34.153002
 20
-61.54703
 11
34.094557
 21
-61.790293
  0
LINE
  8
ボルト／ビス
  6
CONTINUOUS
 62
    64
 10
33.854663
 20
-61.861312
 11
34.094557
 21
-61.790293
  0
LINE
  8
ボルト／ビス
  6
CONTINUOUS
 62
    64
 10
33.971552
 20
-61.374783
 11
34.153002
 21
-61.54703
  0
LINE
  8
ボルト／ビス
  6
CONTINUOUS
 62
    64
 10
33.673213
 20
-61.689065
 11
33.854663
 21
-61.861312
  0
CIRCLE
  8
ボルト／ビス
  6
CONTINUOUS
 62
    64
 10
33.913107
 20
-61.618048
 40
0.216668
  0
ENDBLK
  0
BLOCK
  2
*DIM_0015
 70
    65
 10
0.0
 20
0.0
  0
LINE
  8
寸法
  6
BYBLOCK
 62
     0
 10
135.11304
 20
69.42329
 11
135.11304
 21
86.5884
  0
LINE
  8
寸法
  6
BYBLOCK
 62
     0
 10
142.146543
 20
69.739957
 11
142.146543
 21
86.5884
  0
LINE
  8
寸法
  6
BYBLOCK
 62
     0
 10
135.11304
 20
86.5884
 11
142.146543
 21
86.5884
  0
POINT
  8
寸法
 62
     0
 10
135.11304
 20
86.5884
  0
POINT
  8
寸法
 62
     0
 10
142.146543
 20
86.5884
  0
TEXT
  7
TextStyle03
  8
寸法
  6
CONTINUOUS
 62
     0
 10
136.1625
 20
86.95
  1
211
 40
3.0
 72
     5
 11
141.0375
 21
86.95
  0
ENDBLK
  0
BLOCK
  2
*DIM_0016
 70
    65
 10
0.0
 20
0.0
  0
LINE
  8
寸法
  6
BYBLOCK
 62
     0
 10
133.489825
 20
66.739957
 11
82.21224
 21
66.739957
  0
LINE
  8
寸法
  6
BYBLOCK
 62
     0
 10
82.21224
 20
64.756625
 11
82.21224
 21
66.739957
  0
POINT
  8
寸法
 62
     0
 10
82.21224
 20
64.756625
  0
POINT
  8
寸法
 62
     0
 10
82.21224
 20
66.739957
  0
TEXT
  7
TextStyle03
  8
寸法
  6
CONTINUOUS
 62
     0
 10
81.8
 20
69.19375
  1
59.5
 40
3.0
 50
90.0
 72
     5
 11
81.8
 21
75.75625
  0
ENDBLK
  0
BLOCK
  2
*DIM_0017
 70
    65
 10
0.0
 20
0.0
  0
LINE
  8
寸法
  6
BYBLOCK
 62
     0
 10
133.489825
 20
-3.893378
 11
82.21224
 21
-3.893378
  0
LINE
  8
寸法
  6
BYBLOCK
 62
     0
 10
82.21224
 20
-1.910042
 11
82.21224
 21
-3.893378
  0
POINT
  8
寸法
 62
     0
 10
82.21224
 20
-1.910042
  0
POINT
  8
寸法
 62
     0
 10
82.21224
 20
-3.893378
  0
TEXT
  7
TextStyle03
  8
寸法
  6
CONTINUOUS
 62
     0
 10
81.8
 20
-12.95625
  1
59.5
 40
3.0
 50
90.0
 72
     5
 11
81.8
 21
-6.39375
  0
ENDBLK
  0
BLOCK
  2
*DIM_0018
 70
    65
 10
0.0
 20
0.0
  0
LINE
  8
寸法
  6
BYBLOCK
 62
     0
 10
50.246443
 20
-79.624597
 11
61.549425
 21
-79.624597
  0
LINE
  8
寸法
  6
BYBLOCK
 62
     0
 10
50.56311
 20
-86.6581
 11
61.549425
 21
-86.6581
  0
LINE
  8
寸法
  6
BYBLOCK
 62
     0
 10
61.549425
 20
-79.624597
 11
61.549425
 21
-86.6581
  0
POINT
  8
寸法
 62
     0
 10
61.549425
 20
-79.624597
  0
POINT
  8
寸法
 62
     0
 10
61.549425
 20
-86.6581
  0
TEXT
  7
TextStyle03
  8
寸法
  6
CONTINUOUS
 62
     0
 10
61.125
 20
-85.5875
  1
211
 40
3.0
 50
90.0
 72
     5
 11
61.125
 21
-80.7125
  0
ENDBLK
  0
BLOCK
  2
*DIM_0019
 70
    65
 10
0.0
 20
0.0
  0
LINE
  8
寸法
  6
BYBLOCK
 62
     0
 10
47.56311
 20
-78.001383
 11
47.56311
 21
-22.536362
  0
LINE
  8
寸法
  6
BYBLOCK
 62
     0
 10
45.579775
 20
-22.536362
 11
47.56311
 21
-22.536362
  0
POINT
  8
寸法
 62
     0
 10
45.579775
 20
-22.536362
  0
POINT
  8
寸法
 62
     0
 10
47.56311
 20
-22.536362
  0
TEXT
  7
TextStyle03
  8
寸法
  6
CONTINUOUS
 62
     0
 10
49.99375
 20
-22.15
  1
59.5
 40
3.0
 72
     5
 11
56.55625
 21
-22.15
  0
ENDBLK
  0
BLOCK
  2
*DIM_0020
 70
    65
 10
0.0
 20
0.0
  0
LINE
  8
寸法
  6
BYBLOCK
 62
     0
 10
-89.736895
 20
-78.001383
 11
-89.736895
 21
-22.536362
  0
LINE
  8
寸法
  6
BYBLOCK
 62
     0
 10
-87.753557
 20
-22.536362
 11
-89.736895
 21
-22.536362
  0
POINT
  8
寸法
 62
     0
 10
-87.753557
 20
-22.536362
  0
POINT
  8
寸法
 62
     0
 10
-89.736895
 20
-22.536362
  0
TEXT
  7
TextStyle03
  8
寸法
  6
CONTINUOUS
 62
     0
 10
-98.83125
 20
-22.15
  1
59.5
 40
3.0
 72
     5
 11
-92.26875
 21
-22.15
  0
ENDBLK
  0
BLOCK
  2
*DIM_0021
 70
    65
 10
0.0
 20
0.0
  0
LINE
  8
寸法
  6
BYBLOCK
 62
     0
 10
-87.753557
 20
-23.010045
 11
-87.753557
 21
-22.536362
  0
LINE
  8
寸法
  6
BYBLOCK
 62
     0
 10
45.579775
 20
-23.010045
 11
45.579775
 21
-22.536362
  0
LINE
  8
寸法
  6
BYBLOCK
 62
     0
 10
-87.753557
 20
-22.536362
 11
45.579775
 21
-22.536362
  0
POINT
  8
寸法
 62
     0
 10
-87.753557
 20
-22.536362
  0
POINT
  8
寸法
 62
     0
 10
45.579775
 20
-22.536362
  0
TEXT
  7
TextStyle03
  8
寸法
  6
CONTINUOUS
 62
     0
 10
-32.81875
 20
-22.2
  1
呼称寸法　4000
 40
3.0
 72
     5
 11
-9.38125
 21
-22.2
  0
ENDBLK
  0
BLOCK
  2
*DIM_0022
 70
    65
 10
0.0
 20
0.0
  0
LINE
  8
寸法
  6
BYBLOCK
 62
     0
 10
-90.753557
 20
8.08996
 11
-120.242635
 21
8.08996
  0
LINE
  8
寸法
  6
BYBLOCK
 62
     0
 10
-90.753557
 20
31.423293
 11
-120.242635
 21
31.423293
  0
LINE
  8
寸法
  6
BYBLOCK
 62
     0
 10
-120.242635
 20
8.08996
 11
-120.242635
 21
31.423293
  0
POINT
  8
寸法
 62
     0
 10
-120.242635
 20
8.08996
  0
POINT
  8
寸法
 62
     0
 10
-120.242635
 20
31.423293
  0
TEXT
  7
TextStyle03
  8
寸法
  6
CONTINUOUS
 62
     0
 10
-120.65
 20
17.3125
  1
700
 40
3.0
 50
90.0
 72
     5
 11
-120.65
 21
22.1875
  0
ENDBLK
  0
BLOCK
  2
*DIM_0023
 70
    65
 10
0.0
 20
0.0
  0
LINE
  8
寸法
  6
BYBLOCK
 62
     0
 10
-90.753557
 20
54.756625
 11
-120.242635
 21
54.756625
  0
LINE
  8
寸法
  6
BYBLOCK
 62
     0
 10
-120.242635
 20
31.423293
 11
-120.242635
 21
54.756625
  0
POINT
  8
寸法
 62
     0
 10
-120.242635
 20
54.756625
  0
TEXT
  7
TextStyle03
  8
寸法
  6
CONTINUOUS
 62
     0
 10
-120.65
 20
40.6375
  1
700
 40
3.0
 50
90.0
 72
     5
 11
-120.65
 21
45.5125
  0
ENDBLK
  0
BLOCK
  2
*DIM_0024
 70
    65
 10
0.0
 20
0.0
  0
LINE
  8
寸法
  6
BYBLOCK
 62
     0
 10
-79.420225
 20
67.756625
 11
-79.420225
 21
96.864697
  0
LINE
  8
寸法
  6
BYBLOCK
 62
     0
 10
-56.086892
 20
67.756625
 11
-56.086892
 21
96.864697
  0
LINE
  8
寸法
  6
BYBLOCK
 62
     0
 10
-79.420225
 20
96.864697
 11
-56.086892
 21
96.864697
  0
POINT
  8
寸法
 62
     0
 10
-79.420225
 20
96.864697
  0
POINT
  8
寸法
 62
     0
 10
-56.086892
 20
96.864697
  0
TEXT
  7
TextStyle03
  8
寸法
  6
CONTINUOUS
 62
     0
 10
-70.2125
 20
97.2
  1
700
 40
3.0
 72
     5
 11
-65.3375
 21
97.2
  0
ENDBLK
  0
BLOCK
  2
*DIM_0025
 70
    65
 10
0.0
 20
0.0
  0
LINE
  8
寸法
  6
BYBLOCK
 62
     0
 10
-32.75356
 20
67.756625
 11
-32.75356
 21
96.864697
  0
LINE
  8
寸法
  6
BYBLOCK
 62
     0
 10
-56.086892
 20
96.864697
 11
-32.75356
 21
96.864697
  0
POINT
  8
寸法
 62
     0
 10
-32.75356
 20
96.864697
  0
TEXT
  7
TextStyle03
  8
寸法
  6
CONTINUOUS
 62
     0
 10
-46.8875
 20
97.2
  1
700
 40
3.0
 72
     5
 11
-42.0125
 21
97.2
  0
ENDBLK
  0
BLOCK
  2
*DIM_0026
 70
    65
 10
0.0
 20
0.0
  0
LINE
  8
寸法
  6
BYBLOCK
 62
     0
 10
-9.420225
 20
67.756625
 11
-9.420225
 21
96.864697
  0
LINE
  8
寸法
  6
BYBLOCK
 62
     0
 10
-32.75356
 20
96.864697
 11
-9.420225
 21
96.864697
  0
POINT
  8
寸法
 62
     0
 10
-9.420225
 20
96.864697
  0
TEXT
  7
TextStyle03
  8
寸法
  6
CONTINUOUS
 62
     0
 10
-23.5625
 20
97.2
  1
700
 40
3.0
 72
     5
 11
-18.6875
 21
97.2
  0
ENDBLK
  0
BLOCK
  2
*DIM_0027
 70
    65
 10
0.0
 20
0.0
  0
LINE
  8
寸法
  6
BYBLOCK
 62
     0
 10
13.913107
 20
67.756625
 11
13.913107
 21
96.864697
  0
LINE
  8
寸法
  6
BYBLOCK
 62
     0
 10
-9.420225
 20
96.864697
 11
13.913107
 21
96.864697
  0
POINT
  8
寸法
 62
     0
 10
13.913107
 20
96.864697
  0
TEXT
  7
TextStyle03
  8
寸法
  6
CONTINUOUS
 62
     0
 10
-0.2125
 20
97.2
  1
700
 40
3.0
 72
     5
 11
4.6625
 21
97.2
  0
ENDBLK
  0
BLOCK
  2
*DIM_0028
 70
    65
 10
0.0
 20
0.0
  0
LINE
  8
寸法
  6
BYBLOCK
 62
     0
 10
37.24644
 20
67.756625
 11
37.24644
 21
96.864697
  0
LINE
  8
寸法
  6
BYBLOCK
 62
     0
 10
13.913107
 20
96.864697
 11
37.24644
 21
96.864697
  0
POINT
  8
寸法
 62
     0
 10
37.24644
 20
96.864697
  0
TEXT
  7
TextStyle03
  8
寸法
  6
CONTINUOUS
 62
     0
 10
23.1125
 20
97.2
  1
700
 40
3.0
 72
     5
 11
27.9875
 21
97.2
  0
ENDBLK
  0
BLOCK
  2
*GRP_0030
 70
    65
 10
0.0
 20
0.0
  0
LINE
  8
ボルト／ビス
  6
CONTINUOUS
 10
135.11304
 20
-2.57671
 11
134.646375
 21
-2.57671
  0
LINE
  8
ボルト／ビス
  6
CONTINUOUS
 10
135.11304
 20
-2.943375
 11
135.046375
 21
-2.943375
  0
LINE
  8
ボルト／ビス
  6
CONTINUOUS
 10
135.046375
 20
-2.943375
 11
135.046375
 21
-2.210042
  0
LINE
  8
ボルト／ビス
  6
CONTINUOUS
 10
135.046375
 20
-2.210042
 11
135.11304
 21
-2.210042
  0
LINE
  8
ボルト／ビス
  6
CONTINUOUS
 10
135.11304
 20
-2.943375
 11
135.11304
 21
-2.210042
  0
LINE
  8
ボルト／ビス
  6
CONTINUOUS
 10
135.01304
 20
-2.87671
 11
135.046375
 21
-2.87671
  0
LINE
  8
ボルト／ビス
  6
CONTINUOUS
 10
135.01304
 20
-2.87671
 11
135.01304
 21
-2.27671
  0
LINE
  8
ボルト／ビス
  6
CONTINUOUS
 10
135.01304
 20
-2.27671
 11
135.046375
 21
-2.27671
  0
LINE
  8
ボルト／ビス
  6
CONTINUOUS
 62
    64
 10
134.81304
 20
-2.737085
 11
134.824715
 21
-2.76916
  0
ARC
  8
ボルト／ビス
  6
CONTINUOUS
 62
    64
 10
134.91802
 20
-2.721047
 40
0.104978
 50
152.721967
 51
180.0
  0
ARC
  8
ボルト／ビス
  6
CONTINUOUS
 62
    64
 10
135.215444
 20
-2.576709
 40
0.402402
 50
166.165002
 51
193.834985
  0
LINE
  8
ボルト／ビス
  6
CONTINUOUS
 62
    64
 10
134.81304
 20
-2.416335
 11
134.824715
 21
-2.38426
  0
ARC
  8
ボルト／ビス
  6
CONTINUOUS
 62
    64
 10
134.91802
 20
-2.432372
 40
0.104978
 50
180.0
 51
207.278033
  0
LINE
  8
ボルト／ビス
  6
CONTINUOUS
 62
    64
 10
134.81304
 20
-2.737085
 11
134.81304
 21
-2.416335
  0
LINE
  8
ボルト／ビス
  6
CONTINUOUS
 62
    64
 10
134.824715
 20
-2.38426
 11
134.946375
 21
-2.38426
  0
LINE
  8
ボルト／ビス
  6
CONTINUOUS
 62
    64
 10
134.824715
 20
-2.480485
 11
134.946375
 21
-2.480485
  0
LINE
  8
ボルト／ビス
  6
CONTINUOUS
 62
    64
 10
134.824715
 20
-2.76916
 11
134.946375
 21
-2.76916
  0
LINE
  8
ボルト／ビス
  6
CONTINUOUS
 62
    64
 10
134.824715
 20
-2.672935
 11
134.946375
 21
-2.672935
  0
LINE
  8
ボルト／ビス
  6
CONTINUOUS
 10
134.946375
 20
-2.76916
 11
134.946375
 21
-2.38426
  0
LINE
  8
ボルト／ビス
  6
CONTINUOUS
 10
134.946375
 20
-2.77671
 11
135.01304
 21
-2.77671
  0
LINE
  8
ボルト／ビス
  6
CONTINUOUS
 10
134.946375
 20
-2.77671
 11
134.946375
 21
-2.37671
  0
LINE
  8
ボルト／ビス
  6
CONTINUOUS
 10
134.946375
 20
-2.37671
 11
135.01304
 21
-2.37671
  0
ENDBLK
  0
BLOCK
  2
*GRP_0031
 70
    65
 10
0.0
 20
0.0
  0
LINE
  8
ボルト／ビス
  6
CONTINUOUS
 10
135.11304
 20
65.42329
 11
134.646375
 21
65.42329
  0
LINE
  8
ボルト／ビス
  6
CONTINUOUS
 10
135.11304
 20
65.056625
 11
135.046375
 21
65.056625
  0
LINE
  8
ボルト／ビス
  6
CONTINUOUS
 10
135.046375
 20
65.056625
 11
135.046375
 21
65.789957
  0
LINE
  8
ボルト／ビス
  6
CONTINUOUS
 10
135.046375
 20
65.789957
 11
135.11304
 21
65.789957
  0
LINE
  8
ボルト／ビス
  6
CONTINUOUS
 10
135.11304
 20
65.056625
 11
135.11304
 21
65.789957
  0
LINE
  8
ボルト／ビス
  6
CONTINUOUS
 10
135.01304
 20
65.12329
 11
135.046375
 21
65.12329
  0
LINE
  8
ボルト／ビス
  6
CONTINUOUS
 10
135.01304
 20
65.12329
 11
135.01304
 21
65.72329
  0
LINE
  8
ボルト／ビス
  6
CONTINUOUS
 10
135.01304
 20
65.72329
 11
135.046375
 21
65.72329
  0
LINE
  8
ボルト／ビス
  6
CONTINUOUS
 62
    64
 10
134.81304
 20
65.262915
 11
134.824715
 21
65.23084
  0
ARC
  8
ボルト／ビス
  6
CONTINUOUS
 62
    64
 10
134.918019
 20
65.278953
 40
0.104978
 50
152.721967
 51
180.0
  0
ARC
  8
ボルト／ビス
  6
CONTINUOUS
 62
    64
 10
135.215443
 20
65.42329
 40
0.402402
 50
166.165002
 51
193.834985
  0
LINE
  8
ボルト／ビス
  6
CONTINUOUS
 62
    64
 10
134.81304
 20
65.583665
 11
134.824715
 21
65.61574
  0
ARC
  8
ボルト／ビス
  6
CONTINUOUS
 62
    64
 10
134.918019
 20
65.567628
 40
0.104978
 50
180.0
 51
207.278033
  0
LINE
  8
ボルト／ビス
  6
CONTINUOUS
 62
    64
 10
134.81304
 20
65.262915
 11
134.81304
 21
65.583665
  0
LINE
  8
ボルト／ビス
  6
CONTINUOUS
 62
    64
 10
134.824715
 20
65.61574
 11
134.946375
 21
65.61574
  0
LINE
  8
ボルト／ビス
  6
CONTINUOUS
 62
    64
 10
134.824715
 20
65.519515
 11
134.946375
 21
65.519515
  0
LINE
  8
ボルト／ビス
  6
CONTINUOUS
 62
    64
 10
134.824715
 20
65.23084
 11
134.946375
 21
65.23084
  0
LINE
  8
ボルト／ビス
  6
CONTINUOUS
 62
    64
 10
134.824715
 20
65.327065
 11
134.946375
 21
65.327065
  0
LINE
  8
ボルト／ビス
  6
CONTINUOUS
 10
134.946375
 20
65.23084
 11
134.946375
 21
65.61574
  0
LINE
  8
ボルト／ビス
  6
CONTINUOUS
 10
134.946375
 20
65.22329
 11
135.01304
 21
65.22329
  0
LINE
  8
ボルト／ビス
  6
CONTINUOUS
 10
134.946375
 20
65.22329
 11
134.946375
 21
65.62329
  0
LINE
  8
ボルト／ビス
  6
CONTINUOUS
 10
134.946375
 20
65.62329
 11
135.01304
 21
65.62329
  0
ENDBLK
  0
BLOCK
  2
*GRP_0032
 70
    65
 10
0.0
 20
0.0
  0
LINE
  8
ボルト／ビス
  6
CONTINUOUS
 10
46.246443
 20
-79.624597
 11
46.246443
 21
-79.157932
  0
LINE
  8
ボルト／ビス
  6
CONTINUOUS
 10
45.879777
 20
-79.624597
 11
45.879777
 21
-79.557932
  0
LINE
  8
ボルト／ビス
  6
CONTINUOUS
 10
45.879777
 20
-79.557932
 11
46.61311
 21
-79.557932
  0
LINE
  8
ボルト／ビス
  6
CONTINUOUS
 10
46.61311
 20
-79.557932
 11
46.61311
 21
-79.624597
  0
LINE
  8
ボルト／ビス
  6
CONTINUOUS
 10
45.879777
 20
-79.624597
 11
46.61311
 21
-79.624597
  0
LINE
  8
ボルト／ビス
  6
CONTINUOUS
 10
45.946443
 20
-79.524597
 11
45.946443
 21
-79.557932
  0
LINE
  8
ボルト／ビス
  6
CONTINUOUS
 10
45.946443
 20
-79.524597
 11
46.546443
 21
-79.524597
  0
LINE
  8
ボルト／ビス
  6
CONTINUOUS
 10
46.546443
 20
-79.524597
 11
46.546443
 21
-79.557932
  0
LINE
  8
ボルト／ビス
  6
CONTINUOUS
 62
    64
 10
46.086067
 20
-79.324597
 11
46.053992
 21
-79.336272
  0
ARC
  8
ボルト／ビス
  6
CONTINUOUS
 62
    64
 10
46.102105
 20
-79.429577
 40
0.104978
 50
62.721967
 51
90.0
  0
ARC
  8
ボルト／ビス
  6
CONTINUOUS
 62
    64
 10
46.246443
 20
-79.727001
 40
0.402402
 50
76.165002
 51
103.834985
  0
LINE
  8
ボルト／ビス
  6
CONTINUOUS
 62
    64
 10
46.406818
 20
-79.324597
 11
46.438892
 21
-79.336272
  0
ARC
  8
ボルト／ビス
  6
CONTINUOUS
 62
    64
 10
46.39078
 20
-79.429577
 40
0.104978
 50
90.0
 51
117.278033
  0
LINE
  8
ボルト／ビス
  6
CONTINUOUS
 62
    64
 10
46.086067
 20
-79.324597
 11
46.406818
 21
-79.324597
  0
LINE
  8
ボルト／ビス
  6
CONTINUOUS
 62
    64
 10
46.438892
 20
-79.336272
 11
46.438892
 21
-79.457932
  0
LINE
  8
ボルト／ビス
  6
CONTINUOUS
 62
    64
 10
46.342668
 20
-79.336272
 11
46.342668
 21
-79.457932
  0
LINE
  8
ボルト／ビス
  6
CONTINUOUS
 62
    64
 10
46.053992
 20
-79.336272
 11
46.053992
 21
-79.457932
  0
LINE
  8
ボルト／ビス
  6
CONTINUOUS
 62
    64
 10
46.150217
 20
-79.336272
 11
46.150217
 21
-79.457932
  0
LINE
  8
ボルト／ビス
  6
CONTINUOUS
 10
46.053992
 20
-79.457932
 11
46.438892
 21
-79.457932
  0
LINE
  8
ボルト／ビス
  6
CONTINUOUS
 10
46.046443
 20
-79.457932
 11
46.046443
 21
-79.524597
  0
LINE
  8
ボルト／ビス
  6
CONTINUOUS
 10
46.046443
 20
-79.457932
 11
46.446443
 21
-79.457932
  0
LINE
  8
ボルト／ビス
  6
CONTINUOUS
 10
46.446443
 20
-79.457932
 11
46.446443
 21
-79.524597
  0
ENDBLK
  0
BLOCK
  2
*GRP_0033
 70
    65
 10
0.0
 20
0.0
  0
LINE
  8
ボルト／ビス
  6
DOT
 10
46.246443
 20
-59.291265
 11
46.246443
 21
-58.8246
  0
LINE
  8
ボルト／ビス
  6
DOT
 10
45.879777
 20
-59.291265
 11
45.879777
 21
-59.2246
  0
LINE
  8
ボルト／ビス
  6
DOT
 10
45.879777
 20
-59.2246
 11
46.61311
 21
-59.2246
  0
LINE
  8
ボルト／ビス
  6
DOT
 10
46.61311
 20
-59.2246
 11
46.61311
 21
-59.291265
  0
LINE
  8
ボルト／ビス
  6
DOT
 10
45.879777
 20
-59.291265
 11
46.61311
 21
-59.291265
  0
LINE
  8
ボルト／ビス
  6
DOT
 10
45.946443
 20
-59.191265
 11
45.946443
 21
-59.2246
  0
LINE
  8
ボルト／ビス
  6
DOT
 10
45.946443
 20
-59.191265
 11
46.546443
 21
-59.191265
  0
LINE
  8
ボルト／ビス
  6
DOT
 10
46.546443
 20
-59.191265
 11
46.546443
 21
-59.2246
  0
LINE
  8
ボルト／ビス
  6
DOT
 62
    64
 10
46.086067
 20
-58.991265
 11
46.053992
 21
-59.00294
  0
ARC
  8
ボルト／ビス
  6
DOT
 62
    64
 10
46.102105
 20
-59.096245
 40
0.104978
 50
62.721967
 51
90.0
  0
ARC
  8
ボルト／ビス
  6
DOT
 62
    64
 10
46.246443
 20
-59.393668
 40
0.402402
 50
76.165002
 51
103.834985
  0
LINE
  8
ボルト／ビス
  6
DOT
 62
    64
 10
46.406818
 20
-58.991265
 11
46.438892
 21
-59.00294
  0
ARC
  8
ボルト／ビス
  6
DOT
 62
    64
 10
46.39078
 20
-59.096245
 40
0.104978
 50
90.0
 51
117.278033
  0
LINE
  8
ボルト／ビス
  6
DOT
 62
    64
 10
46.086067
 20
-58.991265
 11
46.406818
 21
-58.991265
  0
LINE
  8
ボルト／ビス
  6
DOT
 62
    64
 10
46.438892
 20
-59.00294
 11
46.438892
 21
-59.1246
  0
LINE
  8
ボルト／ビス
  6
DOT
 62
    64
 10
46.342668
 20
-59.00294
 11
46.342668
 21
-59.1246
  0
LINE
  8
ボルト／ビス
  6
DOT
 62
    64
 10
46.053992
 20
-59.00294
 11
46.053992
 21
-59.1246
  0
LINE
  8
ボルト／ビス
  6
DOT
 62
    64
 10
46.150217
 20
-59.00294
 11
46.150217
 21
-59.1246
  0
LINE
  8
ボルト／ビス
  6
DOT
 10
46.053992
 20
-59.1246
 11
46.438892
 21
-59.1246
  0
LINE
  8
ボルト／ビス
  6
DOT
 10
46.046443
 20
-59.1246
 11
46.046443
 21
-59.191265
  0
LINE
  8
ボルト／ビス
  6
DOT
 10
46.046443
 20
-59.1246
 11
46.446443
 21
-59.1246
  0
LINE
  8
ボルト／ビス
  6
DOT
 10
46.446443
 20
-59.1246
 11
46.446443
 21
-59.191265
  0
ENDBLK
  0
BLOCK
  2
*GRP_0034
 70
    65
 10
0.0
 20
0.0
  0
LINE
  8
ボルト／ビス
  6
CONTINUOUS
 10
-88.420227
 20
-79.624597
 11
-88.420227
 21
-79.157932
  0
LINE
  8
ボルト／ビス
  6
CONTINUOUS
 10
-88.786892
 20
-79.624597
 11
-88.786892
 21
-79.557932
  0
LINE
  8
ボルト／ビス
  6
CONTINUOUS
 10
-88.786892
 20
-79.557932
 11
-88.05356
 21
-79.557932
  0
LINE
  8
ボルト／ビス
  6
CONTINUOUS
 10
-88.05356
 20
-79.557932
 11
-88.05356
 21
-79.624597
  0
LINE
  8
ボルト／ビス
  6
CONTINUOUS
 10
-88.786892
 20
-79.624597
 11
-88.05356
 21
-79.624597
  0
LINE
  8
ボルト／ビス
  6
CONTINUOUS
 10
-88.720227
 20
-79.524597
 11
-88.720227
 21
-79.557932
  0
LINE
  8
ボルト／ビス
  6
CONTINUOUS
 10
-88.720227
 20
-79.524597
 11
-88.120227
 21
-79.524597
  0
LINE
  8
ボルト／ビス
  6
CONTINUOUS
 10
-88.120227
 20
-79.524597
 11
-88.120227
 21
-79.557932
  0
LINE
  8
ボルト／ビス
  6
CONTINUOUS
 62
    64
 10
-88.580602
 20
-79.324597
 11
-88.612677
 21
-79.336272
  0
ARC
  8
ボルト／ビス
  6
CONTINUOUS
 62
    64
 10
-88.564565
 20
-79.429577
 40
0.104978
 50
62.721967
 51
90.0
  0
ARC
  8
ボルト／ビス
  6
CONTINUOUS
 62
    64
 10
-88.420227
 20
-79.727001
 40
0.402402
 50
76.165002
 51
103.834985
  0
LINE
  8
ボルト／ビス
  6
CONTINUOUS
 62
    64
 10
-88.259853
 20
-79.324597
 11
-88.227777
 21
-79.336272
  0
ARC
  8
ボルト／ビス
  6
CONTINUOUS
 62
    64
 10
-88.27589
 20
-79.429577
 40
0.104978
 50
90.0
 51
117.278033
  0
LINE
  8
ボルト／ビス
  6
CONTINUOUS
 62
    64
 10
-88.580602
 20
-79.324597
 11
-88.259853
 21
-79.324597
  0
LINE
  8
ボルト／ビス
  6
CONTINUOUS
 62
    64
 10
-88.227777
 20
-79.336272
 11
-88.227777
 21
-79.457932
  0
LINE
  8
ボルト／ビス
  6
CONTINUOUS
 62
    64
 10
-88.324003
 20
-79.336272
 11
-88.324003
 21
-79.457932
  0
LINE
  8
ボルト／ビス
  6
CONTINUOUS
 62
    64
 10
-88.612677
 20
-79.336272
 11
-88.612677
 21
-79.457932
  0
LINE
  8
ボルト／ビス
  6
CONTINUOUS
 62
    64
 10
-88.516453
 20
-79.336272
 11
-88.516453
 21
-79.457932
  0
LINE
  8
ボルト／ビス
  6
CONTINUOUS
 10
-88.612677
 20
-79.457932
 11
-88.227777
 21
-79.457932
  0
LINE
  8
ボルト／ビス
  6
CONTINUOUS
 10
-88.620227
 20
-79.457932
 11
-88.620227
 21
-79.524597
  0
LINE
  8
ボルト／ビス
  6
CONTINUOUS
 10
-88.620227
 20
-79.457932
 11
-88.220227
 21
-79.457932
  0
LINE
  8
ボルト／ビス
  6
CONTINUOUS
 10
-88.220227
 20
-79.457932
 11
-88.220227
 21
-79.524597
  0
ENDBLK
  0
BLOCK
  2
*GRP_0035
 70
    65
 10
0.0
 20
0.0
  0
LINE
  8
ボルト／ビス
  6
DOT
 10
-88.420227
 20
-59.291265
 11
-88.420227
 21
-58.8246
  0
LINE
  8
ボルト／ビス
  6
DOT
 10
-88.786892
 20
-59.291265
 11
-88.786892
 21
-59.2246
  0
LINE
  8
ボルト／ビス
  6
DOT
 10
-88.786892
 20
-59.2246
 11
-88.05356
 21
-59.2246
  0
LINE
  8
ボルト／ビス
  6
DOT
 10
-88.05356
 20
-59.2246
 11
-88.05356
 21
-59.291265
  0
LINE
  8
ボルト／ビス
  6
DOT
 10
-88.786892
 20
-59.291265
 11
-88.05356
 21
-59.291265
  0
LINE
  8
ボルト／ビス
  6
DOT
 10
-88.720227
 20
-59.191265
 11
-88.720227
 21
-59.2246
  0
LINE
  8
ボルト／ビス
  6
DOT
 10
-88.720227
 20
-59.191265
 11
-88.120227
 21
-59.191265
  0
LINE
  8
ボルト／ビス
  6
DOT
 10
-88.120227
 20
-59.191265
 11
-88.120227
 21
-59.2246
  0
LINE
  8
ボルト／ビス
  6
DOT
 62
    64
 10
-88.580602
 20
-58.991265
 11
-88.612677
 21
-59.00294
  0
ARC
  8
ボルト／ビス
  6
DOT
 62
    64
 10
-88.564565
 20
-59.096245
 40
0.104978
 50
62.721967
 51
90.0
  0
ARC
  8
ボルト／ビス
  6
DOT
 62
    64
 10
-88.420227
 20
-59.393668
 40
0.402402
 50
76.165002
 51
103.834985
  0
LINE
  8
ボルト／ビス
  6
DOT
 62
    64
 10
-88.259853
 20
-58.991265
 11
-88.227777
 21
-59.00294
  0
ARC
  8
ボルト／ビス
  6
DOT
 62
    64
 10
-88.27589
 20
-59.096245
 40
0.104978
 50
90.0
 51
117.278033
  0
LINE
  8
ボルト／ビス
  6
DOT
 62
    64
 10
-88.580602
 20
-58.991265
 11
-88.259853
 21
-58.991265
  0
LINE
  8
ボルト／ビス
  6
DOT
 62
    64
 10
-88.227777
 20
-59.00294
 11
-88.227777
 21
-59.1246
  0
LINE
  8
ボルト／ビス
  6
DOT
 62
    64
 10
-88.324003
 20
-59.00294
 11
-88.324003
 21
-59.1246
  0
LINE
  8
ボルト／ビス
  6
DOT
 62
    64
 10
-88.612677
 20
-59.00294
 11
-88.612677
 21
-59.1246
  0
LINE
  8
ボルト／ビス
  6
DOT
 62
    64
 10
-88.516453
 20
-59.00294
 11
-88.516453
 21
-59.1246
  0
LINE
  8
ボルト／ビス
  6
DOT
 10
-88.612677
 20
-59.1246
 11
-88.227777
 21
-59.1246
  0
LINE
  8
ボルト／ビス
  6
DOT
 10
-88.620227
 20
-59.1246
 11
-88.620227
 21
-59.191265
  0
LINE
  8
ボルト／ビス
  6
DOT
 10
-88.620227
 20
-59.1246
 11
-88.220227
 21
-59.1246
  0
LINE
  8
ボルト／ビス
  6
DOT
 10
-88.220227
 20
-59.1246
 11
-88.220227
 21
-59.191265
  0
ENDBLK
  0
BLOCK
  2
*DIM_0036
 70
    65
 10
0.0
 20
0.0
  0
LINE
  8
寸法
  6
BYBLOCK
 62
     0
 10
13.246443
 20
-42.624597
 11
61.549425
 21
-42.624597
  0
LINE
  8
寸法
  6
BYBLOCK
 62
     0
 10
61.549425
 20
-62.95793
 11
61.549425
 21
-42.624597
  0
POINT
  8
寸法
 62
     0
 10
61.549425
 20
-62.95793
  0
POINT
  8
寸法
 62
     0
 10
61.549425
 20
-42.624597
  0
TEXT
  7
TextStyle03
  8
寸法
  6
CONTINUOUS
 62
     0
 10
61.15
 20
-61.9875
  1
上昇高さ610
 40
3.0
 50
90.0
 72
     5
 11
61.15
 21
-43.6125
  0
ENDBLK
  0
ENDSEC
  0
SECTION
  2
ENTITIES
  0
POLYLINE
  8
通り芯
  6
CONTINUOUS
 66
     1
 70
     1
  0
VERTEX
  8
通り芯
 10
-210.0
 20
-148.5
  0
VERTEX
  8
通り芯
 10
210.0
 20
-148.5
  0
VERTEX
  8
通り芯
 10
210.0
 20
148.5
  0
VERTEX
  8
通り芯
 10
-210.0
 20
148.5
  0
SEQEND
  0
INSERT
  2
*GRP_0001
  8
型材断面
  6
CONTINUOUS
 10
0.0
 20
0.0
  0
LINE
  8
型材断面
  6
DASHDOT
 10
45.579775
 20
64.756625
 11
45.579775
 21
-87.251428
  0
LINE
  8
型材断面
  6
DASHDOT
 10
-21.086892
 20
64.756625
 11
-21.086892
 21
-87.251428
  0
LINE
  8
型材断面
  6
DASHDOT
 10
-87.753557
 20
64.756625
 11
-87.753557
 21
-87.251428
  0
LINE
  8
型材断面
  6
DASHDOT
 10
143.256538
 20
64.756625
 11
-87.753557
 21
64.756625
  0
LINE
  8
型材断面
  6
DASHDOT
 10
143.256538
 20
31.423293
 11
-87.753557
 21
31.423293
  0
LINE
  8
型材断面
  6
DASHDOT
 10
143.256538
 20
-1.910042
 11
-87.753557
 21
-1.910042
  0
LINE
  8
型材断面
  6
DOT
 10
-87.75356
 20
32.673293
 11
-55.770223
 21
32.673293
  0
LINE
  8
型材断面
  6
DOT
 10
-87.75356
 20
30.173293
 11
-55.770223
 21
30.173293
  0
LINE
  8
型材断面
  6
DASHDOT
 10
-21.086892
 20
-1.910042
 11
-21.086892
 21
64.756625
  0
LINE
  8
型材断面
  6
DOT
 10
-22.336892
 20
-1.910042
 11
-22.336892
 21
64.756625
  0
LINE
  8
型材断面
  6
DOT
 10
-19.836892
 20
-1.910042
 11
-19.836892
 21
64.756625
  0
LINE
  8
型材断面
  6
DOT
 10
-53.270223
 20
32.673293
 11
-22.336892
 21
32.673293
  0
LINE
  8
型材断面
  6
DOT
 10
-53.270223
 20
30.173293
 11
-22.336892
 21
30.173293
  0
LINE
  8
型材断面
  6
DOT
 10
45.579775
 20
32.673293
 11
13.596437
 21
32.673293
  0
LINE
  8
型材断面
  6
DOT
 10
45.579775
 20
30.173293
 11
13.596437
 21
30.173293
  0
LINE
  8
型材断面
  6
DOT
 10
-19.836892
 20
32.673293
 11
11.096437
 21
32.673293
  0
LINE
  8
型材断面
  6
DOT
 10
-19.836892
 20
30.173293
 11
11.096437
 21
30.173293
  0
POLYLINE
  8
型材断面
  6
CONTINUOUS
 66
     1
 70
     1
  0
VERTEX
  8
型材断面
 10
-11.59114
 20
-11.012788
  0
VERTEX
  8
型材断面
 10
-30.36307
 20
-11.012788
  0
VERTEX
  8
型材断面
 10
-30.36307
 20
-15.74963
  0
VERTEX
  8
型材断面
 10
-11.59114
 20
-15.74963
  0
SEQEND
  0
POLYLINE
  8
型材断面
  6
CONTINUOUS
 66
     1
 70
     1
  0
VERTEX
  8
型材断面
 10
-11.59114
 20
75.205727
  0
VERTEX
  8
型材断面
 10
-30.36307
 20
75.205727
  0
VERTEX
  8
型材断面
 10
-30.36307
 20
79.94257
  0
VERTEX
  8
型材断面
 10
-11.59114
 20
79.94257
  0
SEQEND
  0
LINE
  8
型材断面
  6
CONTINUOUS
 10
-90.383687
 20
31.423293
 11
-92.974195
 21
32.918923
  0
LINE
  8
型材断面
  6
CONTINUOUS
 10
-90.383687
 20
31.423293
 11
-92.974195
 21
29.927663
  0
LINE
  8
型材断面
  6
CONTINUOUS
 10
-92.974195
 20
29.927663
 11
-92.974195
 21
32.918923
  0
LINE
  8
型材断面
  6
CONTINUOUS
 10
-128.605765
 20
102.734097
 11
-128.00971
 21
100.14359
  0
LINE
  8
型材断面
  6
CONTINUOUS
 10
-128.605765
 20
102.734097
 11
-129.201822
 21
100.14359
  0
LINE
  8
型材断面
  6
CONTINUOUS
 10
-129.201822
 20
100.14359
 11
-128.00971
 21
100.14359
  0
LINE
  8
型材断面
  6
CONTINUOUS
 10
-134.628352
 20
96.864697
 11
-88.386575
 21
96.864697
  0
LINE
  8
型材断面
  6
CONTINUOUS
 10
-128.605765
 20
109.263973
 11
-130.101395
 21
106.673465
  0
LINE
  8
型材断面
  6
CONTINUOUS
 10
-128.605765
 20
109.263973
 11
-127.110135
 21
106.673465
  0
LINE
  8
型材断面
  6
CONTINUOUS
 10
-127.110135
 20
106.673465
 11
-130.101395
 21
106.673465
  0
LINE
  8
型材断面
  6
CONTINUOUS
 10
-134.628352
 20
105.73487
 11
-88.386575
 21
105.73487
  0
LINE
  8
型材断面
  6
CONTINUOUS
 10
-134.628352
 20
91.076665
 11
-88.386575
 21
91.076665
  0
LINE
  8
型材断面
  6
CONTINUOUS
 10
48.209902
 20
31.423293
 11
50.80041
 21
32.918923
  0
LINE
  8
型材断面
  6
CONTINUOUS
 10
48.209902
 20
31.423293
 11
50.80041
 21
29.927663
  0
LINE
  8
型材断面
  6
CONTINUOUS
 10
50.80041
 20
29.927663
 11
50.80041
 21
32.918923
  0
LINE
  8
型材断面
  6
CONTINUOUS
 10
-71.08689
 20
-4.54017
 11
-72.58252
 21
-7.130678
  0
LINE
  8
型材断面
  6
CONTINUOUS
 10
-71.08689
 20
-4.54017
 11
-69.59126
 21
-7.130678
  0
LINE
  8
型材断面
  6
CONTINUOUS
 10
-69.59126
 20
-7.130678
 11
-72.58252
 21
-7.130678
  0
LINE
  8
型材断面
  6
CONTINUOUS
 10
-71.08689
 20
67.386755
 11
-72.58252
 21
69.977262
  0
LINE
  8
型材断面
  6
CONTINUOUS
 10
-71.08689
 20
67.386755
 11
-69.59126
 21
69.977262
  0
LINE
  8
型材断面
  6
CONTINUOUS
 10
-69.59126
 20
69.977262
 11
-72.58252
 21
69.977262
  0
LINE
  8
型材断面
  6
CONTINUOUS
 10
28.913105
 20
-4.54017
 11
30.408735
 21
-7.130678
  0
LINE
  8
型材断面
  6
CONTINUOUS
 10
28.913105
 20
-4.54017
 11
27.417475
 21
-7.130678
  0
LINE
  8
型材断面
  6
CONTINUOUS
 10
27.417475
 20
-7.130678
 11
30.408735
 21
-7.130678
  0
LINE
  8
型材断面
  6
CONTINUOUS
 10
28.913105
 20
67.386755
 11
30.408735
 21
69.977262
  0
LINE
  8
型材断面
  6
CONTINUOUS
 10
28.913105
 20
67.386755
 11
27.417475
 21
69.977262
  0
LINE
  8
型材断面
  6
CONTINUOUS
 10
27.417475
 20
69.977262
 11
30.408735
 21
69.977262
  0
LINE
  8
型材断面
  6
CONTINUOUS
 10
48.209905
 20
61.056627
 11
50.800415
 21
60.460575
  0
LINE
  8
型材断面
  6
CONTINUOUS
 10
48.209905
 20
61.056627
 11
50.800412
 21
61.652687
  0
LINE
  8
型材断面
  6
CONTINUOUS
 10
50.800412
 20
61.652687
 11
50.800415
 21
60.460575
  0
LINE
  8
型材断面
  6
CONTINUOUS
 10
48.209905
 20
1.789957
 11
50.800415
 21
2.38601
  0
LINE
  8
型材断面
  6
CONTINUOUS
 10
48.209905
 20
1.789957
 11
50.800412
 21
1.193897
  0
LINE
  8
型材断面
  6
CONTINUOUS
 10
50.800412
 20
1.193897
 11
50.800415
 21
2.38601
  0
LINE
  8
型材断面
  6
CONTINUOUS
 10
-90.38369
 20
61.056627
 11
-92.9742
 21
60.460575
  0
LINE
  8
型材断面
  6
CONTINUOUS
 10
-90.38369
 20
61.056627
 11
-92.974197
 21
61.652687
  0
LINE
  8
型材断面
  6
CONTINUOUS
 10
-92.974197
 20
61.652687
 11
-92.9742
 21
60.460575
  0
LINE
  8
型材断面
  6
CONTINUOUS
 10
-90.38369
 20
1.789957
 11
-92.9742
 21
2.38601
  0
LINE
  8
型材断面
  6
CONTINUOUS
 10
-90.38369
 20
1.789957
 11
-92.974197
 21
1.193897
  0
LINE
  8
型材断面
  6
CONTINUOUS
 10
-92.974197
 20
1.193897
 11
-92.9742
 21
2.38601
  0
INSERT
  2
*GRP_0011
  8
型材断面
  6
CONTINUOUS
 10
0.0
 20
0.0
  0
INSERT
  2
*GRP_0012
  8
型材断面
  6
CONTINUOUS
 10
0.0
 20
0.0
  0
INSERT
  2
*GRP_0013
  8
型材断面
  6
CONTINUOUS
 10
0.0
 20
0.0
  0
INSERT
  2
*GRP_0014
  8
型材断面
  6
CONTINUOUS
 10
0.0
 20
0.0
  0
LINE
  8
型材断面
  6
CONTINUOUS
 62
    47
 10
142.646543
 20
-3.393378
 11
142.146543
 21
-3.393378
  0
LINE
  8
型材断面
  6
CONTINUOUS
 62
    47
 10
142.146543
 20
-3.893378
 11
138.829875
 21
-3.893378
  0
LINE
  8
型材断面
  6
CONTINUOUS
 62
    47
 10
136.489825
 20
-3.893378
 11
138.663157
 21
-3.893378
  0
LINE
  8
型材断面
  6
CONTINUOUS
 62
    47
 10
136.489825
 20
-3.010042
 11
136.11304
 21
-3.010042
  0
LINE
  8
型材断面
  6
CONTINUOUS
 62
    47
 10
142.646543
 20
-3.393378
 11
142.646543
 21
31.42329
  0
LINE
  8
型材断面
  6
CONTINUOUS
 62
    47
 10
142.146543
 20
-3.893378
 11
142.146543
 21
31.42329
  0
LINE
  8
型材断面
  6
CONTINUOUS
 62
    47
 10
138.829875
 20
-3.893378
 11
138.829805
 21
31.42329
  0
LINE
  8
型材断面
  6
CONTINUOUS
 62
    47
 10
138.663157
 20
-3.893378
 11
138.663157
 21
31.42329
  0
LINE
  8
型材断面
  6
CONTINUOUS
 62
    47
 10
136.489825
 20
-3.893378
 11
136.489825
 21
31.42329
  0
LINE
  8
型材断面
  6
CONTINUOUS
 62
    47
 10
142.646543
 20
66.239957
 11
142.146543
 21
66.239957
  0
LINE
  8
型材断面
  6
CONTINUOUS
 62
    47
 10
142.146543
 20
66.739957
 11
138.829875
 21
66.739957
  0
LINE
  8
型材断面
  6
CONTINUOUS
 62
    47
 10
136.489825
 20
66.739957
 11
138.663157
 21
66.739957
  0
LINE
  8
型材断面
  6
CONTINUOUS
 62
    47
 10
136.489825
 20
65.856623
 11
136.11304
 21
65.856623
  0
LINE
  8
型材断面
  6
CONTINUOUS
 62
    47
 10
142.646543
 20
66.239957
 11
142.646543
 21
31.42329
  0
LINE
  8
型材断面
  6
CONTINUOUS
 62
    47
 10
142.146543
 20
66.739957
 11
142.146543
 21
31.42329
  0
LINE
  8
型材断面
  6
CONTINUOUS
 62
    47
 10
138.829875
 20
66.739957
 11
138.829805
 21
31.42329
  0
LINE
  8
型材断面
  6
CONTINUOUS
 62
    47
 10
138.663157
 20
66.739957
 11
138.663157
 21
31.42329
  0
LINE
  8
型材断面
  6
CONTINUOUS
 62
    47
 10
136.489825
 20
66.739957
 11
136.489825
 21
31.42329
  0
LINE
  8
型材断面
  6
CONTINUOUS
 62
    47
 10
47.06311
 20
-87.1581
 11
47.06311
 21
-86.6581
  0
LINE
  8
型材断面
  6
CONTINUOUS
 62
    47
 10
47.56311
 20
-86.6581
 11
47.56311
 21
-83.341432
  0
LINE
  8
型材断面
  6
CONTINUOUS
 62
    47
 10
47.56311
 20
-81.001383
 11
47.56311
 21
-83.174715
  0
LINE
  8
型材断面
  6
CONTINUOUS
 62
    47
 10
46.679777
 20
-81.001383
 11
46.679777
 21
-80.624597
  0
LINE
  8
型材断面
  6
CONTINUOUS
 62
    47
 10
47.06311
 20
-87.1581
 11
-21.086892
 21
-87.1581
  0
LINE
  8
型材断面
  6
CONTINUOUS
 62
    47
 10
47.56311
 20
-86.6581
 11
-21.086892
 21
-86.6581
  0
LINE
  8
型材断面
  6
CONTINUOUS
 62
    47
 10
47.56311
 20
-83.341432
 11
-21.086892
 21
-83.341302
  0
LINE
  8
型材断面
  6
CONTINUOUS
 62
    47
 10
47.56311
 20
-83.174715
 11
-21.086892
 21
-83.174715
  0
LINE
  8
型材断面
  6
CONTINUOUS
 62
    47
 10
47.56311
 20
-81.001383
 11
-21.086892
 21
-81.001383
  0
LINE
  8
型材断面
  6
CONTINUOUS
 62
    47
 10
-89.236895
 20
-87.1581
 11
-89.236895
 21
-86.6581
  0
LINE
  8
型材断面
  6
CONTINUOUS
 62
    47
 10
-89.736895
 20
-86.6581
 11
-89.736895
 21
-83.341432
  0
LINE
  8
型材断面
  6
CONTINUOUS
 62
    47
 10
-89.736895
 20
-81.001383
 11
-89.736895
 21
-83.174715
  0
LINE
  8
型材断面
  6
CONTINUOUS
 62
    47
 10
-88.853563
 20
-81.001383
 11
-88.853563
 21
-80.624597
  0
LINE
  8
型材断面
  6
CONTINUOUS
 62
    47
 10
-89.236895
 20
-87.1581
 11
-21.086892
 21
-87.1581
  0
LINE
  8
型材断面
  6
CONTINUOUS
 62
    47
 10
-89.736895
 20
-86.6581
 11
-21.086892
 21
-86.6581
  0
LINE
  8
型材断面
  6
CONTINUOUS
 62
    47
 10
-89.736895
 20
-83.341432
 11
-21.086892
 21
-83.341302
  0
LINE
  8
型材断面
  6
CONTINUOUS
 62
    47
 10
-89.736895
 20
-83.174715
 11
-21.086892
 21
-83.174715
  0
LINE
  8
型材断面
  6
CONTINUOUS
 62
    47
 10
-89.736895
 20
-81.001383
 11
-21.086892
 21
-81.001383
  0
LINE
  8
型材断面
  6
CONTINUOUS
 10
-134.628352
 20
85.288632
 11
-88.386575
 21
85.288632
  0
LINE
  8
型材断面
  6
DASHDOT
 10
-54.520223
 20
-1.910042
 11
-54.520223
 21
64.756625
  0
LINE
  8
型材断面
  6
DOT
 10
-53.270223
 20
-1.910042
 11
-53.270223
 21
64.756625
  0
LINE
  8
型材断面
  6
DOT
 10
-55.770223
 20
-1.910042
 11
-55.770223
 21
64.756625
  0
LINE
  8
型材断面
  6
DASHDOT
 10
12.346437
 20
-1.910042
 11
12.346437
 21
64.756625
  0
LINE
  8
型材断面
  6
DOT
 10
11.096437
 20
-1.910042
 11
11.096437
 21
64.756625
  0
LINE
  8
型材断面
  6
DOT
 10
13.596437
 20
-1.910042
 11
13.596437
 21
64.756625
  0
TEXT
  7
TextStyle03
  8
文字
  6
CONTINUOUS
 10
113.925
 20
-83.825
  1
網入り6.8t
 40
3.0
 72
     5
 11
130.6125
 21
-83.825
  0
TEXT
  7
TextStyle03
  8
文字
  6
CONTINUOUS
 10
120.225
 20
-88.45
  1
×８枚
 40
3.0
 72
     5
 11
129.975
 21
-88.45
  0
TEXT
  7
TextStyle03
  8
文字
  6
CONTINUOUS
 10
-29.325
 20
-14.7
  1
可動装置側
 40
3.0
 72
     5
 11
-12.825
 21
-14.7
  0
TEXT
  7
TextStyle03
  8
文字
  6
CONTINUOUS
 10
-29.325
 20
75.975
  1
可動装置側
 40
3.0
 72
     5
 11
-12.825
 21
75.975
  0
TEXT
  7
TextStyle03
  8
文字
  6
CONTINUOUS
 10
-125.825
 20
101.325
  1
はケーシング位置を示す
 40
3.0
 72
     5
 11
-89.075
 21
101.325
  0
TEXT
  7
TextStyle03
  8
文字
  6
CONTINUOUS
 10
-125.825
 20
97.95
  1
４ヶ所中1ヶ所に設定
 40
3.0
 72
     5
 11
-94.1375
 21
97.95
  0
TEXT
  7
TextStyle03
  8
文字
  6
CONTINUOUS
 10
-125.825
 20
106.85
  1
は排水穴位置を示す
 40
3.0
 72
     5
 11
-95.825
 21
106.85
  0
TEXT
  7
TextStyle03
  8
文字
  6
CONTINUOUS
 10
-126.5
 20
2.025
  1
アンカーピッチ
 40
3.0
 50
90.0
 72
     5
 11
-126.5
 21
25.275
  0
TEXT
  7
TextStyle03
  8
文字
  6
CONTINUOUS
 10
-79.675
 20
102.75
  1
アンカーピッチ
 40
3.0
 72
     5
 11
-56.425
 21
102.75
  0
TEXT
  7
TextStyle03
  8
文字
  6
CONTINUOUS
 10
-129.55
 20
91.975
  1
アンカー数量　１８ヶ所
 40
3.0
 72
     5
 11
-92.8
 21
91.975
  0
TEXT
  7
TextStyle03
  8
文字
  6
CONTINUOUS
 10
-129.6
 20
86.2
  1
アームユニット数　４ヶ所
 40
3.0
 72
     5
 11
-89.475
 21
86.2
  0
TEXT
  7
TextStyle03
  8
文字
  6
CONTINUOUS
 10
78.1
 20
125.25
  1
シリーズ：ＴＤ２Ｌ
 40
5.0
 72
     5
 11
128.1
 21
125.25
  0
TEXT
  7
TextStyle03
  8
文字
  6
CONTINUOUS
 10
78.1
 20
119.625
  1
　　　　　（上下可動）2000×4000タイプ
 40
5.0
 72
     5
 11
184.35
 21
119.625
  0
TEXT
  7
TextStyle03
  8
文字
  6
CONTINUOUS
 10
78.1
 20
114.0
  1
図面名　：外観姿図
 40
5.0
 72
     5
 11
128.1
 21
114.0
  0
TEXT
  7
TextStyle03
  8
文字
  6
CONTINUOUS
 10
78.1
 20
108.375
  1
　　　　　　
 40
5.0
 72
     5
 11
111.225
 21
108.375
  0
TEXT
  7
TextStyle03
  8
文字
  6
CONTINUOUS
 10
77.125
 20
103.95
  1
ＮＳコード：ＮＳＤＺＬ
 40
5.0
 72
     5
 11
138.375
 21
103.95
  0
INSERT
  2
*DIM_0002
  8
寸法
  6
CONTINUOUS
 10
0.0
 20
0.0
  0
INSERT
  2
*DIM_0003
  8
寸法
  6
CONTINUOUS
 10
0.0
 20
0.0
  0
INSERT
  2
*DIM_0004
  8
寸法
  6
CONTINUOUS
 10
0.0
 20
0.0
  0
INSERT
  2
*DIM_0005
  8
寸法
  6
CONTINUOUS
 10
0.0
 20
0.0
  0
INSERT
  2
*DIM_0006
  8
寸法
  6
CONTINUOUS
 10
0.0
 20
0.0
  0
INSERT
  2
*DIM_0007
  8
寸法
  6
CONTINUOUS
 10
0.0
 20
0.0
  0
INSERT
  2
*DIM_0008
  8
寸法
  6
CONTINUOUS
 10
0.0
 20
0.0
  0
INSERT
  2
*DIM_0009
  8
寸法
  6
CONTINUOUS
 10
0.0
 20
0.0
  0
INSERT
  2
*DIM_0015
  8
寸法
  6
CONTINUOUS
 10
0.0
 20
0.0
  0
INSERT
  2
*DIM_0016
  8
寸法
  6
CONTINUOUS
 10
0.0
 20
0.0
  0
INSERT
  2
*DIM_0017
  8
寸法
  6
CONTINUOUS
 10
0.0
 20
0.0
  0
INSERT
  2
*DIM_0018
  8
寸法
  6
CONTINUOUS
 10
0.0
 20
0.0
  0
INSERT
  2
*DIM_0019
  8
寸法
  6
CONTINUOUS
 10
0.0
 20
0.0
  0
INSERT
  2
*DIM_0020
  8
寸法
  6
CONTINUOUS
 10
0.0
 20
0.0
  0
INSERT
  2
*DIM_0021
  8
寸法
  6
CONTINUOUS
 10
0.0
 20
0.0
  0
INSERT
  2
*DIM_0022
  8
寸法
  6
CONTINUOUS
 10
0.0
 20
0.0
  0
INSERT
  2
*DIM_0023
  8
寸法
  6
CONTINUOUS
 10
0.0
 20
0.0
  0
INSERT
  2
*DIM_0024
  8
寸法
  6
CONTINUOUS
 10
0.0
 20
0.0
  0
INSERT
  2
*DIM_0025
  8
寸法
  6
CONTINUOUS
 10
0.0
 20
0.0
  0
INSERT
  2
*DIM_0026
  8
寸法
  6
CONTINUOUS
 10
0.0
 20
0.0
  0
INSERT
  2
*DIM_0027
  8
寸法
  6
CONTINUOUS
 10
0.0
 20
0.0
  0
INSERT
  2
*DIM_0028
  8
寸法
  6
CONTINUOUS
 10
0.0
 20
0.0
  0
INSERT
  2
*DIM_0036
  8
寸法
  6
CONTINUOUS
 10
0.0
 20
0.0
  0
LINE
  8
別途部材
  6
CONTINUOUS
 10
47.646443
 20
-3.97671
 11
47.246443
 21
-3.57671
  0
LINE
  8
別途部材
  6
CONTINUOUS
 10
45.579775
 20
-1.910042
 11
37.52052
 21
6.149215
  0
LINE
  8
別途部材
  6
CONTINUOUS
 10
47.646443
 20
-3.97671
 11
47.646443
 21
31.423293
  0
LINE
  8
別途部材
  6
CONTINUOUS
 10
47.246443
 20
-3.57671
 11
47.246443
 21
31.423293
  0
LINE
  8
別途部材
  6
CONTINUOUS
 10
47.646443
 20
66.823295
 11
47.246443
 21
66.423295
  0
LINE
  8
別途部材
  6
CONTINUOUS
 10
45.579775
 20
64.756627
 11
37.52052
 21
56.69737
  0
LINE
  8
別途部材
  6
CONTINUOUS
 10
47.646443
 20
66.823295
 11
47.646443
 21
31.423293
  0
LINE
  8
別途部材
  6
CONTINUOUS
 10
47.246443
 20
66.423295
 11
47.246443
 21
31.423293
  0
LINE
  8
別途部材
  6
CONTINUOUS
 62
    96
 10
135.11304
 20
-3.57671
 11
136.11304
 21
-3.97671
  0
ARC
  8
別途部材
  6
CONTINUOUS
 10
160.113036
 20
31.42329
 40
41.666665
 50
180.0
 51
233.130105
  0
ARC
  8
別途部材
  6
CONTINUOUS
 10
160.113036
 20
31.423291
 40
41.666665
 50
126.869895
 51
180.0
  0
LINE
  8
別途部材
  6
CONTINUOUS
 10
136.11304
 20
-3.97671
 11
136.11304
 21
31.42329
  0
LINE
  8
別途部材
  6
CONTINUOUS
 62
    96
 10
135.11304
 20
-3.57671
 11
135.11304
 21
31.42329
  0
LINE
  8
別途部材
  6
CONTINUOUS
 62
    96
 10
135.11304
 20
66.42329
 11
136.11304
 21
66.82329
  0
LINE
  8
別途部材
  6
CONTINUOUS
 10
136.11304
 20
66.82329
 11
136.11304
 21
31.42329
  0
LINE
  8
別途部材
  6
CONTINUOUS
 62
    96
 10
135.11304
 20
66.42329
 11
135.11304
 21
31.42329
  0
LINE
  8
別途部材
  6
CONTINUOUS
 10
47.646443
 20
-3.97671
 11
-21.086892
 21
-3.97671
  0
LINE
  8
別途部材
  6
CONTINUOUS
 10
47.246443
 20
-3.57671
 11
-21.086892
 21
-3.57671
  0
LINE
  8
別途部材
  6
CONTINUOUS
 10
47.246443
 20
66.423295
 11
-21.086892
 21
66.423295
  0
LINE
  8
別途部材
  6
CONTINUOUS
 10
47.646443
 20
66.823295
 11
-21.086892
 21
66.823295
  0
LINE
  8
別途部材
  6
CONTINUOUS
 10
-89.820227
 20
-3.97671
 11
-89.420227
 21
-3.57671
  0
LINE
  8
別途部材
  6
CONTINUOUS
 10
-87.75356
 20
-1.910042
 11
-79.694305
 21
6.149215
  0
LINE
  8
別途部材
  6
CONTINUOUS
 10
-89.820227
 20
-3.97671
 11
-89.820227
 21
31.423293
  0
LINE
  8
別途部材
  6
CONTINUOUS
 10
-89.420227
 20
-3.57671
 11
-89.420227
 21
31.423293
  0
LINE
  8
別途部材
  6
CONTINUOUS
 10
-89.820227
 20
66.823295
 11
-89.420227
 21
66.423295
  0
LINE
  8
別途部材
  6
CONTINUOUS
 10
-87.75356
 20
64.756627
 11
-79.694305
 21
56.69737
  0
LINE
  8
別途部材
  6
CONTINUOUS
 10
-89.820227
 20
66.823295
 11
-89.820227
 21
31.423293
  0
LINE
  8
別途部材
  6
CONTINUOUS
 10
-89.420227
 20
66.423295
 11
-89.420227
 21
31.423293
  0
LINE
  8
別途部材
  6
CONTINUOUS
 10
-89.820227
 20
-3.97671
 11
-21.086892
 21
-3.97671
  0
LINE
  8
別途部材
  6
CONTINUOUS
 10
-89.420227
 20
-3.57671
 11
-21.086892
 21
-3.57671
  0
LINE
  8
別途部材
  6
CONTINUOUS
 10
-89.420227
 20
66.423295
 11
-21.086892
 21
66.423295
  0
LINE
  8
別途部材
  6
CONTINUOUS
 10
-89.820227
 20
66.823295
 11
-21.086892
 21
66.823295
  0
INSERT
  2
*GRP_0010
  8
別途部材
  6
CONTINUOUS
 10
0.0
 20
0.0
  0
LINE
  8
別途部材
  6
DOT
 62
    96
 10
47.246443
 20
-59.291265
 11
47.646443
 21
-60.291265
  0
ARC
  8
別途部材
  6
DOT
 10
12.246442
 20
-84.291262
 40
41.666665
 50
36.869895
 51
90.0
  0
LINE
  8
別途部材
  6
DOT
 10
12.246443
 20
-42.624597
 11
-21.086892
 21
-42.624597
  0
LINE
  8
別途部材
  6
DOT
 62
    96
 10
47.246443
 20
-59.291265
 11
-21.086892
 21
-59.291265
  0
LINE
  8
別途部材
  6
DOT
 10
47.646443
 20
-60.291265
 11
-21.086892
 21
-60.291265
  0
LINE
  8
別途部材
  6
DOT
 62
    96
 10
-89.420227
 20
-59.291265
 11
-89.820227
 21
-60.291265
  0
ARC
  8
別途部材
  6
DOT
 10
-54.420227
 20
-84.291262
 40
41.666665
 50
90.0
 51
143.130105
  0
LINE
  8
別途部材
  6
DOT
 10
-54.420227
 20
-42.624597
 11
-21.086892
 21
-42.624597
  0
LINE
  8
別途部材
  6
DOT
 62
    96
 10
-89.420227
 20
-59.291265
 11
-21.086892
 21
-59.291265
  0
LINE
  8
別途部材
  6
DOT
 10
-89.820227
 20
-60.291265
 11
-21.086892
 21
-60.291265
  0
INSERT
  2
*GRP_0030
  8
別途部材
  6
DOT
 10
0.0
 20
0.0
  0
INSERT
  2
*GRP_0031
  8
別途部材
  6
DOT
 10
0.0
 20
0.0
  0
INSERT
  2
*GRP_0032
  8
別途部材
  6
DOT
 10
0.0
 20
0.0
  0
INSERT
  2
*GRP_0033
  8
別途部材
  6
DOT
 10
0.0
 20
0.0
  0
INSERT
  2
*GRP_0034
  8
別途部材
  6
DOT
 10
0.0
 20
0.0
  0
INSERT
  2
*GRP_0035
  8
別途部材
  6
DOT
 10
0.0
 20
0.0
  0
LINE
  8
曲げ物
  6
CONTINUOUS
 10
100.883267
 20
-90.759512
 11
100.883267
 21
-58.292845
  0
LINE
  8
曲げ物
  6
CONTINUOUS
 10
100.883267
 20
-58.292845
 11
133.249935
 21
-58.292845
  0
LINE
  8
曲げ物
  6
CONTINUOUS
 10
133.249935
 20
-58.292845
 11
133.249935
 21
-90.759512
  0
LINE
  8
曲げ物
  6
CONTINUOUS
 10
100.883267
 20
-90.759512
 11
133.249935
 21
-90.759512
  0
ENDSEC
  0
EOF
