  0
SECTION
  2
HEADER
  9
$EXTMIN
 10
-210.0
 20
-148.5
  9
$EXTMAX
 10
210.0
 20
148.5
  9
$PDMODE
 70
    32
  9
$PDSIZE
 40
1.5
  9
$LTSCALE
 40
10.0
  0
ENDSEC
  0
SECTION
  2
TABLES
  0
TABLE
  2
LTYPE
 70
    15
  0
LTYPE
  2
CONTINUOUS
 70
    64
  3
実線
 72
    65
 73
     0
 40
0.0
  0
LTYPE
  2
DASHED
 70
    64
  3
破線A
 72
    65
 73
     2
 40
0.6
 49
0.4
 49
-0.2
  0
LTYPE
  2
DASHEDX2
 70
    64
  3
破線B
 72
    65
 73
     2
 40
1.3
 49
0.9
 49
-0.4
  0
LTYPE
  2
DASHDOT
 70
    64
  3
１点鎖線A
 72
    65
 73
     4
 40
0.5375
 49
0.375
 49
-0.05
 49
0.0625
 49
-0.05
  0
LTYPE
  2
DASHDOTX2
 70
    64
  3
１点鎖線B
 72
    65
 73
     4
 40
1.075
 49
0.75
 49
-0.1
 49
0.125
 49
-0.1
  0
LTYPE
  2
DIVIDE2
 70
    64
  3
２点鎖線A
 72
    65
 73
     6
 40
0.5125
 49
0.3
 49
-0.0375
 49
0.05
 49
-0.0375
 49
0.05
 49
-0.0375
  0
LTYPE
  2
DIVIDE
 70
    64
  3
２点鎖線B
 72
    65
 73
     6
 40
1.05
 49
0.55
 49
-0.1
 49
0.1
 49
-0.1
 49
0.1
 49
-0.1
  0
LTYPE
  2
DOT
 70
    64
  3
点線A
 72
    65
 73
     2
 40
0.1125
 49
0.0625
 49
-0.05
  0
LTYPE
  2
DOTX2
 70
    64
  3
点線B
 72
    65
 73
     2
 40
0.275
 49
0.15
 49
-0.125
  0
LTYPE
  2
CONTINUOUS
 70
    64
  3
実線
 72
    65
 73
     0
 40
0.0
  0
LTYPE
  2
CONTINUOUS
 70
    64
  3
実線
 72
    65
 73
     0
 40
0.0
  0
LTYPE
  2
CONTINUOUS
 70
    64
  3
実線
 72
    65
 73
     0
 40
0.0
  0
LTYPE
  2
CONTINUOUS
 70
    64
  3
実線
 72
    65
 73
     0
 40
0.0
  0
LTYPE
  2
CONTINUOUS
 70
    64
  3
実線
 72
    65
 73
     0
 40
0.0
  0
LTYPE
  2
CONTINUOUS
 70
    64
  3
実線
 72
    65
 73
     0
 40
0.0
  0
ENDTAB
  0
TABLE
  2
LAYER
 70
    34
  0
LAYER
  2
通り芯
 70
     0
 62
    15
  6
CONTINUOUS
  0
LAYER
  2
補助線
 70
     0
 62
    16
  6
DOT
  0
LAYER
  2
躯体
 70
     0
 62
    31
  6
CONTINUOUS
  0
LAYER
  2
型材
 70
     0
 62
    32
  6
CONTINUOUS
  0
LAYER
  2
型材断面
 70
     0
 62
    47
  6
CONTINUOUS
  0
LAYER
  2
ガラス
 70
     0
 62
    48
  6
CONTINUOUS
  0
LAYER
  2
ゴム等
 70
     0
 62
    63
  6
CONTINUOUS
  0
LAYER
  2
ボルト／ビス
 70
     0
 62
    64
  6
CONTINUOUS
  0
LAYER
  2
文字
 70
     0
 62
    79
  6
CONTINUOUS
  0
LAYER
  2
寸法
 70
     0
 62
    80
  6
CONTINUOUS
  0
LAYER
  2
ﾊｯﾁﾝｸﾞ
 70
     0
 62
    95
  6
CONTINUOUS
  0
LAYER
  2
別途部材
 70
     0
 62
    96
  6
CONTINUOUS
  0
LAYER
  2
曲げ物
 70
     0
 62
   111
  6
CONTINUOUS
  0
LAYER
  2
鉄骨等
 70
     0
 62
   112
  6
CONTINUOUS
  0
LAYER
  2
St
 70
     0
 62
   127
  6
CONTINUOUS
  0
LAYER
  2
その他部品等
 70
     0
 62
   128
  6
CONTINUOUS
  0
LAYER
  2
ｶﾞｽｹｯﾄ
 70
     0
 62
   143
  6
CONTINUOUS
  0
LAYER
  2
ｽｹｯﾁ
 70
     0
 62
    14
  6
CONTINUOUS
  0
LAYER
  2
0
 70
     0
 62
    17
  6
CONTINUOUS
  0
LAYER
  2
1
 70
     0
 62
    30
  6
CONTINUOUS
  0
LAYER
  2
4
 70
     0
 62
    33
  6
CONTINUOUS
  0
LAYER
  2
ﾚｲﾔ3
 70
     0
 62
    46
  6
CONTINUOUS
  0
LAYER
  2
外形線
 70
     0
 62
    49
  6
CONTINUOUS
  0
LAYER
  2
部品
 70
     0
 62
    14
  6
CONTINUOUS
  0
LAYER
  2
サッシ芯
 70
     0
 62
    17
  6
DASHDOTX2
  0
LAYER
  2
寸法線
 70
     0
 62
    62
  6
CONTINUOUS
  0
LAYER
  2
姿図外形線
 70
     0
 62
    65
  6
CONTINUOUS
  0
LAYER
  2
姿補助線
 70
     0
 62
    30
  6
CONTINUOUS
  0
LAYER
  2
透視線
 70
     0
 62
    78
  6
DOT
  0
LAYER
  2
用紙
 70
     0
 62
    81
  6
CONTINUOUS
  0
LAYER
  2
実線図枠
 70
     0
 62
    94
  6
CONTINUOUS
  0
LAYER
  2
補助図枠
 70
     0
 62
    97
  6
CONTINUOUS
  0
LAYER
  2
建具記号
 70
     0
 62
   110
  6
CONTINUOUS
  0
LAYER
  2
補助文字
 70
     0
 62
   113
  6
CONTINUOUS
  0
ENDTAB
  0
TABLE
  2
STYLE
 70
    10
  0
STYLE
  2
STANDARD
 70
     0
 40
1.0
 41
1.0
 42
1.0
 50
0.0
 71
     0
  3
TXT
  4
BIGFONT
  0
STYLE
  2
TATE
 70
     4
 40
1.0
 41
1.0
 42
1.0
 50
0.0
 71
     0
  3
TXT
  4
BIGFONT
  0
STYLE
  2
TextStyle03
 70
     0
 40
1.0
 41
1.0
 42
1.0
 50
0.0
 71
     0
  3
MONOTXT
  4
BIGFONT
  0
STYLE
  2
TextStyle04
 70
     0
 40
1.0
 41
1.0
 42
1.0
 50
0.0
 71
     0
  3
MONOTXT
  4
BIGFONT
  0
STYLE
  2
TextStyle05
 70
     0
 40
1.0
 41
1.0
 42
1.0
 50
0.0
 71
     0
  3
MONOTXT
  4
BIGFONT
  0
STYLE
  2
TextStyle06
 70
     0
 40
1.0
 41
1.0
 42
1.0
 50
0.0
 71
     0
  3
MONOTXT
  4
BIGFONT
  0
STYLE
  2
TextStyle07
 70
     0
 40
1.0
 41
1.0
 42
1.0
 50
0.0
 71
     0
  3
MONOTXT
  4
BIGFONT
  0
STYLE
  2
TextStyle08
 70
     0
 40
1.0
 41
1.0
 42
1.0
 50
0.0
 71
     0
  3
MONOTXT
  4
BIGFONT
  0
STYLE
  2
TextStyle09
 70
     0
 40
1.0
 41
1.0
 42
1.0
 50
0.0
 71
     0
  3
MONOTXT
  4
BIGFONT
  0
STYLE
  2
TextStyle10
 70
     0
 40
1.0
 41
1.0
 42
1.0
 50
0.0
 71
     0
  3
MONOTXT
  4
BIGFONT
  0
ENDTAB
  0
ENDSEC
  0
SECTION
  2
BLOCKS
  0
BLOCK
  2
*GRP_0001
 70
    65
 10
0.0
 20
0.0
  0
LINE
  8
型材断面
  6
CONTINUOUS
 10
195.0
 20
133.5
 11
195.0
 21
-133.5
  0
LINE
  8
型材断面
  6
CONTINUOUS
 10
195.0
 20
-133.5
 11
-185.0
 21
-133.5
  0
LINE
  8
型材断面
  6
CONTINUOUS
 10
-185.0
 20
-133.5
 11
-185.0
 21
133.5
  0
LINE
  8
型材断面
  6
CONTINUOUS
 10
195.0
 20
133.5
 11
-185.0
 21
133.5
  0
LINE
  8
型材断面
  6
CONTINUOUS
 10
145.0
 20
-133.5
 11
145.0
 21
-118.5
  0
LINE
  8
型材断面
  6
CONTINUOUS
 10
195.0
 20
-118.5
 11
145.0
 21
-118.5
  0
ENDBLK
  0
BLOCK
  2
*DIM_0002
 70
    65
 10
0.0
 20
0.0
  0
LINE
  8
寸法
  6
BYBLOCK
 62
     0
 10
13.246443
 20
-62.95793
 11
61.549425
 21
-62.95793
  0
LINE
  8
寸法
  6
BYBLOCK
 62
     0
 10
61.549425
 20
-79.624597
 11
61.549425
 21
-62.95793
  0
POINT
  8
寸法
 62
     0
 10
61.549425
 20
-62.95793
  0
TEXT
  7
TextStyle03
  8
寸法
  6
CONTINUOUS
 62
     0
 10
61.175
 20
-73.7375
  1
500
 40
3.0
 50
90.0
 72
     5
 11
61.175
 21
-68.8625
  0
ENDBLK
  0
BLOCK
  2
*DIM_0003
 70
    65
 10
0.0
 20
0.0
  0
LINE
  8
寸法
  6
BYBLOCK
 62
     0
 10
82.949083
 20
64.756625
 11
82.21224
 21
64.756625
  0
LINE
  8
寸法
  6
BYBLOCK
 62
     0
 10
82.949083
 20
-1.910042
 11
82.21224
 21
-1.910042
  0
LINE
  8
寸法
  6
BYBLOCK
 62
     0
 10
82.21224
 20
64.756625
 11
82.21224
 21
-1.910042
  0
POINT
  8
寸法
 62
     0
 10
82.21224
 20
64.756625
  0
POINT
  8
寸法
 62
     0
 10
82.21224
 20
-1.910042
  0
TEXT
  7
TextStyle03
  8
寸法
  6
CONTINUOUS
 62
     0
 10
81.825
 20
19.68125
  1
呼称寸法　2000
 40
3.0
 50
90.0
 72
     5
 11
81.825
 21
43.11875
  0
ENDBLK
  0
BLOCK
  2
*DIM_0004
 70
    65
 10
0.0
 20
0.0
  0
LINE
  8
寸法
  6
BYBLOCK
 62
     0
 10
118.446372
 20
32.42329
 11
118.446372
 21
86.5884
  0
LINE
  8
寸法
  6
BYBLOCK
 62
     0
 10
135.11304
 20
86.5884
 11
118.446372
 21
86.5884
  0
POINT
  8
寸法
 62
     0
 10
135.11304
 20
86.5884
  0
POINT
  8
寸法
 62
     0
 10
118.446372
 20
86.5884
  0
TEXT
  7
TextStyle03
  8
寸法
  6
CONTINUOUS
 62
     0
 10
124.3375
 20
86.95
  1
500
 40
3.0
 72
     5
 11
129.2125
 21
86.95
  0
ENDBLK
  0
BLOCK
  2
*DIM_0005
 70
    65
 10
0.0
 20
0.0
  0
LINE
  8
寸法
  6
BYBLOCK
 62
     0
 10
138.747225
 20
-58.292845
 11
147.703135
 21
-58.292845
  0
LINE
  8
寸法
  6
BYBLOCK
 62
     0
 10
138.747225
 20
-90.759512
 11
147.703135
 21
-90.759512
  0
LINE
  8
寸法
  6
BYBLOCK
 62
     0
 10
147.703135
 20
-58.292845
 11
147.703135
 21
-90.759512
  0
POINT
  8
寸法
 62
     0
 10
147.703135
 20
-58.292845
  0
POINT
  8
寸法
 62
     0
 10
147.703135
 20
-90.759512
  0
TEXT
  7
TextStyle03
  8
寸法
  6
CONTINUOUS
 62
     0
 10
147.3
 20
-76.9625
  1
974
 40
3.0
 50
90.0
 72
     5
 11
147.3
 21
-72.0875
  0
ENDBLK
  0
BLOCK
  2
*DIM_0006
 70
    65
 10
0.0
 20
0.0
  0
LINE
  8
寸法
  6
BYBLOCK
 62
     0
 10
100.883267
 20
-57.292845
 11
100.883267
 21
-49.135088
  0
LINE
  8
寸法
  6
BYBLOCK
 62
     0
 10
137.4166
 20
-57.292845
 11
137.4166
 21
-49.135088
  0
LINE
  8
寸法
  6
BYBLOCK
 62
     0
 10
100.883267
 20
-49.135088
 11
137.4166
 21
-49.135088
  0
POINT
  8
寸法
 62
     0
 10
100.883267
 20
-49.135088
  0
POINT
  8
寸法
 62
     0
 10
137.4166
 20
-49.135088
  0
TEXT
  7
TextStyle03
  8
寸法
  6
CONTINUOUS
 62
     0
 10
115.84375
 20
-48.775
  1
1096
 40
3.0
 72
     5
 11
122.40625
 21
-48.775
  0
ENDBLK
  0
BLOCK
  2
*DIM_0007
 70
    65
 10
0.0
 20
0.0
  0
LINE
  8
寸法
  6
BYBLOCK
 62
     0
 10
-87.753557
 20
-5.54017
 11
-87.753557
 21
-9.980263
  0
LINE
  8
寸法
  6
BYBLOCK
 62
     0
 10
-29.420225
 20
-5.54017
 11
-29.420225
 21
-9.980263
  0
LINE
  8
寸法
  6
BYBLOCK
 62
     0
 10
-87.753557
 20
-9.980263
 11
-29.420225
 21
-9.980263
  0
POINT
  8
寸法
 62
     0
 10
-87.753557
 20
-9.980263
  0
POINT
  8
寸法
 62
     0
 10
-29.420225
 20
-9.980263
  0
TEXT
  7
TextStyle03
  8
寸法
  6
CONTINUOUS
 62
     0
 10
-61.88125
 20
-9.625
  1
1750
 40
3.0
 72
     5
 11
-55.31875
 21
-9.625
  0
ENDBLK
  0
BLOCK
  2
*DIM_0008
 70
    65
 10
0.0
 20
0.0
  0
LINE
  8
寸法
  6
BYBLOCK
 62
     0
 10
28.913107
 20
-5.54017
 11
28.913107
 21
-9.980263
  0
LINE
  8
寸法
  6
BYBLOCK
 62
     0
 10
-29.420225
 20
-9.980263
 11
28.913107
 21
-9.980263
  0
POINT
  8
寸法
 62
     0
 10
28.913107
 20
-9.980263
  0
TEXT
  7
TextStyle03
  8
寸法
  6
CONTINUOUS
 62
     0
 10
-3.55625
 20
-9.625
  1
1750
 40
3.0
 72
     5
 11
3.00625
 21
-9.625
  0
ENDBLK
  0
BLOCK
  2
*DIM_0009
 70
    65
 10
0.0
 20
0.0
  0
LINE
  8
寸法
  6
BYBLOCK
 62
     0
 10
46.579775
 20
64.756627
 11
56.304058
 21
64.756627
  0
LINE
  8
寸法
  6
BYBLOCK
 62
     0
 10
49.209905
 20
61.056627
 11
56.304058
 21
61.056627
  0
LINE
  8
寸法
  6
BYBLOCK
 62
     0
 10
56.304058
 20
64.756627
 11
56.304058
 21
61.056627
  0
POINT
  8
寸法
 62
     0
 10
56.304058
 20
64.756627
  0
POINT
  8
寸法
 62
     0
 10
56.304058
 20
61.056627
  0
TEXT
  7
TextStyle03
  8
寸法
  6
CONTINUOUS
 62
     0
 10
56.0
 20
65.7375
  1
111
 40
3.0
 50
90.0
 72
     5
 11
56.0
 21
70.6125
  0
ENDBLK
  0
BLOCK
  2
*DIM_0010
 70
    65
 10
0.0
 20
0.0
  0
LINE
  8
寸法
  6
BYBLOCK
 62
     0
 10
46.579775
 20
-1.910042
 11
56.304058
 21
-1.910045
  0
LINE
  8
寸法
  6
BYBLOCK
 62
     0
 10
49.209905
 20
1.789957
 11
56.304058
 21
1.789955
  0
LINE
  8
寸法
  6
BYBLOCK
 62
     0
 10
56.304058
 20
-1.910045
 11
56.304058
 21
1.789955
  0
POINT
  8
寸法
 62
     0
 10
56.304058
 20
-1.910045
  0
POINT
  8
寸法
 62
     0
 10
56.304058
 20
1.789955
  0
TEXT
  7
TextStyle03
  8
寸法
  6
CONTINUOUS
 62
     0
 10
55.975
 20
-7.7875
  1
111
 40
3.0
 50
90.0
 72
     5
 11
55.975
 21
-2.9125
  0
ENDBLK
  0
BLOCK
  2
*GRP_0011
 70
    65
 10
0.0
 20
0.0
  0
LINE
  8
別途部材
  6
CONTINUOUS
 62
    96
 10
-106.08689
 20
-79.624597
 11
-106.48689
 21
-80.624597
  0
LINE
  8
別途部材
  6
CONTINUOUS
 62
    96
 10
-106.08689
 20
-79.624597
 11
-29.420225
 21
-79.624597
  0
LINE
  8
別途部材
  6
CONTINUOUS
 10
-106.48689
 20
-80.624597
 11
-29.420225
 21
-80.624597
  0
LINE
  8
別途部材
  6
CONTINUOUS
 10
-29.920225
 20
-79.624597
 11
-29.920225
 21
-61.95793
  0
LINE
  8
別途部材
  6
CONTINUOUS
 10
-32.920225
 20
-79.624597
 11
-32.920225
 21
-61.95793
  0
LINE
  8
別途部材
  6
CONTINUOUS
 10
-29.920225
 20
-61.95793
 11
-30.920225
 21
-62.95793
  0
LINE
  8
別途部材
  6
CONTINUOUS
 10
-33.920225
 20
-79.624597
 11
-33.920225
 21
-61.95793
  0
LINE
  8
別途部材
  6
CONTINUOUS
 10
-31.920225
 20
-62.95793
 11
-32.920225
 21
-61.95793
  0
LINE
  8
別途部材
  6
CONTINUOUS
 10
-33.920225
 20
-61.95793
 11
-34.920225
 21
-62.95793
  0
LINE
  8
別途部材
  6
CONTINUOUS
 10
-32.920225
 20
-61.95793
 11
-33.920225
 21
-61.95793
  0
LINE
  8
別途部材
  6
CONTINUOUS
 10
-29.920225
 20
-61.95793
 11
-29.420225
 21
-61.95793
  0
LINE
  8
別途部材
  6
CONTINUOUS
 10
-35.920225
 20
-62.95793
 11
-36.920225
 21
-61.95793
  0
LINE
  8
別途部材
  6
CONTINUOUS
 10
-37.920225
 20
-61.95793
 11
-38.920225
 21
-62.95793
  0
LINE
  8
別途部材
  6
CONTINUOUS
 10
-36.920225
 20
-61.95793
 11
-37.920225
 21
-61.95793
  0
LINE
  8
別途部材
  6
CONTINUOUS
 10
-31.920225
 20
-79.624597
 11
-31.920225
 21
-62.95793
  0
LINE
  8
別途部材
  6
CONTINUOUS
 10
-34.920225
 20
-79.624597
 11
-34.920225
 21
-62.95793
  0
LINE
  8
別途部材
  6
CONTINUOUS
 10
-35.920225
 20
-79.624597
 11
-35.920225
 21
-62.95793
  0
LINE
  8
別途部材
  6
CONTINUOUS
 10
-36.920225
 20
-79.624597
 11
-36.920225
 21
-61.95793
  0
LINE
  8
別途部材
  6
CONTINUOUS
 10
-37.920225
 20
-79.624597
 11
-37.920225
 21
-61.95793
  0
LINE
  8
別途部材
  6
CONTINUOUS
 10
-38.920225
 20
-79.624597
 11
-38.920225
 21
-62.95793
  0
LINE
  8
別途部材
  6
CONTINUOUS
 10
-39.920225
 20
-62.95793
 11
-40.920225
 21
-61.95793
  0
LINE
  8
別途部材
  6
CONTINUOUS
 10
-41.920225
 20
-61.95793
 11
-42.920225
 21
-62.95793
  0
LINE
  8
別途部材
  6
CONTINUOUS
 10
-40.920225
 20
-61.95793
 11
-41.920225
 21
-61.95793
  0
LINE
  8
別途部材
  6
CONTINUOUS
 10
-39.920225
 20
-79.624597
 11
-39.920225
 21
-62.95793
  0
LINE
  8
別途部材
  6
CONTINUOUS
 10
-40.920225
 20
-79.624597
 11
-40.920225
 21
-61.95793
  0
LINE
  8
別途部材
  6
CONTINUOUS
 10
-41.920225
 20
-79.624597
 11
-41.920225
 21
-61.95793
  0
LINE
  8
別途部材
  6
CONTINUOUS
 10
-42.920225
 20
-79.624597
 11
-42.920225
 21
-62.95793
  0
LINE
  8
別途部材
  6
CONTINUOUS
 10
-44.920225
 20
-79.624597
 11
-44.920225
 21
-61.95793
  0
LINE
  8
別途部材
  6
CONTINUOUS
 10
-45.920225
 20
-79.624597
 11
-45.920225
 21
-61.95793
  0
LINE
  8
別途部材
  6
CONTINUOUS
 10
-43.920225
 20
-62.95793
 11
-44.920225
 21
-61.95793
  0
LINE
  8
別途部材
  6
CONTINUOUS
 10
-45.920225
 20
-61.95793
 11
-46.920225
 21
-62.95793
  0
LINE
  8
別途部材
  6
CONTINUOUS
 10
-44.920225
 20
-61.95793
 11
-45.920225
 21
-61.95793
  0
LINE
  8
別途部材
  6
CONTINUOUS
 10
-47.920225
 20
-62.95793
 11
-48.920225
 21
-61.95793
  0
LINE
  8
別途部材
  6
CONTINUOUS
 10
-49.920225
 20
-61.95793
 11
-50.920225
 21
-62.95793
  0
LINE
  8
別途部材
  6
CONTINUOUS
 10
-48.920225
 20
-61.95793
 11
-49.920225
 21
-61.95793
  0
LINE
  8
別途部材
  6
CONTINUOUS
 10
-43.920225
 20
-79.624597
 11
-43.920225
 21
-62.95793
  0
LINE
  8
別途部材
  6
CONTINUOUS
 10
-46.920225
 20
-79.624597
 11
-46.920225
 21
-62.95793
  0
LINE
  8
別途部材
  6
CONTINUOUS
 10
-47.920225
 20
-79.624597
 11
-47.920225
 21
-62.95793
  0
LINE
  8
別途部材
  6
CONTINUOUS
 10
-48.920225
 20
-79.624597
 11
-48.920225
 21
-61.95793
  0
LINE
  8
別途部材
  6
CONTINUOUS
 10
-49.920225
 20
-79.624597
 11
-49.920225
 21
-61.95793
  0
LINE
  8
別途部材
  6
CONTINUOUS
 10
-50.920225
 20
-79.624597
 11
-50.920225
 21
-62.95793
  0
LINE
  8
別途部材
  6
CONTINUOUS
 10
-51.920225
 20
-62.95793
 11
-52.920225
 21
-61.95793
  0
LINE
  8
別途部材
  6
CONTINUOUS
 10
-53.920225
 20
-61.95793
 11
-54.920225
 21
-62.95793
  0
LINE
  8
別途部材
  6
CONTINUOUS
 10
-52.920225
 20
-61.95793
 11
-53.920225
 21
-61.95793
  0
LINE
  8
別途部材
  6
CONTINUOUS
 10
-51.920225
 20
-79.624597
 11
-51.920225
 21
-62.95793
  0
LINE
  8
別途部材
  6
CONTINUOUS
 10
-52.920225
 20
-79.624597
 11
-52.920225
 21
-61.95793
  0
LINE
  8
別途部材
  6
CONTINUOUS
 10
-53.920225
 20
-79.624597
 11
-53.920225
 21
-61.95793
  0
LINE
  8
別途部材
  6
CONTINUOUS
 10
-54.920225
 20
-79.624597
 11
-54.920225
 21
-62.95793
  0
LINE
  8
別途部材
  6
CONTINUOUS
 10
-56.920225
 20
-79.624597
 11
-56.920225
 21
-61.95793
  0
LINE
  8
別途部材
  6
CONTINUOUS
 10
-57.920225
 20
-79.624597
 11
-57.920225
 21
-61.95793
  0
LINE
  8
別途部材
  6
CONTINUOUS
 10
-55.920225
 20
-62.95793
 11
-56.920225
 21
-61.95793
  0
LINE
  8
別途部材
  6
CONTINUOUS
 10
-57.920225
 20
-61.95793
 11
-58.920225
 21
-62.95793
  0
LINE
  8
別途部材
  6
CONTINUOUS
 10
-56.920225
 20
-61.95793
 11
-57.920225
 21
-61.95793
  0
LINE
  8
別途部材
  6
CONTINUOUS
 10
-59.920225
 20
-62.95793
 11
-60.920225
 21
-61.95793
  0
LINE
  8
別途部材
  6
CONTINUOUS
 10
-61.920225
 20
-61.95793
 11
-62.920225
 21
-62.95793
  0
LINE
  8
別途部材
  6
CONTINUOUS
 10
-60.920225
 20
-61.95793
 11
-61.920225
 21
-61.95793
  0
LINE
  8
別途部材
  6
CONTINUOUS
 10
-55.920225
 20
-79.624597
 11
-55.920225
 21
-62.95793
  0
LINE
  8
別途部材
  6
CONTINUOUS
 10
-58.920225
 20
-79.624597
 11
-58.920225
 21
-62.95793
  0
LINE
  8
別途部材
  6
CONTINUOUS
 10
-59.920225
 20
-79.624597
 11
-59.920225
 21
-62.95793
  0
LINE
  8
別途部材
  6
CONTINUOUS
 10
-60.920225
 20
-79.624597
 11
-60.920225
 21
-61.95793
  0
LINE
  8
別途部材
  6
CONTINUOUS
 10
-61.920225
 20
-79.624597
 11
-61.920225
 21
-61.95793
  0
LINE
  8
別途部材
  6
CONTINUOUS
 10
-62.920225
 20
-79.624597
 11
-62.920225
 21
-62.95793
  0
LINE
  8
別途部材
  6
CONTINUOUS
 10
-63.920225
 20
-62.95793
 11
-64.920225
 21
-61.95793
  0
LINE
  8
別途部材
  6
CONTINUOUS
 10
-65.920225
 20
-61.95793
 11
-66.920225
 21
-62.95793
  0
LINE
  8
別途部材
  6
CONTINUOUS
 10
-64.920225
 20
-61.95793
 11
-65.920225
 21
-61.95793
  0
LINE
  8
別途部材
  6
CONTINUOUS
 10
-63.920225
 20
-79.624597
 11
-63.920225
 21
-62.95793
  0
LINE
  8
別途部材
  6
CONTINUOUS
 10
-64.920225
 20
-79.624597
 11
-64.920225
 21
-61.95793
  0
LINE
  8
別途部材
  6
CONTINUOUS
 10
-65.920225
 20
-79.624597
 11
-65.920225
 21
-61.95793
  0
LINE
  8
別途部材
  6
CONTINUOUS
 10
-66.920225
 20
-79.624597
 11
-66.920225
 21
-62.95793
  0
LINE
  8
別途部材
  6
CONTINUOUS
 10
-68.920225
 20
-79.624597
 11
-68.920225
 21
-61.95793
  0
LINE
  8
別途部材
  6
CONTINUOUS
 10
-69.920225
 20
-79.624597
 11
-69.920225
 21
-61.95793
  0
LINE
  8
別途部材
  6
CONTINUOUS
 10
-67.920225
 20
-62.95793
 11
-68.920225
 21
-61.95793
  0
LINE
  8
別途部材
  6
CONTINUOUS
 10
-69.920225
 20
-61.95793
 11
-70.920225
 21
-62.95793
  0
LINE
  8
別途部材
  6
CONTINUOUS
 10
-68.920225
 20
-61.95793
 11
-69.920225
 21
-61.95793
  0
LINE
  8
別途部材
  6
CONTINUOUS
 10
-67.920225
 20
-79.624597
 11
-67.920225
 21
-62.95793
  0
LINE
  8
別途部材
  6
CONTINUOUS
 10
-70.920225
 20
-79.624597
 11
-70.920225
 21
-62.95793
  0
LINE
  8
別途部材
  6
CONTINUOUS
 10
-66.920225
 20
-62.95793
 11
-67.920225
 21
-62.95793
  0
LINE
  8
別途部材
  6
CONTINUOUS
 10
-62.920225
 20
-62.95793
 11
-63.920225
 21
-62.95793
  0
LINE
  8
別途部材
  6
CONTINUOUS
 10
-58.920225
 20
-62.95793
 11
-59.920225
 21
-62.95793
  0
LINE
  8
別途部材
  6
CONTINUOUS
 10
-54.920225
 20
-62.95793
 11
-55.920225
 21
-62.95793
  0
LINE
  8
別途部材
  6
CONTINUOUS
 10
-50.920225
 20
-62.95793
 11
-51.920225
 21
-62.95793
  0
LINE
  8
別途部材
  6
CONTINUOUS
 10
-46.920225
 20
-62.95793
 11
-47.920225
 21
-62.95793
  0
LINE
  8
別途部材
  6
CONTINUOUS
 10
-42.920225
 20
-62.95793
 11
-43.920225
 21
-62.95793
  0
LINE
  8
別途部材
  6
CONTINUOUS
 10
-38.920225
 20
-62.95793
 11
-39.920225
 21
-62.95793
  0
LINE
  8
別途部材
  6
CONTINUOUS
 10
-34.920225
 20
-62.95793
 11
-35.920225
 21
-62.95793
  0
LINE
  8
別途部材
  6
CONTINUOUS
 10
-30.920225
 20
-79.624597
 11
-30.920225
 21
-62.95793
  0
LINE
  8
別途部材
  6
CONTINUOUS
 10
-31.920225
 20
-62.95793
 11
-30.920225
 21
-62.95793
  0
ARC
  8
別途部材
  6
CONTINUOUS
 10
-87.753557
 20
-79.624597
 40
16.666667
 50
90.0
 51
180.0
  0
LINE
  8
別途部材
  6
CONTINUOUS
 10
-72.920225
 20
-79.624597
 11
-72.920225
 21
-61.95793
  0
LINE
  8
別途部材
  6
CONTINUOUS
 10
-73.920225
 20
-79.624597
 11
-73.920225
 21
-61.95793
  0
LINE
  8
別途部材
  6
CONTINUOUS
 10
-71.920225
 20
-62.95793
 11
-72.920225
 21
-61.95793
  0
LINE
  8
別途部材
  6
CONTINUOUS
 10
-73.920225
 20
-61.95793
 11
-74.920225
 21
-62.95793
  0
LINE
  8
別途部材
  6
CONTINUOUS
 10
-72.920225
 20
-61.95793
 11
-73.920225
 21
-61.95793
  0
LINE
  8
別途部材
  6
CONTINUOUS
 10
-75.920225
 20
-62.95793
 11
-76.920225
 21
-61.95793
  0
LINE
  8
別途部材
  6
CONTINUOUS
 10
-77.920225
 20
-61.95793
 11
-78.920225
 21
-62.95793
  0
LINE
  8
別途部材
  6
CONTINUOUS
 10
-76.920225
 20
-61.95793
 11
-77.920225
 21
-61.95793
  0
LINE
  8
別途部材
  6
CONTINUOUS
 10
-71.920225
 20
-79.624597
 11
-71.920225
 21
-62.95793
  0
LINE
  8
別途部材
  6
CONTINUOUS
 10
-74.920225
 20
-79.624597
 11
-74.920225
 21
-62.95793
  0
LINE
  8
別途部材
  6
CONTINUOUS
 10
-75.920225
 20
-79.624597
 11
-75.920225
 21
-62.95793
  0
LINE
  8
別途部材
  6
CONTINUOUS
 10
-76.920225
 20
-79.624597
 11
-76.920225
 21
-61.95793
  0
LINE
  8
別途部材
  6
CONTINUOUS
 10
-77.920225
 20
-79.624597
 11
-77.920225
 21
-61.95793
  0
LINE
  8
別途部材
  6
CONTINUOUS
 10
-78.920225
 20
-79.624597
 11
-78.920225
 21
-62.95793
  0
LINE
  8
別途部材
  6
CONTINUOUS
 10
-79.920225
 20
-62.95793
 11
-80.920225
 21
-61.95793
  0
LINE
  8
別途部材
  6
CONTINUOUS
 10
-81.920225
 20
-61.95793
 11
-82.920225
 21
-62.95793
  0
LINE
  8
別途部材
  6
CONTINUOUS
 10
-80.920225
 20
-61.95793
 11
-81.920225
 21
-61.95793
  0
LINE
  8
別途部材
  6
CONTINUOUS
 10
-79.920225
 20
-79.624597
 11
-79.920225
 21
-62.95793
  0
LINE
  8
別途部材
  6
CONTINUOUS
 10
-80.920225
 20
-79.624597
 11
-80.920225
 21
-61.95793
  0
LINE
  8
別途部材
  6
CONTINUOUS
 10
-81.920225
 20
-79.624597
 11
-81.920225
 21
-61.95793
  0
LINE
  8
別途部材
  6
CONTINUOUS
 10
-82.920225
 20
-79.624597
 11
-82.920225
 21
-62.95793
  0
LINE
  8
別途部材
  6
CONTINUOUS
 10
-84.920225
 20
-79.624597
 11
-84.920225
 21
-61.95793
  0
LINE
  8
別途部材
  6
CONTINUOUS
 10
-85.920225
 20
-79.624597
 11
-85.920225
 21
-61.95793
  0
LINE
  8
別途部材
  6
CONTINUOUS
 10
-83.920225
 20
-62.95793
 11
-84.920225
 21
-61.95793
  0
LINE
  8
別途部材
  6
CONTINUOUS
 10
-85.920225
 20
-61.95793
 11
-86.920225
 21
-62.95793
  0
LINE
  8
別途部材
  6
CONTINUOUS
 10
-84.920225
 20
-61.95793
 11
-85.920225
 21
-61.95793
  0
LINE
  8
別途部材
  6
CONTINUOUS
 10
-83.920225
 20
-79.624597
 11
-83.920225
 21
-62.95793
  0
LINE
  8
別途部材
  6
CONTINUOUS
 10
-86.920225
 20
-79.624597
 11
-86.920225
 21
-62.95793
  0
LINE
  8
別途部材
  6
CONTINUOUS
 10
-82.920225
 20
-62.95793
 11
-83.920225
 21
-62.95793
  0
LINE
  8
別途部材
  6
CONTINUOUS
 10
-78.920225
 20
-62.95793
 11
-79.920225
 21
-62.95793
  0
LINE
  8
別途部材
  6
CONTINUOUS
 10
-74.920225
 20
-62.95793
 11
-75.920225
 21
-62.95793
  0
LINE
  8
別途部材
  6
CONTINUOUS
 10
-70.920225
 20
-62.95793
 11
-71.920225
 21
-62.95793
  0
LINE
  8
別途部材
  6
CONTINUOUS
 10
-87.753557
 20
-62.95793
 11
-86.920225
 21
-62.95793
  0
LINE
  8
別途部材
  6
CONTINUOUS
 62
    96
 10
47.246443
 20
-79.624597
 11
47.646443
 21
-80.624597
  0
LINE
  8
別途部材
  6
CONTINUOUS
 62
    96
 10
47.246443
 20
-79.624597
 11
-29.420225
 21
-79.624597
  0
LINE
  8
別途部材
  6
CONTINUOUS
 10
47.646443
 20
-80.624597
 11
-29.420225
 21
-80.624597
  0
LINE
  8
別途部材
  6
CONTINUOUS
 10
-28.920225
 20
-79.624597
 11
-28.920225
 21
-61.95793
  0
LINE
  8
別途部材
  6
CONTINUOUS
 10
-25.920225
 20
-79.624597
 11
-25.920225
 21
-61.95793
  0
LINE
  8
別途部材
  6
CONTINUOUS
 10
-28.920225
 20
-61.95793
 11
-27.920225
 21
-62.95793
  0
LINE
  8
別途部材
  6
CONTINUOUS
 10
-24.920225
 20
-79.624597
 11
-24.920225
 21
-61.95793
  0
LINE
  8
別途部材
  6
CONTINUOUS
 10
-26.920225
 20
-62.95793
 11
-25.920225
 21
-61.95793
  0
LINE
  8
別途部材
  6
CONTINUOUS
 10
-24.920225
 20
-61.95793
 11
-23.920225
 21
-62.95793
  0
LINE
  8
別途部材
  6
CONTINUOUS
 10
-25.920225
 20
-61.95793
 11
-24.920225
 21
-61.95793
  0
LINE
  8
別途部材
  6
CONTINUOUS
 10
-28.920225
 20
-61.95793
 11
-29.420225
 21
-61.95793
  0
LINE
  8
別途部材
  6
CONTINUOUS
 10
-22.920225
 20
-62.95793
 11
-21.920225
 21
-61.95793
  0
LINE
  8
別途部材
  6
CONTINUOUS
 10
-20.920225
 20
-61.95793
 11
-19.920225
 21
-62.95793
  0
LINE
  8
別途部材
  6
CONTINUOUS
 10
-21.920225
 20
-61.95793
 11
-20.920225
 21
-61.95793
  0
LINE
  8
別途部材
  6
CONTINUOUS
 10
-26.920225
 20
-79.624597
 11
-26.920225
 21
-62.95793
  0
LINE
  8
別途部材
  6
CONTINUOUS
 10
-23.920225
 20
-79.624597
 11
-23.920225
 21
-62.95793
  0
LINE
  8
別途部材
  6
CONTINUOUS
 10
-22.920225
 20
-79.624597
 11
-22.920225
 21
-62.95793
  0
LINE
  8
別途部材
  6
CONTINUOUS
 10
-21.920225
 20
-79.624597
 11
-21.920225
 21
-61.95793
  0
LINE
  8
別途部材
  6
CONTINUOUS
 10
-20.920225
 20
-79.624597
 11
-20.920225
 21
-61.95793
  0
LINE
  8
別途部材
  6
CONTINUOUS
 10
-19.920225
 20
-79.624597
 11
-19.920225
 21
-62.95793
  0
LINE
  8
別途部材
  6
CONTINUOUS
 10
-18.920225
 20
-62.95793
 11
-17.920225
 21
-61.95793
  0
LINE
  8
別途部材
  6
CONTINUOUS
 10
-16.920225
 20
-61.95793
 11
-15.920225
 21
-62.95793
  0
LINE
  8
別途部材
  6
CONTINUOUS
 10
-17.920225
 20
-61.95793
 11
-16.920225
 21
-61.95793
  0
LINE
  8
別途部材
  6
CONTINUOUS
 10
-18.920225
 20
-79.624597
 11
-18.920225
 21
-62.95793
  0
LINE
  8
別途部材
  6
CONTINUOUS
 10
-17.920225
 20
-79.624597
 11
-17.920225
 21
-61.95793
  0
LINE
  8
別途部材
  6
CONTINUOUS
 10
-16.920225
 20
-79.624597
 11
-16.920225
 21
-61.95793
  0
LINE
  8
別途部材
  6
CONTINUOUS
 10
-15.920225
 20
-79.624597
 11
-15.920225
 21
-62.95793
  0
LINE
  8
別途部材
  6
CONTINUOUS
 10
-13.920225
 20
-79.624597
 11
-13.920225
 21
-61.95793
  0
LINE
  8
別途部材
  6
CONTINUOUS
 10
-12.920225
 20
-79.624597
 11
-12.920225
 21
-61.95793
  0
LINE
  8
別途部材
  6
CONTINUOUS
 10
-14.920225
 20
-62.95793
 11
-13.920225
 21
-61.95793
  0
LINE
  8
別途部材
  6
CONTINUOUS
 10
-12.920225
 20
-61.95793
 11
-11.920225
 21
-62.95793
  0
LINE
  8
別途部材
  6
CONTINUOUS
 10
-13.920225
 20
-61.95793
 11
-12.920225
 21
-61.95793
  0
LINE
  8
別途部材
  6
CONTINUOUS
 10
-10.920225
 20
-62.95793
 11
-9.920225
 21
-61.95793
  0
LINE
  8
別途部材
  6
CONTINUOUS
 10
-8.920225
 20
-61.95793
 11
-7.920225
 21
-62.95793
  0
LINE
  8
別途部材
  6
CONTINUOUS
 10
-9.920225
 20
-61.95793
 11
-8.920225
 21
-61.95793
  0
LINE
  8
別途部材
  6
CONTINUOUS
 10
-14.920225
 20
-79.624597
 11
-14.920225
 21
-62.95793
  0
LINE
  8
別途部材
  6
CONTINUOUS
 10
-11.920225
 20
-79.624597
 11
-11.920225
 21
-62.95793
  0
LINE
  8
別途部材
  6
CONTINUOUS
 10
-10.920225
 20
-79.624597
 11
-10.920225
 21
-62.95793
  0
LINE
  8
別途部材
  6
CONTINUOUS
 10
-9.920225
 20
-79.624597
 11
-9.920225
 21
-61.95793
  0
LINE
  8
別途部材
  6
CONTINUOUS
 10
-8.920225
 20
-79.624597
 11
-8.920225
 21
-61.95793
  0
LINE
  8
別途部材
  6
CONTINUOUS
 10
-7.920225
 20
-79.624597
 11
-7.920225
 21
-62.95793
  0
LINE
  8
別途部材
  6
CONTINUOUS
 10
-6.920225
 20
-62.95793
 11
-5.920225
 21
-61.95793
  0
LINE
  8
別途部材
  6
CONTINUOUS
 10
-4.920225
 20
-61.95793
 11
-3.920225
 21
-62.95793
  0
LINE
  8
別途部材
  6
CONTINUOUS
 10
-5.920225
 20
-61.95793
 11
-4.920225
 21
-61.95793
  0
LINE
  8
別途部材
  6
CONTINUOUS
 10
-6.920225
 20
-79.624597
 11
-6.920225
 21
-62.95793
  0
LINE
  8
別途部材
  6
CONTINUOUS
 10
-5.920225
 20
-79.624597
 11
-5.920225
 21
-61.95793
  0
LINE
  8
別途部材
  6
CONTINUOUS
 10
-4.920225
 20
-79.624597
 11
-4.920225
 21
-61.95793
  0
LINE
  8
別途部材
  6
CONTINUOUS
 10
-3.920225
 20
-79.624597
 11
-3.920225
 21
-62.95793
  0
LINE
  8
別途部材
  6
CONTINUOUS
 10
-1.920225
 20
-79.624597
 11
-1.920225
 21
-61.95793
  0
LINE
  8
別途部材
  6
CONTINUOUS
 10
-0.920225
 20
-79.624597
 11
-0.920225
 21
-61.95793
  0
LINE
  8
別途部材
  6
CONTINUOUS
 10
-2.920225
 20
-62.95793
 11
-1.920225
 21
-61.95793
  0
LINE
  8
別途部材
  6
CONTINUOUS
 10
-0.920225
 20
-61.95793
 11
0.079775
 21
-62.95793
  0
LINE
  8
別途部材
  6
CONTINUOUS
 10
-1.920225
 20
-61.95793
 11
-0.920225
 21
-61.95793
  0
LINE
  8
別途部材
  6
CONTINUOUS
 10
1.079775
 20
-62.95793
 11
2.079775
 21
-61.95793
  0
LINE
  8
別途部材
  6
CONTINUOUS
 10
3.079775
 20
-61.95793
 11
4.079775
 21
-62.95793
  0
LINE
  8
別途部材
  6
CONTINUOUS
 10
2.079775
 20
-61.95793
 11
3.079775
 21
-61.95793
  0
LINE
  8
別途部材
  6
CONTINUOUS
 10
-2.920225
 20
-79.624597
 11
-2.920225
 21
-62.95793
  0
LINE
  8
別途部材
  6
CONTINUOUS
 10
0.079775
 20
-79.624597
 11
0.079775
 21
-62.95793
  0
LINE
  8
別途部材
  6
CONTINUOUS
 10
1.079775
 20
-79.624597
 11
1.079775
 21
-62.95793
  0
LINE
  8
別途部材
  6
CONTINUOUS
 10
2.079775
 20
-79.624597
 11
2.079775
 21
-61.95793
  0
LINE
  8
別途部材
  6
CONTINUOUS
 10
3.079775
 20
-79.624597
 11
3.079775
 21
-61.95793
  0
LINE
  8
別途部材
  6
CONTINUOUS
 10
4.079775
 20
-79.624597
 11
4.079775
 21
-62.95793
  0
LINE
  8
別途部材
  6
CONTINUOUS
 10
5.079775
 20
-62.95793
 11
6.079775
 21
-61.95793
  0
LINE
  8
別途部材
  6
CONTINUOUS
 10
7.079775
 20
-61.95793
 11
8.079775
 21
-62.95793
  0
LINE
  8
別途部材
  6
CONTINUOUS
 10
6.079775
 20
-61.95793
 11
7.079775
 21
-61.95793
  0
LINE
  8
別途部材
  6
CONTINUOUS
 10
5.079775
 20
-79.624597
 11
5.079775
 21
-62.95793
  0
LINE
  8
別途部材
  6
CONTINUOUS
 10
6.079775
 20
-79.624597
 11
6.079775
 21
-61.95793
  0
LINE
  8
別途部材
  6
CONTINUOUS
 10
7.079775
 20
-79.624597
 11
7.079775
 21
-61.95793
  0
LINE
  8
別途部材
  6
CONTINUOUS
 10
8.079775
 20
-79.624597
 11
8.079775
 21
-62.95793
  0
LINE
  8
別途部材
  6
CONTINUOUS
 10
10.079775
 20
-79.624597
 11
10.079775
 21
-61.95793
  0
LINE
  8
別途部材
  6
CONTINUOUS
 10
11.079775
 20
-79.624597
 11
11.079775
 21
-61.95793
  0
LINE
  8
別途部材
  6
CONTINUOUS
 10
9.079775
 20
-62.95793
 11
10.079775
 21
-61.95793
  0
LINE
  8
別途部材
  6
CONTINUOUS
 10
11.079775
 20
-61.95793
 11
12.079775
 21
-62.95793
  0
LINE
  8
別途部材
  6
CONTINUOUS
 10
10.079775
 20
-61.95793
 11
11.079775
 21
-61.95793
  0
LINE
  8
別途部材
  6
CONTINUOUS
 10
9.079775
 20
-79.624597
 11
9.079775
 21
-62.95793
  0
LINE
  8
別途部材
  6
CONTINUOUS
 10
12.079775
 20
-79.624597
 11
12.079775
 21
-62.95793
  0
LINE
  8
別途部材
  6
CONTINUOUS
 10
8.079775
 20
-62.95793
 11
9.079775
 21
-62.95793
  0
LINE
  8
別途部材
  6
CONTINUOUS
 10
4.079775
 20
-62.95793
 11
5.079775
 21
-62.95793
  0
LINE
  8
別途部材
  6
CONTINUOUS
 10
0.079775
 20
-62.95793
 11
1.079775
 21
-62.95793
  0
LINE
  8
別途部材
  6
CONTINUOUS
 10
-3.920225
 20
-62.95793
 11
-2.920225
 21
-62.95793
  0
LINE
  8
別途部材
  6
CONTINUOUS
 10
-7.920225
 20
-62.95793
 11
-6.920225
 21
-62.95793
  0
LINE
  8
別途部材
  6
CONTINUOUS
 10
-11.920225
 20
-62.95793
 11
-10.920225
 21
-62.95793
  0
LINE
  8
別途部材
  6
CONTINUOUS
 10
-15.920225
 20
-62.95793
 11
-14.920225
 21
-62.95793
  0
LINE
  8
別途部材
  6
CONTINUOUS
 10
-19.920225
 20
-62.95793
 11
-18.920225
 21
-62.95793
  0
LINE
  8
別途部材
  6
CONTINUOUS
 10
-23.920225
 20
-62.95793
 11
-22.920225
 21
-62.95793
  0
LINE
  8
別途部材
  6
CONTINUOUS
 10
-27.920225
 20
-79.624597
 11
-27.920225
 21
-62.95793
  0
LINE
  8
別途部材
  6
CONTINUOUS
 10
-26.920225
 20
-62.95793
 11
-27.920225
 21
-62.95793
  0
ARC
  8
別途部材
  6
CONTINUOUS
 10
28.913109
 20
-79.624597
 40
16.666667
 50
0.0
 51
90.0
  0
LINE
  8
別途部材
  6
CONTINUOUS
 10
14.079775
 20
-79.624597
 11
14.079775
 21
-61.95793
  0
LINE
  8
別途部材
  6
CONTINUOUS
 10
15.079775
 20
-79.624597
 11
15.079775
 21
-61.95793
  0
LINE
  8
別途部材
  6
CONTINUOUS
 10
13.079775
 20
-62.95793
 11
14.079775
 21
-61.95793
  0
LINE
  8
別途部材
  6
CONTINUOUS
 10
15.079775
 20
-61.95793
 11
16.079775
 21
-62.95793
  0
LINE
  8
別途部材
  6
CONTINUOUS
 10
14.079775
 20
-61.95793
 11
15.079775
 21
-61.95793
  0
LINE
  8
別途部材
  6
CONTINUOUS
 10
17.079775
 20
-62.95793
 11
18.079775
 21
-61.95793
  0
LINE
  8
別途部材
  6
CONTINUOUS
 10
19.079775
 20
-61.95793
 11
20.079775
 21
-62.95793
  0
LINE
  8
別途部材
  6
CONTINUOUS
 10
18.079775
 20
-61.95793
 11
19.079775
 21
-61.95793
  0
LINE
  8
別途部材
  6
CONTINUOUS
 10
13.079775
 20
-79.624597
 11
13.079775
 21
-62.95793
  0
LINE
  8
別途部材
  6
CONTINUOUS
 10
16.079775
 20
-79.624597
 11
16.079775
 21
-62.95793
  0
LINE
  8
別途部材
  6
CONTINUOUS
 10
17.079775
 20
-79.624597
 11
17.079775
 21
-62.95793
  0
LINE
  8
別途部材
  6
CONTINUOUS
 10
18.079775
 20
-79.624597
 11
18.079775
 21
-61.95793
  0
LINE
  8
別途部材
  6
CONTINUOUS
 10
19.079775
 20
-79.624597
 11
19.079775
 21
-61.95793
  0
LINE
  8
別途部材
  6
CONTINUOUS
 10
20.079775
 20
-79.624597
 11
20.079775
 21
-62.95793
  0
LINE
  8
別途部材
  6
CONTINUOUS
 10
21.079775
 20
-62.95793
 11
22.079775
 21
-61.95793
  0
LINE
  8
別途部材
  6
CONTINUOUS
 10
23.079775
 20
-61.95793
 11
24.079775
 21
-62.95793
  0
LINE
  8
別途部材
  6
CONTINUOUS
 10
22.079775
 20
-61.95793
 11
23.079775
 21
-61.95793
  0
LINE
  8
別途部材
  6
CONTINUOUS
 10
21.079775
 20
-79.624597
 11
21.079775
 21
-62.95793
  0
LINE
  8
別途部材
  6
CONTINUOUS
 10
22.079775
 20
-79.624597
 11
22.079775
 21
-61.95793
  0
LINE
  8
別途部材
  6
CONTINUOUS
 10
23.079775
 20
-79.624597
 11
23.079775
 21
-61.95793
  0
LINE
  8
別途部材
  6
CONTINUOUS
 10
24.079775
 20
-79.624597
 11
24.079775
 21
-62.95793
  0
LINE
  8
別途部材
  6
CONTINUOUS
 10
26.079775
 20
-79.624597
 11
26.079775
 21
-61.95793
  0
LINE
  8
別途部材
  6
CONTINUOUS
 10
27.079775
 20
-79.624597
 11
27.079775
 21
-61.95793
  0
LINE
  8
別途部材
  6
CONTINUOUS
 10
25.079775
 20
-62.95793
 11
26.079775
 21
-61.95793
  0
LINE
  8
別途部材
  6
CONTINUOUS
 10
27.079775
 20
-61.95793
 11
28.079775
 21
-62.95793
  0
LINE
  8
別途部材
  6
CONTINUOUS
 10
26.079775
 20
-61.95793
 11
27.079775
 21
-61.95793
  0
LINE
  8
別途部材
  6
CONTINUOUS
 10
25.079775
 20
-79.624597
 11
25.079775
 21
-62.95793
  0
LINE
  8
別途部材
  6
CONTINUOUS
 10
28.079775
 20
-79.624597
 11
28.079775
 21
-62.95793
  0
LINE
  8
別途部材
  6
CONTINUOUS
 10
24.079775
 20
-62.95793
 11
25.079775
 21
-62.95793
  0
LINE
  8
別途部材
  6
CONTINUOUS
 10
20.079775
 20
-62.95793
 11
21.079775
 21
-62.95793
  0
LINE
  8
別途部材
  6
CONTINUOUS
 10
16.079775
 20
-62.95793
 11
17.079775
 21
-62.95793
  0
LINE
  8
別途部材
  6
CONTINUOUS
 10
12.079775
 20
-62.95793
 11
13.079775
 21
-62.95793
  0
LINE
  8
別途部材
  6
CONTINUOUS
 10
28.91311
 20
-62.95793
 11
28.079775
 21
-62.95793
  0
ENDBLK
  0
BLOCK
  2
*GRP_0012
 70
    65
 10
0.0
 20
0.0
  0
LINE
  8
補助線
  6
BYBLOCK
 62
    64
 10
-89.36786
 20
-84.519938
 11
-89.47259
 21
-84.649587
  0
LINE
  8
補助線
  6
BYBLOCK
 62
    64
 10
-89.485052
 20
-84.532395
 11
-89.3554
 21
-84.637128
  0
LINE
  8
補助線
  6
BYBLOCK
 62
    64
 10
-79.418305
 20
-72.20325
 11
-79.523038
 21
-72.332895
  0
LINE
  8
補助線
  6
BYBLOCK
 62
    64
 10
-79.535498
 20
-72.215705
 11
-79.405847
 21
-72.320438
  0
LINE
  8
補助線
  6
BYBLOCK
 62
    64
 10
-69.573485
 20
-60.016205
 11
-69.468753
 21
-59.886557
  0
LINE
  8
補助線
  6
BYBLOCK
 62
    64
 10
-69.585945
 20
-59.899013
 11
-69.456293
 21
-60.003745
  0
LINE
  8
型材断面
  6
CONTINUOUS
 10
-90.277935
 20
-84.3204
 11
-90.203182
 21
-85.023545
  0
LINE
  8
型材断面
  6
CONTINUOUS
 10
-90.203182
 20
-85.023545
 11
-89.684585
 21
-85.442472
  0
LINE
  8
型材断面
  6
CONTINUOUS
 10
-89.684585
 20
-85.442472
 11
-88.98144
 21
-85.36772
  0
LINE
  8
型材断面
  6
CONTINUOUS
 10
-69.9599
 20
-59.168422
 11
-69.256758
 21
-59.09367
  0
LINE
  8
型材断面
  6
CONTINUOUS
 10
-69.256758
 20
-59.09367
 11
-68.73816
 21
-59.5126
  0
LINE
  8
型材断面
  6
CONTINUOUS
 10
-68.73816
 20
-59.5126
 11
-68.663405
 21
-60.215745
  0
LINE
  8
型材断面
  6
CONTINUOUS
 10
-90.277935
 20
-84.3204
 11
-69.9599
 21
-59.168422
  0
LINE
  8
型材断面
  6
CONTINUOUS
 10
-88.98144
 20
-85.36772
 11
-68.663405
 21
-60.215745
  0
CIRCLE
  8
ボルト／ビス
  6
CONTINUOUS
 10
-89.420225
 20
-84.584763
 40
0.250185
  0
CIRCLE
  8
ボルト／ビス
  6
CONTINUOUS
 10
-89.420225
 20
-84.584763
 40
0.301025
  0
LINE
  8
ボルト／ビス
  6
CONTINUOUS
 62
    64
 10
-89.653687
 20
-84.6747
 11
-89.614843
 21
-84.427548
  0
LINE
  8
ボルト／ビス
  6
CONTINUOUS
 62
    64
 10
-89.381383
 20
-84.33761
 11
-89.614843
 21
-84.427548
  0
LINE
  8
ボルト／ビス
  6
CONTINUOUS
 62
    64
 10
-89.459068
 20
-84.831915
 11
-89.225608
 21
-84.741978
  0
LINE
  8
ボルト／ビス
  6
CONTINUOUS
 62
    64
 10
-89.186762
 20
-84.494825
 11
-89.225608
 21
-84.741978
  0
LINE
  8
ボルト／ビス
  6
CONTINUOUS
 62
    64
 10
-89.653687
 20
-84.6747
 11
-89.459068
 21
-84.831915
  0
LINE
  8
ボルト／ビス
  6
CONTINUOUS
 62
    64
 10
-89.381383
 20
-84.33761
 11
-89.186762
 21
-84.494825
  0
CIRCLE
  8
ボルト／ビス
  6
CONTINUOUS
 62
    64
 10
-89.420225
 20
-84.584763
 40
0.216668
  0
CIRCLE
  8
ボルト／ビス
  6
CONTINUOUS
 10
-79.470673
 20
-72.26807
 40
0.250185
  0
CIRCLE
  8
ボルト／ビス
  6
CONTINUOUS
 10
-79.470673
 20
-72.26807
 40
0.301025
  0
LINE
  8
ボルト／ビス
  6
CONTINUOUS
 62
    64
 10
-79.704133
 20
-72.35801
 11
-79.66529
 21
-72.110858
  0
LINE
  8
ボルト／ビス
  6
CONTINUOUS
 62
    64
 10
-79.431827
 20
-72.02092
 11
-79.66529
 21
-72.110858
  0
LINE
  8
ボルト／ビス
  6
CONTINUOUS
 62
    64
 10
-79.509515
 20
-72.515222
 11
-79.276052
 21
-72.425285
  0
LINE
  8
ボルト／ビス
  6
CONTINUOUS
 62
    64
 10
-79.23721
 20
-72.178132
 11
-79.276052
 21
-72.425285
  0
LINE
  8
ボルト／ビス
  6
CONTINUOUS
 62
    64
 10
-79.704133
 20
-72.35801
 11
-79.509515
 21
-72.515222
  0
LINE
  8
ボルト／ビス
  6
CONTINUOUS
 62
    64
 10
-79.431827
 20
-72.02092
 11
-79.23721
 21
-72.178132
  0
CIRCLE
  8
ボルト／ビス
  6
CONTINUOUS
 62
    64
 10
-79.470673
 20
-72.26807
 40
0.216668
  0
CIRCLE
  8
ボルト／ビス
  6
CONTINUOUS
 10
-69.521118
 20
-59.95138
 40
0.250185
  0
CIRCLE
  8
ボルト／ビス
  6
CONTINUOUS
 10
-69.521118
 20
-59.95138
 40
0.301025
  0
LINE
  8
ボルト／ビス
  6
CONTINUOUS
 62
    64
 10
-69.482275
 20
-59.704227
 11
-69.715735
 21
-59.794165
  0
LINE
  8
ボルト／ビス
  6
CONTINUOUS
 62
    64
 10
-69.75458
 20
-60.041317
 11
-69.715735
 21
-59.794165
  0
LINE
  8
ボルト／ビス
  6
CONTINUOUS
 62
    64
 10
-69.287655
 20
-59.861442
 11
-69.3265
 21
-60.108595
  0
LINE
  8
ボルト／ビス
  6
CONTINUOUS
 62
    64
 10
-69.559962
 20
-60.198532
 11
-69.3265
 21
-60.108595
  0
LINE
  8
ボルト／ビス
  6
CONTINUOUS
 62
    64
 10
-69.482275
 20
-59.704227
 11
-69.287655
 21
-59.861442
  0
LINE
  8
ボルト／ビス
  6
CONTINUOUS
 62
    64
 10
-69.75458
 20
-60.041317
 11
-69.559962
 21
-60.198532
  0
CIRCLE
  8
ボルト／ビス
  6
CONTINUOUS
 62
    64
 10
-69.521118
 20
-59.95138
 40
0.216668
  0
ENDBLK
  0
BLOCK
  2
*GRP_0013
 70
    65
 10
0.0
 20
0.0
  0
LINE
  8
補助線
  6
BYBLOCK
 62
    64
 10
-69.57348
 20
-84.519938
 11
-69.46875
 21
-84.649587
  0
LINE
  8
補助線
  6
BYBLOCK
 62
    64
 10
-69.456287
 20
-84.532395
 11
-69.58594
 21
-84.637128
  0
LINE
  8
補助線
  6
BYBLOCK
 62
    64
 10
-79.523035
 20
-72.20325
 11
-79.418303
 21
-72.332895
  0
LINE
  8
補助線
  6
BYBLOCK
 62
    64
 10
-79.405843
 20
-72.215705
 11
-79.535492
 21
-72.320438
  0
LINE
  8
補助線
  6
BYBLOCK
 62
    64
 10
-89.367855
 20
-60.016205
 11
-89.472588
 21
-59.886557
  0
LINE
  8
補助線
  6
BYBLOCK
 62
    64
 10
-89.355395
 20
-59.899013
 11
-89.485048
 21
-60.003745
  0
LINE
  8
型材断面
  6
CONTINUOUS
 10
-68.663405
 20
-84.3204
 11
-68.738158
 21
-85.023545
  0
LINE
  8
型材断面
  6
CONTINUOUS
 10
-68.738158
 20
-85.023545
 11
-69.256755
 21
-85.442472
  0
LINE
  8
型材断面
  6
CONTINUOUS
 10
-69.256755
 20
-85.442472
 11
-69.9599
 21
-85.36772
  0
LINE
  8
型材断面
  6
CONTINUOUS
 10
-88.98144
 20
-59.168422
 11
-89.684583
 21
-59.09367
  0
LINE
  8
型材断面
  6
CONTINUOUS
 10
-89.684583
 20
-59.09367
 11
-90.20318
 21
-59.5126
  0
LINE
  8
型材断面
  6
CONTINUOUS
 10
-90.20318
 20
-59.5126
 11
-90.277935
 21
-60.215745
  0
LINE
  8
型材断面
  6
CONTINUOUS
 10
-68.663405
 20
-84.3204
 11
-88.98144
 21
-59.168422
  0
LINE
  8
型材断面
  6
CONTINUOUS
 10
-69.9599
 20
-85.36772
 11
-90.277935
 21
-60.215745
  0
CIRCLE
  8
ボルト／ビス
  6
CONTINUOUS
 10
-69.521115
 20
-84.584763
 40
0.250185
  0
CIRCLE
  8
ボルト／ビス
  6
CONTINUOUS
 10
-69.521115
 20
-84.584763
 40
0.301025
  0
LINE
  8
ボルト／ビス
  6
CONTINUOUS
 62
    64
 10
-69.287652
 20
-84.6747
 11
-69.326498
 21
-84.427548
  0
LINE
  8
ボルト／ビス
  6
CONTINUOUS
 62
    64
 10
-69.559958
 20
-84.33761
 11
-69.326498
 21
-84.427548
  0
LINE
  8
ボルト／ビス
  6
CONTINUOUS
 62
    64
 10
-69.482272
 20
-84.831915
 11
-69.715733
 21
-84.741978
  0
LINE
  8
ボルト／ビス
  6
CONTINUOUS
 62
    64
 10
-69.754577
 20
-84.494825
 11
-69.715733
 21
-84.741978
  0
LINE
  8
ボルト／ビス
  6
CONTINUOUS
 62
    64
 10
-69.287652
 20
-84.6747
 11
-69.482272
 21
-84.831915
  0
LINE
  8
ボルト／ビス
  6
CONTINUOUS
 62
    64
 10
-69.559958
 20
-84.33761
 11
-69.754577
 21
-84.494825
  0
CIRCLE
  8
ボルト／ビス
  6
CONTINUOUS
 62
    64
 10
-69.521115
 20
-84.584763
 40
0.216668
  0
CIRCLE
  8
ボルト／ビス
  6
CONTINUOUS
 10
-79.470668
 20
-72.26807
 40
0.250185
  0
CIRCLE
  8
ボルト／ビス
  6
CONTINUOUS
 10
-79.470668
 20
-72.26807
 40
0.301025
  0
LINE
  8
ボルト／ビス
  6
CONTINUOUS
 62
    64
 10
-79.237208
 20
-72.35801
 11
-79.27605
 21
-72.110858
  0
LINE
  8
ボルト／ビス
  6
CONTINUOUS
 62
    64
 10
-79.509512
 20
-72.02092
 11
-79.27605
 21
-72.110858
  0
LINE
  8
ボルト／ビス
  6
CONTINUOUS
 62
    64
 10
-79.431825
 20
-72.515222
 11
-79.665287
 21
-72.425285
  0
LINE
  8
ボルト／ビス
  6
CONTINUOUS
 62
    64
 10
-79.70413
 20
-72.178132
 11
-79.665287
 21
-72.425285
  0
LINE
  8
ボルト／ビス
  6
CONTINUOUS
 62
    64
 10
-79.237208
 20
-72.35801
 11
-79.431825
 21
-72.515222
  0
LINE
  8
ボルト／ビス
  6
CONTINUOUS
 62
    64
 10
-79.509512
 20
-72.02092
 11
-79.70413
 21
-72.178132
  0
CIRCLE
  8
ボルト／ビス
  6
CONTINUOUS
 62
    64
 10
-79.470668
 20
-72.26807
 40
0.216668
  0
CIRCLE
  8
ボルト／ビス
  6
CONTINUOUS
 10
-89.420222
 20
-59.95138
 40
0.250185
  0
CIRCLE
  8
ボルト／ビス
  6
CONTINUOUS
 10
-89.420222
 20
-59.95138
 40
0.301025
  0
LINE
  8
ボルト／ビス
  6
CONTINUOUS
 62
    64
 10
-89.459065
 20
-59.704227
 11
-89.225605
 21
-59.794165
  0
LINE
  8
ボルト／ビス
  6
CONTINUOUS
 62
    64
 10
-89.18676
 20
-60.041317
 11
-89.225605
 21
-59.794165
  0
LINE
  8
ボルト／ビス
  6
CONTINUOUS
 62
    64
 10
-89.653685
 20
-59.861442
 11
-89.61484
 21
-60.108595
  0
LINE
  8
ボルト／ビス
  6
CONTINUOUS
 62
    64
 10
-89.381377
 20
-60.198532
 11
-89.61484
 21
-60.108595
  0
LINE
  8
ボルト／ビス
  6
CONTINUOUS
 62
    64
 10
-89.459065
 20
-59.704227
 11
-89.653685
 21
-59.861442
  0
LINE
  8
ボルト／ビス
  6
CONTINUOUS
 62
    64
 10
-89.18676
 20
-60.041317
 11
-89.381377
 21
-60.198532
  0
CIRCLE
  8
ボルト／ビス
  6
CONTINUOUS
 62
    64
 10
-89.420222
 20
-59.95138
 40
0.216668
  0
ENDBLK
  0
BLOCK
  2
*GRP_0014
 70
    65
 10
0.0
 20
0.0
  0
LINE
  8
補助線
  6
BYBLOCK
 62
    64
 10
30.52741
 20
-84.519938
 11
30.63214
 21
-84.649587
  0
LINE
  8
補助線
  6
BYBLOCK
 62
    64
 10
30.644602
 20
-84.532395
 11
30.51495
 21
-84.637128
  0
LINE
  8
補助線
  6
BYBLOCK
 62
    64
 10
20.577855
 20
-72.20325
 11
20.682588
 21
-72.332895
  0
LINE
  8
補助線
  6
BYBLOCK
 62
    64
 10
20.695047
 20
-72.215705
 11
20.565397
 21
-72.320438
  0
LINE
  8
補助線
  6
BYBLOCK
 62
    64
 10
10.733035
 20
-60.016205
 11
10.628303
 21
-59.886557
  0
LINE
  8
補助線
  6
BYBLOCK
 62
    64
 10
10.745495
 20
-59.899013
 11
10.615842
 21
-60.003745
  0
LINE
  8
型材断面
  6
CONTINUOUS
 10
31.437485
 20
-84.3204
 11
31.362732
 21
-85.023545
  0
LINE
  8
型材断面
  6
CONTINUOUS
 10
31.362732
 20
-85.023545
 11
30.844135
 21
-85.442472
  0
LINE
  8
型材断面
  6
CONTINUOUS
 10
30.844135
 20
-85.442472
 11
30.14099
 21
-85.36772
  0
LINE
  8
型材断面
  6
CONTINUOUS
 10
11.11945
 20
-59.168422
 11
10.416308
 21
-59.09367
  0
LINE
  8
型材断面
  6
CONTINUOUS
 10
10.416308
 20
-59.09367
 11
9.89771
 21
-59.5126
  0
LINE
  8
型材断面
  6
CONTINUOUS
 10
9.89771
 20
-59.5126
 11
9.822955
 21
-60.215745
  0
LINE
  8
型材断面
  6
CONTINUOUS
 10
31.437485
 20
-84.3204
 11
11.11945
 21
-59.168422
  0
LINE
  8
型材断面
  6
CONTINUOUS
 10
30.14099
 20
-85.36772
 11
9.822955
 21
-60.215745
  0
CIRCLE
  8
ボルト／ビス
  6
CONTINUOUS
 10
30.579775
 20
-84.584763
 40
0.250185
  0
CIRCLE
  8
ボルト／ビス
  6
CONTINUOUS
 10
30.579775
 20
-84.584763
 40
0.301025
  0
LINE
  8
ボルト／ビス
  6
CONTINUOUS
 62
    64
 10
30.813237
 20
-84.6747
 11
30.774393
 21
-84.427548
  0
LINE
  8
ボルト／ビス
  6
CONTINUOUS
 62
    64
 10
30.540933
 20
-84.33761
 11
30.774393
 21
-84.427548
  0
LINE
  8
ボルト／ビス
  6
CONTINUOUS
 62
    64
 10
30.618618
 20
-84.831915
 11
30.385158
 21
-84.741978
  0
LINE
  8
ボルト／ビス
  6
CONTINUOUS
 62
    64
 10
30.346313
 20
-84.494825
 11
30.385158
 21
-84.741978
  0
LINE
  8
ボルト／ビス
  6
CONTINUOUS
 62
    64
 10
30.813237
 20
-84.6747
 11
30.618618
 21
-84.831915
  0
LINE
  8
ボルト／ビス
  6
CONTINUOUS
 62
    64
 10
30.540933
 20
-84.33761
 11
30.346313
 21
-84.494825
  0
CIRCLE
  8
ボルト／ビス
  6
CONTINUOUS
 62
    64
 10
30.579775
 20
-84.584763
 40
0.216668
  0
CIRCLE
  8
ボルト／ビス
  6
CONTINUOUS
 10
20.630222
 20
-72.26807
 40
0.250185
  0
CIRCLE
  8
ボルト／ビス
  6
CONTINUOUS
 10
20.630222
 20
-72.26807
 40
0.301025
  0
LINE
  8
ボルト／ビス
  6
CONTINUOUS
 62
    64
 10
20.863682
 20
-72.35801
 11
20.82484
 21
-72.110858
  0
LINE
  8
ボルト／ビス
  6
CONTINUOUS
 62
    64
 10
20.591378
 20
-72.02092
 11
20.82484
 21
-72.110858
  0
LINE
  8
ボルト／ビス
  6
CONTINUOUS
 62
    64
 10
20.669065
 20
-72.515222
 11
20.435602
 21
-72.425285
  0
LINE
  8
ボルト／ビス
  6
CONTINUOUS
 62
    64
 10
20.39676
 20
-72.178132
 11
20.435602
 21
-72.425285
  0
LINE
  8
ボルト／ビス
  6
CONTINUOUS
 62
    64
 10
20.863682
 20
-72.35801
 11
20.669065
 21
-72.515222
  0
LINE
  8
ボルト／ビス
  6
CONTINUOUS
 62
    64
 10
20.591378
 20
-72.02092
 11
20.39676
 21
-72.178132
  0
CIRCLE
  8
ボルト／ビス
  6
CONTINUOUS
 62
    64
 10
20.630222
 20
-72.26807
 40
0.216668
  0
CIRCLE
  8
ボルト／ビス
  6
CONTINUOUS
 10
10.680667
 20
-59.95138
 40
0.250185
  0
CIRCLE
  8
ボルト／ビス
  6
CONTINUOUS
 10
10.680667
 20
-59.95138
 40
0.301025
  0
LINE
  8
ボルト／ビス
  6
CONTINUOUS
 62
    64
 10
10.641825
 20
-59.704227
 11
10.875285
 21
-59.794165
  0
LINE
  8
ボルト／ビス
  6
CONTINUOUS
 62
    64
 10
10.91413
 20
-60.041317
 11
10.875285
 21
-59.794165
  0
LINE
  8
ボルト／ビス
  6
CONTINUOUS
 62
    64
 10
10.447205
 20
-59.861442
 11
10.48605
 21
-60.108595
  0
LINE
  8
ボルト／ビス
  6
CONTINUOUS
 62
    64
 10
10.719513
 20
-60.198532
 11
10.48605
 21
-60.108595
  0
LINE
  8
ボルト／ビス
  6
CONTINUOUS
 62
    64
 10
10.641825
 20
-59.704227
 11
10.447205
 21
-59.861442
  0
LINE
  8
ボルト／ビス
  6
CONTINUOUS
 62
    64
 10
10.91413
 20
-60.041317
 11
10.719513
 21
-60.198532
  0
CIRCLE
  8
ボルト／ビス
  6
CONTINUOUS
 62
    64
 10
10.680667
 20
-59.95138
 40
0.216668
  0
ENDBLK
  0
BLOCK
  2
*GRP_0015
 70
    65
 10
0.0
 20
0.0
  0
LINE
  8
補助線
  6
BYBLOCK
 62
    64
 10
10.73303
 20
-84.519938
 11
10.6283
 21
-84.649587
  0
LINE
  8
補助線
  6
BYBLOCK
 62
    64
 10
10.615838
 20
-84.532395
 11
10.74549
 21
-84.637128
  0
LINE
  8
補助線
  6
BYBLOCK
 62
    64
 10
20.682585
 20
-72.20325
 11
20.577852
 21
-72.332895
  0
LINE
  8
補助線
  6
BYBLOCK
 62
    64
 10
20.565393
 20
-72.215705
 11
20.695043
 21
-72.320438
  0
LINE
  8
補助線
  6
BYBLOCK
 62
    64
 10
30.527405
 20
-60.016205
 11
30.632137
 21
-59.886557
  0
LINE
  8
補助線
  6
BYBLOCK
 62
    64
 10
30.514945
 20
-59.899013
 11
30.644598
 21
-60.003745
  0
LINE
  8
型材断面
  6
CONTINUOUS
 10
9.822955
 20
-84.3204
 11
9.897708
 21
-85.023545
  0
LINE
  8
型材断面
  6
CONTINUOUS
 10
9.897708
 20
-85.023545
 11
10.416305
 21
-85.442472
  0
LINE
  8
型材断面
  6
CONTINUOUS
 10
10.416305
 20
-85.442472
 11
11.11945
 21
-85.36772
  0
LINE
  8
型材断面
  6
CONTINUOUS
 10
30.14099
 20
-59.168422
 11
30.844132
 21
-59.09367
  0
LINE
  8
型材断面
  6
CONTINUOUS
 10
30.844132
 20
-59.09367
 11
31.36273
 21
-59.5126
  0
LINE
  8
型材断面
  6
CONTINUOUS
 10
31.36273
 20
-59.5126
 11
31.437485
 21
-60.215745
  0
LINE
  8
型材断面
  6
CONTINUOUS
 10
9.822955
 20
-84.3204
 11
30.14099
 21
-59.168422
  0
LINE
  8
型材断面
  6
CONTINUOUS
 10
11.11945
 20
-85.36772
 11
31.437485
 21
-60.215745
  0
CIRCLE
  8
ボルト／ビス
  6
CONTINUOUS
 10
10.680665
 20
-84.584763
 40
0.250185
  0
CIRCLE
  8
ボルト／ビス
  6
CONTINUOUS
 10
10.680665
 20
-84.584763
 40
0.301025
  0
LINE
  8
ボルト／ビス
  6
CONTINUOUS
 62
    64
 10
10.447202
 20
-84.6747
 11
10.486047
 21
-84.427548
  0
LINE
  8
ボルト／ビス
  6
CONTINUOUS
 62
    64
 10
10.719507
 20
-84.33761
 11
10.486047
 21
-84.427548
  0
LINE
  8
ボルト／ビス
  6
CONTINUOUS
 62
    64
 10
10.641822
 20
-84.831915
 11
10.875282
 21
-84.741978
  0
LINE
  8
ボルト／ビス
  6
CONTINUOUS
 62
    64
 10
10.914127
 20
-84.494825
 11
10.875282
 21
-84.741978
  0
LINE
  8
ボルト／ビス
  6
CONTINUOUS
 62
    64
 10
10.447202
 20
-84.6747
 11
10.641822
 21
-84.831915
  0
LINE
  8
ボルト／ビス
  6
CONTINUOUS
 62
    64
 10
10.719507
 20
-84.33761
 11
10.914127
 21
-84.494825
  0
CIRCLE
  8
ボルト／ビス
  6
CONTINUOUS
 62
    64
 10
10.680665
 20
-84.584763
 40
0.216668
  0
CIRCLE
  8
ボルト／ビス
  6
CONTINUOUS
 10
20.630218
 20
-72.26807
 40
0.250185
  0
CIRCLE
  8
ボルト／ビス
  6
CONTINUOUS
 10
20.630218
 20
-72.26807
 40
0.301025
  0
LINE
  8
ボルト／ビス
  6
CONTINUOUS
 62
    64
 10
20.396758
 20
-72.35801
 11
20.4356
 21
-72.110858
  0
LINE
  8
ボルト／ビス
  6
CONTINUOUS
 62
    64
 10
20.669062
 20
-72.02092
 11
20.4356
 21
-72.110858
  0
LINE
  8
ボルト／ビス
  6
CONTINUOUS
 62
    64
 10
20.591375
 20
-72.515222
 11
20.824837
 21
-72.425285
  0
LINE
  8
ボルト／ビス
  6
CONTINUOUS
 62
    64
 10
20.86368
 20
-72.178132
 11
20.824837
 21
-72.425285
  0
LINE
  8
ボルト／ビス
  6
CONTINUOUS
 62
    64
 10
20.396758
 20
-72.35801
 11
20.591375
 21
-72.515222
  0
LINE
  8
ボルト／ビス
  6
CONTINUOUS
 62
    64
 10
20.669062
 20
-72.02092
 11
20.86368
 21
-72.178132
  0
CIRCLE
  8
ボルト／ビス
  6
CONTINUOUS
 62
    64
 10
20.630218
 20
-72.26807
 40
0.216668
  0
CIRCLE
  8
ボルト／ビス
  6
CONTINUOUS
 10
30.579773
 20
-59.95138
 40
0.250185
  0
CIRCLE
  8
ボルト／ビス
  6
CONTINUOUS
 10
30.579773
 20
-59.95138
 40
0.301025
  0
LINE
  8
ボルト／ビス
  6
CONTINUOUS
 62
    64
 10
30.618615
 20
-59.704227
 11
30.385155
 21
-59.794165
  0
LINE
  8
ボルト／ビス
  6
CONTINUOUS
 62
    64
 10
30.34631
 20
-60.041317
 11
30.385155
 21
-59.794165
  0
LINE
  8
ボルト／ビス
  6
CONTINUOUS
 62
    64
 10
30.813235
 20
-59.861442
 11
30.77439
 21
-60.108595
  0
LINE
  8
ボルト／ビス
  6
CONTINUOUS
 62
    64
 10
30.540927
 20
-60.198532
 11
30.77439
 21
-60.108595
  0
LINE
  8
ボルト／ビス
  6
CONTINUOUS
 62
    64
 10
30.618615
 20
-59.704227
 11
30.813235
 21
-59.861442
  0
LINE
  8
ボルト／ビス
  6
CONTINUOUS
 62
    64
 10
30.34631
 20
-60.041317
 11
30.540927
 21
-60.198532
  0
CIRCLE
  8
ボルト／ビス
  6
CONTINUOUS
 62
    64
 10
30.579773
 20
-59.95138
 40
0.216668
  0
ENDBLK
  0
BLOCK
  2
*DIM_0016
 70
    65
 10
0.0
 20
0.0
  0
LINE
  8
寸法
  6
BYBLOCK
 62
     0
 10
135.11304
 20
69.42329
 11
135.11304
 21
86.5884
  0
LINE
  8
寸法
  6
BYBLOCK
 62
     0
 10
142.146543
 20
69.739957
 11
142.146543
 21
86.5884
  0
LINE
  8
寸法
  6
BYBLOCK
 62
     0
 10
135.11304
 20
86.5884
 11
142.146543
 21
86.5884
  0
POINT
  8
寸法
 62
     0
 10
135.11304
 20
86.5884
  0
POINT
  8
寸法
 62
     0
 10
142.146543
 20
86.5884
  0
TEXT
  7
TextStyle03
  8
寸法
  6
CONTINUOUS
 62
     0
 10
136.1625
 20
86.95
  1
211
 40
3.0
 72
     5
 11
141.0375
 21
86.95
  0
ENDBLK
  0
BLOCK
  2
*DIM_0017
 70
    65
 10
0.0
 20
0.0
  0
LINE
  8
寸法
  6
BYBLOCK
 62
     0
 10
133.489825
 20
66.739957
 11
82.21224
 21
66.739957
  0
LINE
  8
寸法
  6
BYBLOCK
 62
     0
 10
82.21224
 20
64.756625
 11
82.21224
 21
66.739957
  0
POINT
  8
寸法
 62
     0
 10
82.21224
 20
64.756625
  0
POINT
  8
寸法
 62
     0
 10
82.21224
 20
66.739957
  0
TEXT
  7
TextStyle03
  8
寸法
  6
CONTINUOUS
 62
     0
 10
81.8
 20
69.19375
  1
59.5
 40
3.0
 50
90.0
 72
     5
 11
81.8
 21
75.75625
  0
ENDBLK
  0
BLOCK
  2
*DIM_0018
 70
    65
 10
0.0
 20
0.0
  0
LINE
  8
寸法
  6
BYBLOCK
 62
     0
 10
133.489825
 20
-3.893378
 11
82.21224
 21
-3.893378
  0
LINE
  8
寸法
  6
BYBLOCK
 62
     0
 10
82.21224
 20
-1.910042
 11
82.21224
 21
-3.893378
  0
POINT
  8
寸法
 62
     0
 10
82.21224
 20
-1.910042
  0
POINT
  8
寸法
 62
     0
 10
82.21224
 20
-3.893378
  0
TEXT
  7
TextStyle03
  8
寸法
  6
CONTINUOUS
 62
     0
 10
81.8
 20
-12.95625
  1
59.5
 40
3.0
 50
90.0
 72
     5
 11
81.8
 21
-6.39375
  0
ENDBLK
  0
BLOCK
  2
*DIM_0019
 70
    65
 10
0.0
 20
0.0
  0
LINE
  8
寸法
  6
BYBLOCK
 62
     0
 10
50.246443
 20
-79.624597
 11
61.549425
 21
-79.624597
  0
LINE
  8
寸法
  6
BYBLOCK
 62
     0
 10
50.56311
 20
-86.6581
 11
61.549425
 21
-86.6581
  0
LINE
  8
寸法
  6
BYBLOCK
 62
     0
 10
61.549425
 20
-79.624597
 11
61.549425
 21
-86.6581
  0
POINT
  8
寸法
 62
     0
 10
61.549425
 20
-79.624597
  0
POINT
  8
寸法
 62
     0
 10
61.549425
 20
-86.6581
  0
TEXT
  7
TextStyle03
  8
寸法
  6
CONTINUOUS
 62
     0
 10
61.15
 20
-85.5875
  1
211
 40
3.0
 50
90.0
 72
     5
 11
61.15
 21
-80.7125
  0
ENDBLK
  0
BLOCK
  2
*DIM_0020
 70
    65
 10
0.0
 20
0.0
  0
LINE
  8
寸法
  6
BYBLOCK
 62
     0
 10
47.56311
 20
-78.001383
 11
47.56311
 21
-22.536362
  0
LINE
  8
寸法
  6
BYBLOCK
 62
     0
 10
45.579775
 20
-22.536362
 11
47.56311
 21
-22.536362
  0
POINT
  8
寸法
 62
     0
 10
45.579775
 20
-22.536362
  0
POINT
  8
寸法
 62
     0
 10
47.56311
 20
-22.536362
  0
TEXT
  7
TextStyle03
  8
寸法
  6
CONTINUOUS
 62
     0
 10
50.01875
 20
-22.15
  1
59.5
 40
3.0
 72
     5
 11
56.58125
 21
-22.15
  0
ENDBLK
  0
BLOCK
  2
*DIM_0021
 70
    65
 10
0.0
 20
0.0
  0
LINE
  8
寸法
  6
BYBLOCK
 62
     0
 10
-106.40356
 20
-78.001383
 11
-106.40356
 21
-22.536362
  0
LINE
  8
寸法
  6
BYBLOCK
 62
     0
 10
-104.420225
 20
-22.536362
 11
-106.40356
 21
-22.536362
  0
POINT
  8
寸法
 62
     0
 10
-104.420225
 20
-22.536362
  0
POINT
  8
寸法
 62
     0
 10
-106.40356
 20
-22.536362
  0
TEXT
  7
TextStyle03
  8
寸法
  6
CONTINUOUS
 62
     0
 10
-115.45625
 20
-22.15
  1
59.5
 40
3.0
 72
     5
 11
-108.89375
 21
-22.15
  0
ENDBLK
  0
BLOCK
  2
*DIM_0022
 70
    65
 10
0.0
 20
0.0
  0
LINE
  8
寸法
  6
BYBLOCK
 62
     0
 10
45.579775
 20
-22.536362
 11
-104.420225
 21
-22.536362
  0
POINT
  8
寸法
 62
     0
 10
45.579775
 20
-22.536362
  0
POINT
  8
寸法
 62
     0
 10
-104.420225
 20
-22.536362
  0
TEXT
  7
TextStyle03
  8
寸法
  6
CONTINUOUS
 62
     0
 10
-41.14375
 20
-22.175
  1
呼称寸法　4500
 40
3.0
 72
     5
 11
-17.70625
 21
-22.175
  0
ENDBLK
  0
BLOCK
  2
*DIM_0023
 70
    65
 10
0.0
 20
0.0
  0
LINE
  8
寸法
  6
BYBLOCK
 62
     0
 10
-107.420225
 20
8.08996
 11
-136.909303
 21
8.08996
  0
LINE
  8
寸法
  6
BYBLOCK
 62
     0
 10
-107.420225
 20
31.423293
 11
-136.909303
 21
31.423293
  0
LINE
  8
寸法
  6
BYBLOCK
 62
     0
 10
-136.909303
 20
8.08996
 11
-136.909303
 21
31.423293
  0
POINT
  8
寸法
 62
     0
 10
-136.909303
 20
8.08996
  0
POINT
  8
寸法
 62
     0
 10
-136.909303
 20
31.423293
  0
TEXT
  7
TextStyle03
  8
寸法
  6
CONTINUOUS
 62
     0
 10
-137.3
 20
17.3125
  1
700
 40
3.0
 50
90.0
 72
     5
 11
-137.3
 21
22.1875
  0
ENDBLK
  0
BLOCK
  2
*DIM_0024
 70
    65
 10
0.0
 20
0.0
  0
LINE
  8
寸法
  6
BYBLOCK
 62
     0
 10
-107.420225
 20
54.756625
 11
-136.909303
 21
54.756625
  0
LINE
  8
寸法
  6
BYBLOCK
 62
     0
 10
-136.909303
 20
31.423293
 11
-136.909303
 21
54.756625
  0
POINT
  8
寸法
 62
     0
 10
-136.909303
 20
54.756625
  0
TEXT
  7
TextStyle03
  8
寸法
  6
CONTINUOUS
 62
     0
 10
-137.3
 20
40.6375
  1
700
 40
3.0
 50
90.0
 72
     5
 11
-137.3
 21
45.5125
  0
ENDBLK
  0
BLOCK
  2
*DIM_0025
 70
    65
 10
0.0
 20
0.0
  0
LINE
  8
寸法
  6
BYBLOCK
 62
     0
 10
-96.086892
 20
67.756625
 11
-96.086892
 21
96.864697
  0
LINE
  8
寸法
  6
BYBLOCK
 62
     0
 10
-69.420225
 20
67.756625
 11
-69.420225
 21
96.864697
  0
LINE
  8
寸法
  6
BYBLOCK
 62
     0
 10
-96.086892
 20
96.864697
 11
-69.420225
 21
96.864697
  0
POINT
  8
寸法
 62
     0
 10
-96.086892
 20
96.864697
  0
POINT
  8
寸法
 62
     0
 10
-69.420225
 20
96.864697
  0
TEXT
  7
TextStyle03
  8
寸法
  6
CONTINUOUS
 62
     0
 10
-85.2125
 20
97.2
  1
800
 40
3.0
 72
     5
 11
-80.3375
 21
97.2
  0
ENDBLK
  0
BLOCK
  2
*DIM_0026
 70
    65
 10
0.0
 20
0.0
  0
LINE
  8
寸法
  6
BYBLOCK
 62
     0
 10
-42.753557
 20
67.756625
 11
-42.753557
 21
96.864697
  0
LINE
  8
寸法
  6
BYBLOCK
 62
     0
 10
-69.420225
 20
96.864697
 11
-42.753557
 21
96.864697
  0
POINT
  8
寸法
 62
     0
 10
-42.753557
 20
96.864697
  0
TEXT
  7
TextStyle03
  8
寸法
  6
CONTINUOUS
 62
     0
 10
-58.5375
 20
97.2
  1
800
 40
3.0
 72
     5
 11
-53.6625
 21
97.2
  0
ENDBLK
  0
BLOCK
  2
*DIM_0027
 70
    65
 10
0.0
 20
0.0
  0
LINE
  8
寸法
  6
BYBLOCK
 62
     0
 10
-16.086892
 20
67.756625
 11
-16.086892
 21
96.864697
  0
LINE
  8
寸法
  6
BYBLOCK
 62
     0
 10
-42.753557
 20
96.864697
 11
-16.086892
 21
96.864697
  0
POINT
  8
寸法
 62
     0
 10
-16.086892
 20
96.864697
  0
TEXT
  7
TextStyle03
  8
寸法
  6
CONTINUOUS
 62
     0
 10
-31.8625
 20
97.2
  1
800
 40
3.0
 72
     5
 11
-26.9875
 21
97.2
  0
ENDBLK
  0
BLOCK
  2
*DIM_0028
 70
    65
 10
0.0
 20
0.0
  0
LINE
  8
寸法
  6
BYBLOCK
 62
     0
 10
10.579775
 20
67.756625
 11
10.579775
 21
96.864697
  0
LINE
  8
寸法
  6
BYBLOCK
 62
     0
 10
-16.086892
 20
96.864697
 11
10.579775
 21
96.864697
  0
POINT
  8
寸法
 62
     0
 10
10.579775
 20
96.864697
  0
TEXT
  7
TextStyle03
  8
寸法
  6
CONTINUOUS
 62
     0
 10
-5.2125
 20
97.2
  1
800
 40
3.0
 72
     5
 11
-0.3375
 21
97.2
  0
ENDBLK
  0
BLOCK
  2
*DIM_0029
 70
    65
 10
0.0
 20
0.0
  0
LINE
  8
寸法
  6
BYBLOCK
 62
     0
 10
37.246443
 20
67.756625
 11
37.246443
 21
96.864697
  0
LINE
  8
寸法
  6
BYBLOCK
 62
     0
 10
10.579775
 20
96.864697
 11
37.246443
 21
96.864697
  0
POINT
  8
寸法
 62
     0
 10
37.246443
 20
96.864697
  0
TEXT
  7
TextStyle03
  8
寸法
  6
CONTINUOUS
 62
     0
 10
21.4625
 20
97.2
  1
800
 40
3.0
 72
     5
 11
26.3375
 21
97.2
  0
ENDBLK
  0
BLOCK
  2
*GRP_0031
 70
    65
 10
0.0
 20
0.0
  0
LINE
  8
ボルト／ビス
  6
CONTINUOUS
 10
135.11304
 20
-2.57671
 11
134.646375
 21
-2.57671
  0
LINE
  8
ボルト／ビス
  6
CONTINUOUS
 10
135.11304
 20
-2.943375
 11
135.046375
 21
-2.943375
  0
LINE
  8
ボルト／ビス
  6
CONTINUOUS
 10
135.046375
 20
-2.943375
 11
135.046375
 21
-2.210042
  0
LINE
  8
ボルト／ビス
  6
CONTINUOUS
 10
135.046375
 20
-2.210042
 11
135.11304
 21
-2.210042
  0
LINE
  8
ボルト／ビス
  6
CONTINUOUS
 10
135.11304
 20
-2.943375
 11
135.11304
 21
-2.210042
  0
LINE
  8
ボルト／ビス
  6
CONTINUOUS
 10
135.01304
 20
-2.87671
 11
135.046375
 21
-2.87671
  0
LINE
  8
ボルト／ビス
  6
CONTINUOUS
 10
135.01304
 20
-2.87671
 11
135.01304
 21
-2.27671
  0
LINE
  8
ボルト／ビス
  6
CONTINUOUS
 10
135.01304
 20
-2.27671
 11
135.046375
 21
-2.27671
  0
LINE
  8
ボルト／ビス
  6
CONTINUOUS
 62
    64
 10
134.81304
 20
-2.737085
 11
134.824715
 21
-2.76916
  0
ARC
  8
ボルト／ビス
  6
CONTINUOUS
 62
    64
 10
134.91802
 20
-2.721048
 40
0.104978
 50
152.721967
 51
180.0
  0
ARC
  8
ボルト／ビス
  6
CONTINUOUS
 62
    64
 10
135.215443
 20
-2.57671
 40
0.402402
 50
166.165002
 51
193.834985
  0
LINE
  8
ボルト／ビス
  6
CONTINUOUS
 62
    64
 10
134.81304
 20
-2.416335
 11
134.824715
 21
-2.38426
  0
ARC
  8
ボルト／ビス
  6
CONTINUOUS
 62
    64
 10
134.91802
 20
-2.432373
 40
0.104978
 50
180.0
 51
207.278033
  0
LINE
  8
ボルト／ビス
  6
CONTINUOUS
 62
    64
 10
134.81304
 20
-2.737085
 11
134.81304
 21
-2.416335
  0
LINE
  8
ボルト／ビス
  6
CONTINUOUS
 62
    64
 10
134.824715
 20
-2.38426
 11
134.946375
 21
-2.38426
  0
LINE
  8
ボルト／ビス
  6
CONTINUOUS
 62
    64
 10
134.824715
 20
-2.480485
 11
134.946375
 21
-2.480485
  0
LINE
  8
ボルト／ビス
  6
CONTINUOUS
 62
    64
 10
134.824715
 20
-2.76916
 11
134.946375
 21
-2.76916
  0
LINE
  8
ボルト／ビス
  6
CONTINUOUS
 62
    64
 10
134.824715
 20
-2.672935
 11
134.946375
 21
-2.672935
  0
LINE
  8
ボルト／ビス
  6
CONTINUOUS
 10
134.946375
 20
-2.76916
 11
134.946375
 21
-2.38426
  0
LINE
  8
ボルト／ビス
  6
CONTINUOUS
 10
134.946375
 20
-2.77671
 11
135.01304
 21
-2.77671
  0
LINE
  8
ボルト／ビス
  6
CONTINUOUS
 10
134.946375
 20
-2.77671
 11
134.946375
 21
-2.37671
  0
LINE
  8
ボルト／ビス
  6
CONTINUOUS
 10
134.946375
 20
-2.37671
 11
135.01304
 21
-2.37671
  0
ENDBLK
  0
BLOCK
  2
*GRP_0032
 70
    65
 10
0.0
 20
0.0
  0
LINE
  8
ボルト／ビス
  6
CONTINUOUS
 10
135.11304
 20
65.42329
 11
134.646375
 21
65.42329
  0
LINE
  8
ボルト／ビス
  6
CONTINUOUS
 10
135.11304
 20
65.056625
 11
135.046375
 21
65.056625
  0
LINE
  8
ボルト／ビス
  6
CONTINUOUS
 10
135.046375
 20
65.056625
 11
135.046375
 21
65.789957
  0
LINE
  8
ボルト／ビス
  6
CONTINUOUS
 10
135.046375
 20
65.789957
 11
135.11304
 21
65.789957
  0
LINE
  8
ボルト／ビス
  6
CONTINUOUS
 10
135.11304
 20
65.056625
 11
135.11304
 21
65.789957
  0
LINE
  8
ボルト／ビス
  6
CONTINUOUS
 10
135.01304
 20
65.12329
 11
135.046375
 21
65.12329
  0
LINE
  8
ボルト／ビス
  6
CONTINUOUS
 10
135.01304
 20
65.12329
 11
135.01304
 21
65.72329
  0
LINE
  8
ボルト／ビス
  6
CONTINUOUS
 10
135.01304
 20
65.72329
 11
135.046375
 21
65.72329
  0
LINE
  8
ボルト／ビス
  6
CONTINUOUS
 62
    64
 10
134.81304
 20
65.262915
 11
134.824715
 21
65.23084
  0
ARC
  8
ボルト／ビス
  6
CONTINUOUS
 62
    64
 10
134.918019
 20
65.278952
 40
0.104978
 50
152.721967
 51
180.0
  0
ARC
  8
ボルト／ビス
  6
CONTINUOUS
 62
    64
 10
135.215442
 20
65.423289
 40
0.402402
 50
166.165002
 51
193.834985
  0
LINE
  8
ボルト／ビス
  6
CONTINUOUS
 62
    64
 10
134.81304
 20
65.583665
 11
134.824715
 21
65.61574
  0
ARC
  8
ボルト／ビス
  6
CONTINUOUS
 62
    64
 10
134.918019
 20
65.567627
 40
0.104978
 50
180.0
 51
207.278033
  0
LINE
  8
ボルト／ビス
  6
CONTINUOUS
 62
    64
 10
134.81304
 20
65.262915
 11
134.81304
 21
65.583665
  0
LINE
  8
ボルト／ビス
  6
CONTINUOUS
 62
    64
 10
134.824715
 20
65.61574
 11
134.946375
 21
65.61574
  0
LINE
  8
ボルト／ビス
  6
CONTINUOUS
 62
    64
 10
134.824715
 20
65.519515
 11
134.946375
 21
65.519515
  0
LINE
  8
ボルト／ビス
  6
CONTINUOUS
 62
    64
 10
134.824715
 20
65.23084
 11
134.946375
 21
65.23084
  0
LINE
  8
ボルト／ビス
  6
CONTINUOUS
 62
    64
 10
134.824715
 20
65.327065
 11
134.946375
 21
65.327065
  0
LINE
  8
ボルト／ビス
  6
CONTINUOUS
 10
134.946375
 20
65.23084
 11
134.946375
 21
65.61574
  0
LINE
  8
ボルト／ビス
  6
CONTINUOUS
 10
134.946375
 20
65.22329
 11
135.01304
 21
65.22329
  0
LINE
  8
ボルト／ビス
  6
CONTINUOUS
 10
134.946375
 20
65.22329
 11
134.946375
 21
65.62329
  0
LINE
  8
ボルト／ビス
  6
CONTINUOUS
 10
134.946375
 20
65.62329
 11
135.01304
 21
65.62329
  0
ENDBLK
  0
BLOCK
  2
*GRP_0033
 70
    65
 10
0.0
 20
0.0
  0
LINE
  8
ボルト／ビス
  6
CONTINUOUS
 10
46.246443
 20
-79.624597
 11
46.246443
 21
-79.157932
  0
LINE
  8
ボルト／ビス
  6
CONTINUOUS
 10
45.879777
 20
-79.624597
 11
45.879777
 21
-79.557932
  0
LINE
  8
ボルト／ビス
  6
CONTINUOUS
 10
45.879777
 20
-79.557932
 11
46.61311
 21
-79.557932
  0
LINE
  8
ボルト／ビス
  6
CONTINUOUS
 10
46.61311
 20
-79.557932
 11
46.61311
 21
-79.624597
  0
LINE
  8
ボルト／ビス
  6
CONTINUOUS
 10
45.879777
 20
-79.624597
 11
46.61311
 21
-79.624597
  0
LINE
  8
ボルト／ビス
  6
CONTINUOUS
 10
45.946443
 20
-79.524597
 11
45.946443
 21
-79.557932
  0
LINE
  8
ボルト／ビス
  6
CONTINUOUS
 10
45.946443
 20
-79.524597
 11
46.546443
 21
-79.524597
  0
LINE
  8
ボルト／ビス
  6
CONTINUOUS
 10
46.546443
 20
-79.524597
 11
46.546443
 21
-79.557932
  0
LINE
  8
ボルト／ビス
  6
CONTINUOUS
 62
    64
 10
46.086067
 20
-79.324597
 11
46.053992
 21
-79.336272
  0
ARC
  8
ボルト／ビス
  6
CONTINUOUS
 62
    64
 10
46.102104
 20
-79.429578
 40
0.104978
 50
62.721967
 51
90.0
  0
ARC
  8
ボルト／ビス
  6
CONTINUOUS
 62
    64
 10
46.246442
 20
-79.727002
 40
0.402402
 50
76.165002
 51
103.834985
  0
LINE
  8
ボルト／ビス
  6
CONTINUOUS
 62
    64
 10
46.406818
 20
-79.324597
 11
46.438892
 21
-79.336272
  0
ARC
  8
ボルト／ビス
  6
CONTINUOUS
 62
    64
 10
46.39078
 20
-79.429578
 40
0.104978
 50
90.0
 51
117.278033
  0
LINE
  8
ボルト／ビス
  6
CONTINUOUS
 62
    64
 10
46.086067
 20
-79.324597
 11
46.406818
 21
-79.324597
  0
LINE
  8
ボルト／ビス
  6
CONTINUOUS
 62
    64
 10
46.438892
 20
-79.336272
 11
46.438892
 21
-79.457932
  0
LINE
  8
ボルト／ビス
  6
CONTINUOUS
 62
    64
 10
46.342668
 20
-79.336272
 11
46.342668
 21
-79.457932
  0
LINE
  8
ボルト／ビス
  6
CONTINUOUS
 62
    64
 10
46.053992
 20
-79.336272
 11
46.053992
 21
-79.457932
  0
LINE
  8
ボルト／ビス
  6
CONTINUOUS
 62
    64
 10
46.150217
 20
-79.336272
 11
46.150217
 21
-79.457932
  0
LINE
  8
ボルト／ビス
  6
CONTINUOUS
 10
46.053992
 20
-79.457932
 11
46.438892
 21
-79.457932
  0
LINE
  8
ボルト／ビス
  6
CONTINUOUS
 10
46.046443
 20
-79.457932
 11
46.046443
 21
-79.524597
  0
LINE
  8
ボルト／ビス
  6
CONTINUOUS
 10
46.046443
 20
-79.457932
 11
46.446443
 21
-79.457932
  0
LINE
  8
ボルト／ビス
  6
CONTINUOUS
 10
46.446443
 20
-79.457932
 11
46.446443
 21
-79.524597
  0
ENDBLK
  0
BLOCK
  2
*GRP_0034
 70
    65
 10
0.0
 20
0.0
  0
LINE
  8
ボルト／ビス
  6
DOT
 10
46.246443
 20
-57.624597
 11
46.246443
 21
-57.157932
  0
LINE
  8
ボルト／ビス
  6
DOT
 10
45.879777
 20
-57.624597
 11
45.879777
 21
-57.557932
  0
LINE
  8
ボルト／ビス
  6
DOT
 10
45.879777
 20
-57.557932
 11
46.61311
 21
-57.557932
  0
LINE
  8
ボルト／ビス
  6
DOT
 10
46.61311
 20
-57.557932
 11
46.61311
 21
-57.624597
  0
LINE
  8
ボルト／ビス
  6
DOT
 10
45.879777
 20
-57.624597
 11
46.61311
 21
-57.624597
  0
LINE
  8
ボルト／ビス
  6
DOT
 10
45.946443
 20
-57.524597
 11
45.946443
 21
-57.557932
  0
LINE
  8
ボルト／ビス
  6
DOT
 10
45.946443
 20
-57.524597
 11
46.546443
 21
-57.524597
  0
LINE
  8
ボルト／ビス
  6
DOT
 10
46.546443
 20
-57.524597
 11
46.546443
 21
-57.557932
  0
LINE
  8
ボルト／ビス
  6
DOT
 62
    64
 10
46.086067
 20
-57.324597
 11
46.053992
 21
-57.336272
  0
ARC
  8
ボルト／ビス
  6
DOT
 62
    64
 10
46.102104
 20
-57.429578
 40
0.104978
 50
62.721967
 51
90.0
  0
ARC
  8
ボルト／ビス
  6
DOT
 62
    64
 10
46.246442
 20
-57.727002
 40
0.402402
 50
76.165002
 51
103.834985
  0
LINE
  8
ボルト／ビス
  6
DOT
 62
    64
 10
46.406818
 20
-57.324597
 11
46.438892
 21
-57.336272
  0
ARC
  8
ボルト／ビス
  6
DOT
 62
    64
 10
46.39078
 20
-57.429578
 40
0.104978
 50
90.0
 51
117.278033
  0
LINE
  8
ボルト／ビス
  6
DOT
 62
    64
 10
46.086067
 20
-57.324597
 11
46.406818
 21
-57.324597
  0
LINE
  8
ボルト／ビス
  6
DOT
 62
    64
 10
46.438892
 20
-57.336272
 11
46.438892
 21
-57.457932
  0
LINE
  8
ボルト／ビス
  6
DOT
 62
    64
 10
46.342668
 20
-57.336272
 11
46.342668
 21
-57.457932
  0
LINE
  8
ボルト／ビス
  6
DOT
 62
    64
 10
46.053992
 20
-57.336272
 11
46.053992
 21
-57.457932
  0
LINE
  8
ボルト／ビス
  6
DOT
 62
    64
 10
46.150217
 20
-57.336272
 11
46.150217
 21
-57.457932
  0
LINE
  8
ボルト／ビス
  6
DOT
 10
46.053992
 20
-57.457932
 11
46.438892
 21
-57.457932
  0
LINE
  8
ボルト／ビス
  6
DOT
 10
46.046443
 20
-57.457932
 11
46.046443
 21
-57.524597
  0
LINE
  8
ボルト／ビス
  6
DOT
 10
46.046443
 20
-57.457932
 11
46.446443
 21
-57.457932
  0
LINE
  8
ボルト／ビス
  6
DOT
 10
46.446443
 20
-57.457932
 11
46.446443
 21
-57.524597
  0
ENDBLK
  0
BLOCK
  2
*GRP_0035
 70
    65
 10
0.0
 20
0.0
  0
LINE
  8
ボルト／ビス
  6
CONTINUOUS
 10
-105.086892
 20
-79.624597
 11
-105.086892
 21
-79.157932
  0
LINE
  8
ボルト／ビス
  6
CONTINUOUS
 10
-105.453557
 20
-79.624597
 11
-105.453557
 21
-79.557932
  0
LINE
  8
ボルト／ビス
  6
CONTINUOUS
 10
-105.453557
 20
-79.557932
 11
-104.720225
 21
-79.557932
  0
LINE
  8
ボルト／ビス
  6
CONTINUOUS
 10
-104.720225
 20
-79.557932
 11
-104.720225
 21
-79.624597
  0
LINE
  8
ボルト／ビス
  6
CONTINUOUS
 10
-105.453557
 20
-79.624597
 11
-104.720225
 21
-79.624597
  0
LINE
  8
ボルト／ビス
  6
CONTINUOUS
 10
-105.386892
 20
-79.524597
 11
-105.386892
 21
-79.557932
  0
LINE
  8
ボルト／ビス
  6
CONTINUOUS
 10
-105.386892
 20
-79.524597
 11
-104.786892
 21
-79.524597
  0
LINE
  8
ボルト／ビス
  6
CONTINUOUS
 10
-104.786892
 20
-79.524597
 11
-104.786892
 21
-79.557932
  0
LINE
  8
ボルト／ビス
  6
CONTINUOUS
 62
    64
 10
-105.247267
 20
-79.324597
 11
-105.279342
 21
-79.336272
  0
ARC
  8
ボルト／ビス
  6
CONTINUOUS
 62
    64
 10
-105.231231
 20
-79.429578
 40
0.104978
 50
62.721967
 51
90.0
  0
ARC
  8
ボルト／ビス
  6
CONTINUOUS
 62
    64
 10
-105.086893
 20
-79.727002
 40
0.402402
 50
76.165002
 51
103.834985
  0
LINE
  8
ボルト／ビス
  6
CONTINUOUS
 62
    64
 10
-104.926518
 20
-79.324597
 11
-104.894442
 21
-79.336272
  0
ARC
  8
ボルト／ビス
  6
CONTINUOUS
 62
    64
 10
-104.942555
 20
-79.429578
 40
0.104978
 50
90.0
 51
117.278033
  0
LINE
  8
ボルト／ビス
  6
CONTINUOUS
 62
    64
 10
-105.247267
 20
-79.324597
 11
-104.926518
 21
-79.324597
  0
LINE
  8
ボルト／ビス
  6
CONTINUOUS
 62
    64
 10
-104.894442
 20
-79.336272
 11
-104.894442
 21
-79.457932
  0
LINE
  8
ボルト／ビス
  6
CONTINUOUS
 62
    64
 10
-104.990668
 20
-79.336272
 11
-104.990668
 21
-79.457932
  0
LINE
  8
ボルト／ビス
  6
CONTINUOUS
 62
    64
 10
-105.279342
 20
-79.336272
 11
-105.279342
 21
-79.457932
  0
LINE
  8
ボルト／ビス
  6
CONTINUOUS
 62
    64
 10
-105.183118
 20
-79.336272
 11
-105.183118
 21
-79.457932
  0
LINE
  8
ボルト／ビス
  6
CONTINUOUS
 10
-105.279342
 20
-79.457932
 11
-104.894442
 21
-79.457932
  0
LINE
  8
ボルト／ビス
  6
CONTINUOUS
 10
-105.286892
 20
-79.457932
 11
-105.286892
 21
-79.524597
  0
LINE
  8
ボルト／ビス
  6
CONTINUOUS
 10
-105.286892
 20
-79.457932
 11
-104.886892
 21
-79.457932
  0
LINE
  8
ボルト／ビス
  6
CONTINUOUS
 10
-104.886892
 20
-79.457932
 11
-104.886892
 21
-79.524597
  0
ENDBLK
  0
BLOCK
  2
*GRP_0036
 70
    65
 10
0.0
 20
0.0
  0
LINE
  8
ボルト／ビス
  6
DOT
 10
-105.086892
 20
-57.624597
 11
-105.086892
 21
-57.157932
  0
LINE
  8
ボルト／ビス
  6
DOT
 10
-105.453557
 20
-57.624597
 11
-105.453557
 21
-57.557932
  0
LINE
  8
ボルト／ビス
  6
DOT
 10
-105.453557
 20
-57.557932
 11
-104.720225
 21
-57.557932
  0
LINE
  8
ボルト／ビス
  6
DOT
 10
-104.720225
 20
-57.557932
 11
-104.720225
 21
-57.624597
  0
LINE
  8
ボルト／ビス
  6
DOT
 10
-105.453557
 20
-57.624597
 11
-104.720225
 21
-57.624597
  0
LINE
  8
ボルト／ビス
  6
DOT
 10
-105.386892
 20
-57.524597
 11
-105.386892
 21
-57.557932
  0
LINE
  8
ボルト／ビス
  6
DOT
 10
-105.386892
 20
-57.524597
 11
-104.786892
 21
-57.524597
  0
LINE
  8
ボルト／ビス
  6
DOT
 10
-104.786892
 20
-57.524597
 11
-104.786892
 21
-57.557932
  0
LINE
  8
ボルト／ビス
  6
DOT
 62
    64
 10
-105.247267
 20
-57.324597
 11
-105.279342
 21
-57.336272
  0
ARC
  8
ボルト／ビス
  6
DOT
 62
    64
 10
-105.231231
 20
-57.429578
 40
0.104978
 50
62.721967
 51
90.0
  0
ARC
  8
ボルト／ビス
  6
DOT
 62
    64
 10
-105.086893
 20
-57.727002
 40
0.402402
 50
76.165002
 51
103.834985
  0
LINE
  8
ボルト／ビス
  6
DOT
 62
    64
 10
-104.926518
 20
-57.324597
 11
-104.894442
 21
-57.336272
  0
ARC
  8
ボルト／ビス
  6
DOT
 62
    64
 10
-104.942555
 20
-57.429578
 40
0.104978
 50
90.0
 51
117.278033
  0
LINE
  8
ボルト／ビス
  6
DOT
 62
    64
 10
-105.247267
 20
-57.324597
 11
-104.926518
 21
-57.324597
  0
LINE
  8
ボルト／ビス
  6
DOT
 62
    64
 10
-104.894442
 20
-57.336272
 11
-104.894442
 21
-57.457932
  0
LINE
  8
ボルト／ビス
  6
DOT
 62
    64
 10
-104.990668
 20
-57.336272
 11
-104.990668
 21
-57.457932
  0
LINE
  8
ボルト／ビス
  6
DOT
 62
    64
 10
-105.279342
 20
-57.336272
 11
-105.279342
 21
-57.457932
  0
LINE
  8
ボルト／ビス
  6
DOT
 62
    64
 10
-105.183118
 20
-57.336272
 11
-105.183118
 21
-57.457932
  0
LINE
  8
ボルト／ビス
  6
DOT
 10
-105.279342
 20
-57.457932
 11
-104.894442
 21
-57.457932
  0
LINE
  8
ボルト／ビス
  6
DOT
 10
-105.286892
 20
-57.457932
 11
-105.286892
 21
-57.524597
  0
LINE
  8
ボルト／ビス
  6
DOT
 10
-105.286892
 20
-57.457932
 11
-104.886892
 21
-57.457932
  0
LINE
  8
ボルト／ビス
  6
DOT
 10
-104.886892
 20
-57.457932
 11
-104.886892
 21
-57.524597
  0
ENDBLK
  0
BLOCK
  2
*DIM_0037
 70
    65
 10
0.0
 20
0.0
  0
LINE
  8
寸法
  6
BYBLOCK
 62
     0
 10
13.246443
 20
-40.95793
 11
61.549425
 21
-40.95793
  0
LINE
  8
寸法
  6
BYBLOCK
 62
     0
 10
61.549425
 20
-62.95793
 11
61.549425
 21
-40.95793
  0
POINT
  8
寸法
 62
     0
 10
61.549425
 20
-62.95793
  0
POINT
  8
寸法
 62
     0
 10
61.549425
 20
-40.95793
  0
TEXT
  7
TextStyle03
  8
寸法
  6
CONTINUOUS
 62
     0
 10
61.15
 20
-61.1625
  1
上昇高さ660
 40
3.0
 50
90.0
 72
     5
 11
61.15
 21
-42.7875
  0
ENDBLK
  0
ENDSEC
  0
SECTION
  2
ENTITIES
  0
POLYLINE
  8
通り芯
  6
CONTINUOUS
 66
     1
 70
     1
  0
VERTEX
  8
通り芯
 10
-210.0
 20
-148.5
  0
VERTEX
  8
通り芯
 10
210.0
 20
-148.5
  0
VERTEX
  8
通り芯
 10
210.0
 20
148.5
  0
VERTEX
  8
通り芯
 10
-210.0
 20
148.5
  0
SEQEND
  0
INSERT
  2
*GRP_0001
  8
型材断面
  6
CONTINUOUS
 10
0.0
 20
0.0
  0
LINE
  8
型材断面
  6
DASHDOT
 10
45.579775
 20
64.756625
 11
45.579775
 21
-87.251428
  0
LINE
  8
型材断面
  6
DASHDOT
 10
-29.420225
 20
64.756625
 11
-29.420225
 21
-87.251428
  0
LINE
  8
型材断面
  6
DASHDOT
 10
-104.420225
 20
64.756625
 11
-104.420225
 21
-87.251428
  0
LINE
  8
型材断面
  6
DASHDOT
 10
143.256538
 20
-1.910042
 11
-104.420225
 21
-1.910042
  0
LINE
  8
型材断面
  6
DASHDOT
 10
143.256538
 20
31.423293
 11
-104.420225
 21
31.423293
  0
LINE
  8
型材断面
  6
DASHDOT
 10
143.256538
 20
64.756625
 11
-104.420225
 21
64.756625
  0
LINE
  8
型材断面
  6
DOT
 10
-30.670225
 20
-1.910042
 11
-30.670225
 21
64.756625
  0
LINE
  8
型材断面
  6
DOT
 10
-28.170225
 20
-1.910042
 11
-28.170225
 21
64.756625
  0
LINE
  8
型材断面
  6
DOT
 10
45.579775
 20
32.673293
 11
9.429775
 21
32.673293
  0
LINE
  8
型材断面
  6
DOT
 10
6.929775
 20
32.673293
 11
-28.170225
 21
32.673293
  0
LINE
  8
型材断面
  6
DOT
 10
45.579775
 20
30.173293
 11
9.429775
 21
30.173293
  0
LINE
  8
型材断面
  6
DOT
 10
6.929775
 20
30.173293
 11
-28.170225
 21
30.173293
  0
LINE
  8
型材断面
  6
DOT
 10
-104.420225
 20
32.673293
 11
-68.270225
 21
32.673293
  0
LINE
  8
型材断面
  6
DOT
 10
-65.770225
 20
32.673293
 11
-30.670225
 21
32.673293
  0
LINE
  8
型材断面
  6
DOT
 10
-104.420225
 20
30.173293
 11
-68.270225
 21
30.173293
  0
LINE
  8
型材断面
  6
DOT
 10
-65.770225
 20
30.173293
 11
-30.670225
 21
30.173293
  0
LINE
  8
型材断面
  6
CONTINUOUS
 10
-107.050355
 20
31.423293
 11
-109.640863
 21
32.918923
  0
LINE
  8
型材断面
  6
CONTINUOUS
 10
-107.050355
 20
31.423293
 11
-109.640863
 21
29.927663
  0
LINE
  8
型材断面
  6
CONTINUOUS
 10
-109.640863
 20
29.927663
 11
-109.640863
 21
32.918923
  0
LINE
  8
型材断面
  6
CONTINUOUS
 10
-145.272433
 20
102.734097
 11
-144.676378
 21
100.14359
  0
LINE
  8
型材断面
  6
CONTINUOUS
 10
-145.272433
 20
102.734097
 11
-145.86849
 21
100.14359
  0
LINE
  8
型材断面
  6
CONTINUOUS
 10
-145.86849
 20
100.14359
 11
-144.676378
 21
100.14359
  0
LINE
  8
型材断面
  6
CONTINUOUS
 10
-151.29502
 20
96.864697
 11
-105.053243
 21
96.864697
  0
LINE
  8
型材断面
  6
CONTINUOUS
 10
-145.272433
 20
109.263973
 11
-146.768062
 21
106.673465
  0
LINE
  8
型材断面
  6
CONTINUOUS
 10
-145.272433
 20
109.263973
 11
-143.776803
 21
106.673465
  0
LINE
  8
型材断面
  6
CONTINUOUS
 10
-143.776803
 20
106.673465
 11
-146.768062
 21
106.673465
  0
LINE
  8
型材断面
  6
CONTINUOUS
 10
-151.29502
 20
105.73487
 11
-105.053243
 21
105.73487
  0
LINE
  8
型材断面
  6
CONTINUOUS
 10
-151.29502
 20
91.076665
 11
-105.053243
 21
91.076665
  0
LINE
  8
型材断面
  6
CONTINUOUS
 10
-87.753557
 20
-4.54017
 11
-89.249187
 21
-7.130678
  0
LINE
  8
型材断面
  6
CONTINUOUS
 10
-87.753557
 20
-4.54017
 11
-86.257928
 21
-7.130678
  0
LINE
  8
型材断面
  6
CONTINUOUS
 10
-86.257928
 20
-7.130678
 11
-89.249187
 21
-7.130678
  0
LINE
  8
型材断面
  6
CONTINUOUS
 10
-87.753557
 20
67.386755
 11
-89.249187
 21
69.977262
  0
LINE
  8
型材断面
  6
CONTINUOUS
 10
-87.753557
 20
67.386755
 11
-86.257928
 21
69.977262
  0
LINE
  8
型材断面
  6
CONTINUOUS
 10
-86.257928
 20
69.977262
 11
-89.249187
 21
69.977262
  0
LINE
  8
型材断面
  6
CONTINUOUS
 10
48.209905
 20
31.423293
 11
50.800412
 21
32.918923
  0
LINE
  8
型材断面
  6
CONTINUOUS
 10
48.209905
 20
31.423293
 11
50.800412
 21
29.927663
  0
LINE
  8
型材断面
  6
CONTINUOUS
 10
50.800412
 20
29.927663
 11
50.800412
 21
32.918923
  0
LINE
  8
型材断面
  6
CONTINUOUS
 10
28.913107
 20
-4.54017
 11
30.408737
 21
-7.130678
  0
LINE
  8
型材断面
  6
CONTINUOUS
 10
28.913107
 20
-4.54017
 11
27.417477
 21
-7.130678
  0
LINE
  8
型材断面
  6
CONTINUOUS
 10
27.417477
 20
-7.130678
 11
30.408737
 21
-7.130678
  0
LINE
  8
型材断面
  6
CONTINUOUS
 10
28.913107
 20
67.386755
 11
30.408737
 21
69.977262
  0
LINE
  8
型材断面
  6
CONTINUOUS
 10
28.913107
 20
67.386755
 11
27.417477
 21
69.977262
  0
LINE
  8
型材断面
  6
CONTINUOUS
 10
27.417477
 20
69.977262
 11
30.408737
 21
69.977262
  0
LINE
  8
型材断面
  6
CONTINUOUS
 10
-29.420225
 20
-4.54017
 11
-27.924595
 21
-7.130678
  0
LINE
  8
型材断面
  6
CONTINUOUS
 10
-29.420225
 20
-4.54017
 11
-30.915855
 21
-7.130678
  0
LINE
  8
型材断面
  6
CONTINUOUS
 10
-30.915855
 20
-7.130678
 11
-27.924595
 21
-7.130678
  0
LINE
  8
型材断面
  6
CONTINUOUS
 10
-29.420225
 20
67.386755
 11
-27.924595
 21
69.977262
  0
LINE
  8
型材断面
  6
CONTINUOUS
 10
-29.420225
 20
67.386755
 11
-30.915855
 21
69.977262
  0
LINE
  8
型材断面
  6
CONTINUOUS
 10
-30.915855
 20
69.977262
 11
-27.924595
 21
69.977262
  0
POLYLINE
  8
型材断面
  6
CONTINUOUS
 66
     1
 70
     1
  0
VERTEX
  8
型材断面
 10
-19.63188
 20
-11.012788
  0
VERTEX
  8
型材断面
 10
-38.40381
 20
-11.012788
  0
VERTEX
  8
型材断面
 10
-38.40381
 20
-15.74963
  0
VERTEX
  8
型材断面
 10
-19.63188
 20
-15.74963
  0
SEQEND
  0
POLYLINE
  8
型材断面
  6
CONTINUOUS
 66
     1
 70
     1
  0
VERTEX
  8
型材断面
 10
-19.63188
 20
75.205727
  0
VERTEX
  8
型材断面
 10
-38.40381
 20
75.205727
  0
VERTEX
  8
型材断面
 10
-38.40381
 20
79.94257
  0
VERTEX
  8
型材断面
 10
-19.63188
 20
79.94257
  0
SEQEND
  0
LINE
  8
型材断面
  6
CONTINUOUS
 10
48.209905
 20
61.056627
 11
50.800415
 21
60.460575
  0
LINE
  8
型材断面
  6
CONTINUOUS
 10
48.209905
 20
61.056627
 11
50.800412
 21
61.652687
  0
LINE
  8
型材断面
  6
CONTINUOUS
 10
50.800412
 20
61.652687
 11
50.800415
 21
60.460575
  0
LINE
  8
型材断面
  6
CONTINUOUS
 10
48.209905
 20
1.789957
 11
50.800415
 21
2.38601
  0
LINE
  8
型材断面
  6
CONTINUOUS
 10
48.209905
 20
1.789957
 11
50.800412
 21
1.193897
  0
LINE
  8
型材断面
  6
CONTINUOUS
 10
50.800412
 20
1.193897
 11
50.800415
 21
2.38601
  0
LINE
  8
型材断面
  6
CONTINUOUS
 10
-107.050355
 20
61.056627
 11
-109.640865
 21
60.460575
  0
LINE
  8
型材断面
  6
CONTINUOUS
 10
-107.050355
 20
61.056627
 11
-109.640863
 21
61.652687
  0
LINE
  8
型材断面
  6
CONTINUOUS
 10
-109.640863
 20
61.652687
 11
-109.640865
 21
60.460575
  0
LINE
  8
型材断面
  6
CONTINUOUS
 10
-107.050355
 20
1.789957
 11
-109.640865
 21
2.38601
  0
LINE
  8
型材断面
  6
CONTINUOUS
 10
-107.050355
 20
1.789957
 11
-109.640863
 21
1.193897
  0
LINE
  8
型材断面
  6
CONTINUOUS
 10
-109.640863
 20
1.193897
 11
-109.640865
 21
2.38601
  0
INSERT
  2
*GRP_0012
  8
型材断面
  6
CONTINUOUS
 10
0.0
 20
0.0
  0
INSERT
  2
*GRP_0013
  8
型材断面
  6
CONTINUOUS
 10
0.0
 20
0.0
  0
INSERT
  2
*GRP_0014
  8
型材断面
  6
CONTINUOUS
 10
0.0
 20
0.0
  0
INSERT
  2
*GRP_0015
  8
型材断面
  6
CONTINUOUS
 10
0.0
 20
0.0
  0
LINE
  8
型材断面
  6
CONTINUOUS
 62
    47
 10
142.646543
 20
-3.393378
 11
142.146543
 21
-3.393378
  0
LINE
  8
型材断面
  6
CONTINUOUS
 62
    47
 10
142.146543
 20
-3.893378
 11
138.829875
 21
-3.893378
  0
LINE
  8
型材断面
  6
CONTINUOUS
 62
    47
 10
136.489825
 20
-3.893378
 11
138.663157
 21
-3.893378
  0
LINE
  8
型材断面
  6
CONTINUOUS
 62
    47
 10
136.489825
 20
-3.010042
 11
136.11304
 21
-3.010042
  0
LINE
  8
型材断面
  6
CONTINUOUS
 62
    47
 10
142.646543
 20
-3.393378
 11
142.646543
 21
31.42329
  0
LINE
  8
型材断面
  6
CONTINUOUS
 62
    47
 10
142.146543
 20
-3.893378
 11
142.146543
 21
31.42329
  0
LINE
  8
型材断面
  6
CONTINUOUS
 62
    47
 10
138.829875
 20
-3.893378
 11
138.829805
 21
31.42329
  0
LINE
  8
型材断面
  6
CONTINUOUS
 62
    47
 10
138.663157
 20
-3.893378
 11
138.663157
 21
31.42329
  0
LINE
  8
型材断面
  6
CONTINUOUS
 62
    47
 10
136.489825
 20
-3.893378
 11
136.489825
 21
31.42329
  0
LINE
  8
型材断面
  6
CONTINUOUS
 62
    47
 10
142.646543
 20
66.239957
 11
142.146543
 21
66.239957
  0
LINE
  8
型材断面
  6
CONTINUOUS
 62
    47
 10
142.146543
 20
66.739957
 11
138.829875
 21
66.739957
  0
LINE
  8
型材断面
  6
CONTINUOUS
 62
    47
 10
136.489825
 20
66.739957
 11
138.663157
 21
66.739957
  0
LINE
  8
型材断面
  6
CONTINUOUS
 62
    47
 10
136.489825
 20
65.856623
 11
136.11304
 21
65.856623
  0
LINE
  8
型材断面
  6
CONTINUOUS
 62
    47
 10
142.646543
 20
66.239957
 11
142.646543
 21
31.42329
  0
LINE
  8
型材断面
  6
CONTINUOUS
 62
    47
 10
142.146543
 20
66.739957
 11
142.146543
 21
31.42329
  0
LINE
  8
型材断面
  6
CONTINUOUS
 62
    47
 10
138.829875
 20
66.739957
 11
138.829805
 21
31.42329
  0
LINE
  8
型材断面
  6
CONTINUOUS
 62
    47
 10
138.663157
 20
66.739957
 11
138.663157
 21
31.42329
  0
LINE
  8
型材断面
  6
CONTINUOUS
 62
    47
 10
136.489825
 20
66.739957
 11
136.489825
 21
31.42329
  0
LINE
  8
型材断面
  6
CONTINUOUS
 62
    47
 10
-105.90356
 20
-87.1581
 11
-105.90356
 21
-86.6581
  0
LINE
  8
型材断面
  6
CONTINUOUS
 62
    47
 10
-106.40356
 20
-86.6581
 11
-106.40356
 21
-83.341432
  0
LINE
  8
型材断面
  6
CONTINUOUS
 62
    47
 10
-106.40356
 20
-81.001383
 11
-106.40356
 21
-83.174715
  0
LINE
  8
型材断面
  6
CONTINUOUS
 62
    47
 10
-105.520227
 20
-81.001383
 11
-105.520227
 21
-80.624597
  0
LINE
  8
型材断面
  6
CONTINUOUS
 62
    47
 10
-105.90356
 20
-87.1581
 11
-29.420225
 21
-87.1581
  0
LINE
  8
型材断面
  6
CONTINUOUS
 62
    47
 10
-106.40356
 20
-86.6581
 11
-29.420225
 21
-86.6581
  0
LINE
  8
型材断面
  6
CONTINUOUS
 62
    47
 10
-106.40356
 20
-83.341432
 11
-29.420225
 21
-83.341287
  0
LINE
  8
型材断面
  6
CONTINUOUS
 62
    47
 10
-106.40356
 20
-83.174715
 11
-29.420225
 21
-83.174715
  0
LINE
  8
型材断面
  6
CONTINUOUS
 62
    47
 10
-106.40356
 20
-81.001383
 11
-29.420225
 21
-81.001383
  0
LINE
  8
型材断面
  6
CONTINUOUS
 62
    47
 10
47.06311
 20
-87.1581
 11
47.06311
 21
-86.6581
  0
LINE
  8
型材断面
  6
CONTINUOUS
 62
    47
 10
47.56311
 20
-86.6581
 11
47.56311
 21
-83.341432
  0
LINE
  8
型材断面
  6
CONTINUOUS
 62
    47
 10
47.56311
 20
-81.001383
 11
47.56311
 21
-83.174715
  0
LINE
  8
型材断面
  6
CONTINUOUS
 62
    47
 10
46.679777
 20
-81.001383
 11
46.679777
 21
-80.624597
  0
LINE
  8
型材断面
  6
CONTINUOUS
 62
    47
 10
47.06311
 20
-87.1581
 11
-29.420225
 21
-87.1581
  0
LINE
  8
型材断面
  6
CONTINUOUS
 62
    47
 10
47.56311
 20
-86.6581
 11
-29.420225
 21
-86.6581
  0
LINE
  8
型材断面
  6
CONTINUOUS
 62
    47
 10
47.56311
 20
-83.341432
 11
-29.420225
 21
-83.341287
  0
LINE
  8
型材断面
  6
CONTINUOUS
 62
    47
 10
47.56311
 20
-83.174715
 11
-29.420225
 21
-83.174715
  0
LINE
  8
型材断面
  6
CONTINUOUS
 62
    47
 10
47.56311
 20
-81.001383
 11
-29.420225
 21
-81.001383
  0
LINE
  8
型材断面
  6
CONTINUOUS
 10
-151.29502
 20
85.288632
 11
-105.053243
 21
85.288632
  0
LINE
  8
型材断面
  6
DASHDOT
 10
-67.020225
 20
-1.910042
 11
-67.020225
 21
64.756625
  0
LINE
  8
型材断面
  6
DOT
 10
-65.770225
 20
-1.910042
 11
-65.770225
 21
64.756625
  0
LINE
  8
型材断面
  6
DOT
 10
-68.270225
 20
-1.910042
 11
-68.270225
 21
64.756625
  0
LINE
  8
型材断面
  6
DASHDOT
 10
8.179775
 20
-1.910042
 11
8.179775
 21
64.756625
  0
LINE
  8
型材断面
  6
DOT
 10
6.929775
 20
-1.910042
 11
6.929775
 21
64.756625
  0
LINE
  8
型材断面
  6
DOT
 10
9.429775
 20
-1.910042
 11
9.429775
 21
64.756625
  0
TEXT
  7
TextStyle03
  8
文字
  6
CONTINUOUS
 10
117.25
 20
-83.825
  1
網入り6.8t
 40
3.0
 72
     5
 11
133.9375
 21
-83.825
  0
TEXT
  7
TextStyle03
  8
文字
  6
CONTINUOUS
 10
123.55
 20
-88.45
  1
×８枚
 40
3.0
 72
     5
 11
133.3
 21
-88.45
  0
TEXT
  7
TextStyle03
  8
文字
  6
CONTINUOUS
 10
-142.475
 20
101.325
  1
はケーシング位置を示す
 40
3.0
 72
     5
 11
-105.725
 21
101.325
  0
TEXT
  7
TextStyle03
  8
文字
  6
CONTINUOUS
 10
-142.475
 20
97.95
  1
４ヶ所中1ヶ所に設定
 40
3.0
 72
     5
 11
-110.7875
 21
97.95
  0
TEXT
  7
TextStyle03
  8
文字
  6
CONTINUOUS
 10
-142.475
 20
106.85
  1
は排水穴位置を示す
 40
3.0
 72
     5
 11
-112.475
 21
106.85
  0
TEXT
  7
TextStyle03
  8
文字
  6
CONTINUOUS
 10
-37.325
 20
-14.7
  1
可動装置側
 40
3.0
 72
     5
 11
-20.825
 21
-14.7
  0
TEXT
  7
TextStyle03
  8
文字
  6
CONTINUOUS
 10
-37.325
 20
75.975
  1
可動装置側
 40
3.0
 72
     5
 11
-20.825
 21
75.975
  0
TEXT
  7
TextStyle03
  8
文字
  6
CONTINUOUS
 10
-143.15
 20
2.025
  1
アンカーピッチ
 40
3.0
 50
90.0
 72
     5
 11
-143.15
 21
25.275
  0
TEXT
  7
TextStyle03
  8
文字
  6
CONTINUOUS
 10
-89.475
 20
101.8
  1
アンカーピッチ
 40
3.0
 72
     5
 11
-66.225
 21
101.8
  0
TEXT
  7
TextStyle03
  8
文字
  6
CONTINUOUS
 10
-146.2
 20
91.975
  1
アンカー数量　１８ヶ所
 40
3.0
 72
     5
 11
-109.45
 21
91.975
  0
TEXT
  7
TextStyle03
  8
文字
  6
CONTINUOUS
 10
-151.2
 20
86.2
  1
アームユニット数　※４～６ヶ所
 40
3.0
 72
     5
 11
-100.95
 21
86.2
  0
TEXT
  7
TextStyle03
  8
文字
  6
CONTINUOUS
 10
-151.2
 20
81.25
  1
※重量に依るのでご相談ください
 40
3.0
 72
     5
 11
-100.95
 21
81.25
  0
TEXT
  7
TextStyle03
  8
文字
  6
CONTINUOUS
 10
78.1
 20
125.25
  1
シリーズ：ＴＤ２Ｌ
 40
5.0
 72
     5
 11
128.1
 21
125.25
  0
TEXT
  7
TextStyle03
  8
文字
  6
CONTINUOUS
 10
78.1
 20
119.625
  1
　　　　　（上下可動）2000×4500タイプ
 40
5.0
 72
     5
 11
184.35
 21
119.625
  0
TEXT
  7
TextStyle03
  8
文字
  6
CONTINUOUS
 10
78.1
 20
114.0
  1
図面名　：外観姿図
 40
5.0
 72
     5
 11
128.1
 21
114.0
  0
TEXT
  7
TextStyle03
  8
文字
  6
CONTINUOUS
 10
78.1
 20
108.375
  1
　　　　　　
 40
5.0
 72
     5
 11
111.225
 21
108.375
  0
TEXT
  7
TextStyle03
  8
文字
  6
CONTINUOUS
 10
77.125
 20
103.95
  1
ＮＳコード：ＮＳＤＺＬ
 40
5.0
 72
     5
 11
138.375
 21
103.95
  0
INSERT
  2
*DIM_0002
  8
寸法
  6
CONTINUOUS
 10
0.0
 20
0.0
  0
INSERT
  2
*DIM_0003
  8
寸法
  6
CONTINUOUS
 10
0.0
 20
0.0
  0
INSERT
  2
*DIM_0004
  8
寸法
  6
CONTINUOUS
 10
0.0
 20
0.0
  0
INSERT
  2
*DIM_0005
  8
寸法
  6
CONTINUOUS
 10
0.0
 20
0.0
  0
INSERT
  2
*DIM_0006
  8
寸法
  6
CONTINUOUS
 10
0.0
 20
0.0
  0
INSERT
  2
*DIM_0007
  8
寸法
  6
CONTINUOUS
 10
0.0
 20
0.0
  0
INSERT
  2
*DIM_0008
  8
寸法
  6
CONTINUOUS
 10
0.0
 20
0.0
  0
INSERT
  2
*DIM_0009
  8
寸法
  6
CONTINUOUS
 10
0.0
 20
0.0
  0
INSERT
  2
*DIM_0010
  8
寸法
  6
CONTINUOUS
 10
0.0
 20
0.0
  0
INSERT
  2
*DIM_0016
  8
寸法
  6
CONTINUOUS
 10
0.0
 20
0.0
  0
INSERT
  2
*DIM_0017
  8
寸法
  6
CONTINUOUS
 10
0.0
 20
0.0
  0
INSERT
  2
*DIM_0018
  8
寸法
  6
CONTINUOUS
 10
0.0
 20
0.0
  0
INSERT
  2
*DIM_0019
  8
寸法
  6
CONTINUOUS
 10
0.0
 20
0.0
  0
INSERT
  2
*DIM_0020
  8
寸法
  6
CONTINUOUS
 10
0.0
 20
0.0
  0
INSERT
  2
*DIM_0021
  8
寸法
  6
CONTINUOUS
 10
0.0
 20
0.0
  0
INSERT
  2
*DIM_0022
  8
寸法
  6
CONTINUOUS
 10
0.0
 20
0.0
  0
INSERT
  2
*DIM_0023
  8
寸法
  6
CONTINUOUS
 10
0.0
 20
0.0
  0
INSERT
  2
*DIM_0024
  8
寸法
  6
CONTINUOUS
 10
0.0
 20
0.0
  0
INSERT
  2
*DIM_0025
  8
寸法
  6
CONTINUOUS
 10
0.0
 20
0.0
  0
INSERT
  2
*DIM_0026
  8
寸法
  6
CONTINUOUS
 10
0.0
 20
0.0
  0
INSERT
  2
*DIM_0027
  8
寸法
  6
CONTINUOUS
 10
0.0
 20
0.0
  0
INSERT
  2
*DIM_0028
  8
寸法
  6
CONTINUOUS
 10
0.0
 20
0.0
  0
INSERT
  2
*DIM_0029
  8
寸法
  6
CONTINUOUS
 10
0.0
 20
0.0
  0
INSERT
  2
*DIM_0037
  8
寸法
  6
CONTINUOUS
 10
0.0
 20
0.0
  0
LINE
  8
別途部材
  6
CONTINUOUS
 10
47.646443
 20
-3.97671
 11
47.246443
 21
-3.57671
  0
LINE
  8
別途部材
  6
CONTINUOUS
 10
45.579775
 20
-1.910042
 11
37.52052
 21
6.149215
  0
LINE
  8
別途部材
  6
CONTINUOUS
 10
47.646443
 20
-3.97671
 11
47.646443
 21
31.423293
  0
LINE
  8
別途部材
  6
CONTINUOUS
 10
47.246443
 20
-3.57671
 11
47.246443
 21
31.423293
  0
LINE
  8
別途部材
  6
CONTINUOUS
 10
47.646443
 20
66.823295
 11
47.246443
 21
66.423295
  0
LINE
  8
別途部材
  6
CONTINUOUS
 10
45.579775
 20
64.756627
 11
37.52052
 21
56.69737
  0
LINE
  8
別途部材
  6
CONTINUOUS
 10
47.646443
 20
66.823295
 11
47.646443
 21
31.423293
  0
LINE
  8
別途部材
  6
CONTINUOUS
 10
47.246443
 20
66.423295
 11
47.246443
 21
31.423293
  0
LINE
  8
別途部材
  6
CONTINUOUS
 62
    96
 10
135.11304
 20
-3.57671
 11
136.11304
 21
-3.97671
  0
ARC
  8
別途部材
  6
CONTINUOUS
 10
160.113036
 20
31.42329
 40
41.666665
 50
180.0
 51
233.130105
  0
ARC
  8
別途部材
  6
CONTINUOUS
 10
160.113036
 20
31.423291
 40
41.666665
 50
126.869895
 51
180.0
  0
LINE
  8
別途部材
  6
CONTINUOUS
 10
136.11304
 20
-3.97671
 11
136.11304
 21
31.42329
  0
LINE
  8
別途部材
  6
CONTINUOUS
 62
    96
 10
135.11304
 20
-3.57671
 11
135.11304
 21
31.42329
  0
LINE
  8
別途部材
  6
CONTINUOUS
 62
    96
 10
135.11304
 20
66.42329
 11
136.11304
 21
66.82329
  0
LINE
  8
別途部材
  6
CONTINUOUS
 10
136.11304
 20
66.82329
 11
136.11304
 21
31.42329
  0
LINE
  8
別途部材
  6
CONTINUOUS
 62
    96
 10
135.11304
 20
66.42329
 11
135.11304
 21
31.42329
  0
LINE
  8
別途部材
  6
CONTINUOUS
 10
47.246443
 20
-3.57671
 11
-29.420225
 21
-3.57671
  0
LINE
  8
別途部材
  6
CONTINUOUS
 10
47.646443
 20
-3.97671
 11
-29.420225
 21
-3.97671
  0
LINE
  8
別途部材
  6
CONTINUOUS
 10
47.246443
 20
66.423295
 11
-29.420225
 21
66.423295
  0
LINE
  8
別途部材
  6
CONTINUOUS
 10
47.646443
 20
66.823295
 11
-29.420225
 21
66.823295
  0
LINE
  8
別途部材
  6
CONTINUOUS
 10
-106.486892
 20
-3.97671
 11
-106.086892
 21
-3.57671
  0
LINE
  8
別途部材
  6
CONTINUOUS
 10
-104.420225
 20
-1.910042
 11
-96.36097
 21
6.149215
  0
LINE
  8
別途部材
  6
CONTINUOUS
 10
-106.486892
 20
-3.97671
 11
-106.486892
 21
31.423293
  0
LINE
  8
別途部材
  6
CONTINUOUS
 10
-106.086892
 20
-3.57671
 11
-106.086892
 21
31.423293
  0
LINE
  8
別途部材
  6
CONTINUOUS
 10
-106.486892
 20
66.823295
 11
-106.086892
 21
66.423295
  0
LINE
  8
別途部材
  6
CONTINUOUS
 10
-104.420225
 20
64.756627
 11
-96.36097
 21
56.69737
  0
LINE
  8
別途部材
  6
CONTINUOUS
 10
-106.486892
 20
66.823295
 11
-106.486892
 21
31.423293
  0
LINE
  8
別途部材
  6
CONTINUOUS
 10
-106.086892
 20
66.423295
 11
-106.086892
 21
31.423293
  0
LINE
  8
別途部材
  6
CONTINUOUS
 10
-106.086892
 20
-3.57671
 11
-29.420225
 21
-3.57671
  0
LINE
  8
別途部材
  6
CONTINUOUS
 10
-106.486892
 20
-3.97671
 11
-29.420225
 21
-3.97671
  0
LINE
  8
別途部材
  6
CONTINUOUS
 10
-106.086892
 20
66.423295
 11
-29.420225
 21
66.423295
  0
LINE
  8
別途部材
  6
CONTINUOUS
 10
-106.486892
 20
66.823295
 11
-29.420225
 21
66.823295
  0
INSERT
  2
*GRP_0011
  8
別途部材
  6
CONTINUOUS
 10
0.0
 20
0.0
  0
LINE
  8
別途部材
  6
DOT
 62
    96
 10
47.246443
 20
-57.624597
 11
47.646443
 21
-58.624597
  0
ARC
  8
別途部材
  6
DOT
 10
12.246442
 20
-82.624595
 40
41.666665
 50
36.869895
 51
90.0
  0
LINE
  8
別途部材
  6
DOT
 10
12.246443
 20
-40.95793
 11
-29.420225
 21
-40.95793
  0
LINE
  8
別途部材
  6
DOT
 62
    96
 10
47.246443
 20
-57.624597
 11
-29.420225
 21
-57.624597
  0
LINE
  8
別途部材
  6
DOT
 10
47.646443
 20
-58.624597
 11
-29.420225
 21
-58.624597
  0
LINE
  8
別途部材
  6
DOT
 62
    96
 10
-106.086892
 20
-57.624597
 11
-106.486892
 21
-58.624597
  0
ARC
  8
別途部材
  6
DOT
 10
-71.086892
 20
-82.624595
 40
41.666665
 50
90.0
 51
143.130105
  0
LINE
  8
別途部材
  6
DOT
 10
-71.086892
 20
-40.95793
 11
-29.420225
 21
-40.95793
  0
LINE
  8
別途部材
  6
DOT
 62
    96
 10
-106.086892
 20
-57.624597
 11
-29.420225
 21
-57.624597
  0
LINE
  8
別途部材
  6
DOT
 10
-106.486892
 20
-58.624597
 11
-29.420225
 21
-58.624597
  0
INSERT
  2
*GRP_0031
  8
別途部材
  6
DOT
 10
0.0
 20
0.0
  0
INSERT
  2
*GRP_0032
  8
別途部材
  6
DOT
 10
0.0
 20
0.0
  0
INSERT
  2
*GRP_0033
  8
別途部材
  6
DOT
 10
0.0
 20
0.0
  0
INSERT
  2
*GRP_0034
  8
別途部材
  6
DOT
 10
0.0
 20
0.0
  0
INSERT
  2
*GRP_0035
  8
別途部材
  6
DOT
 10
0.0
 20
0.0
  0
INSERT
  2
*GRP_0036
  8
別途部材
  6
DOT
 10
0.0
 20
0.0
  0
LINE
  8
曲げ物
  6
CONTINUOUS
 10
100.883267
 20
-90.759512
 11
100.883267
 21
-58.292845
  0
LINE
  8
曲げ物
  6
CONTINUOUS
 10
137.4166
 20
-90.759512
 11
137.4166
 21
-58.292845
  0
LINE
  8
曲げ物
  6
CONTINUOUS
 10
100.883267
 20
-58.292845
 11
137.4166
 21
-58.292845
  0
LINE
  8
曲げ物
  6
CONTINUOUS
 10
100.883267
 20
-90.759512
 11
137.4166
 21
-90.759512
  0
ENDSEC
  0
EOF
