  0
SECTION
  2
HEADER
  9
$EXTMIN
 10
-210.0
 20
-148.5
  9
$EXTMAX
 10
210.0
 20
148.5
  9
$PDMODE
 70
    32
  9
$PDSIZE
 40
1.5
  9
$LTSCALE
 40
10.0
  0
ENDSEC
  0
SECTION
  2
TABLES
  0
TABLE
  2
LTYPE
 70
    15
  0
LTYPE
  2
CONTINUOUS
 70
    64
  3
実線
 72
    65
 73
     0
 40
0.0
  0
LTYPE
  2
DASHED
 70
    64
  3
破線A
 72
    65
 73
     2
 40
0.6
 49
0.4
 49
-0.2
  0
LTYPE
  2
DASHEDX2
 70
    64
  3
破線B
 72
    65
 73
     2
 40
1.3
 49
0.9
 49
-0.4
  0
LTYPE
  2
DASHDOT
 70
    64
  3
１点鎖線A
 72
    65
 73
     4
 40
0.5375
 49
0.375
 49
-0.05
 49
0.0625
 49
-0.05
  0
LTYPE
  2
DASHDOTX2
 70
    64
  3
１点鎖線B
 72
    65
 73
     4
 40
1.075
 49
0.75
 49
-0.1
 49
0.125
 49
-0.1
  0
LTYPE
  2
DIVIDE2
 70
    64
  3
２点鎖線A
 72
    65
 73
     6
 40
0.5125
 49
0.3
 49
-0.0375
 49
0.05
 49
-0.0375
 49
0.05
 49
-0.0375
  0
LTYPE
  2
DIVIDE
 70
    64
  3
２点鎖線B
 72
    65
 73
     6
 40
1.05
 49
0.55
 49
-0.1
 49
0.1
 49
-0.1
 49
0.1
 49
-0.1
  0
LTYPE
  2
DOT
 70
    64
  3
点線A
 72
    65
 73
     2
 40
0.1125
 49
0.0625
 49
-0.05
  0
LTYPE
  2
DOTX2
 70
    64
  3
点線B
 72
    65
 73
     2
 40
0.275
 49
0.15
 49
-0.125
  0
LTYPE
  2
CONTINUOUS
 70
    64
  3
実線
 72
    65
 73
     0
 40
0.0
  0
LTYPE
  2
CONTINUOUS
 70
    64
  3
実線
 72
    65
 73
     0
 40
0.0
  0
LTYPE
  2
CONTINUOUS
 70
    64
  3
実線
 72
    65
 73
     0
 40
0.0
  0
LTYPE
  2
CONTINUOUS
 70
    64
  3
実線
 72
    65
 73
     0
 40
0.0
  0
LTYPE
  2
CONTINUOUS
 70
    64
  3
実線
 72
    65
 73
     0
 40
0.0
  0
LTYPE
  2
CONTINUOUS
 70
    64
  3
実線
 72
    65
 73
     0
 40
0.0
  0
ENDTAB
  0
TABLE
  2
LAYER
 70
    34
  0
LAYER
  2
通り芯
 70
     0
 62
    15
  6
CONTINUOUS
  0
LAYER
  2
補助線
 70
     0
 62
    16
  6
DOT
  0
LAYER
  2
躯体
 70
     0
 62
    31
  6
CONTINUOUS
  0
LAYER
  2
型材
 70
     0
 62
    32
  6
CONTINUOUS
  0
LAYER
  2
型材断面
 70
     0
 62
    47
  6
CONTINUOUS
  0
LAYER
  2
ガラス
 70
     0
 62
    48
  6
CONTINUOUS
  0
LAYER
  2
ゴム等
 70
     0
 62
    63
  6
CONTINUOUS
  0
LAYER
  2
ボルト／ビス
 70
     0
 62
    64
  6
CONTINUOUS
  0
LAYER
  2
文字
 70
     0
 62
    79
  6
CONTINUOUS
  0
LAYER
  2
寸法
 70
     0
 62
    80
  6
CONTINUOUS
  0
LAYER
  2
ﾊｯﾁﾝｸﾞ
 70
     0
 62
    95
  6
CONTINUOUS
  0
LAYER
  2
別途部材
 70
     0
 62
    96
  6
CONTINUOUS
  0
LAYER
  2
曲げ物
 70
     0
 62
   111
  6
CONTINUOUS
  0
LAYER
  2
鉄骨等
 70
     0
 62
   112
  6
CONTINUOUS
  0
LAYER
  2
St
 70
     0
 62
   127
  6
CONTINUOUS
  0
LAYER
  2
その他部品等
 70
     0
 62
   128
  6
CONTINUOUS
  0
LAYER
  2
ｶﾞｽｹｯﾄ
 70
     0
 62
   143
  6
CONTINUOUS
  0
LAYER
  2
ｽｹｯﾁ
 70
     0
 62
    14
  6
CONTINUOUS
  0
LAYER
  2
0
 70
     0
 62
    17
  6
CONTINUOUS
  0
LAYER
  2
1
 70
     0
 62
    30
  6
CONTINUOUS
  0
LAYER
  2
4
 70
     0
 62
    33
  6
CONTINUOUS
  0
LAYER
  2
ﾚｲﾔ3
 70
     0
 62
    46
  6
CONTINUOUS
  0
LAYER
  2
外形線
 70
     0
 62
    49
  6
CONTINUOUS
  0
LAYER
  2
部品
 70
     0
 62
    14
  6
CONTINUOUS
  0
LAYER
  2
サッシ芯
 70
     0
 62
    17
  6
DASHDOTX2
  0
LAYER
  2
寸法線
 70
     0
 62
    62
  6
CONTINUOUS
  0
LAYER
  2
姿図外形線
 70
     0
 62
    65
  6
CONTINUOUS
  0
LAYER
  2
姿補助線
 70
     0
 62
    30
  6
CONTINUOUS
  0
LAYER
  2
透視線
 70
     0
 62
    78
  6
DOT
  0
LAYER
  2
用紙
 70
     0
 62
    81
  6
CONTINUOUS
  0
LAYER
  2
実線図枠
 70
     0
 62
    94
  6
CONTINUOUS
  0
LAYER
  2
補助図枠
 70
     0
 62
    97
  6
CONTINUOUS
  0
LAYER
  2
建具記号
 70
     0
 62
   110
  6
CONTINUOUS
  0
LAYER
  2
補助文字
 70
     0
 62
   113
  6
CONTINUOUS
  0
ENDTAB
  0
TABLE
  2
STYLE
 70
    10
  0
STYLE
  2
STANDARD
 70
     0
 40
1.0
 41
1.0
 42
1.0
 50
0.0
 71
     0
  3
TXT
  4
BIGFONT
  0
STYLE
  2
TATE
 70
     4
 40
1.0
 41
1.0
 42
1.0
 50
0.0
 71
     0
  3
TXT
  4
BIGFONT
  0
STYLE
  2
TextStyle03
 70
     0
 40
1.0
 41
1.0
 42
1.0
 50
0.0
 71
     0
  3
MONOTXT
  4
BIGFONT
  0
STYLE
  2
TextStyle04
 70
     0
 40
1.0
 41
1.0
 42
1.0
 50
0.0
 71
     0
  3
MONOTXT
  4
BIGFONT
  0
STYLE
  2
TextStyle05
 70
     0
 40
1.0
 41
1.0
 42
1.0
 50
0.0
 71
     0
  3
MONOTXT
  4
BIGFONT
  0
STYLE
  2
TextStyle06
 70
     0
 40
1.0
 41
1.0
 42
1.0
 50
0.0
 71
     0
  3
MONOTXT
  4
BIGFONT
  0
STYLE
  2
TextStyle07
 70
     0
 40
1.0
 41
1.0
 42
1.0
 50
0.0
 71
     0
  3
MONOTXT
  4
BIGFONT
  0
STYLE
  2
TextStyle08
 70
     0
 40
1.0
 41
1.0
 42
1.0
 50
0.0
 71
     0
  3
MONOTXT
  4
BIGFONT
  0
STYLE
  2
TextStyle09
 70
     0
 40
1.0
 41
1.0
 42
1.0
 50
0.0
 71
     0
  3
MONOTXT
  4
BIGFONT
  0
STYLE
  2
TextStyle10
 70
     0
 40
1.0
 41
1.0
 42
1.0
 50
0.0
 71
     0
  3
MONOTXT
  4
BIGFONT
  0
ENDTAB
  0
ENDSEC
  0
SECTION
  2
BLOCKS
  0
BLOCK
  2
*GRP_0001
 70
    65
 10
0.0
 20
0.0
  0
LINE
  8
型材断面
  6
CONTINUOUS
 10
195.0
 20
133.5
 11
195.0
 21
-133.5
  0
LINE
  8
型材断面
  6
CONTINUOUS
 10
195.0
 20
-133.5
 11
-185.0
 21
-133.5
  0
LINE
  8
型材断面
  6
CONTINUOUS
 10
-185.0
 20
-133.5
 11
-185.0
 21
133.5
  0
LINE
  8
型材断面
  6
CONTINUOUS
 10
195.0
 20
133.5
 11
-185.0
 21
133.5
  0
LINE
  8
型材断面
  6
CONTINUOUS
 10
145.0
 20
-133.5
 11
145.0
 21
-118.5
  0
LINE
  8
型材断面
  6
CONTINUOUS
 10
195.0
 20
-118.5
 11
145.0
 21
-118.5
  0
ENDBLK
  0
BLOCK
  2
*DIM_0002
 70
    65
 10
0.0
 20
0.0
  0
LINE
  8
寸法
  6
BYBLOCK
 62
     0
 10
-4.287135
 20
-64.87628
 11
20.682515
 21
-64.87628
  0
LINE
  8
寸法
  6
BYBLOCK
 62
     0
 10
20.682515
 20
-70.209613
 11
20.682515
 21
-64.87628
  0
POINT
  8
寸法
 62
     0
 10
20.682515
 20
-70.209613
  0
POINT
  8
寸法
 62
     0
 10
20.682515
 20
-64.87628
  0
TEXT
  7
TextStyle03
  8
寸法
  6
CONTINUOUS
 62
     0
 10
20.3
 20
-69.9875
  1
160
 40
3.0
 50
90.0
 72
     5
 11
20.3
 21
-65.1125
  0
ENDBLK
  0
BLOCK
  2
*DIM_0003
 70
    65
 10
0.0
 20
0.0
  0
LINE
  8
寸法
  6
BYBLOCK
 62
     0
 10
38.732515
 20
22.814033
 11
38.732515
 21
42.814033
  0
POINT
  8
寸法
 62
     0
 10
38.732515
 20
22.814033
  0
POINT
  8
寸法
 62
     0
 10
38.732515
 20
42.814033
  0
TEXT
  7
TextStyle03
  8
寸法
  6
CONTINUOUS
 62
     0
 10
38.35
 20
21.925
  1
呼称寸法　600
 40
3.0
 50
90.0
 72
     5
 11
38.35
 21
43.675
  0
ENDBLK
  0
BLOCK
  2
*DIM_0004
 70
    65
 10
0.0
 20
0.0
  0
LINE
  8
寸法
  6
BYBLOCK
 62
     0
 10
100.79942
 20
-63.785395
 11
108.91095
 21
-63.785395
  0
LINE
  8
寸法
  6
BYBLOCK
 62
     0
 10
100.79942
 20
-83.118728
 11
108.91095
 21
-83.118728
  0
LINE
  8
寸法
  6
BYBLOCK
 62
     0
 10
108.91095
 20
-63.785395
 11
108.91095
 21
-83.118728
  0
POINT
  8
寸法
 62
     0
 10
108.91095
 20
-63.785395
  0
POINT
  8
寸法
 62
     0
 10
108.91095
 20
-83.118728
  0
TEXT
  7
TextStyle03
  8
寸法
  6
CONTINUOUS
 62
     0
 10
108.525
 20
-75.9125
  1
580
 40
3.0
 50
90.0
 72
     5
 11
108.525
 21
-71.0375
  0
ENDBLK
  0
BLOCK
  2
*DIM_0005
 70
    65
 10
0.0
 20
0.0
  0
LINE
  8
寸法
  6
BYBLOCK
 62
     0
 10
58.99942
 20
-62.785395
 11
58.99942
 21
-53.82745
  0
LINE
  8
寸法
  6
BYBLOCK
 62
     0
 10
99.79942
 20
-62.785395
 11
99.79942
 21
-53.82745
  0
LINE
  8
寸法
  6
BYBLOCK
 62
     0
 10
58.99942
 20
-53.82745
 11
99.79942
 21
-53.82745
  0
POINT
  8
寸法
 62
     0
 10
58.99942
 20
-53.82745
  0
POINT
  8
寸法
 62
     0
 10
99.79942
 20
-53.82745
  0
TEXT
  7
TextStyle03
  8
寸法
  6
CONTINUOUS
 62
     0
 10
76.09375
 20
-53.475
  1
1224
 40
3.0
 72
     5
 11
82.65625
 21
-53.475
  0
ENDBLK
  0
BLOCK
  2
*DIM_0006
 70
    65
 10
0.0
 20
0.0
  0
LINE
  8
寸法
  6
BYBLOCK
 62
     0
 10
4.712865
 20
-13.121378
 11
-78.620467
 21
-13.121378
  0
POINT
  8
寸法
 62
     0
 10
4.712865
 20
-13.121378
  0
POINT
  8
寸法
 62
     0
 10
-78.620467
 20
-13.121378
  0
TEXT
  7
TextStyle03
  8
寸法
  6
CONTINUOUS
 62
     0
 10
-48.69375
 20
-12.75
  1
呼称寸法　2500
 40
3.0
 72
     5
 11
-25.25625
 21
-12.75
  0
ENDBLK
  0
BLOCK
  2
*DIM_0007
 70
    65
 10
0.0
 20
0.0
  0
LINE
  8
寸法
  6
BYBLOCK
 62
     0
 10
-61.9538
 20
19.183902
 11
-61.9538
 21
14.01842
  0
LINE
  8
寸法
  6
BYBLOCK
 62
     0
 10
-11.953805
 20
19.183902
 11
-11.953805
 21
14.01842
  0
LINE
  8
寸法
  6
BYBLOCK
 62
     0
 10
-61.9538
 20
14.01842
 11
-11.953805
 21
14.01842
  0
POINT
  8
寸法
 62
     0
 10
-61.9538
 20
14.01842
  0
POINT
  8
寸法
 62
     0
 10
-11.953805
 20
14.01842
  0
TEXT
  7
TextStyle03
  8
寸法
  6
CONTINUOUS
 62
     0
 10
-40.23125
 20
14.375
  1
1500
 40
3.0
 72
     5
 11
-33.66875
 21
14.375
  0
ENDBLK
  0
BLOCK
  2
*DIM_0008
 70
    65
 10
0.0
 20
0.0
  0
LINE
  8
寸法
  6
BYBLOCK
 62
     0
 10
5.712865
 20
42.814035
 11
15.437147
 21
42.814035
  0
LINE
  8
寸法
  6
BYBLOCK
 62
     0
 10
8.342995
 20
39.114035
 11
15.437147
 21
39.114035
  0
LINE
  8
寸法
  6
BYBLOCK
 62
     0
 10
15.437147
 20
42.814035
 11
15.437147
 21
39.114035
  0
POINT
  8
寸法
 62
     0
 10
15.437147
 20
42.814035
  0
POINT
  8
寸法
 62
     0
 10
15.437147
 20
39.114035
  0
TEXT
  7
TextStyle03
  8
寸法
  6
CONTINUOUS
 62
     0
 10
15.125
 20
43.8125
  1
111
 40
3.0
 50
90.0
 72
     5
 11
15.125
 21
48.6875
  0
ENDBLK
  0
BLOCK
  2
*DIM_0009
 70
    65
 10
0.0
 20
0.0
  0
LINE
  8
寸法
  6
BYBLOCK
 62
     0
 10
5.712865
 20
22.81403
 11
15.437147
 21
22.814027
  0
LINE
  8
寸法
  6
BYBLOCK
 62
     0
 10
8.342995
 20
26.51403
 11
15.437147
 21
26.514027
  0
LINE
  8
寸法
  6
BYBLOCK
 62
     0
 10
15.437147
 20
22.814027
 11
15.437147
 21
26.514027
  0
POINT
  8
寸法
 62
     0
 10
15.437147
 20
22.814027
  0
POINT
  8
寸法
 62
     0
 10
15.437147
 20
26.514027
  0
TEXT
  7
TextStyle03
  8
寸法
  6
CONTINUOUS
 62
     0
 10
15.45
 20
16.5625
  1
111
 40
3.0
 50
90.0
 72
     5
 11
15.45
 21
21.4375
  0
ENDBLK
  0
BLOCK
  2
*GRP_0010
 70
    65
 10
0.0
 20
0.0
  0
LINE
  8
別途部材
  6
CONTINUOUS
 62
    96
 10
-80.287135
 20
-70.209613
 11
-80.687135
 21
-71.209613
  0
ARC
  8
別途部材
  6
CONTINUOUS
 10
-68.62047
 20
-76.917948
 40
12.041668
 50
90.0
 51
146.144967
  0
LINE
  8
別途部材
  6
CONTINUOUS
 10
-80.687135
 20
-71.209613
 11
-36.9538
 21
-71.209613
  0
LINE
  8
別途部材
  6
CONTINUOUS
 62
    96
 10
-80.287135
 20
-70.209613
 11
-36.9538
 21
-70.209613
  0
LINE
  8
別途部材
  6
CONTINUOUS
 10
-37.4538
 20
-63.87628
 11
-38.4538
 21
-64.87628
  0
LINE
  8
別途部材
  6
CONTINUOUS
 10
-39.4538
 20
-64.87628
 11
-40.4538
 21
-63.87628
  0
LINE
  8
別途部材
  6
CONTINUOUS
 10
-41.4538
 20
-63.87628
 11
-42.4538
 21
-64.87628
  0
LINE
  8
別途部材
  6
CONTINUOUS
 10
-40.4538
 20
-63.87628
 11
-41.4538
 21
-63.87628
  0
LINE
  8
別途部材
  6
CONTINUOUS
 10
-37.4538
 20
-63.87628
 11
-36.9538
 21
-63.87628
  0
LINE
  8
別途部材
  6
CONTINUOUS
 10
-43.4538
 20
-64.87628
 11
-44.4538
 21
-63.87628
  0
LINE
  8
別途部材
  6
CONTINUOUS
 10
-45.4538
 20
-63.87628
 11
-46.4538
 21
-64.87628
  0
LINE
  8
別途部材
  6
CONTINUOUS
 10
-44.4538
 20
-63.87628
 11
-45.4538
 21
-63.87628
  0
LINE
  8
別途部材
  6
CONTINUOUS
 10
-47.4538
 20
-64.87628
 11
-48.4538
 21
-63.87628
  0
LINE
  8
別途部材
  6
CONTINUOUS
 10
-49.4538
 20
-63.87628
 11
-50.4538
 21
-64.87628
  0
LINE
  8
別途部材
  6
CONTINUOUS
 10
-48.4538
 20
-63.87628
 11
-49.4538
 21
-63.87628
  0
LINE
  8
別途部材
  6
CONTINUOUS
 10
-51.4538
 20
-64.87628
 11
-52.4538
 21
-63.87628
  0
LINE
  8
別途部材
  6
CONTINUOUS
 10
-53.4538
 20
-63.87628
 11
-54.4538
 21
-64.87628
  0
LINE
  8
別途部材
  6
CONTINUOUS
 10
-52.4538
 20
-63.87628
 11
-53.4538
 21
-63.87628
  0
LINE
  8
別途部材
  6
CONTINUOUS
 10
-55.4538
 20
-64.87628
 11
-56.4538
 21
-63.87628
  0
LINE
  8
別途部材
  6
CONTINUOUS
 10
-57.4538
 20
-63.87628
 11
-58.4538
 21
-64.87628
  0
LINE
  8
別途部材
  6
CONTINUOUS
 10
-56.4538
 20
-63.87628
 11
-57.4538
 21
-63.87628
  0
LINE
  8
別途部材
  6
CONTINUOUS
 10
-59.4538
 20
-64.87628
 11
-60.4538
 21
-63.87628
  0
LINE
  8
別途部材
  6
CONTINUOUS
 10
-61.4538
 20
-63.87628
 11
-62.4538
 21
-64.87628
  0
LINE
  8
別途部材
  6
CONTINUOUS
 10
-60.4538
 20
-63.87628
 11
-61.4538
 21
-63.87628
  0
LINE
  8
別途部材
  6
CONTINUOUS
 10
-63.4538
 20
-64.87628
 11
-64.4538
 21
-63.87628
  0
LINE
  8
別途部材
  6
CONTINUOUS
 10
-65.4538
 20
-63.87628
 11
-66.4538
 21
-64.87628
  0
LINE
  8
別途部材
  6
CONTINUOUS
 10
-64.4538
 20
-63.87628
 11
-65.4538
 21
-63.87628
  0
LINE
  8
別途部材
  6
CONTINUOUS
 10
-62.4538
 20
-64.87628
 11
-63.4538
 21
-64.87628
  0
LINE
  8
別途部材
  6
CONTINUOUS
 10
-58.4538
 20
-64.87628
 11
-59.4538
 21
-64.87628
  0
LINE
  8
別途部材
  6
CONTINUOUS
 10
-54.4538
 20
-64.87628
 11
-55.4538
 21
-64.87628
  0
LINE
  8
別途部材
  6
CONTINUOUS
 10
-50.4538
 20
-64.87628
 11
-51.4538
 21
-64.87628
  0
LINE
  8
別途部材
  6
CONTINUOUS
 10
-46.4538
 20
-64.87628
 11
-47.4538
 21
-64.87628
  0
LINE
  8
別途部材
  6
CONTINUOUS
 10
-42.4538
 20
-64.87628
 11
-43.4538
 21
-64.87628
  0
LINE
  8
別途部材
  6
CONTINUOUS
 10
-39.4538
 20
-64.87628
 11
-38.4538
 21
-64.87628
  0
LINE
  8
別途部材
  6
CONTINUOUS
 10
-65.4538
 20
-63.87628
 11
-65.4538
 21
-70.209613
  0
LINE
  8
別途部材
  6
CONTINUOUS
 10
-66.4538
 20
-64.87628
 11
-66.4538
 21
-70.209613
  0
LINE
  8
別途部材
  6
CONTINUOUS
 10
-63.4538
 20
-64.87628
 11
-63.4538
 21
-70.209613
  0
LINE
  8
別途部材
  6
CONTINUOUS
 10
-64.4538
 20
-63.87628
 11
-64.4538
 21
-70.209613
  0
LINE
  8
別途部材
  6
CONTINUOUS
 10
-62.4538
 20
-64.87628
 11
-62.4538
 21
-70.209613
  0
LINE
  8
別途部材
  6
CONTINUOUS
 10
-61.4538
 20
-63.87628
 11
-61.4538
 21
-70.209613
  0
LINE
  8
別途部材
  6
CONTINUOUS
 10
-57.4538
 20
-63.87628
 11
-57.4538
 21
-70.209613
  0
LINE
  8
別途部材
  6
CONTINUOUS
 10
-56.4538
 20
-63.87628
 11
-56.4538
 21
-70.209613
  0
LINE
  8
別途部材
  6
CONTINUOUS
 10
-58.4538
 20
-64.87628
 11
-58.4538
 21
-70.209613
  0
LINE
  8
別途部材
  6
CONTINUOUS
 10
-59.4538
 20
-64.87628
 11
-59.4538
 21
-70.209613
  0
LINE
  8
別途部材
  6
CONTINUOUS
 10
-60.4538
 20
-63.87628
 11
-60.4538
 21
-70.209613
  0
LINE
  8
別途部材
  6
CONTINUOUS
 10
-55.4538
 20
-64.87628
 11
-55.4538
 21
-70.209613
  0
LINE
  8
別途部材
  6
CONTINUOUS
 10
-53.4538
 20
-63.87628
 11
-53.4538
 21
-70.209613
  0
LINE
  8
別途部材
  6
CONTINUOUS
 10
-52.4538
 20
-63.87628
 11
-52.4538
 21
-70.209613
  0
LINE
  8
別途部材
  6
CONTINUOUS
 10
-51.4538
 20
-64.87628
 11
-51.4538
 21
-70.209613
  0
LINE
  8
別途部材
  6
CONTINUOUS
 10
-50.4538
 20
-64.87628
 11
-50.4538
 21
-70.209613
  0
LINE
  8
別途部材
  6
CONTINUOUS
 10
-49.4538
 20
-63.87628
 11
-49.4538
 21
-70.209613
  0
LINE
  8
別途部材
  6
CONTINUOUS
 10
-54.4538
 20
-64.87628
 11
-54.4538
 21
-70.209613
  0
LINE
  8
別途部材
  6
CONTINUOUS
 10
-48.4538
 20
-63.87628
 11
-48.4538
 21
-70.209613
  0
LINE
  8
別途部材
  6
CONTINUOUS
 10
-47.4538
 20
-64.87628
 11
-47.4538
 21
-70.209613
  0
LINE
  8
別途部材
  6
CONTINUOUS
 10
-46.4538
 20
-64.87628
 11
-46.4538
 21
-70.209613
  0
LINE
  8
別途部材
  6
CONTINUOUS
 10
-44.4538
 20
-63.87628
 11
-44.4538
 21
-70.209613
  0
LINE
  8
別途部材
  6
CONTINUOUS
 10
-42.4538
 20
-64.87628
 11
-42.4538
 21
-70.209613
  0
LINE
  8
別途部材
  6
CONTINUOUS
 10
-41.4538
 20
-63.87628
 11
-41.4538
 21
-70.209613
  0
LINE
  8
別途部材
  6
CONTINUOUS
 10
-39.4538
 20
-64.87628
 11
-39.4538
 21
-70.209613
  0
LINE
  8
別途部材
  6
CONTINUOUS
 10
-38.4538
 20
-64.87628
 11
-38.4538
 21
-70.209613
  0
LINE
  8
別途部材
  6
CONTINUOUS
 10
-37.4538
 20
-63.87628
 11
-37.4538
 21
-70.209613
  0
LINE
  8
別途部材
  6
CONTINUOUS
 10
-40.4538
 20
-63.87628
 11
-40.4538
 21
-70.209613
  0
LINE
  8
別途部材
  6
CONTINUOUS
 10
-43.4538
 20
-64.87628
 11
-43.4538
 21
-70.209613
  0
LINE
  8
別途部材
  6
CONTINUOUS
 10
-45.4538
 20
-63.87628
 11
-45.4538
 21
-70.209613
  0
LINE
  8
別途部材
  6
CONTINUOUS
 10
-66.4538
 20
-64.87628
 11
-68.620467
 21
-64.87628
  0
LINE
  8
別途部材
  6
CONTINUOUS
 62
    96
 10
6.379532
 20
-70.209613
 11
6.779532
 21
-71.209613
  0
ARC
  8
別途部材
  6
CONTINUOUS
 10
-5.287131
 20
-76.917948
 40
12.041668
 50
33.855033
 51
90.0
  0
LINE
  8
別途部材
  6
CONTINUOUS
 10
6.779532
 20
-71.209613
 11
-36.9538
 21
-71.209613
  0
LINE
  8
別途部材
  6
CONTINUOUS
 62
    96
 10
6.379532
 20
-70.209613
 11
-36.9538
 21
-70.209613
  0
LINE
  8
別途部材
  6
CONTINUOUS
 10
-36.4538
 20
-63.87628
 11
-35.4538
 21
-64.87628
  0
LINE
  8
別途部材
  6
CONTINUOUS
 10
-34.4538
 20
-64.87628
 11
-33.4538
 21
-63.87628
  0
LINE
  8
別途部材
  6
CONTINUOUS
 10
-32.4538
 20
-63.87628
 11
-31.4538
 21
-64.87628
  0
LINE
  8
別途部材
  6
CONTINUOUS
 10
-33.4538
 20
-63.87628
 11
-32.4538
 21
-63.87628
  0
LINE
  8
別途部材
  6
CONTINUOUS
 10
-36.4538
 20
-63.87628
 11
-36.9538
 21
-63.87628
  0
LINE
  8
別途部材
  6
CONTINUOUS
 10
-30.4538
 20
-64.87628
 11
-29.4538
 21
-63.87628
  0
LINE
  8
別途部材
  6
CONTINUOUS
 10
-28.4538
 20
-63.87628
 11
-27.4538
 21
-64.87628
  0
LINE
  8
別途部材
  6
CONTINUOUS
 10
-29.4538
 20
-63.87628
 11
-28.4538
 21
-63.87628
  0
LINE
  8
別途部材
  6
CONTINUOUS
 10
-26.4538
 20
-64.87628
 11
-25.4538
 21
-63.87628
  0
LINE
  8
別途部材
  6
CONTINUOUS
 10
-24.4538
 20
-63.87628
 11
-23.4538
 21
-64.87628
  0
LINE
  8
別途部材
  6
CONTINUOUS
 10
-25.4538
 20
-63.87628
 11
-24.4538
 21
-63.87628
  0
LINE
  8
別途部材
  6
CONTINUOUS
 10
-22.4538
 20
-64.87628
 11
-21.4538
 21
-63.87628
  0
LINE
  8
別途部材
  6
CONTINUOUS
 10
-20.4538
 20
-63.87628
 11
-19.4538
 21
-64.87628
  0
LINE
  8
別途部材
  6
CONTINUOUS
 10
-21.4538
 20
-63.87628
 11
-20.4538
 21
-63.87628
  0
LINE
  8
別途部材
  6
CONTINUOUS
 10
-18.4538
 20
-64.87628
 11
-17.4538
 21
-63.87628
  0
LINE
  8
別途部材
  6
CONTINUOUS
 10
-16.4538
 20
-63.87628
 11
-15.4538
 21
-64.87628
  0
LINE
  8
別途部材
  6
CONTINUOUS
 10
-17.4538
 20
-63.87628
 11
-16.4538
 21
-63.87628
  0
LINE
  8
別途部材
  6
CONTINUOUS
 10
-14.4538
 20
-64.87628
 11
-13.4538
 21
-63.87628
  0
LINE
  8
別途部材
  6
CONTINUOUS
 10
-12.4538
 20
-63.87628
 11
-11.4538
 21
-64.87628
  0
LINE
  8
別途部材
  6
CONTINUOUS
 10
-13.4538
 20
-63.87628
 11
-12.4538
 21
-63.87628
  0
LINE
  8
別途部材
  6
CONTINUOUS
 10
-10.4538
 20
-64.87628
 11
-9.4538
 21
-63.87628
  0
LINE
  8
別途部材
  6
CONTINUOUS
 10
-8.4538
 20
-63.87628
 11
-7.4538
 21
-64.87628
  0
LINE
  8
別途部材
  6
CONTINUOUS
 10
-9.4538
 20
-63.87628
 11
-8.4538
 21
-63.87628
  0
LINE
  8
別途部材
  6
CONTINUOUS
 10
-11.4538
 20
-64.87628
 11
-10.4538
 21
-64.87628
  0
LINE
  8
別途部材
  6
CONTINUOUS
 10
-15.4538
 20
-64.87628
 11
-14.4538
 21
-64.87628
  0
LINE
  8
別途部材
  6
CONTINUOUS
 10
-19.4538
 20
-64.87628
 11
-18.4538
 21
-64.87628
  0
LINE
  8
別途部材
  6
CONTINUOUS
 10
-23.4538
 20
-64.87628
 11
-22.4538
 21
-64.87628
  0
LINE
  8
別途部材
  6
CONTINUOUS
 10
-27.4538
 20
-64.87628
 11
-26.4538
 21
-64.87628
  0
LINE
  8
別途部材
  6
CONTINUOUS
 10
-31.4538
 20
-64.87628
 11
-30.4538
 21
-64.87628
  0
LINE
  8
別途部材
  6
CONTINUOUS
 10
-34.4538
 20
-64.87628
 11
-35.4538
 21
-64.87628
  0
LINE
  8
別途部材
  6
CONTINUOUS
 10
-8.4538
 20
-63.87628
 11
-8.4538
 21
-70.209613
  0
LINE
  8
別途部材
  6
CONTINUOUS
 10
-7.4538
 20
-64.87628
 11
-7.4538
 21
-70.209613
  0
LINE
  8
別途部材
  6
CONTINUOUS
 10
-10.4538
 20
-64.87628
 11
-10.4538
 21
-70.209613
  0
LINE
  8
別途部材
  6
CONTINUOUS
 10
-9.4538
 20
-63.87628
 11
-9.4538
 21
-70.209613
  0
LINE
  8
別途部材
  6
CONTINUOUS
 10
-11.4538
 20
-64.87628
 11
-11.4538
 21
-70.209613
  0
LINE
  8
別途部材
  6
CONTINUOUS
 10
-12.4538
 20
-63.87628
 11
-12.4538
 21
-70.209613
  0
LINE
  8
別途部材
  6
CONTINUOUS
 10
-16.4538
 20
-63.87628
 11
-16.4538
 21
-70.209613
  0
LINE
  8
別途部材
  6
CONTINUOUS
 10
-17.4538
 20
-63.87628
 11
-17.4538
 21
-70.209613
  0
LINE
  8
別途部材
  6
CONTINUOUS
 10
-15.4538
 20
-64.87628
 11
-15.4538
 21
-70.209613
  0
LINE
  8
別途部材
  6
CONTINUOUS
 10
-14.4538
 20
-64.87628
 11
-14.4538
 21
-70.209613
  0
LINE
  8
別途部材
  6
CONTINUOUS
 10
-13.4538
 20
-63.87628
 11
-13.4538
 21
-70.209613
  0
LINE
  8
別途部材
  6
CONTINUOUS
 10
-18.4538
 20
-64.87628
 11
-18.4538
 21
-70.209613
  0
LINE
  8
別途部材
  6
CONTINUOUS
 10
-20.4538
 20
-63.87628
 11
-20.4538
 21
-70.209613
  0
LINE
  8
別途部材
  6
CONTINUOUS
 10
-21.4538
 20
-63.87628
 11
-21.4538
 21
-70.209613
  0
LINE
  8
別途部材
  6
CONTINUOUS
 10
-22.4538
 20
-64.87628
 11
-22.4538
 21
-70.209613
  0
LINE
  8
別途部材
  6
CONTINUOUS
 10
-23.4538
 20
-64.87628
 11
-23.4538
 21
-70.209613
  0
LINE
  8
別途部材
  6
CONTINUOUS
 10
-24.4538
 20
-63.87628
 11
-24.4538
 21
-70.209613
  0
LINE
  8
別途部材
  6
CONTINUOUS
 10
-19.4538
 20
-64.87628
 11
-19.4538
 21
-70.209613
  0
LINE
  8
別途部材
  6
CONTINUOUS
 10
-25.4538
 20
-63.87628
 11
-25.4538
 21
-70.209613
  0
LINE
  8
別途部材
  6
CONTINUOUS
 10
-26.4538
 20
-64.87628
 11
-26.4538
 21
-70.209613
  0
LINE
  8
別途部材
  6
CONTINUOUS
 10
-27.4538
 20
-64.87628
 11
-27.4538
 21
-70.209613
  0
LINE
  8
別途部材
  6
CONTINUOUS
 10
-29.4538
 20
-63.87628
 11
-29.4538
 21
-70.209613
  0
LINE
  8
別途部材
  6
CONTINUOUS
 10
-31.4538
 20
-64.87628
 11
-31.4538
 21
-70.209613
  0
LINE
  8
別途部材
  6
CONTINUOUS
 10
-32.4538
 20
-63.87628
 11
-32.4538
 21
-70.209613
  0
LINE
  8
別途部材
  6
CONTINUOUS
 10
-34.4538
 20
-64.87628
 11
-34.4538
 21
-70.209613
  0
LINE
  8
別途部材
  6
CONTINUOUS
 10
-35.4538
 20
-64.87628
 11
-35.4538
 21
-70.209613
  0
LINE
  8
別途部材
  6
CONTINUOUS
 10
-36.4538
 20
-63.87628
 11
-36.4538
 21
-70.209613
  0
LINE
  8
別途部材
  6
CONTINUOUS
 10
-33.4538
 20
-63.87628
 11
-33.4538
 21
-70.209613
  0
LINE
  8
別途部材
  6
CONTINUOUS
 10
-30.4538
 20
-64.87628
 11
-30.4538
 21
-70.209613
  0
LINE
  8
別途部材
  6
CONTINUOUS
 10
-28.4538
 20
-63.87628
 11
-28.4538
 21
-70.209613
  0
LINE
  8
別途部材
  6
CONTINUOUS
 10
-7.4538
 20
-64.87628
 11
-5.287135
 21
-64.87628
  0
ENDBLK
  0
BLOCK
  2
*DIM_0011
 70
    65
 10
0.0
 20
0.0
  0
LINE
  8
寸法
  6
BYBLOCK
 62
     0
 10
88.912797
 20
33.814033
 11
88.912797
 21
60.666798
  0
LINE
  8
寸法
  6
BYBLOCK
 62
     0
 10
94.24613
 20
60.666798
 11
88.912797
 21
60.666798
  0
POINT
  8
寸法
 62
     0
 10
94.24613
 20
60.666798
  0
POINT
  8
寸法
 62
     0
 10
88.912797
 20
60.666798
  0
TEXT
  7
TextStyle03
  8
寸法
  6
CONTINUOUS
 62
     0
 10
89.1375
 20
61.025
  1
160
 40
3.0
 72
     5
 11
94.0125
 21
61.025
  0
ENDBLK
  0
BLOCK
  2
*GRP_0012
 70
    65
 10
0.0
 20
0.0
  0
LINE
  8
補助線
  6
BYBLOCK
 62
    64
 10
99.152552
 20
39.41701
 11
99.260035
 21
39.54439
  0
LINE
  8
補助線
  6
BYBLOCK
 62
    64
 10
99.142603
 20
39.53444
 11
99.269982
 21
39.42696
  0
LINE
  8
補助線
  6
BYBLOCK
 62
    64
 10
89.586882
 20
28.08009
 11
89.479402
 21
27.95271
  0
LINE
  8
補助線
  6
BYBLOCK
 62
    64
 10
89.469453
 20
28.07014
 11
89.596835
 21
27.96266
  0
LINE
  8
補助線
  6
BYBLOCK
 62
    64
 10
94.42344
 20
33.81226
 11
94.31596
 21
33.684878
  0
LINE
  8
補助線
  6
BYBLOCK
 62
    64
 10
94.306007
 20
33.802307
 11
94.43339
 21
33.694828
  0
LINE
  8
型材断面
  6
CONTINUOUS
 10
98.78435
 20
40.272862
 11
99.488933
 21
40.332562
  0
LINE
  8
型材断面
  6
CONTINUOUS
 10
99.488933
 20
40.332562
 11
99.998455
 21
39.902645
  0
LINE
  8
型材断面
  6
CONTINUOUS
 10
99.998455
 20
39.902645
 11
100.058158
 21
39.198063
  0
LINE
  8
型材断面
  6
CONTINUOUS
 10
88.68128
 20
28.299037
 11
88.740983
 21
27.594457
  0
LINE
  8
型材断面
  6
CONTINUOUS
 10
88.740983
 20
27.594457
 11
89.250505
 21
27.164535
  0
LINE
  8
型材断面
  6
CONTINUOUS
 10
89.250505
 20
27.164535
 11
89.955085
 21
27.22424
  0
LINE
  8
型材断面
  6
CONTINUOUS
 10
98.78435
 20
40.272862
 11
88.681272
 21
28.299115
  0
LINE
  8
型材断面
  6
CONTINUOUS
 10
100.058158
 20
39.198063
 11
89.955012
 21
27.224235
  0
LINE
  8
型材断面
  6
CONTINUOUS
 10
94.114942
 20
33.963528
 11
94.624465
 21
33.533607
  0
LINE
  8
ボルト／ビス
  6
CONTINUOUS
 62
    64
 10
98.970955
 20
39.679272
 11
99.260592
 21
39.783792
  0
LINE
  8
ボルト／ビス
  6
CONTINUOUS
 62
    64
 10
98.970955
 20
39.679272
 11
98.916657
 21
39.376175
  0
LINE
  8
ボルト／ビス
  6
CONTINUOUS
 62
    64
 10
99.441633
 20
39.282128
 11
99.49593
 21
39.585225
  0
LINE
  8
ボルト／ビス
  6
CONTINUOUS
 62
    64
 10
99.441633
 20
39.282128
 11
99.151995
 21
39.177605
  0
CIRCLE
  8
ボルト／ビス
  6
CONTINUOUS
 62
    64
 10
99.206293
 20
39.4807
 40
0.266668
  0
LINE
  8
ボルト／ビス
  6
CONTINUOUS
 62
    64
 10
98.916657
 20
39.376175
 11
99.151995
 21
39.177605
  0
LINE
  8
ボルト／ビス
  6
CONTINUOUS
 62
    64
 10
99.260592
 20
39.783792
 11
99.49593
 21
39.585225
  0
LINE
  8
ボルト／ビス
  6
CONTINUOUS
 62
    64
 10
89.297805
 20
28.21497
 11
89.243505
 21
27.911875
  0
LINE
  8
ボルト／ビス
  6
CONTINUOUS
 62
    64
 10
89.297805
 20
28.21497
 11
89.587442
 21
28.319495
  0
LINE
  8
ボルト／ビス
  6
CONTINUOUS
 62
    64
 10
89.768483
 20
27.81783
 11
89.478845
 21
27.713307
  0
LINE
  8
ボルト／ビス
  6
CONTINUOUS
 62
    64
 10
89.768483
 20
27.81783
 11
89.822777
 21
28.120925
  0
CIRCLE
  8
ボルト／ビス
  6
CONTINUOUS
 62
    64
 10
89.533145
 20
28.0164
 40
0.266668
  0
LINE
  8
ボルト／ビス
  6
CONTINUOUS
 62
    64
 10
89.587442
 20
28.319495
 11
89.822777
 21
28.120925
  0
LINE
  8
ボルト／ビス
  6
CONTINUOUS
 62
    64
 10
89.243505
 20
27.911875
 11
89.478845
 21
27.713307
  0
LINE
  8
ボルト／ビス
  6
CONTINUOUS
 62
    64
 10
94.13436
 20
33.94714
 11
94.080062
 21
33.644043
  0
LINE
  8
ボルト／ビス
  6
CONTINUOUS
 62
    64
 10
94.13436
 20
33.94714
 11
94.423998
 21
34.051665
  0
LINE
  8
ボルト／ビス
  6
CONTINUOUS
 62
    64
 10
94.605038
 20
33.549998
 11
94.3154
 21
33.445475
  0
LINE
  8
ボルト／ビス
  6
CONTINUOUS
 62
    64
 10
94.605038
 20
33.549998
 11
94.659338
 21
33.853092
  0
CIRCLE
  8
ボルト／ビス
  6
CONTINUOUS
 62
    64
 10
94.3697
 20
33.748567
 40
0.266668
  0
LINE
  8
ボルト／ビス
  6
CONTINUOUS
 62
    64
 10
94.423998
 20
34.051665
 11
94.659338
 21
33.853092
  0
LINE
  8
ボルト／ビス
  6
CONTINUOUS
 62
    64
 10
94.080062
 20
33.644043
 11
94.3154
 21
33.445475
  0
ENDBLK
  0
BLOCK
  2
*GRP_0013
 70
    65
 10
0.0
 20
0.0
  0
LINE
  8
補助線
  6
BYBLOCK
 62
    64
 10
99.152552
 20
28.080125
 11
99.260035
 21
27.952745
  0
LINE
  8
補助線
  6
BYBLOCK
 62
    64
 10
99.142603
 20
27.962695
 11
99.269982
 21
28.070175
  0
LINE
  8
補助線
  6
BYBLOCK
 62
    64
 10
89.586882
 20
39.417045
 11
89.479402
 21
39.544425
  0
LINE
  8
補助線
  6
BYBLOCK
 62
    64
 10
89.469453
 20
39.426995
 11
89.596835
 21
39.534475
  0
LINE
  8
補助線
  6
BYBLOCK
 62
    64
 10
94.42344
 20
33.684875
 11
94.31596
 21
33.812257
  0
LINE
  8
補助線
  6
BYBLOCK
 62
    64
 10
94.306007
 20
33.694828
 11
94.43339
 21
33.802307
  0
LINE
  8
型材断面
  6
CONTINUOUS
 10
98.78435
 20
27.224273
 11
99.488933
 21
27.164573
  0
LINE
  8
型材断面
  6
CONTINUOUS
 10
99.488933
 20
27.164573
 11
99.998455
 21
27.59449
  0
LINE
  8
型材断面
  6
CONTINUOUS
 10
99.998455
 20
27.59449
 11
100.058158
 21
28.299072
  0
LINE
  8
型材断面
  6
CONTINUOUS
 10
88.68128
 20
39.198098
 11
88.740983
 21
39.902678
  0
LINE
  8
型材断面
  6
CONTINUOUS
 10
88.740983
 20
39.902678
 11
89.250505
 21
40.3326
  0
LINE
  8
型材断面
  6
CONTINUOUS
 10
89.250505
 20
40.3326
 11
89.955085
 21
40.272895
  0
LINE
  8
型材断面
  6
CONTINUOUS
 10
98.78435
 20
27.224273
 11
88.681272
 21
39.19802
  0
LINE
  8
型材断面
  6
CONTINUOUS
 10
100.058158
 20
28.299072
 11
89.955012
 21
40.2729
  0
LINE
  8
型材断面
  6
CONTINUOUS
 10
94.114942
 20
33.533607
 11
94.624465
 21
33.963528
  0
LINE
  8
ボルト／ビス
  6
CONTINUOUS
 62
    64
 10
98.970955
 20
27.817863
 11
99.260592
 21
27.713343
  0
LINE
  8
ボルト／ビス
  6
CONTINUOUS
 62
    64
 10
98.970955
 20
27.817863
 11
98.916657
 21
28.12096
  0
LINE
  8
ボルト／ビス
  6
CONTINUOUS
 62
    64
 10
99.441633
 20
28.215007
 11
99.49593
 21
27.91191
  0
LINE
  8
ボルト／ビス
  6
CONTINUOUS
 62
    64
 10
99.441633
 20
28.215007
 11
99.151995
 21
28.31953
  0
CIRCLE
  8
ボルト／ビス
  6
CONTINUOUS
 62
    64
 10
99.206293
 20
28.016435
 40
0.266668
  0
LINE
  8
ボルト／ビス
  6
CONTINUOUS
 62
    64
 10
98.916657
 20
28.12096
 11
99.151995
 21
28.31953
  0
LINE
  8
ボルト／ビス
  6
CONTINUOUS
 62
    64
 10
99.260592
 20
27.713343
 11
99.49593
 21
27.91191
  0
LINE
  8
ボルト／ビス
  6
CONTINUOUS
 62
    64
 10
89.297805
 20
39.282165
 11
89.243505
 21
39.58526
  0
LINE
  8
ボルト／ビス
  6
CONTINUOUS
 62
    64
 10
89.297805
 20
39.282165
 11
89.587442
 21
39.17764
  0
LINE
  8
ボルト／ビス
  6
CONTINUOUS
 62
    64
 10
89.768483
 20
39.679305
 11
89.478845
 21
39.783828
  0
LINE
  8
ボルト／ビス
  6
CONTINUOUS
 62
    64
 10
89.768483
 20
39.679305
 11
89.822777
 21
39.37621
  0
CIRCLE
  8
ボルト／ビス
  6
CONTINUOUS
 62
    64
 10
89.533145
 20
39.480735
 40
0.266668
  0
LINE
  8
ボルト／ビス
  6
CONTINUOUS
 62
    64
 10
89.587442
 20
39.17764
 11
89.822777
 21
39.37621
  0
LINE
  8
ボルト／ビス
  6
CONTINUOUS
 62
    64
 10
89.243505
 20
39.58526
 11
89.478845
 21
39.783828
  0
LINE
  8
ボルト／ビス
  6
CONTINUOUS
 62
    64
 10
94.13436
 20
33.549995
 11
94.080062
 21
33.853092
  0
LINE
  8
ボルト／ビス
  6
CONTINUOUS
 62
    64
 10
94.13436
 20
33.549995
 11
94.423998
 21
33.44547
  0
LINE
  8
ボルト／ビス
  6
CONTINUOUS
 62
    64
 10
94.605038
 20
33.947137
 11
94.3154
 21
34.05166
  0
LINE
  8
ボルト／ビス
  6
CONTINUOUS
 62
    64
 10
94.605038
 20
33.947137
 11
94.659338
 21
33.644043
  0
CIRCLE
  8
ボルト／ビス
  6
CONTINUOUS
 62
    64
 10
94.3697
 20
33.748567
 40
0.266668
  0
LINE
  8
ボルト／ビス
  6
CONTINUOUS
 62
    64
 10
94.423998
 20
33.44547
 11
94.659338
 21
33.644043
  0
LINE
  8
ボルト／ビス
  6
CONTINUOUS
 62
    64
 10
94.080062
 20
33.853092
 11
94.3154
 21
34.05166
  0
ENDBLK
  0
BLOCK
  2
*DIM_0014
 70
    65
 10
0.0
 20
0.0
  0
LINE
  8
寸法
  6
BYBLOCK
 62
     0
 10
92.622915
 20
44.797367
 11
38.732515
 21
44.797367
  0
LINE
  8
寸法
  6
BYBLOCK
 62
     0
 10
38.732515
 20
42.814033
 11
38.732515
 21
44.797367
  0
POINT
  8
寸法
 62
     0
 10
38.732515
 20
42.814033
  0
POINT
  8
寸法
 62
     0
 10
38.732515
 20
44.797367
  0
TEXT
  7
TextStyle03
  8
寸法
  6
CONTINUOUS
 62
     0
 10
38.35
 20
47.26875
  1
59.5
 40
3.0
 50
90.0
 72
     5
 11
38.35
 21
53.83125
  0
ENDBLK
  0
BLOCK
  2
*DIM_0015
 70
    65
 10
0.0
 20
0.0
  0
LINE
  8
寸法
  6
BYBLOCK
 62
     0
 10
92.622915
 20
20.8307
 11
38.732515
 21
20.8307
  0
LINE
  8
寸法
  6
BYBLOCK
 62
     0
 10
38.732515
 20
22.814033
 11
38.732515
 21
20.8307
  0
POINT
  8
寸法
 62
     0
 10
38.732515
 20
22.814033
  0
POINT
  8
寸法
 62
     0
 10
38.732515
 20
20.8307
  0
TEXT
  7
TextStyle03
  8
寸法
  6
CONTINUOUS
 62
     0
 10
38.35
 20
11.76875
  1
59.5
 40
3.0
 50
90.0
 72
     5
 11
38.35
 21
18.33125
  0
ENDBLK
  0
BLOCK
  2
*DIM_0016
 70
    65
 10
0.0
 20
0.0
  0
LINE
  8
寸法
  6
BYBLOCK
 62
     0
 10
94.24613
 20
47.4807
 11
94.24613
 21
60.666798
  0
LINE
  8
寸法
  6
BYBLOCK
 62
     0
 10
101.279632
 20
47.797367
 11
101.279632
 21
60.666798
  0
LINE
  8
寸法
  6
BYBLOCK
 62
     0
 10
94.24613
 20
60.666798
 11
101.279632
 21
60.666798
  0
POINT
  8
寸法
 62
     0
 10
94.24613
 20
60.666798
  0
POINT
  8
寸法
 62
     0
 10
101.279632
 20
60.666798
  0
TEXT
  7
TextStyle03
  8
寸法
  6
CONTINUOUS
 62
     0
 10
95.3125
 20
61.025
  1
211
 40
3.0
 72
     5
 11
100.1875
 21
61.025
  0
ENDBLK
  0
BLOCK
  2
*DIM_0017
 70
    65
 10
0.0
 20
0.0
  0
LINE
  8
寸法
  6
CONTINUOUS
 62
     0
 10
9.379532
 20
-70.209613
 11
20.682515
 21
-70.209613
  0
LINE
  8
寸法
  6
CONTINUOUS
 62
     0
 10
9.696198
 20
-77.243115
 11
20.682515
 21
-77.243115
  0
LINE
  8
寸法
  6
CONTINUOUS
 62
     0
 10
20.682515
 20
-70.209613
 11
20.682515
 21
-77.243115
  0
POINT
  8
寸法
 62
     0
 10
20.682515
 20
-70.209613
  0
POINT
  8
寸法
 62
     0
 10
20.682515
 20
-77.243115
  0
TEXT
  7
TextStyle03
  8
寸法
  6
CONTINUOUS
 62
     0
 10
20.3
 20
-76.1875
  1
211
 40
3.0
 50
90.0
 72
     5
 11
20.3
 21
-71.3125
  0
ENDBLK
  0
BLOCK
  2
*DIM_0018
 70
    65
 10
0.0
 20
0.0
  0
LINE
  8
寸法
  6
BYBLOCK
 62
     0
 10
6.696198
 20
-68.586398
 11
6.696198
 21
-13.121378
  0
LINE
  8
寸法
  6
BYBLOCK
 62
     0
 10
4.712865
 20
-13.121378
 11
6.696198
 21
-13.121378
  0
POINT
  8
寸法
 62
     0
 10
4.712865
 20
-13.121378
  0
POINT
  8
寸法
 62
     0
 10
6.696198
 20
-13.121378
  0
TEXT
  7
TextStyle03
  8
寸法
  6
CONTINUOUS
 62
     0
 10
9.16875
 20
-12.75
  1
59.5
 40
3.0
 72
     5
 11
15.73125
 21
-12.75
  0
ENDBLK
  0
BLOCK
  2
*DIM_0019
 70
    65
 10
0.0
 20
0.0
  0
LINE
  8
寸法
  6
BYBLOCK
 62
     0
 10
-80.603802
 20
-68.586398
 11
-80.603802
 21
-13.121378
  0
LINE
  8
寸法
  6
BYBLOCK
 62
     0
 10
-78.620467
 20
-13.121378
 11
-80.603802
 21
-13.121378
  0
POINT
  8
寸法
 62
     0
 10
-78.620467
 20
-13.121378
  0
POINT
  8
寸法
 62
     0
 10
-80.603802
 20
-13.121378
  0
TEXT
  7
TextStyle03
  8
寸法
  6
CONTINUOUS
 62
     0
 10
-89.65625
 20
-12.75
  1
59.5
 40
3.0
 72
     5
 11
-83.09375
 21
-12.75
  0
ENDBLK
  0
BLOCK
  2
*DIM_0020
 70
    65
 10
0.0
 20
0.0
  0
LINE
  8
寸法
  6
BYBLOCK
 62
     0
 10
-81.620467
 20
39.4807
 11
-94.913305
 21
39.4807
  0
LINE
  8
寸法
  6
BYBLOCK
 62
     0
 10
-81.620467
 20
26.147365
 11
-94.913305
 21
26.147365
  0
LINE
  8
寸法
  6
BYBLOCK
 62
     0
 10
-94.913305
 20
39.4807
 11
-94.913305
 21
26.147365
  0
POINT
  8
寸法
 62
     0
 10
-94.913305
 20
39.4807
  0
POINT
  8
寸法
 62
     0
 10
-94.913305
 20
26.147365
  0
TEXT
  7
TextStyle03
  8
寸法
  6
CONTINUOUS
 62
     0
 10
-95.325
 20
30.3625
  1
400
 40
3.0
 50
90.0
 72
     5
 11
-95.325
 21
35.2375
  0
ENDBLK
  0
BLOCK
  2
*DIM_0021
 70
    65
 10
0.0
 20
0.0
  0
LINE
  8
寸法
  6
BYBLOCK
 62
     0
 10
-71.953802
 20
45.814033
 11
-71.953802
 21
75.561652
  0
LINE
  8
寸法
  6
BYBLOCK
 62
     0
 10
-48.62047
 20
45.814033
 11
-48.62047
 21
75.561652
  0
LINE
  8
寸法
  6
BYBLOCK
 62
     0
 10
-71.953802
 20
75.561652
 11
-48.62047
 21
75.561652
  0
POINT
  8
寸法
 62
     0
 10
-71.953802
 20
75.561652
  0
POINT
  8
寸法
 62
     0
 10
-48.62047
 20
75.561652
  0
TEXT
  7
TextStyle03
  8
寸法
  6
CONTINUOUS
 62
     0
 10
-62.7125
 20
75.95
  1
700
 40
3.0
 72
     5
 11
-57.8375
 21
75.95
  0
ENDBLK
  0
BLOCK
  2
*DIM_0022
 70
    65
 10
0.0
 20
0.0
  0
LINE
  8
寸法
  6
BYBLOCK
 62
     0
 10
-25.287135
 20
45.814033
 11
-25.287135
 21
75.561652
  0
LINE
  8
寸法
  6
BYBLOCK
 62
     0
 10
-48.62047
 20
75.561652
 11
-25.287135
 21
75.561652
  0
POINT
  8
寸法
 62
     0
 10
-25.287135
 20
75.561652
  0
TEXT
  7
TextStyle03
  8
寸法
  6
CONTINUOUS
 62
     0
 10
-39.3875
 20
75.95
  1
700
 40
3.0
 72
     5
 11
-34.5125
 21
75.95
  0
ENDBLK
  0
BLOCK
  2
*DIM_0023
 70
    65
 10
0.0
 20
0.0
  0
LINE
  8
寸法
  6
BYBLOCK
 62
     0
 10
-1.953802
 20
45.814033
 11
-1.953802
 21
75.561652
  0
LINE
  8
寸法
  6
BYBLOCK
 62
     0
 10
-25.287135
 20
75.561652
 11
-1.953802
 21
75.561652
  0
POINT
  8
寸法
 62
     0
 10
-1.953802
 20
75.561652
  0
TEXT
  7
TextStyle03
  8
寸法
  6
CONTINUOUS
 62
     0
 10
-16.0375
 20
75.95
  1
700
 40
3.0
 72
     5
 11
-11.1625
 21
75.95
  0
ENDBLK
  0
BLOCK
  2
*GRP_0026
 70
    65
 10
0.0
 20
0.0
  0
LINE
  8
ボルト／ビス
  6
CONTINUOUS
 10
94.24613
 20
22.147365
 11
93.779465
 21
22.147365
  0
LINE
  8
ボルト／ビス
  6
CONTINUOUS
 10
94.24613
 20
21.780697
 11
94.179465
 21
21.780697
  0
LINE
  8
ボルト／ビス
  6
CONTINUOUS
 10
94.179465
 20
21.780697
 11
94.179465
 21
22.51403
  0
LINE
  8
ボルト／ビス
  6
CONTINUOUS
 10
94.179465
 20
22.51403
 11
94.24613
 21
22.51403
  0
LINE
  8
ボルト／ビス
  6
CONTINUOUS
 10
94.24613
 20
21.780697
 11
94.24613
 21
22.51403
  0
LINE
  8
ボルト／ビス
  6
CONTINUOUS
 10
94.14613
 20
21.847365
 11
94.179465
 21
21.847365
  0
LINE
  8
ボルト／ビス
  6
CONTINUOUS
 10
94.14613
 20
21.847365
 11
94.14613
 21
22.447365
  0
LINE
  8
ボルト／ビス
  6
CONTINUOUS
 10
94.14613
 20
22.447365
 11
94.179465
 21
22.447365
  0
LINE
  8
ボルト／ビス
  6
CONTINUOUS
 62
    64
 10
93.94613
 20
21.98699
 11
93.957805
 21
21.954915
  0
ARC
  8
ボルト／ビス
  6
CONTINUOUS
 62
    64
 10
94.051111
 20
22.003029
 40
0.104978
 50
152.721967
 51
180.0
  0
ARC
  8
ボルト／ビス
  6
CONTINUOUS
 62
    64
 10
94.348535
 20
22.147366
 40
0.402402
 50
166.165002
 51
193.834985
  0
LINE
  8
ボルト／ビス
  6
CONTINUOUS
 62
    64
 10
93.94613
 20
22.30774
 11
93.957805
 21
22.339815
  0
ARC
  8
ボルト／ビス
  6
CONTINUOUS
 62
    64
 10
94.051111
 20
22.291704
 40
0.104978
 50
180.0
 51
207.278033
  0
LINE
  8
ボルト／ビス
  6
CONTINUOUS
 62
    64
 10
93.94613
 20
21.98699
 11
93.94613
 21
22.30774
  0
LINE
  8
ボルト／ビス
  6
CONTINUOUS
 62
    64
 10
93.957805
 20
22.339815
 11
94.079465
 21
22.339815
  0
LINE
  8
ボルト／ビス
  6
CONTINUOUS
 62
    64
 10
93.957805
 20
22.24359
 11
94.079465
 21
22.24359
  0
LINE
  8
ボルト／ビス
  6
CONTINUOUS
 62
    64
 10
93.957805
 20
21.954915
 11
94.079465
 21
21.954915
  0
LINE
  8
ボルト／ビス
  6
CONTINUOUS
 62
    64
 10
93.957805
 20
22.05114
 11
94.079465
 21
22.05114
  0
LINE
  8
ボルト／ビス
  6
CONTINUOUS
 10
94.079465
 20
21.954915
 11
94.079465
 21
22.339815
  0
LINE
  8
ボルト／ビス
  6
CONTINUOUS
 10
94.079465
 20
21.947365
 11
94.14613
 21
21.947365
  0
LINE
  8
ボルト／ビス
  6
CONTINUOUS
 10
94.079465
 20
21.947365
 11
94.079465
 21
22.347365
  0
LINE
  8
ボルト／ビス
  6
CONTINUOUS
 10
94.079465
 20
22.347365
 11
94.14613
 21
22.347365
  0
ENDBLK
  0
BLOCK
  2
*GRP_0027
 70
    65
 10
0.0
 20
0.0
  0
LINE
  8
ボルト／ビス
  6
DOT
 10
86.912797
 20
22.147365
 11
86.446133
 21
22.147365
  0
LINE
  8
ボルト／ビス
  6
DOT
 10
86.912797
 20
21.780697
 11
86.846133
 21
21.780697
  0
LINE
  8
ボルト／ビス
  6
DOT
 10
86.846133
 20
21.780697
 11
86.846133
 21
22.51403
  0
LINE
  8
ボルト／ビス
  6
DOT
 10
86.846133
 20
22.51403
 11
86.912797
 21
22.51403
  0
LINE
  8
ボルト／ビス
  6
DOT
 10
86.912797
 20
21.780697
 11
86.912797
 21
22.51403
  0
LINE
  8
ボルト／ビス
  6
DOT
 10
86.812797
 20
21.847365
 11
86.846133
 21
21.847365
  0
LINE
  8
ボルト／ビス
  6
DOT
 10
86.812797
 20
21.847365
 11
86.812797
 21
22.447365
  0
LINE
  8
ボルト／ビス
  6
DOT
 10
86.812797
 20
22.447365
 11
86.846133
 21
22.447365
  0
LINE
  8
ボルト／ビス
  6
DOT
 62
    64
 10
86.612797
 20
21.98699
 11
86.624473
 21
21.954915
  0
ARC
  8
ボルト／ビス
  6
DOT
 62
    64
 10
86.717778
 20
22.003028
 40
0.104978
 50
152.721967
 51
180.0
  0
ARC
  8
ボルト／ビス
  6
DOT
 62
    64
 10
87.015202
 20
22.147366
 40
0.402402
 50
166.165002
 51
193.834985
  0
LINE
  8
ボルト／ビス
  6
DOT
 62
    64
 10
86.612797
 20
22.30774
 11
86.624473
 21
22.339815
  0
ARC
  8
ボルト／ビス
  6
DOT
 62
    64
 10
86.717778
 20
22.291704
 40
0.104978
 50
180.0
 51
207.278033
  0
LINE
  8
ボルト／ビス
  6
DOT
 62
    64
 10
86.612797
 20
21.98699
 11
86.612797
 21
22.30774
  0
LINE
  8
ボルト／ビス
  6
DOT
 62
    64
 10
86.624473
 20
22.339815
 11
86.746133
 21
22.339815
  0
LINE
  8
ボルト／ビス
  6
DOT
 62
    64
 10
86.624473
 20
22.24359
 11
86.746133
 21
22.24359
  0
LINE
  8
ボルト／ビス
  6
DOT
 62
    64
 10
86.624473
 20
21.954915
 11
86.746133
 21
21.954915
  0
LINE
  8
ボルト／ビス
  6
DOT
 62
    64
 10
86.624473
 20
22.05114
 11
86.746133
 21
22.05114
  0
LINE
  8
ボルト／ビス
  6
DOT
 10
86.746133
 20
21.954915
 11
86.746133
 21
22.339815
  0
LINE
  8
ボルト／ビス
  6
DOT
 10
86.746133
 20
21.947365
 11
86.812797
 21
21.947365
  0
LINE
  8
ボルト／ビス
  6
DOT
 10
86.746133
 20
21.947365
 11
86.746133
 21
22.347365
  0
LINE
  8
ボルト／ビス
  6
DOT
 10
86.746133
 20
22.347365
 11
86.812797
 21
22.347365
  0
ENDBLK
  0
BLOCK
  2
*GRP_0028
 70
    65
 10
0.0
 20
0.0
  0
LINE
  8
ボルト／ビス
  6
CONTINUOUS
 10
94.24613
 20
43.4807
 11
93.779465
 21
43.4807
  0
LINE
  8
ボルト／ビス
  6
CONTINUOUS
 10
94.24613
 20
43.114033
 11
94.179465
 21
43.114033
  0
LINE
  8
ボルト／ビス
  6
CONTINUOUS
 10
94.179465
 20
43.114033
 11
94.179465
 21
43.847365
  0
LINE
  8
ボルト／ビス
  6
CONTINUOUS
 10
94.179465
 20
43.847365
 11
94.24613
 21
43.847365
  0
LINE
  8
ボルト／ビス
  6
CONTINUOUS
 10
94.24613
 20
43.114033
 11
94.24613
 21
43.847365
  0
LINE
  8
ボルト／ビス
  6
CONTINUOUS
 10
94.14613
 20
43.1807
 11
94.179465
 21
43.1807
  0
LINE
  8
ボルト／ビス
  6
CONTINUOUS
 10
94.14613
 20
43.1807
 11
94.14613
 21
43.7807
  0
LINE
  8
ボルト／ビス
  6
CONTINUOUS
 10
94.14613
 20
43.7807
 11
94.179465
 21
43.7807
  0
LINE
  8
ボルト／ビス
  6
CONTINUOUS
 62
    64
 10
93.94613
 20
43.320325
 11
93.957805
 21
43.28825
  0
ARC
  8
ボルト／ビス
  6
CONTINUOUS
 62
    64
 10
94.051111
 20
43.336364
 40
0.104978
 50
152.721967
 51
180.0
  0
ARC
  8
ボルト／ビス
  6
CONTINUOUS
 62
    64
 10
94.348535
 20
43.480701
 40
0.402402
 50
166.165002
 51
193.834985
  0
LINE
  8
ボルト／ビス
  6
CONTINUOUS
 62
    64
 10
93.94613
 20
43.641075
 11
93.957805
 21
43.67315
  0
ARC
  8
ボルト／ビス
  6
CONTINUOUS
 62
    64
 10
94.051111
 20
43.625039
 40
0.104978
 50
180.0
 51
207.278033
  0
LINE
  8
ボルト／ビス
  6
CONTINUOUS
 62
    64
 10
93.94613
 20
43.320325
 11
93.94613
 21
43.641075
  0
LINE
  8
ボルト／ビス
  6
CONTINUOUS
 62
    64
 10
93.957805
 20
43.67315
 11
94.079465
 21
43.67315
  0
LINE
  8
ボルト／ビス
  6
CONTINUOUS
 62
    64
 10
93.957805
 20
43.576925
 11
94.079465
 21
43.576925
  0
LINE
  8
ボルト／ビス
  6
CONTINUOUS
 62
    64
 10
93.957805
 20
43.28825
 11
94.079465
 21
43.28825
  0
LINE
  8
ボルト／ビス
  6
CONTINUOUS
 62
    64
 10
93.957805
 20
43.384475
 11
94.079465
 21
43.384475
  0
LINE
  8
ボルト／ビス
  6
CONTINUOUS
 10
94.079465
 20
43.28825
 11
94.079465
 21
43.67315
  0
LINE
  8
ボルト／ビス
  6
CONTINUOUS
 10
94.079465
 20
43.2807
 11
94.14613
 21
43.2807
  0
LINE
  8
ボルト／ビス
  6
CONTINUOUS
 10
94.079465
 20
43.2807
 11
94.079465
 21
43.6807
  0
LINE
  8
ボルト／ビス
  6
CONTINUOUS
 10
94.079465
 20
43.6807
 11
94.14613
 21
43.6807
  0
ENDBLK
  0
BLOCK
  2
*GRP_0029
 70
    65
 10
0.0
 20
0.0
  0
LINE
  8
ボルト／ビス
  6
DOT
 10
86.912797
 20
43.4807
 11
86.446133
 21
43.4807
  0
LINE
  8
ボルト／ビス
  6
DOT
 10
86.912797
 20
43.114033
 11
86.846133
 21
43.114033
  0
LINE
  8
ボルト／ビス
  6
DOT
 10
86.846133
 20
43.114033
 11
86.846133
 21
43.847365
  0
LINE
  8
ボルト／ビス
  6
DOT
 10
86.846133
 20
43.847365
 11
86.912797
 21
43.847365
  0
LINE
  8
ボルト／ビス
  6
DOT
 10
86.912797
 20
43.114033
 11
86.912797
 21
43.847365
  0
LINE
  8
ボルト／ビス
  6
DOT
 10
86.812797
 20
43.1807
 11
86.846133
 21
43.1807
  0
LINE
  8
ボルト／ビス
  6
DOT
 10
86.812797
 20
43.1807
 11
86.812797
 21
43.7807
  0
LINE
  8
ボルト／ビス
  6
DOT
 10
86.812797
 20
43.7807
 11
86.846133
 21
43.7807
  0
LINE
  8
ボルト／ビス
  6
DOT
 62
    64
 10
86.612797
 20
43.320325
 11
86.624473
 21
43.28825
  0
ARC
  8
ボルト／ビス
  6
DOT
 62
    64
 10
86.717778
 20
43.336363
 40
0.104978
 50
152.721967
 51
180.0
  0
ARC
  8
ボルト／ビス
  6
DOT
 62
    64
 10
87.015202
 20
43.480701
 40
0.402402
 50
166.165002
 51
193.834985
  0
LINE
  8
ボルト／ビス
  6
DOT
 62
    64
 10
86.612797
 20
43.641075
 11
86.624473
 21
43.67315
  0
ARC
  8
ボルト／ビス
  6
DOT
 62
    64
 10
86.717778
 20
43.625039
 40
0.104978
 50
180.0
 51
207.278033
  0
LINE
  8
ボルト／ビス
  6
DOT
 62
    64
 10
86.612797
 20
43.320325
 11
86.612797
 21
43.641075
  0
LINE
  8
ボルト／ビス
  6
DOT
 62
    64
 10
86.624473
 20
43.67315
 11
86.746133
 21
43.67315
  0
LINE
  8
ボルト／ビス
  6
DOT
 62
    64
 10
86.624473
 20
43.576925
 11
86.746133
 21
43.576925
  0
LINE
  8
ボルト／ビス
  6
DOT
 62
    64
 10
86.624473
 20
43.28825
 11
86.746133
 21
43.28825
  0
LINE
  8
ボルト／ビス
  6
DOT
 62
    64
 10
86.624473
 20
43.384475
 11
86.746133
 21
43.384475
  0
LINE
  8
ボルト／ビス
  6
DOT
 10
86.746133
 20
43.28825
 11
86.746133
 21
43.67315
  0
LINE
  8
ボルト／ビス
  6
DOT
 10
86.746133
 20
43.2807
 11
86.812797
 21
43.2807
  0
LINE
  8
ボルト／ビス
  6
DOT
 10
86.746133
 20
43.2807
 11
86.746133
 21
43.6807
  0
LINE
  8
ボルト／ビス
  6
DOT
 10
86.746133
 20
43.6807
 11
86.812797
 21
43.6807
  0
ENDBLK
  0
BLOCK
  2
*GRP_0030
 70
    65
 10
0.0
 20
0.0
  0
LINE
  8
ボルト／ビス
  6
CONTINUOUS
 10
5.379532
 20
-70.209613
 11
5.379532
 21
-69.742947
  0
LINE
  8
ボルト／ビス
  6
CONTINUOUS
 10
5.012865
 20
-70.209613
 11
5.012865
 21
-70.142947
  0
LINE
  8
ボルト／ビス
  6
CONTINUOUS
 10
5.012865
 20
-70.142947
 11
5.746198
 21
-70.142947
  0
LINE
  8
ボルト／ビス
  6
CONTINUOUS
 10
5.746198
 20
-70.142947
 11
5.746198
 21
-70.209613
  0
LINE
  8
ボルト／ビス
  6
CONTINUOUS
 10
5.012865
 20
-70.209613
 11
5.746198
 21
-70.209613
  0
LINE
  8
ボルト／ビス
  6
CONTINUOUS
 10
5.079532
 20
-70.109612
 11
5.079532
 21
-70.142947
  0
LINE
  8
ボルト／ビス
  6
CONTINUOUS
 10
5.079532
 20
-70.109612
 11
5.679532
 21
-70.109612
  0
LINE
  8
ボルト／ビス
  6
CONTINUOUS
 10
5.679532
 20
-70.109612
 11
5.679532
 21
-70.142947
  0
LINE
  8
ボルト／ビス
  6
CONTINUOUS
 62
    64
 10
5.219158
 20
-69.909613
 11
5.187082
 21
-69.921288
  0
ARC
  8
ボルト／ビス
  6
CONTINUOUS
 62
    64
 10
5.235195
 20
-70.014593
 40
0.104978
 50
62.721967
 51
90.0
  0
ARC
  8
ボルト／ビス
  6
CONTINUOUS
 62
    64
 10
5.379532
 20
-70.312017
 40
0.402402
 50
76.165002
 51
103.834985
  0
LINE
  8
ボルト／ビス
  6
CONTINUOUS
 62
    64
 10
5.539907
 20
-69.909613
 11
5.571983
 21
-69.921288
  0
ARC
  8
ボルト／ビス
  6
CONTINUOUS
 62
    64
 10
5.52387
 20
-70.014593
 40
0.104978
 50
90.0
 51
117.278033
  0
LINE
  8
ボルト／ビス
  6
CONTINUOUS
 62
    64
 10
5.219158
 20
-69.909613
 11
5.539907
 21
-69.909613
  0
LINE
  8
ボルト／ビス
  6
CONTINUOUS
 62
    64
 10
5.571983
 20
-69.921288
 11
5.571983
 21
-70.042947
  0
LINE
  8
ボルト／ビス
  6
CONTINUOUS
 62
    64
 10
5.475757
 20
-69.921288
 11
5.475757
 21
-70.042947
  0
LINE
  8
ボルト／ビス
  6
CONTINUOUS
 62
    64
 10
5.187082
 20
-69.921288
 11
5.187082
 21
-70.042947
  0
LINE
  8
ボルト／ビス
  6
CONTINUOUS
 62
    64
 10
5.283308
 20
-69.921288
 11
5.283308
 21
-70.042947
  0
LINE
  8
ボルト／ビス
  6
CONTINUOUS
 10
5.187082
 20
-70.042947
 11
5.571983
 21
-70.042947
  0
LINE
  8
ボルト／ビス
  6
CONTINUOUS
 10
5.179532
 20
-70.042947
 11
5.179532
 21
-70.109612
  0
LINE
  8
ボルト／ビス
  6
CONTINUOUS
 10
5.179532
 20
-70.042947
 11
5.579532
 21
-70.042947
  0
LINE
  8
ボルト／ビス
  6
CONTINUOUS
 10
5.579532
 20
-70.042947
 11
5.579532
 21
-70.109612
  0
ENDBLK
  0
BLOCK
  2
*GRP_0031
 70
    65
 10
0.0
 20
0.0
  0
LINE
  8
ボルト／ビス
  6
DOT
 10
5.379532
 20
-62.87628
 11
5.379532
 21
-62.409615
  0
LINE
  8
ボルト／ビス
  6
DOT
 10
5.012865
 20
-62.87628
 11
5.012865
 21
-62.809615
  0
LINE
  8
ボルト／ビス
  6
DOT
 10
5.012865
 20
-62.809615
 11
5.746198
 21
-62.809615
  0
LINE
  8
ボルト／ビス
  6
DOT
 10
5.746198
 20
-62.809615
 11
5.746198
 21
-62.87628
  0
LINE
  8
ボルト／ビス
  6
DOT
 10
5.012865
 20
-62.87628
 11
5.746198
 21
-62.87628
  0
LINE
  8
ボルト／ビス
  6
DOT
 10
5.079532
 20
-62.77628
 11
5.079532
 21
-62.809615
  0
LINE
  8
ボルト／ビス
  6
DOT
 10
5.079532
 20
-62.77628
 11
5.679532
 21
-62.77628
  0
LINE
  8
ボルト／ビス
  6
DOT
 10
5.679532
 20
-62.77628
 11
5.679532
 21
-62.809615
  0
LINE
  8
ボルト／ビス
  6
DOT
 62
    64
 10
5.219158
 20
-62.57628
 11
5.187082
 21
-62.587955
  0
ARC
  8
ボルト／ビス
  6
DOT
 62
    64
 10
5.235194
 20
-62.681261
 40
0.104978
 50
62.721967
 51
90.0
  0
ARC
  8
ボルト／ビス
  6
DOT
 62
    64
 10
5.379532
 20
-62.978684
 40
0.402402
 50
76.165002
 51
103.834985
  0
LINE
  8
ボルト／ビス
  6
DOT
 62
    64
 10
5.539907
 20
-62.57628
 11
5.571983
 21
-62.587955
  0
ARC
  8
ボルト／ビス
  6
DOT
 62
    64
 10
5.52387
 20
-62.681261
 40
0.104978
 50
90.0
 51
117.278033
  0
LINE
  8
ボルト／ビス
  6
DOT
 62
    64
 10
5.219158
 20
-62.57628
 11
5.539907
 21
-62.57628
  0
LINE
  8
ボルト／ビス
  6
DOT
 62
    64
 10
5.571983
 20
-62.587955
 11
5.571983
 21
-62.709615
  0
LINE
  8
ボルト／ビス
  6
DOT
 62
    64
 10
5.475757
 20
-62.587955
 11
5.475757
 21
-62.709615
  0
LINE
  8
ボルト／ビス
  6
DOT
 62
    64
 10
5.187082
 20
-62.587955
 11
5.187082
 21
-62.709615
  0
LINE
  8
ボルト／ビス
  6
DOT
 62
    64
 10
5.283308
 20
-62.587955
 11
5.283308
 21
-62.709615
  0
LINE
  8
ボルト／ビス
  6
DOT
 10
5.187082
 20
-62.709615
 11
5.571983
 21
-62.709615
  0
LINE
  8
ボルト／ビス
  6
DOT
 10
5.179532
 20
-62.709615
 11
5.179532
 21
-62.77628
  0
LINE
  8
ボルト／ビス
  6
DOT
 10
5.179532
 20
-62.709615
 11
5.579532
 21
-62.709615
  0
LINE
  8
ボルト／ビス
  6
DOT
 10
5.579532
 20
-62.709615
 11
5.579532
 21
-62.77628
  0
ENDBLK
  0
BLOCK
  2
*GRP_0032
 70
    65
 10
0.0
 20
0.0
  0
LINE
  8
ボルト／ビス
  6
CONTINUOUS
 10
-79.287137
 20
-70.209613
 11
-79.287137
 21
-69.742947
  0
LINE
  8
ボルト／ビス
  6
CONTINUOUS
 10
-78.92047
 20
-70.209613
 11
-78.92047
 21
-70.142947
  0
LINE
  8
ボルト／ビス
  6
CONTINUOUS
 10
-78.92047
 20
-70.142947
 11
-79.653802
 21
-70.142947
  0
LINE
  8
ボルト／ビス
  6
CONTINUOUS
 10
-79.653802
 20
-70.142947
 11
-79.653802
 21
-70.209613
  0
LINE
  8
ボルト／ビス
  6
CONTINUOUS
 10
-78.92047
 20
-70.209613
 11
-79.653802
 21
-70.209613
  0
LINE
  8
ボルト／ビス
  6
CONTINUOUS
 10
-78.987137
 20
-70.109612
 11
-78.987137
 21
-70.142947
  0
LINE
  8
ボルト／ビス
  6
CONTINUOUS
 10
-78.987137
 20
-70.109612
 11
-79.587137
 21
-70.109612
  0
LINE
  8
ボルト／ビス
  6
CONTINUOUS
 10
-79.587137
 20
-70.109612
 11
-79.587137
 21
-70.142947
  0
LINE
  8
ボルト／ビス
  6
CONTINUOUS
 62
    64
 10
-79.126763
 20
-69.909613
 11
-79.094687
 21
-69.921288
  0
ARC
  8
ボルト／ビス
  6
CONTINUOUS
 62
    64
 10
-79.1428
 20
-70.014593
 40
0.104978
 50
90.0
 51
117.278033
  0
ARC
  8
ボルト／ビス
  6
CONTINUOUS
 62
    64
 10
-79.287137
 20
-70.312017
 40
0.402402
 50
76.165015
 51
103.834998
  0
LINE
  8
ボルト／ビス
  6
CONTINUOUS
 62
    64
 10
-79.447512
 20
-69.909613
 11
-79.479587
 21
-69.921288
  0
ARC
  8
ボルト／ビス
  6
CONTINUOUS
 62
    64
 10
-79.431475
 20
-70.014593
 40
0.104978
 50
62.721967
 51
90.0
  0
LINE
  8
ボルト／ビス
  6
CONTINUOUS
 62
    64
 10
-79.126763
 20
-69.909613
 11
-79.447512
 21
-69.909613
  0
LINE
  8
ボルト／ビス
  6
CONTINUOUS
 62
    64
 10
-79.479587
 20
-69.921288
 11
-79.479587
 21
-70.042947
  0
LINE
  8
ボルト／ビス
  6
CONTINUOUS
 62
    64
 10
-79.383363
 20
-69.921288
 11
-79.383363
 21
-70.042947
  0
LINE
  8
ボルト／ビス
  6
CONTINUOUS
 62
    64
 10
-79.094687
 20
-69.921288
 11
-79.094687
 21
-70.042947
  0
LINE
  8
ボルト／ビス
  6
CONTINUOUS
 62
    64
 10
-79.190913
 20
-69.921288
 11
-79.190913
 21
-70.042947
  0
LINE
  8
ボルト／ビス
  6
CONTINUOUS
 10
-79.094687
 20
-70.042947
 11
-79.479587
 21
-70.042947
  0
LINE
  8
ボルト／ビス
  6
CONTINUOUS
 10
-79.087137
 20
-70.042947
 11
-79.087137
 21
-70.109612
  0
LINE
  8
ボルト／ビス
  6
CONTINUOUS
 10
-79.087137
 20
-70.042947
 11
-79.487137
 21
-70.042947
  0
LINE
  8
ボルト／ビス
  6
CONTINUOUS
 10
-79.487137
 20
-70.042947
 11
-79.487137
 21
-70.109612
  0
ENDBLK
  0
BLOCK
  2
*GRP_0033
 70
    65
 10
0.0
 20
0.0
  0
LINE
  8
ボルト／ビス
  6
DOT
 10
-79.287137
 20
-62.87628
 11
-79.287137
 21
-62.409615
  0
LINE
  8
ボルト／ビス
  6
DOT
 10
-78.92047
 20
-62.87628
 11
-78.92047
 21
-62.809615
  0
LINE
  8
ボルト／ビス
  6
DOT
 10
-78.92047
 20
-62.809615
 11
-79.653802
 21
-62.809615
  0
LINE
  8
ボルト／ビス
  6
DOT
 10
-79.653802
 20
-62.809615
 11
-79.653802
 21
-62.87628
  0
LINE
  8
ボルト／ビス
  6
DOT
 10
-78.92047
 20
-62.87628
 11
-79.653802
 21
-62.87628
  0
LINE
  8
ボルト／ビス
  6
DOT
 10
-78.987137
 20
-62.77628
 11
-78.987137
 21
-62.809615
  0
LINE
  8
ボルト／ビス
  6
DOT
 10
-78.987137
 20
-62.77628
 11
-79.587137
 21
-62.77628
  0
LINE
  8
ボルト／ビス
  6
DOT
 10
-79.587137
 20
-62.77628
 11
-79.587137
 21
-62.809615
  0
LINE
  8
ボルト／ビス
  6
DOT
 62
    64
 10
-79.126763
 20
-62.57628
 11
-79.094687
 21
-62.587955
  0
ARC
  8
ボルト／ビス
  6
DOT
 62
    64
 10
-79.142799
 20
-62.681261
 40
0.104978
 50
90.0
 51
117.278033
  0
ARC
  8
ボルト／ビス
  6
DOT
 62
    64
 10
-79.287137
 20
-62.978684
 40
0.402402
 50
76.165015
 51
103.834998
  0
LINE
  8
ボルト／ビス
  6
DOT
 62
    64
 10
-79.447512
 20
-62.57628
 11
-79.479587
 21
-62.587955
  0
ARC
  8
ボルト／ビス
  6
DOT
 62
    64
 10
-79.431475
 20
-62.681261
 40
0.104978
 50
62.721967
 51
90.0
  0
LINE
  8
ボルト／ビス
  6
DOT
 62
    64
 10
-79.126763
 20
-62.57628
 11
-79.447512
 21
-62.57628
  0
LINE
  8
ボルト／ビス
  6
DOT
 62
    64
 10
-79.479587
 20
-62.587955
 11
-79.479587
 21
-62.709615
  0
LINE
  8
ボルト／ビス
  6
DOT
 62
    64
 10
-79.383363
 20
-62.587955
 11
-79.383363
 21
-62.709615
  0
LINE
  8
ボルト／ビス
  6
DOT
 62
    64
 10
-79.094687
 20
-62.587955
 11
-79.094687
 21
-62.709615
  0
LINE
  8
ボルト／ビス
  6
DOT
 62
    64
 10
-79.190913
 20
-62.587955
 11
-79.190913
 21
-62.709615
  0
LINE
  8
ボルト／ビス
  6
DOT
 10
-79.094687
 20
-62.709615
 11
-79.479587
 21
-62.709615
  0
LINE
  8
ボルト／ビス
  6
DOT
 10
-79.087137
 20
-62.709615
 11
-79.087137
 21
-62.77628
  0
LINE
  8
ボルト／ビス
  6
DOT
 10
-79.087137
 20
-62.709615
 11
-79.487137
 21
-62.709615
  0
LINE
  8
ボルト／ビス
  6
DOT
 10
-79.487137
 20
-62.709615
 11
-79.487137
 21
-62.77628
  0
ENDBLK
  0
BLOCK
  2
*DIM_0034
 70
    65
 10
0.0
 20
0.0
  0
LINE
  8
寸法
  6
BYBLOCK
 62
     0
 10
-2.287135
 20
-57.542947
 11
20.682515
 21
-57.542947
  0
LINE
  8
寸法
  6
BYBLOCK
 62
     0
 10
20.682515
 20
-64.87628
 11
20.682515
 21
-57.542947
  0
POINT
  8
寸法
 62
     0
 10
20.682515
 20
-64.87628
  0
POINT
  8
寸法
 62
     0
 10
20.682515
 20
-57.542947
  0
TEXT
  7
TextStyle03
  8
寸法
  6
CONTINUOUS
 62
     0
 10
20.1
 20
-54.9125
  1
上昇高さ220
 40
3.0
 50
90.0
 72
     5
 11
20.1
 21
-36.5375
  0
ENDBLK
  0
BLOCK
  2
*DIM_0035
 70
    65
 10
0.0
 20
0.0
  0
LINE
  8
寸法
  6
BYBLOCK
 62
     0
 10
81.579465
 20
35.814033
 11
81.579465
 21
60.666798
  0
LINE
  8
寸法
  6
BYBLOCK
 62
     0
 10
88.912797
 20
60.666798
 11
81.579465
 21
60.666798
  0
POINT
  8
寸法
 62
     0
 10
88.912797
 20
60.666798
  0
POINT
  8
寸法
 62
     0
 10
81.579465
 20
60.666798
  0
TEXT
  7
TextStyle03
  8
寸法
  6
CONTINUOUS
 62
     0
 10
59.8125
 20
57.7
  1
上昇高さ220
 40
3.0
 72
     5
 11
78.1875
 21
57.7
  0
ENDBLK
  0
ENDSEC
  0
SECTION
  2
ENTITIES
  0
POLYLINE
  8
通り芯
  6
CONTINUOUS
 66
     1
 70
     1
  0
VERTEX
  8
通り芯
 10
-210.0
 20
-148.5
  0
VERTEX
  8
通り芯
 10
210.0
 20
-148.5
  0
VERTEX
  8
通り芯
 10
210.0
 20
148.5
  0
VERTEX
  8
通り芯
 10
-210.0
 20
148.5
  0
SEQEND
  0
INSERT
  2
*GRP_0001
  8
型材断面
  6
CONTINUOUS
 10
0.0
 20
0.0
  0
LINE
  8
型材断面
  6
DASHDOT
 10
4.712865
 20
-77.836442
 11
4.712865
 21
42.814033
  0
LINE
  8
型材断面
  6
DASHDOT
 10
-36.953802
 20
-77.836442
 11
-36.953802
 21
42.814033
  0
LINE
  8
型材断面
  6
DASHDOT
 10
-78.620467
 20
-77.836442
 11
-78.620467
 21
42.814033
  0
LINE
  8
型材断面
  6
DASHDOT
 10
102.389627
 20
42.814033
 11
-78.620467
 21
42.814033
  0
LINE
  8
型材断面
  6
DASHDOT
 10
102.389627
 20
32.814033
 11
-78.620467
 21
32.814033
  0
LINE
  8
型材断面
  6
DASHDOT
 10
102.389627
 20
22.814033
 11
-78.620467
 21
22.814033
  0
LINE
  8
型材断面
  6
DOT
 10
-35.703802
 20
22.814033
 11
-35.703802
 21
42.814033
  0
LINE
  8
型材断面
  6
DASHDOT
 10
-36.953802
 20
22.814033
 11
-36.953802
 21
42.814033
  0
LINE
  8
型材断面
  6
DOT
 10
-38.203802
 20
22.814033
 11
-38.203802
 21
42.814033
  0
POLYLINE
  8
型材断面
  6
CONTINUOUS
 66
     1
 70
     1
  0
VERTEX
  8
型材断面
 10
-27.384055
 20
13.03811
  0
VERTEX
  8
型材断面
 10
-46.155985
 20
13.03811
  0
VERTEX
  8
型材断面
 10
-46.155985
 20
8.301267
  0
VERTEX
  8
型材断面
 10
-27.384055
 20
8.301267
  0
SEQEND
  0
POLYLINE
  8
型材断面
  6
CONTINUOUS
 66
     1
 70
     1
  0
VERTEX
  8
型材断面
 10
-27.384055
 20
52.589955
  0
VERTEX
  8
型材断面
 10
-46.155985
 20
52.589955
  0
VERTEX
  8
型材断面
 10
-46.155985
 20
57.326798
  0
VERTEX
  8
型材断面
 10
-27.384055
 20
57.326798
  0
SEQEND
  0
LINE
  8
型材断面
  6
CONTINUOUS
 10
-61.9538
 20
45.444162
 11
-63.44943
 21
48.03467
  0
LINE
  8
型材断面
  6
CONTINUOUS
 10
-61.9538
 20
45.444162
 11
-60.45817
 21
48.03467
  0
LINE
  8
型材断面
  6
CONTINUOUS
 10
-60.45817
 20
48.03467
 11
-63.44943
 21
48.03467
  0
LINE
  8
型材断面
  6
CONTINUOUS
 10
-119.472675
 20
80.791505
 11
-118.87662
 21
78.200998
  0
LINE
  8
型材断面
  6
CONTINUOUS
 10
-119.472675
 20
80.791505
 11
-120.068732
 21
78.200998
  0
LINE
  8
型材断面
  6
CONTINUOUS
 10
-120.068732
 20
78.200998
 11
-118.87662
 21
78.200998
  0
LINE
  8
型材断面
  6
CONTINUOUS
 10
-125.495263
 20
74.922105
 11
-79.253485
 21
74.922105
  0
LINE
  8
型材断面
  6
CONTINUOUS
 10
-119.472675
 20
87.32138
 11
-120.968305
 21
84.730873
  0
LINE
  8
型材断面
  6
CONTINUOUS
 10
-119.472675
 20
87.32138
 11
-117.977045
 21
84.730873
  0
LINE
  8
型材断面
  6
CONTINUOUS
 10
-117.977045
 20
84.730873
 11
-120.968305
 21
84.730873
  0
LINE
  8
型材断面
  6
CONTINUOUS
 10
-125.495263
 20
83.792277
 11
-79.253485
 21
83.792277
  0
LINE
  8
型材断面
  6
CONTINUOUS
 10
-125.495263
 20
69.134073
 11
-79.253485
 21
69.134073
  0
LINE
  8
型材断面
  6
CONTINUOUS
 10
-81.250597
 20
32.814033
 11
-83.841105
 21
34.309663
  0
LINE
  8
型材断面
  6
CONTINUOUS
 10
-81.250597
 20
32.814033
 11
-83.841105
 21
31.318403
  0
LINE
  8
型材断面
  6
CONTINUOUS
 10
-83.841105
 20
31.318403
 11
-83.841105
 21
34.309663
  0
LINE
  8
型材断面
  6
CONTINUOUS
 10
-61.9538
 20
20.183902
 11
-63.44943
 21
17.593395
  0
LINE
  8
型材断面
  6
CONTINUOUS
 10
-61.9538
 20
20.183902
 11
-60.45817
 21
17.593395
  0
LINE
  8
型材断面
  6
CONTINUOUS
 10
-60.45817
 20
17.593395
 11
-63.44943
 21
17.593395
  0
LINE
  8
型材断面
  6
CONTINUOUS
 10
-11.953805
 20
45.444162
 11
-10.458175
 21
48.03467
  0
LINE
  8
型材断面
  6
CONTINUOUS
 10
-11.953805
 20
45.444162
 11
-13.449435
 21
48.03467
  0
LINE
  8
型材断面
  6
CONTINUOUS
 10
-13.449435
 20
48.03467
 11
-10.458175
 21
48.03467
  0
LINE
  8
型材断面
  6
CONTINUOUS
 10
7.342993
 20
32.814033
 11
9.9335
 21
34.309663
  0
LINE
  8
型材断面
  6
CONTINUOUS
 10
7.342993
 20
32.814033
 11
9.9335
 21
31.318403
  0
LINE
  8
型材断面
  6
CONTINUOUS
 10
9.9335
 20
31.318403
 11
9.9335
 21
34.309663
  0
LINE
  8
型材断面
  6
CONTINUOUS
 10
-11.953805
 20
20.183902
 11
-10.458175
 21
17.593395
  0
LINE
  8
型材断面
  6
CONTINUOUS
 10
-11.953805
 20
20.183902
 11
-13.449435
 21
17.593395
  0
LINE
  8
型材断面
  6
CONTINUOUS
 10
-13.449435
 20
17.593395
 11
-10.458175
 21
17.593395
  0
LINE
  8
型材断面
  6
CONTINUOUS
 10
7.342995
 20
39.114035
 11
9.933505
 21
38.517982
  0
LINE
  8
型材断面
  6
CONTINUOUS
 10
7.342995
 20
39.114035
 11
9.933503
 21
39.710095
  0
LINE
  8
型材断面
  6
CONTINUOUS
 10
9.933503
 20
39.710095
 11
9.933505
 21
38.517982
  0
LINE
  8
型材断面
  6
CONTINUOUS
 10
7.342995
 20
26.51403
 11
9.933505
 21
27.110082
  0
LINE
  8
型材断面
  6
CONTINUOUS
 10
7.342995
 20
26.51403
 11
9.933503
 21
25.91797
  0
LINE
  8
型材断面
  6
CONTINUOUS
 10
9.933503
 20
25.91797
 11
9.933505
 21
27.110082
  0
LINE
  8
型材断面
  6
CONTINUOUS
 10
-81.2506
 20
39.114035
 11
-83.84111
 21
38.517982
  0
LINE
  8
型材断面
  6
CONTINUOUS
 10
-81.2506
 20
39.114035
 11
-83.841107
 21
39.710095
  0
LINE
  8
型材断面
  6
CONTINUOUS
 10
-83.841107
 20
39.710095
 11
-83.84111
 21
38.517982
  0
LINE
  8
型材断面
  6
CONTINUOUS
 10
-81.2506
 20
26.51403
 11
-83.84111
 21
27.110082
  0
LINE
  8
型材断面
  6
CONTINUOUS
 10
-81.2506
 20
26.51403
 11
-83.841107
 21
25.91797
  0
LINE
  8
型材断面
  6
CONTINUOUS
 10
-83.841107
 20
25.91797
 11
-83.84111
 21
27.110082
  0
INSERT
  2
*GRP_0012
  8
型材断面
  6
CONTINUOUS
 10
0.0
 20
0.0
  0
INSERT
  2
*GRP_0013
  8
型材断面
  6
CONTINUOUS
 10
0.0
 20
0.0
  0
LINE
  8
型材断面
  6
CONTINUOUS
 62
    47
 10
101.779632
 20
21.3307
 11
101.779632
 21
32.814033
  0
LINE
  8
型材断面
  6
CONTINUOUS
 62
    47
 10
101.779632
 20
21.3307
 11
101.279632
 21
21.3307
  0
LINE
  8
型材断面
  6
CONTINUOUS
 62
    47
 10
101.279632
 20
32.814033
 11
101.279632
 21
20.8307
  0
LINE
  8
型材断面
  6
CONTINUOUS
 62
    47
 10
101.279632
 20
20.8307
 11
97.962965
 21
20.8307
  0
LINE
  8
型材断面
  6
CONTINUOUS
 62
    47
 10
97.962942
 20
32.814033
 11
97.962965
 21
20.8307
  0
LINE
  8
型材断面
  6
CONTINUOUS
 62
    47
 10
97.796248
 20
32.814033
 11
97.796248
 21
20.8307
  0
LINE
  8
型材断面
  6
CONTINUOUS
 62
    47
 10
95.622915
 20
32.814033
 11
95.622915
 21
20.8307
  0
LINE
  8
型材断面
  6
CONTINUOUS
 62
    47
 10
95.622915
 20
20.8307
 11
97.796248
 21
20.8307
  0
LINE
  8
型材断面
  6
CONTINUOUS
 62
    47
 10
95.622915
 20
21.714033
 11
95.24613
 21
21.714033
  0
LINE
  8
型材断面
  6
CONTINUOUS
 62
    47
 10
101.779632
 20
44.297367
 11
101.779632
 21
32.814033
  0
LINE
  8
型材断面
  6
CONTINUOUS
 62
    47
 10
101.779632
 20
44.297367
 11
101.279632
 21
44.297367
  0
LINE
  8
型材断面
  6
CONTINUOUS
 62
    47
 10
101.279632
 20
32.814033
 11
101.279632
 21
44.797367
  0
LINE
  8
型材断面
  6
CONTINUOUS
 62
    47
 10
101.279632
 20
44.797367
 11
97.962965
 21
44.797367
  0
LINE
  8
型材断面
  6
CONTINUOUS
 62
    47
 10
97.962942
 20
32.814033
 11
97.962965
 21
44.797367
  0
LINE
  8
型材断面
  6
CONTINUOUS
 62
    47
 10
97.796248
 20
32.814033
 11
97.796248
 21
44.797367
  0
LINE
  8
型材断面
  6
CONTINUOUS
 62
    47
 10
95.622915
 20
32.814033
 11
95.622915
 21
44.797367
  0
LINE
  8
型材断面
  6
CONTINUOUS
 62
    47
 10
95.622915
 20
44.797367
 11
97.796248
 21
44.797367
  0
LINE
  8
型材断面
  6
CONTINUOUS
 62
    47
 10
95.622915
 20
43.914033
 11
95.24613
 21
43.914033
  0
LINE
  8
型材断面
  6
CONTINUOUS
 62
    47
 10
6.196198
 20
-77.743115
 11
6.196198
 21
-77.243115
  0
LINE
  8
型材断面
  6
CONTINUOUS
 62
    47
 10
6.696198
 20
-77.243115
 11
6.696198
 21
-73.926447
  0
LINE
  8
型材断面
  6
CONTINUOUS
 62
    47
 10
6.696198
 20
-71.586398
 11
6.696198
 21
-73.75973
  0
LINE
  8
型材断面
  6
CONTINUOUS
 62
    47
 10
5.812865
 20
-71.586398
 11
5.812865
 21
-71.209613
  0
LINE
  8
型材断面
  6
CONTINUOUS
 62
    47
 10
6.196198
 20
-77.743115
 11
-36.953802
 21
-77.743115
  0
LINE
  8
型材断面
  6
CONTINUOUS
 62
    47
 10
6.696198
 20
-77.243115
 11
-36.953802
 21
-77.243115
  0
LINE
  8
型材断面
  6
CONTINUOUS
 62
    47
 10
6.696198
 20
-73.926447
 11
-36.953802
 21
-73.926365
  0
LINE
  8
型材断面
  6
CONTINUOUS
 62
    47
 10
6.696198
 20
-73.75973
 11
-36.953802
 21
-73.75973
  0
LINE
  8
型材断面
  6
CONTINUOUS
 62
    47
 10
6.696198
 20
-71.586398
 11
-36.953802
 21
-71.586398
  0
LINE
  8
型材断面
  6
CONTINUOUS
 62
    47
 10
-80.103802
 20
-77.743115
 11
-80.103802
 21
-77.243115
  0
LINE
  8
型材断面
  6
CONTINUOUS
 62
    47
 10
-80.603802
 20
-77.243115
 11
-80.603802
 21
-73.926447
  0
LINE
  8
型材断面
  6
CONTINUOUS
 62
    47
 10
-80.603802
 20
-71.586398
 11
-80.603802
 21
-73.75973
  0
LINE
  8
型材断面
  6
CONTINUOUS
 62
    47
 10
-79.72047
 20
-71.586398
 11
-79.72047
 21
-71.209613
  0
LINE
  8
型材断面
  6
CONTINUOUS
 62
    47
 10
-80.103802
 20
-77.743115
 11
-36.953802
 21
-77.743115
  0
LINE
  8
型材断面
  6
CONTINUOUS
 62
    47
 10
-80.603802
 20
-77.243115
 11
-36.953802
 21
-77.243115
  0
LINE
  8
型材断面
  6
CONTINUOUS
 62
    47
 10
-80.603802
 20
-73.926447
 11
-36.953802
 21
-73.926365
  0
LINE
  8
型材断面
  6
CONTINUOUS
 62
    47
 10
-80.603802
 20
-73.75973
 11
-36.953802
 21
-73.75973
  0
LINE
  8
型材断面
  6
CONTINUOUS
 62
    47
 10
-80.603802
 20
-71.586398
 11
-36.953802
 21
-71.586398
  0
LINE
  8
型材断面
  6
CONTINUOUS
 10
-125.495263
 20
63.34604
 11
-79.253485
 21
63.34604
  0
TEXT
  7
TextStyle03
  8
文字
  6
CONTINUOUS
 10
81.275
 20
-76.7
  1
網入り6.8t
 40
3.0
 72
     5
 11
97.9625
 21
-76.7
  0
TEXT
  7
TextStyle03
  8
文字
  6
CONTINUOUS
 10
87.95
 20
-81.375
  1
×２枚
 40
3.0
 72
     5
 11
97.7
 21
-81.375
  0
TEXT
  7
TextStyle03
  8
文字
  6
CONTINUOUS
 10
-45.175
 20
9.325
  1
可動装置側
 40
3.0
 72
     5
 11
-28.675
 21
9.325
  0
TEXT
  7
TextStyle03
  8
文字
  6
CONTINUOUS
 10
-45.175
 20
53.3
  1
可動装置側
 40
3.0
 72
     5
 11
-28.675
 21
53.3
  0
TEXT
  7
TextStyle03
  8
文字
  6
CONTINUOUS
 10
-116.675
 20
79.425
  1
はケーシング位置を示す
 40
3.0
 72
     5
 11
-79.925
 21
79.425
  0
TEXT
  7
TextStyle03
  8
文字
  6
CONTINUOUS
 10
-116.675
 20
76.05
  1
４ヶ所中1ヶ所に設定
 40
3.0
 72
     5
 11
-84.9875
 21
76.05
  0
TEXT
  7
TextStyle03
  8
文字
  6
CONTINUOUS
 10
-116.675
 20
84.95
  1
は排水穴位置を示す
 40
3.0
 72
     5
 11
-86.675
 21
84.95
  0
TEXT
  7
TextStyle03
  8
文字
  6
CONTINUOUS
 10
-99.675
 20
11.275
  1
アンカーピッチ
 40
3.0
 50
90.0
 72
     5
 11
-99.675
 21
34.525
  0
TEXT
  7
TextStyle03
  8
文字
  6
CONTINUOUS
 10
-71.975
 20
80.85
  1
アンカーピッチ
 40
3.0
 72
     5
 11
-48.725
 21
80.85
  0
TEXT
  7
TextStyle03
  8
文字
  6
CONTINUOUS
 10
-125.4
 20
59.35
  1
※重量に依るのでご相談ください
 40
3.0
 72
     5
 11
-75.15
 21
59.35
  0
TEXT
  7
TextStyle03
  8
文字
  6
CONTINUOUS
 10
-125.4
 20
64.3
  1
アームユニット数　※２～４ヶ所
 40
3.0
 72
     5
 11
-75.15
 21
64.3
  0
TEXT
  7
TextStyle03
  8
文字
  6
CONTINUOUS
 10
-120.4
 20
70.075
  1
アンカー数量　１２ヶ所
 40
3.0
 72
     5
 11
-83.65
 21
70.075
  0
TEXT
  7
TextStyle03
  8
文字
  6
CONTINUOUS
 10
78.1
 20
125.25
  1
シリーズ：ＴＤ２Ｌ
 40
5.0
 72
     5
 11
128.1
 21
125.25
  0
TEXT
  7
TextStyle03
  8
文字
  6
CONTINUOUS
 10
78.1
 20
119.625
  1
　　　　　（上下可動）600×2500タイプ
 40
5.0
 72
     5
 11
181.5375
 21
119.625
  0
TEXT
  7
TextStyle03
  8
文字
  6
CONTINUOUS
 10
78.1
 20
114.0
  1
図面名　：外観姿図
 40
5.0
 72
     5
 11
128.1
 21
114.0
  0
TEXT
  7
TextStyle03
  8
文字
  6
CONTINUOUS
 10
78.1
 20
108.375
  1
　　　　　　
 40
5.0
 72
     5
 11
111.225
 21
108.375
  0
TEXT
  7
TextStyle03
  8
文字
  6
CONTINUOUS
 10
77.55
 20
103.125
  1
ＮＳコード：ＮＳＤＺＬ
 40
5.0
 72
     5
 11
138.8
 21
103.125
  0
INSERT
  2
*DIM_0002
  8
寸法
  6
CONTINUOUS
 10
0.0
 20
0.0
  0
INSERT
  2
*DIM_0003
  8
寸法
  6
CONTINUOUS
 10
0.0
 20
0.0
  0
INSERT
  2
*DIM_0004
  8
寸法
  6
CONTINUOUS
 10
0.0
 20
0.0
  0
INSERT
  2
*DIM_0005
  8
寸法
  6
CONTINUOUS
 10
0.0
 20
0.0
  0
INSERT
  2
*DIM_0006
  8
寸法
  6
CONTINUOUS
 10
0.0
 20
0.0
  0
INSERT
  2
*DIM_0007
  8
寸法
  6
CONTINUOUS
 10
0.0
 20
0.0
  0
INSERT
  2
*DIM_0008
  8
寸法
  6
CONTINUOUS
 10
0.0
 20
0.0
  0
INSERT
  2
*DIM_0009
  8
寸法
  6
CONTINUOUS
 10
0.0
 20
0.0
  0
INSERT
  2
*DIM_0011
  8
寸法
  6
CONTINUOUS
 10
0.0
 20
0.0
  0
INSERT
  2
*DIM_0014
  8
寸法
  6
CONTINUOUS
 10
0.0
 20
0.0
  0
INSERT
  2
*DIM_0015
  8
寸法
  6
CONTINUOUS
 10
0.0
 20
0.0
  0
INSERT
  2
*DIM_0016
  8
寸法
  6
CONTINUOUS
 10
0.0
 20
0.0
  0
INSERT
  2
*DIM_0017
  8
寸法
  6
CONTINUOUS
 10
0.0
 20
0.0
  0
INSERT
  2
*DIM_0018
  8
寸法
  6
CONTINUOUS
 10
0.0
 20
0.0
  0
INSERT
  2
*DIM_0019
  8
寸法
  6
CONTINUOUS
 10
0.0
 20
0.0
  0
INSERT
  2
*DIM_0020
  8
寸法
  6
CONTINUOUS
 10
0.0
 20
0.0
  0
INSERT
  2
*DIM_0021
  8
寸法
  6
CONTINUOUS
 10
0.0
 20
0.0
  0
INSERT
  2
*DIM_0022
  8
寸法
  6
CONTINUOUS
 10
0.0
 20
0.0
  0
INSERT
  2
*DIM_0023
  8
寸法
  6
CONTINUOUS
 10
0.0
 20
0.0
  0
INSERT
  2
*DIM_0034
  8
寸法
  6
CONTINUOUS
 10
0.0
 20
0.0
  0
INSERT
  2
*DIM_0035
  8
寸法
  6
CONTINUOUS
 10
0.0
 20
0.0
  0
LINE
  8
別途部材
  6
CONTINUOUS
 10
6.779532
 20
20.747365
 11
6.379532
 21
21.147365
  0
LINE
  8
別途部材
  6
CONTINUOUS
 10
4.712865
 20
22.814033
 11
-3.34639
 21
30.87329
  0
LINE
  8
別途部材
  6
CONTINUOUS
 10
6.379532
 20
21.147365
 11
6.379532
 21
32.814033
  0
LINE
  8
別途部材
  6
CONTINUOUS
 10
6.779532
 20
20.747365
 11
6.779532
 21
32.814033
  0
LINE
  8
別途部材
  6
CONTINUOUS
 10
6.779532
 20
44.8807
 11
6.379532
 21
44.4807
  0
LINE
  8
別途部材
  6
CONTINUOUS
 10
4.712865
 20
42.814033
 11
-3.34639
 21
34.754775
  0
LINE
  8
別途部材
  6
CONTINUOUS
 10
6.379532
 20
44.4807
 11
6.379532
 21
32.814033
  0
LINE
  8
別途部材
  6
CONTINUOUS
 10
6.779532
 20
44.8807
 11
6.779532
 21
32.814033
  0
LINE
  8
別途部材
  6
CONTINUOUS
 10
6.379532
 20
44.4807
 11
-36.953802
 21
44.4807
  0
LINE
  8
別途部材
  6
CONTINUOUS
 10
6.779532
 20
44.8807
 11
-36.953802
 21
44.8807
  0
LINE
  8
別途部材
  6
CONTINUOUS
 10
6.379532
 20
21.147365
 11
-36.953802
 21
21.147365
  0
LINE
  8
別途部材
  6
CONTINUOUS
 10
6.779532
 20
20.747365
 11
-36.953802
 21
20.747365
  0
LINE
  8
別途部材
  6
CONTINUOUS
 10
-80.687137
 20
20.747365
 11
-80.287137
 21
21.147365
  0
LINE
  8
別途部材
  6
CONTINUOUS
 10
-78.62047
 20
22.814033
 11
-70.561215
 21
30.87329
  0
LINE
  8
別途部材
  6
CONTINUOUS
 10
-80.287137
 20
21.147365
 11
-80.287137
 21
32.814033
  0
LINE
  8
別途部材
  6
CONTINUOUS
 10
-80.687137
 20
20.747365
 11
-80.687137
 21
32.814033
  0
LINE
  8
別途部材
  6
CONTINUOUS
 10
-80.687137
 20
44.8807
 11
-80.287137
 21
44.4807
  0
LINE
  8
別途部材
  6
CONTINUOUS
 10
-78.62047
 20
42.814033
 11
-70.561215
 21
34.754775
  0
LINE
  8
別途部材
  6
CONTINUOUS
 10
-80.287137
 20
44.4807
 11
-80.287137
 21
32.814033
  0
LINE
  8
別途部材
  6
CONTINUOUS
 10
-80.687137
 20
44.8807
 11
-80.687137
 21
32.814033
  0
LINE
  8
別途部材
  6
CONTINUOUS
 10
-80.287137
 20
44.4807
 11
-36.953802
 21
44.4807
  0
LINE
  8
別途部材
  6
CONTINUOUS
 10
-80.687137
 20
44.8807
 11
-36.953802
 21
44.8807
  0
LINE
  8
別途部材
  6
CONTINUOUS
 10
-80.287137
 20
21.147365
 11
-36.953802
 21
21.147365
  0
LINE
  8
別途部材
  6
CONTINUOUS
 10
-80.687137
 20
20.747365
 11
-36.953802
 21
20.747365
  0
LINE
  8
別途部材
  6
DOT
 62
    96
 10
6.379532
 20
-62.87628
 11
6.779532
 21
-63.87628
  0
ARC
  8
別途部材
  6
DOT
 10
-5.287135
 20
-69.584615
 40
12.041667
 50
33.855033
 51
90.0
  0
LINE
  8
別途部材
  6
DOT
 10
6.779532
 20
-63.87628
 11
-36.953802
 21
-63.87628
  0
LINE
  8
別途部材
  6
DOT
 62
    96
 10
6.379532
 20
-62.87628
 11
-36.953802
 21
-62.87628
  0
LINE
  8
別途部材
  6
DOT
 10
-5.287135
 20
-57.542947
 11
-36.953802
 21
-57.542947
  0
LINE
  8
別途部材
  6
DOT
 62
    96
 10
-80.287137
 20
-62.87628
 11
-80.687137
 21
-63.87628
  0
ARC
  8
別途部材
  6
DOT
 10
-68.62047
 20
-69.584615
 40
12.041667
 50
90.0
 51
146.144967
  0
LINE
  8
別途部材
  6
DOT
 10
-80.687137
 20
-63.87628
 11
-36.953802
 21
-63.87628
  0
LINE
  8
別途部材
  6
DOT
 62
    96
 10
-80.287137
 20
-62.87628
 11
-36.953802
 21
-62.87628
  0
LINE
  8
別途部材
  6
DOT
 10
-68.62047
 20
-57.542947
 11
-36.953802
 21
-57.542947
  0
INSERT
  2
*GRP_0010
  8
別途部材
  6
CONTINUOUS
 10
0.0
 20
0.0
  0
LINE
  8
別途部材
  6
CONTINUOUS
 62
    96
 10
94.24613
 20
21.147365
 11
95.24613
 21
20.747365
  0
LINE
  8
別途部材
  6
CONTINUOUS
 62
    96
 10
94.24613
 20
21.147365
 11
94.24613
 21
32.814033
  0
LINE
  8
別途部材
  6
CONTINUOUS
 10
95.24613
 20
20.747365
 11
95.24613
 21
32.814033
  0
LINE
  8
別途部材
  6
CONTINUOUS
 62
    96
 10
94.24613
 20
44.4807
 11
95.24613
 21
44.8807
  0
LINE
  8
別途部材
  6
CONTINUOUS
 62
    96
 10
94.24613
 20
44.4807
 11
94.24613
 21
32.814033
  0
LINE
  8
別途部材
  6
CONTINUOUS
 10
95.24613
 20
44.8807
 11
95.24613
 21
32.814033
  0
ARC
  8
別途部材
  6
CONTINUOUS
 10
100.954465
 20
32.814033
 40
12.041667
 50
123.855033
 51
236.144967
  0
LINE
  8
別途部材
  6
DOT
 62
    96
 10
86.912797
 20
21.147365
 11
87.912797
 21
20.747365
  0
LINE
  8
別途部材
  6
DOT
 62
    96
 10
86.912797
 20
21.147365
 11
86.912797
 21
32.814033
  0
LINE
  8
別途部材
  6
DOT
 10
87.912797
 20
20.747365
 11
87.912797
 21
32.814033
  0
LINE
  8
別途部材
  6
DOT
 62
    96
 10
86.912797
 20
44.4807
 11
87.912797
 21
44.8807
  0
LINE
  8
別途部材
  6
DOT
 62
    96
 10
86.912797
 20
44.4807
 11
86.912797
 21
32.814033
  0
LINE
  8
別途部材
  6
DOT
 10
87.912797
 20
44.8807
 11
87.912797
 21
32.814033
  0
ARC
  8
別途部材
  6
DOT
 10
93.621133
 20
32.814033
 40
12.041667
 50
123.855033
 51
236.144967
  0
INSERT
  2
*GRP_0026
  8
別途部材
  6
DOT
 10
0.0
 20
0.0
  0
INSERT
  2
*GRP_0027
  8
別途部材
  6
DOT
 10
0.0
 20
0.0
  0
INSERT
  2
*GRP_0028
  8
別途部材
  6
DOT
 10
0.0
 20
0.0
  0
INSERT
  2
*GRP_0029
  8
別途部材
  6
DOT
 10
0.0
 20
0.0
  0
INSERT
  2
*GRP_0030
  8
別途部材
  6
DOT
 10
0.0
 20
0.0
  0
INSERT
  2
*GRP_0031
  8
別途部材
  6
DOT
 10
0.0
 20
0.0
  0
INSERT
  2
*GRP_0032
  8
別途部材
  6
DOT
 10
0.0
 20
0.0
  0
INSERT
  2
*GRP_0033
  8
別途部材
  6
DOT
 10
0.0
 20
0.0
  0
LINE
  8
曲げ物
  6
CONTINUOUS
 10
99.79942
 20
-83.118728
 11
99.79942
 21
-63.785395
  0
LINE
  8
曲げ物
  6
CONTINUOUS
 10
58.99942
 20
-83.118728
 11
58.99942
 21
-63.785395
  0
LINE
  8
曲げ物
  6
CONTINUOUS
 10
99.79942
 20
-63.785395
 11
58.99942
 21
-63.785395
  0
LINE
  8
曲げ物
  6
CONTINUOUS
 10
99.79942
 20
-83.118728
 11
58.99942
 21
-83.118728
  0
ENDSEC
  0
EOF
