  0
SECTION
  2
HEADER
  9
$EXTMIN
 10
-210.0
 20
-148.5
  9
$EXTMAX
 10
210.0
 20
148.5
  9
$PDMODE
 70
    32
  9
$PDSIZE
 40
1.5
  9
$LTSCALE
 40
10.0
  0
ENDSEC
  0
SECTION
  2
TABLES
  0
TABLE
  2
LTYPE
 70
    15
  0
LTYPE
  2
CONTINUOUS
 70
    64
  3
実線
 72
    65
 73
     0
 40
0.0
  0
LTYPE
  2
DASHED
 70
    64
  3
破線A
 72
    65
 73
     2
 40
0.6
 49
0.4
 49
-0.2
  0
LTYPE
  2
DASHEDX2
 70
    64
  3
破線B
 72
    65
 73
     2
 40
1.3
 49
0.9
 49
-0.4
  0
LTYPE
  2
DASHDOT
 70
    64
  3
１点鎖線A
 72
    65
 73
     4
 40
0.5375
 49
0.375
 49
-0.05
 49
0.0625
 49
-0.05
  0
LTYPE
  2
DASHDOTX2
 70
    64
  3
１点鎖線B
 72
    65
 73
     4
 40
1.075
 49
0.75
 49
-0.1
 49
0.125
 49
-0.1
  0
LTYPE
  2
DIVIDE2
 70
    64
  3
２点鎖線A
 72
    65
 73
     6
 40
0.5125
 49
0.3
 49
-0.0375
 49
0.05
 49
-0.0375
 49
0.05
 49
-0.0375
  0
LTYPE
  2
DIVIDE
 70
    64
  3
２点鎖線B
 72
    65
 73
     6
 40
1.05
 49
0.55
 49
-0.1
 49
0.1
 49
-0.1
 49
0.1
 49
-0.1
  0
LTYPE
  2
DOT
 70
    64
  3
点線A
 72
    65
 73
     2
 40
0.1125
 49
0.0625
 49
-0.05
  0
LTYPE
  2
DOTX2
 70
    64
  3
点線B
 72
    65
 73
     2
 40
0.275
 49
0.15
 49
-0.125
  0
LTYPE
  2
CONTINUOUS
 70
    64
  3
実線
 72
    65
 73
     0
 40
0.0
  0
LTYPE
  2
CONTINUOUS
 70
    64
  3
実線
 72
    65
 73
     0
 40
0.0
  0
LTYPE
  2
CONTINUOUS
 70
    64
  3
実線
 72
    65
 73
     0
 40
0.0
  0
LTYPE
  2
CONTINUOUS
 70
    64
  3
実線
 72
    65
 73
     0
 40
0.0
  0
LTYPE
  2
CONTINUOUS
 70
    64
  3
実線
 72
    65
 73
     0
 40
0.0
  0
LTYPE
  2
CONTINUOUS
 70
    64
  3
実線
 72
    65
 73
     0
 40
0.0
  0
ENDTAB
  0
TABLE
  2
LAYER
 70
    34
  0
LAYER
  2
通り芯
 70
     0
 62
    15
  6
CONTINUOUS
  0
LAYER
  2
補助線
 70
     0
 62
    16
  6
DOT
  0
LAYER
  2
躯体
 70
     0
 62
    31
  6
CONTINUOUS
  0
LAYER
  2
型材
 70
     0
 62
    32
  6
CONTINUOUS
  0
LAYER
  2
型材断面
 70
     0
 62
    47
  6
CONTINUOUS
  0
LAYER
  2
ガラス
 70
     0
 62
    48
  6
CONTINUOUS
  0
LAYER
  2
ゴム等
 70
     0
 62
    63
  6
CONTINUOUS
  0
LAYER
  2
ボルト／ビス
 70
     0
 62
    64
  6
CONTINUOUS
  0
LAYER
  2
文字
 70
     0
 62
    79
  6
CONTINUOUS
  0
LAYER
  2
寸法
 70
     0
 62
    80
  6
CONTINUOUS
  0
LAYER
  2
ﾊｯﾁﾝｸﾞ
 70
     0
 62
    95
  6
CONTINUOUS
  0
LAYER
  2
別途部材
 70
     0
 62
    96
  6
CONTINUOUS
  0
LAYER
  2
曲げ物
 70
     0
 62
   111
  6
CONTINUOUS
  0
LAYER
  2
鉄骨等
 70
     0
 62
   112
  6
CONTINUOUS
  0
LAYER
  2
St
 70
     0
 62
   127
  6
CONTINUOUS
  0
LAYER
  2
その他部品等
 70
     0
 62
   128
  6
CONTINUOUS
  0
LAYER
  2
ｶﾞｽｹｯﾄ
 70
     0
 62
   143
  6
CONTINUOUS
  0
LAYER
  2
ｽｹｯﾁ
 70
     0
 62
    14
  6
CONTINUOUS
  0
LAYER
  2
0
 70
     0
 62
    17
  6
CONTINUOUS
  0
LAYER
  2
1
 70
     0
 62
    30
  6
CONTINUOUS
  0
LAYER
  2
4
 70
     0
 62
    33
  6
CONTINUOUS
  0
LAYER
  2
ﾚｲﾔ3
 70
     0
 62
    46
  6
CONTINUOUS
  0
LAYER
  2
外形線
 70
     0
 62
    49
  6
CONTINUOUS
  0
LAYER
  2
部品
 70
     0
 62
    14
  6
CONTINUOUS
  0
LAYER
  2
サッシ芯
 70
     0
 62
    17
  6
DASHDOTX2
  0
LAYER
  2
寸法線
 70
     0
 62
    62
  6
CONTINUOUS
  0
LAYER
  2
姿図外形線
 70
     0
 62
    65
  6
CONTINUOUS
  0
LAYER
  2
姿補助線
 70
     0
 62
    30
  6
CONTINUOUS
  0
LAYER
  2
透視線
 70
     0
 62
    78
  6
DOT
  0
LAYER
  2
用紙
 70
     0
 62
    81
  6
CONTINUOUS
  0
LAYER
  2
実線図枠
 70
     0
 62
    94
  6
CONTINUOUS
  0
LAYER
  2
補助図枠
 70
     0
 62
    97
  6
CONTINUOUS
  0
LAYER
  2
建具記号
 70
     0
 62
   110
  6
CONTINUOUS
  0
LAYER
  2
補助文字
 70
     0
 62
   113
  6
CONTINUOUS
  0
ENDTAB
  0
TABLE
  2
STYLE
 70
    10
  0
STYLE
  2
STANDARD
 70
     0
 40
1.0
 41
1.0
 42
1.0
 50
0.0
 71
     0
  3
TXT
  4
BIGFONT
  0
STYLE
  2
TATE
 70
     4
 40
1.0
 41
1.0
 42
1.0
 50
0.0
 71
     0
  3
TXT
  4
BIGFONT
  0
STYLE
  2
TextStyle03
 70
     0
 40
1.0
 41
1.0
 42
1.0
 50
0.0
 71
     0
  3
MONOTXT
  4
BIGFONT
  0
STYLE
  2
TextStyle04
 70
     0
 40
1.0
 41
1.0
 42
1.0
 50
0.0
 71
     0
  3
MONOTXT
  4
BIGFONT
  0
STYLE
  2
TextStyle05
 70
     0
 40
1.0
 41
1.0
 42
1.0
 50
0.0
 71
     0
  3
MONOTXT
  4
BIGFONT
  0
STYLE
  2
TextStyle06
 70
     0
 40
1.0
 41
1.0
 42
1.0
 50
0.0
 71
     0
  3
MONOTXT
  4
BIGFONT
  0
STYLE
  2
TextStyle07
 70
     0
 40
1.0
 41
1.0
 42
1.0
 50
0.0
 71
     0
  3
MONOTXT
  4
BIGFONT
  0
STYLE
  2
TextStyle08
 70
     0
 40
1.0
 41
1.0
 42
1.0
 50
0.0
 71
     0
  3
MONOTXT
  4
BIGFONT
  0
STYLE
  2
TextStyle09
 70
     0
 40
1.0
 41
1.0
 42
1.0
 50
0.0
 71
     0
  3
MONOTXT
  4
BIGFONT
  0
STYLE
  2
TextStyle10
 70
     0
 40
1.0
 41
1.0
 42
1.0
 50
0.0
 71
     0
  3
MONOTXT
  4
BIGFONT
  0
ENDTAB
  0
ENDSEC
  0
SECTION
  2
BLOCKS
  0
BLOCK
  2
*GRP_0001
 70
    65
 10
0.0
 20
0.0
  0
LINE
  8
型材断面
  6
CONTINUOUS
 10
195.0
 20
133.5
 11
195.0
 21
-133.5
  0
LINE
  8
型材断面
  6
CONTINUOUS
 10
195.0
 20
-133.5
 11
-185.0
 21
-133.5
  0
LINE
  8
型材断面
  6
CONTINUOUS
 10
-185.0
 20
-133.5
 11
-185.0
 21
133.5
  0
LINE
  8
型材断面
  6
CONTINUOUS
 10
195.0
 20
133.5
 11
-185.0
 21
133.5
  0
LINE
  8
型材断面
  6
CONTINUOUS
 10
145.0
 20
-133.5
 11
145.0
 21
-118.5
  0
LINE
  8
型材断面
  6
CONTINUOUS
 10
195.0
 20
-118.5
 11
145.0
 21
-118.5
  0
ENDBLK
  0
BLOCK
  2
*DIM_0002
 70
    65
 10
0.0
 20
0.0
  0
LINE
  8
寸法
  6
BYBLOCK
 62
     0
 10
43.990438
 20
-61.87628
 11
73.960088
 21
-61.87628
  0
LINE
  8
寸法
  6
BYBLOCK
 62
     0
 10
73.960088
 20
-70.209613
 11
73.960088
 21
-61.87628
  0
POINT
  8
寸法
 62
     0
 10
73.960088
 20
-70.209613
  0
POINT
  8
寸法
 62
     0
 10
73.960088
 20
-61.87628
  0
TEXT
  7
TextStyle03
  8
寸法
  6
CONTINUOUS
 62
     0
 10
73.6
 20
-68.5125
  1
250
 40
3.0
 50
90.0
 72
     5
 11
73.6
 21
-63.6375
  0
ENDBLK
  0
BLOCK
  2
*DIM_0003
 70
    65
 10
0.0
 20
0.0
  0
LINE
  8
寸法
  6
BYBLOCK
 62
     0
 10
139.19037
 20
38.814033
 11
139.19037
 21
68.369967
  0
LINE
  8
寸法
  6
BYBLOCK
 62
     0
 10
147.523703
 20
68.369967
 11
139.19037
 21
68.369967
  0
POINT
  8
寸法
 62
     0
 10
147.523703
 20
68.369967
  0
POINT
  8
寸法
 62
     0
 10
139.19037
 20
68.369967
  0
TEXT
  7
TextStyle03
  8
寸法
  6
CONTINUOUS
 62
     0
 10
140.9125
 20
68.725
  1
250
 40
3.0
 72
     5
 11
145.7875
 21
68.725
  0
ENDBLK
  0
BLOCK
  2
*DIM_0004
 70
    65
 10
0.0
 20
0.0
  0
LINE
  8
寸法
  6
BYBLOCK
 62
     0
 10
92.010088
 20
22.814033
 11
92.010088
 21
52.814033
  0
POINT
  8
寸法
 62
     0
 10
92.010088
 20
22.814033
  0
POINT
  8
寸法
 62
     0
 10
92.010088
 20
52.814033
  0
TEXT
  7
TextStyle03
  8
寸法
  6
CONTINUOUS
 62
     0
 10
91.65
 20
26.9
  1
呼称寸法　900
 40
3.0
 50
90.0
 72
     5
 11
91.65
 21
48.65
  0
ENDBLK
  0
BLOCK
  2
*DIM_0005
 70
    65
 10
0.0
 20
0.0
  0
LINE
  8
寸法
  6
BYBLOCK
 62
     0
 10
154.076993
 20
-53.785395
 11
162.135282
 21
-53.785395
  0
LINE
  8
寸法
  6
BYBLOCK
 62
     0
 10
154.076993
 20
-83.118728
 11
162.135282
 21
-83.118728
  0
LINE
  8
寸法
  6
BYBLOCK
 62
     0
 10
162.135282
 20
-53.785395
 11
162.135282
 21
-83.118728
  0
POINT
  8
寸法
 62
     0
 10
162.135282
 20
-53.785395
  0
POINT
  8
寸法
 62
     0
 10
162.135282
 20
-83.118728
  0
TEXT
  7
TextStyle03
  8
寸法
  6
CONTINUOUS
 62
     0
 10
161.775
 20
-70.9125
  1
880
 40
3.0
 50
90.0
 72
     5
 11
161.775
 21
-66.0375
  0
ENDBLK
  0
BLOCK
  2
*DIM_0006
 70
    65
 10
0.0
 20
0.0
  0
LINE
  8
寸法
  6
BYBLOCK
 62
     0
 10
-92.009562
 20
-13.511205
 11
-92.009562
 21
-13.121378
  0
LINE
  8
寸法
  6
BYBLOCK
 62
     0
 10
57.990438
 20
-13.121378
 11
-92.009562
 21
-13.121378
  0
POINT
  8
寸法
 62
     0
 10
57.990438
 20
-13.121378
  0
POINT
  8
寸法
 62
     0
 10
-92.009562
 20
-13.121378
  0
TEXT
  7
TextStyle03
  8
寸法
  6
CONTINUOUS
 62
     0
 10
-28.74375
 20
-12.75
  1
呼称寸法　4500
 40
3.0
 72
     5
 11
-5.30625
 21
-12.75
  0
ENDBLK
  0
BLOCK
  2
*DIM_0007
 70
    65
 10
0.0
 20
0.0
  0
LINE
  8
寸法
  6
BYBLOCK
 62
     0
 10
153.076993
 20
-52.785395
 11
153.076993
 21
-44.823685
  0
LINE
  8
寸法
  6
BYBLOCK
 62
     0
 10
116.54366
 20
-52.785395
 11
116.54366
 21
-44.823685
  0
LINE
  8
寸法
  6
BYBLOCK
 62
     0
 10
153.076993
 20
-44.823685
 11
116.54366
 21
-44.823685
  0
POINT
  8
寸法
 62
     0
 10
153.076993
 20
-44.823685
  0
POINT
  8
寸法
 62
     0
 10
116.54366
 20
-44.823685
  0
TEXT
  7
TextStyle03
  8
寸法
  6
CONTINUOUS
 62
     0
 10
131.51875
 20
-44.45
  1
1096
 40
3.0
 72
     5
 11
138.08125
 21
-44.45
  0
ENDBLK
  0
BLOCK
  2
*DIM_0008
 70
    65
 10
0.0
 20
0.0
  0
LINE
  8
寸法
  6
BYBLOCK
 62
     0
 10
-75.342895
 20
19.183902
 11
-75.342895
 21
13.91212
  0
LINE
  8
寸法
  6
BYBLOCK
 62
     0
 10
-17.009562
 20
19.183905
 11
-17.009562
 21
13.91212
  0
LINE
  8
寸法
  6
BYBLOCK
 62
     0
 10
-75.342895
 20
13.91212
 11
-17.009562
 21
13.91212
  0
POINT
  8
寸法
 62
     0
 10
-75.342895
 20
13.91212
  0
POINT
  8
寸法
 62
     0
 10
-17.009562
 20
13.91212
  0
TEXT
  7
TextStyle03
  8
寸法
  6
CONTINUOUS
 62
     0
 10
-49.48125
 20
14.275
  1
1750
 40
3.0
 72
     5
 11
-42.91875
 21
14.275
  0
ENDBLK
  0
BLOCK
  2
*DIM_0009
 70
    65
 10
0.0
 20
0.0
  0
LINE
  8
寸法
  6
BYBLOCK
 62
     0
 10
41.32377
 20
19.183902
 11
41.32377
 21
13.91212
  0
LINE
  8
寸法
  6
BYBLOCK
 62
     0
 10
-17.009562
 20
13.91212
 11
41.32377
 21
13.91212
  0
POINT
  8
寸法
 62
     0
 10
41.32377
 20
13.91212
  0
TEXT
  7
TextStyle03
  8
寸法
  6
CONTINUOUS
 62
     0
 10
8.86875
 20
14.275
  1
1750
 40
3.0
 72
     5
 11
15.43125
 21
14.275
  0
ENDBLK
  0
BLOCK
  2
*DIM_0010
 70
    65
 10
0.0
 20
0.0
  0
LINE
  8
寸法
  6
BYBLOCK
 62
     0
 10
58.990438
 20
52.814035
 11
68.71472
 21
52.814035
  0
LINE
  8
寸法
  6
BYBLOCK
 62
     0
 10
61.620567
 20
49.114035
 11
68.71472
 21
49.114035
  0
LINE
  8
寸法
  6
BYBLOCK
 62
     0
 10
68.71472
 20
52.814035
 11
68.71472
 21
49.114035
  0
POINT
  8
寸法
 62
     0
 10
68.71472
 20
52.814035
  0
POINT
  8
寸法
 62
     0
 10
68.71472
 20
49.114035
  0
TEXT
  7
TextStyle03
  8
寸法
  6
CONTINUOUS
 62
     0
 10
68.375
 20
53.8125
  1
111
 40
3.0
 50
90.0
 72
     5
 11
68.375
 21
58.6875
  0
ENDBLK
  0
BLOCK
  2
*DIM_0011
 70
    65
 10
0.0
 20
0.0
  0
LINE
  8
寸法
  6
BYBLOCK
 62
     0
 10
58.990438
 20
22.81403
 11
68.71472
 21
22.814027
  0
LINE
  8
寸法
  6
BYBLOCK
 62
     0
 10
61.620567
 20
26.51403
 11
68.71472
 21
26.514027
  0
LINE
  8
寸法
  6
BYBLOCK
 62
     0
 10
68.71472
 20
22.814027
 11
68.71472
 21
26.514027
  0
POINT
  8
寸法
 62
     0
 10
68.71472
 20
22.814027
  0
POINT
  8
寸法
 62
     0
 10
68.71472
 20
26.514027
  0
TEXT
  7
TextStyle03
  8
寸法
  6
CONTINUOUS
 62
     0
 10
68.375
 20
16.9375
  1
111
 40
3.0
 50
90.0
 72
     5
 11
68.375
 21
21.8125
  0
ENDBLK
  0
BLOCK
  2
*GRP_0012
 70
    65
 10
0.0
 20
0.0
  0
LINE
  8
別途部材
  6
CONTINUOUS
 62
    96
 10
-93.676228
 20
-70.209613
 11
-94.076228
 21
-71.209613
  0
ARC
  8
別途部材
  6
CONTINUOUS
 10
-77.009562
 20
-79.542951
 40
17.666667
 50
90.0
 51
148.109204
  0
LINE
  8
別途部材
  6
CONTINUOUS
 62
    96
 10
-93.676228
 20
-70.209613
 11
-17.009562
 21
-70.209613
  0
LINE
  8
別途部材
  6
CONTINUOUS
 10
-94.076228
 20
-71.209613
 11
-17.009562
 21
-71.209613
  0
LINE
  8
別途部材
  6
CONTINUOUS
 10
-17.509562
 20
-60.87628
 11
-18.509562
 21
-61.87628
  0
LINE
  8
別途部材
  6
CONTINUOUS
 10
-19.509562
 20
-61.87628
 11
-20.509562
 21
-60.87628
  0
LINE
  8
別途部材
  6
CONTINUOUS
 10
-21.509562
 20
-60.87628
 11
-22.509562
 21
-61.87628
  0
LINE
  8
別途部材
  6
CONTINUOUS
 10
-20.509562
 20
-60.87628
 11
-21.509562
 21
-60.87628
  0
LINE
  8
別途部材
  6
CONTINUOUS
 10
-17.509562
 20
-60.87628
 11
-17.009562
 21
-60.87628
  0
LINE
  8
別途部材
  6
CONTINUOUS
 10
-23.509562
 20
-61.87628
 11
-24.509562
 21
-60.87628
  0
LINE
  8
別途部材
  6
CONTINUOUS
 10
-25.509562
 20
-60.87628
 11
-26.509562
 21
-61.87628
  0
LINE
  8
別途部材
  6
CONTINUOUS
 10
-24.509562
 20
-60.87628
 11
-25.509562
 21
-60.87628
  0
LINE
  8
別途部材
  6
CONTINUOUS
 10
-27.509562
 20
-61.87628
 11
-28.509562
 21
-60.87628
  0
LINE
  8
別途部材
  6
CONTINUOUS
 10
-29.509562
 20
-60.87628
 11
-30.509562
 21
-61.87628
  0
LINE
  8
別途部材
  6
CONTINUOUS
 10
-28.509562
 20
-60.87628
 11
-29.509562
 21
-60.87628
  0
LINE
  8
別途部材
  6
CONTINUOUS
 10
-31.509562
 20
-61.87628
 11
-32.509562
 21
-60.87628
  0
LINE
  8
別途部材
  6
CONTINUOUS
 10
-33.509562
 20
-60.87628
 11
-34.509562
 21
-61.87628
  0
LINE
  8
別途部材
  6
CONTINUOUS
 10
-32.509562
 20
-60.87628
 11
-33.509562
 21
-60.87628
  0
LINE
  8
別途部材
  6
CONTINUOUS
 10
-35.509562
 20
-61.87628
 11
-36.509562
 21
-60.87628
  0
LINE
  8
別途部材
  6
CONTINUOUS
 10
-37.509562
 20
-60.87628
 11
-38.509562
 21
-61.87628
  0
LINE
  8
別途部材
  6
CONTINUOUS
 10
-36.509562
 20
-60.87628
 11
-37.509562
 21
-60.87628
  0
LINE
  8
別途部材
  6
CONTINUOUS
 10
-39.509562
 20
-61.87628
 11
-40.509562
 21
-60.87628
  0
LINE
  8
別途部材
  6
CONTINUOUS
 10
-41.509562
 20
-60.87628
 11
-42.509562
 21
-61.87628
  0
LINE
  8
別途部材
  6
CONTINUOUS
 10
-40.509562
 20
-60.87628
 11
-41.509562
 21
-60.87628
  0
LINE
  8
別途部材
  6
CONTINUOUS
 10
-43.509562
 20
-61.87628
 11
-44.509562
 21
-60.87628
  0
LINE
  8
別途部材
  6
CONTINUOUS
 10
-45.509562
 20
-60.87628
 11
-46.509562
 21
-61.87628
  0
LINE
  8
別途部材
  6
CONTINUOUS
 10
-44.509562
 20
-60.87628
 11
-45.509562
 21
-60.87628
  0
LINE
  8
別途部材
  6
CONTINUOUS
 10
-47.509562
 20
-61.87628
 11
-48.509562
 21
-60.87628
  0
LINE
  8
別途部材
  6
CONTINUOUS
 10
-49.509562
 20
-60.87628
 11
-50.509562
 21
-61.87628
  0
LINE
  8
別途部材
  6
CONTINUOUS
 10
-48.509562
 20
-60.87628
 11
-49.509562
 21
-60.87628
  0
LINE
  8
別途部材
  6
CONTINUOUS
 10
-51.509562
 20
-61.87628
 11
-52.509562
 21
-60.87628
  0
LINE
  8
別途部材
  6
CONTINUOUS
 10
-53.509562
 20
-60.87628
 11
-54.509562
 21
-61.87628
  0
LINE
  8
別途部材
  6
CONTINUOUS
 10
-52.509562
 20
-60.87628
 11
-53.509562
 21
-60.87628
  0
LINE
  8
別途部材
  6
CONTINUOUS
 10
-55.509562
 20
-61.87628
 11
-56.509562
 21
-60.87628
  0
LINE
  8
別途部材
  6
CONTINUOUS
 10
-57.509562
 20
-60.87628
 11
-58.509562
 21
-61.87628
  0
LINE
  8
別途部材
  6
CONTINUOUS
 10
-56.509562
 20
-60.87628
 11
-57.509562
 21
-60.87628
  0
LINE
  8
別途部材
  6
CONTINUOUS
 10
-59.509562
 20
-61.87628
 11
-60.509562
 21
-60.87628
  0
LINE
  8
別途部材
  6
CONTINUOUS
 10
-61.509562
 20
-60.87628
 11
-62.509562
 21
-61.87628
  0
LINE
  8
別途部材
  6
CONTINUOUS
 10
-60.509562
 20
-60.87628
 11
-61.509562
 21
-60.87628
  0
LINE
  8
別途部材
  6
CONTINUOUS
 10
-58.509562
 20
-61.87628
 11
-59.509562
 21
-61.87628
  0
LINE
  8
別途部材
  6
CONTINUOUS
 10
-54.509562
 20
-61.87628
 11
-55.509562
 21
-61.87628
  0
LINE
  8
別途部材
  6
CONTINUOUS
 10
-50.509562
 20
-61.87628
 11
-51.509562
 21
-61.87628
  0
LINE
  8
別途部材
  6
CONTINUOUS
 10
-46.509562
 20
-61.87628
 11
-47.509562
 21
-61.87628
  0
LINE
  8
別途部材
  6
CONTINUOUS
 10
-42.509562
 20
-61.87628
 11
-43.509562
 21
-61.87628
  0
LINE
  8
別途部材
  6
CONTINUOUS
 10
-38.509562
 20
-61.87628
 11
-39.509562
 21
-61.87628
  0
LINE
  8
別途部材
  6
CONTINUOUS
 10
-34.509562
 20
-61.87628
 11
-35.509562
 21
-61.87628
  0
LINE
  8
別途部材
  6
CONTINUOUS
 10
-30.509562
 20
-61.87628
 11
-31.509562
 21
-61.87628
  0
LINE
  8
別途部材
  6
CONTINUOUS
 10
-26.509562
 20
-61.87628
 11
-27.509562
 21
-61.87628
  0
LINE
  8
別途部材
  6
CONTINUOUS
 10
-22.509562
 20
-61.87628
 11
-23.509562
 21
-61.87628
  0
LINE
  8
別途部材
  6
CONTINUOUS
 10
-19.509562
 20
-61.87628
 11
-18.509562
 21
-61.87628
  0
LINE
  8
別途部材
  6
CONTINUOUS
 10
-63.509562
 20
-61.87628
 11
-64.509562
 21
-60.87628
  0
LINE
  8
別途部材
  6
CONTINUOUS
 10
-65.509562
 20
-60.87628
 11
-66.509562
 21
-61.87628
  0
LINE
  8
別途部材
  6
CONTINUOUS
 10
-64.509562
 20
-60.87628
 11
-65.509562
 21
-60.87628
  0
LINE
  8
別途部材
  6
CONTINUOUS
 10
-67.509562
 20
-61.87628
 11
-68.509562
 21
-60.87628
  0
LINE
  8
別途部材
  6
CONTINUOUS
 10
-69.509562
 20
-60.87628
 11
-70.509562
 21
-61.87628
  0
LINE
  8
別途部材
  6
CONTINUOUS
 10
-68.509562
 20
-60.87628
 11
-69.509562
 21
-60.87628
  0
LINE
  8
別途部材
  6
CONTINUOUS
 10
-71.509562
 20
-61.87628
 11
-72.509562
 21
-60.87628
  0
LINE
  8
別途部材
  6
CONTINUOUS
 10
-73.509562
 20
-60.87628
 11
-74.509562
 21
-61.87628
  0
LINE
  8
別途部材
  6
CONTINUOUS
 10
-72.509562
 20
-60.87628
 11
-73.509562
 21
-60.87628
  0
LINE
  8
別途部材
  6
CONTINUOUS
 10
-70.509562
 20
-61.87628
 11
-71.509562
 21
-61.87628
  0
LINE
  8
別途部材
  6
CONTINUOUS
 10
-66.509562
 20
-61.87628
 11
-67.509562
 21
-61.87628
  0
LINE
  8
別途部材
  6
CONTINUOUS
 10
-62.509562
 20
-61.87628
 11
-63.509562
 21
-61.87628
  0
LINE
  8
別途部材
  6
CONTINUOUS
 10
-74.509562
 20
-61.87628
 11
-74.509562
 21
-70.209613
  0
LINE
  8
別途部材
  6
CONTINUOUS
 10
-73.509562
 20
-60.87628
 11
-73.509562
 21
-70.209613
  0
LINE
  8
別途部材
  6
CONTINUOUS
 10
-72.509562
 20
-60.87628
 11
-72.509562
 21
-70.209613
  0
LINE
  8
別途部材
  6
CONTINUOUS
 10
-68.509562
 20
-60.87628
 11
-68.509562
 21
-70.209613
  0
LINE
  8
別途部材
  6
CONTINUOUS
 10
-61.509562
 20
-60.87628
 11
-61.509562
 21
-70.209613
  0
LINE
  8
別途部材
  6
CONTINUOUS
 10
-57.509562
 20
-60.87628
 11
-57.509562
 21
-70.209613
  0
LINE
  8
別途部材
  6
CONTINUOUS
 10
-55.509562
 20
-61.87628
 11
-55.509562
 21
-70.209613
  0
LINE
  8
別途部材
  6
CONTINUOUS
 10
-60.509562
 20
-60.87628
 11
-60.509562
 21
-70.209613
  0
LINE
  8
別途部材
  6
CONTINUOUS
 10
-64.509562
 20
-60.87628
 11
-64.509562
 21
-70.209613
  0
LINE
  8
別途部材
  6
CONTINUOUS
 10
-66.509562
 20
-61.87628
 11
-66.509562
 21
-70.209613
  0
LINE
  8
別途部材
  6
CONTINUOUS
 10
-69.509562
 20
-60.87628
 11
-69.509562
 21
-70.209613
  0
LINE
  8
別途部材
  6
CONTINUOUS
 10
-70.509562
 20
-61.87628
 11
-70.509562
 21
-70.209613
  0
LINE
  8
別途部材
  6
CONTINUOUS
 10
-71.509562
 20
-61.87628
 11
-71.509562
 21
-70.209613
  0
LINE
  8
別途部材
  6
CONTINUOUS
 10
-67.509562
 20
-61.87628
 11
-67.509562
 21
-70.209613
  0
LINE
  8
別途部材
  6
CONTINUOUS
 10
-65.509562
 20
-60.87628
 11
-65.509562
 21
-70.209613
  0
LINE
  8
別途部材
  6
CONTINUOUS
 10
-63.509562
 20
-61.87628
 11
-63.509562
 21
-70.209613
  0
LINE
  8
別途部材
  6
CONTINUOUS
 10
-62.509562
 20
-61.87628
 11
-62.509562
 21
-70.209613
  0
LINE
  8
別途部材
  6
CONTINUOUS
 10
-59.509562
 20
-61.87628
 11
-59.509562
 21
-70.209613
  0
LINE
  8
別途部材
  6
CONTINUOUS
 10
-58.509562
 20
-61.87628
 11
-58.509562
 21
-70.209613
  0
LINE
  8
別途部材
  6
CONTINUOUS
 10
-56.509562
 20
-60.87628
 11
-56.509562
 21
-70.209613
  0
LINE
  8
別途部材
  6
CONTINUOUS
 10
-53.509562
 20
-60.87628
 11
-53.509562
 21
-70.209613
  0
LINE
  8
別途部材
  6
CONTINUOUS
 10
-54.509562
 20
-61.87628
 11
-54.509562
 21
-70.209613
  0
LINE
  8
別途部材
  6
CONTINUOUS
 10
-52.509562
 20
-60.87628
 11
-52.509562
 21
-70.209613
  0
LINE
  8
別途部材
  6
CONTINUOUS
 10
-51.509562
 20
-61.87628
 11
-51.509562
 21
-70.209613
  0
LINE
  8
別途部材
  6
CONTINUOUS
 10
-50.509562
 20
-61.87628
 11
-50.509562
 21
-70.209613
  0
LINE
  8
別途部材
  6
CONTINUOUS
 10
-49.509562
 20
-60.87628
 11
-49.509562
 21
-70.209613
  0
LINE
  8
別途部材
  6
CONTINUOUS
 10
-47.509562
 20
-61.87628
 11
-47.509562
 21
-70.209613
  0
LINE
  8
別途部材
  6
CONTINUOUS
 10
-48.509562
 20
-60.87628
 11
-48.509562
 21
-70.209613
  0
LINE
  8
別途部材
  6
CONTINUOUS
 10
-45.509562
 20
-60.87628
 11
-45.509562
 21
-70.209613
  0
LINE
  8
別途部材
  6
CONTINUOUS
 10
-46.509562
 20
-61.87628
 11
-46.509562
 21
-70.209613
  0
LINE
  8
別途部材
  6
CONTINUOUS
 10
-42.509562
 20
-61.87628
 11
-42.509562
 21
-70.209613
  0
LINE
  8
別途部材
  6
CONTINUOUS
 10
-41.509562
 20
-60.87628
 11
-41.509562
 21
-70.209613
  0
LINE
  8
別途部材
  6
CONTINUOUS
 10
-40.509562
 20
-60.87628
 11
-40.509562
 21
-70.209613
  0
LINE
  8
別途部材
  6
CONTINUOUS
 10
-43.509562
 20
-61.87628
 11
-43.509562
 21
-70.209613
  0
LINE
  8
別途部材
  6
CONTINUOUS
 10
-44.509562
 20
-60.87628
 11
-44.509562
 21
-70.209613
  0
LINE
  8
別途部材
  6
CONTINUOUS
 10
-36.509562
 20
-60.87628
 11
-36.509562
 21
-70.209613
  0
LINE
  8
別途部材
  6
CONTINUOUS
 10
-38.509562
 20
-61.87628
 11
-38.509562
 21
-70.209613
  0
LINE
  8
別途部材
  6
CONTINUOUS
 10
-39.509562
 20
-61.87628
 11
-39.509562
 21
-70.209613
  0
LINE
  8
別途部材
  6
CONTINUOUS
 10
-37.509562
 20
-60.87628
 11
-37.509562
 21
-70.209613
  0
LINE
  8
別途部材
  6
CONTINUOUS
 10
-35.509562
 20
-61.87628
 11
-35.509562
 21
-70.209613
  0
LINE
  8
別途部材
  6
CONTINUOUS
 10
-33.509562
 20
-60.87628
 11
-33.509562
 21
-70.209613
  0
LINE
  8
別途部材
  6
CONTINUOUS
 10
-32.509562
 20
-60.87628
 11
-32.509562
 21
-70.209613
  0
LINE
  8
別途部材
  6
CONTINUOUS
 10
-30.509562
 20
-61.87628
 11
-30.509562
 21
-70.209613
  0
LINE
  8
別途部材
  6
CONTINUOUS
 10
-31.509562
 20
-61.87628
 11
-31.509562
 21
-70.209613
  0
LINE
  8
別途部材
  6
CONTINUOUS
 10
-34.509562
 20
-61.87628
 11
-34.509562
 21
-70.209613
  0
LINE
  8
別途部材
  6
CONTINUOUS
 10
-29.509562
 20
-60.87628
 11
-29.509562
 21
-70.209613
  0
LINE
  8
別途部材
  6
CONTINUOUS
 10
-27.509562
 20
-61.87628
 11
-27.509562
 21
-70.209613
  0
LINE
  8
別途部材
  6
CONTINUOUS
 10
-28.509562
 20
-60.87628
 11
-28.509562
 21
-70.209613
  0
LINE
  8
別途部材
  6
CONTINUOUS
 10
-26.509562
 20
-61.87628
 11
-26.509562
 21
-70.209613
  0
LINE
  8
別途部材
  6
CONTINUOUS
 10
-25.509562
 20
-60.87628
 11
-25.509562
 21
-70.209613
  0
LINE
  8
別途部材
  6
CONTINUOUS
 10
-23.509562
 20
-61.87628
 11
-23.509562
 21
-70.209613
  0
LINE
  8
別途部材
  6
CONTINUOUS
 10
-24.509562
 20
-60.87628
 11
-24.509562
 21
-70.209613
  0
LINE
  8
別途部材
  6
CONTINUOUS
 10
-22.509562
 20
-61.87628
 11
-22.509562
 21
-70.209613
  0
LINE
  8
別途部材
  6
CONTINUOUS
 10
-21.509562
 20
-60.87628
 11
-21.509562
 21
-70.209613
  0
LINE
  8
別途部材
  6
CONTINUOUS
 10
-19.509562
 20
-61.87628
 11
-19.509562
 21
-70.209613
  0
LINE
  8
別途部材
  6
CONTINUOUS
 10
-20.509562
 20
-60.87628
 11
-20.509562
 21
-70.209613
  0
LINE
  8
別途部材
  6
CONTINUOUS
 10
-18.509562
 20
-61.87628
 11
-18.509562
 21
-70.209613
  0
LINE
  8
別途部材
  6
CONTINUOUS
 10
-17.509562
 20
-60.87628
 11
-17.509562
 21
-70.209613
  0
LINE
  8
別途部材
  6
CONTINUOUS
 10
-74.509562
 20
-61.87628
 11
-77.009562
 21
-61.87628
  0
LINE
  8
別途部材
  6
CONTINUOUS
 62
    96
 10
59.657105
 20
-70.209613
 11
60.057105
 21
-71.209613
  0
ARC
  8
別途部材
  6
CONTINUOUS
 10
42.990439
 20
-79.542951
 40
17.666667
 50
31.890796
 51
90.0
  0
LINE
  8
別途部材
  6
CONTINUOUS
 62
    96
 10
59.657105
 20
-70.209613
 11
-17.009562
 21
-70.209613
  0
LINE
  8
別途部材
  6
CONTINUOUS
 10
60.057105
 20
-71.209613
 11
-17.009562
 21
-71.209613
  0
LINE
  8
別途部材
  6
CONTINUOUS
 10
-16.509562
 20
-60.87628
 11
-15.509562
 21
-61.87628
  0
LINE
  8
別途部材
  6
CONTINUOUS
 10
-14.509562
 20
-61.87628
 11
-13.509562
 21
-60.87628
  0
LINE
  8
別途部材
  6
CONTINUOUS
 10
-12.509562
 20
-60.87628
 11
-11.509562
 21
-61.87628
  0
LINE
  8
別途部材
  6
CONTINUOUS
 10
-13.509562
 20
-60.87628
 11
-12.509562
 21
-60.87628
  0
LINE
  8
別途部材
  6
CONTINUOUS
 10
-16.509562
 20
-60.87628
 11
-17.009562
 21
-60.87628
  0
LINE
  8
別途部材
  6
CONTINUOUS
 10
-10.509562
 20
-61.87628
 11
-9.509562
 21
-60.87628
  0
LINE
  8
別途部材
  6
CONTINUOUS
 10
-8.509562
 20
-60.87628
 11
-7.509562
 21
-61.87628
  0
LINE
  8
別途部材
  6
CONTINUOUS
 10
-9.509562
 20
-60.87628
 11
-8.509562
 21
-60.87628
  0
LINE
  8
別途部材
  6
CONTINUOUS
 10
-6.509562
 20
-61.87628
 11
-5.509562
 21
-60.87628
  0
LINE
  8
別途部材
  6
CONTINUOUS
 10
-4.509562
 20
-60.87628
 11
-3.509562
 21
-61.87628
  0
LINE
  8
別途部材
  6
CONTINUOUS
 10
-5.509562
 20
-60.87628
 11
-4.509562
 21
-60.87628
  0
LINE
  8
別途部材
  6
CONTINUOUS
 10
-2.509562
 20
-61.87628
 11
-1.509562
 21
-60.87628
  0
LINE
  8
別途部材
  6
CONTINUOUS
 10
-0.509562
 20
-60.87628
 11
0.490438
 21
-61.87628
  0
LINE
  8
別途部材
  6
CONTINUOUS
 10
-1.509562
 20
-60.87628
 11
-0.509562
 21
-60.87628
  0
LINE
  8
別途部材
  6
CONTINUOUS
 10
1.490438
 20
-61.87628
 11
2.490438
 21
-60.87628
  0
LINE
  8
別途部材
  6
CONTINUOUS
 10
3.490438
 20
-60.87628
 11
4.490438
 21
-61.87628
  0
LINE
  8
別途部材
  6
CONTINUOUS
 10
2.490438
 20
-60.87628
 11
3.490438
 21
-60.87628
  0
LINE
  8
別途部材
  6
CONTINUOUS
 10
5.490438
 20
-61.87628
 11
6.490438
 21
-60.87628
  0
LINE
  8
別途部材
  6
CONTINUOUS
 10
7.490438
 20
-60.87628
 11
8.490438
 21
-61.87628
  0
LINE
  8
別途部材
  6
CONTINUOUS
 10
6.490438
 20
-60.87628
 11
7.490438
 21
-60.87628
  0
LINE
  8
別途部材
  6
CONTINUOUS
 10
9.490438
 20
-61.87628
 11
10.490438
 21
-60.87628
  0
LINE
  8
別途部材
  6
CONTINUOUS
 10
11.490438
 20
-60.87628
 11
12.490438
 21
-61.87628
  0
LINE
  8
別途部材
  6
CONTINUOUS
 10
10.490438
 20
-60.87628
 11
11.490438
 21
-60.87628
  0
LINE
  8
別途部材
  6
CONTINUOUS
 10
13.490438
 20
-61.87628
 11
14.490438
 21
-60.87628
  0
LINE
  8
別途部材
  6
CONTINUOUS
 10
15.490438
 20
-60.87628
 11
16.490438
 21
-61.87628
  0
LINE
  8
別途部材
  6
CONTINUOUS
 10
14.490438
 20
-60.87628
 11
15.490438
 21
-60.87628
  0
LINE
  8
別途部材
  6
CONTINUOUS
 10
17.490438
 20
-61.87628
 11
18.490438
 21
-60.87628
  0
LINE
  8
別途部材
  6
CONTINUOUS
 10
19.490438
 20
-60.87628
 11
20.490438
 21
-61.87628
  0
LINE
  8
別途部材
  6
CONTINUOUS
 10
18.490438
 20
-60.87628
 11
19.490438
 21
-60.87628
  0
LINE
  8
別途部材
  6
CONTINUOUS
 10
21.490438
 20
-61.87628
 11
22.490438
 21
-60.87628
  0
LINE
  8
別途部材
  6
CONTINUOUS
 10
23.490438
 20
-60.87628
 11
24.490438
 21
-61.87628
  0
LINE
  8
別途部材
  6
CONTINUOUS
 10
22.490438
 20
-60.87628
 11
23.490438
 21
-60.87628
  0
LINE
  8
別途部材
  6
CONTINUOUS
 10
25.490438
 20
-61.87628
 11
26.490438
 21
-60.87628
  0
LINE
  8
別途部材
  6
CONTINUOUS
 10
27.490438
 20
-60.87628
 11
28.490438
 21
-61.87628
  0
LINE
  8
別途部材
  6
CONTINUOUS
 10
26.490438
 20
-60.87628
 11
27.490438
 21
-60.87628
  0
LINE
  8
別途部材
  6
CONTINUOUS
 10
24.490438
 20
-61.87628
 11
25.490438
 21
-61.87628
  0
LINE
  8
別途部材
  6
CONTINUOUS
 10
20.490438
 20
-61.87628
 11
21.490438
 21
-61.87628
  0
LINE
  8
別途部材
  6
CONTINUOUS
 10
16.490438
 20
-61.87628
 11
17.490438
 21
-61.87628
  0
LINE
  8
別途部材
  6
CONTINUOUS
 10
12.490438
 20
-61.87628
 11
13.490438
 21
-61.87628
  0
LINE
  8
別途部材
  6
CONTINUOUS
 10
8.490438
 20
-61.87628
 11
9.490438
 21
-61.87628
  0
LINE
  8
別途部材
  6
CONTINUOUS
 10
4.490438
 20
-61.87628
 11
5.490438
 21
-61.87628
  0
LINE
  8
別途部材
  6
CONTINUOUS
 10
0.490438
 20
-61.87628
 11
1.490438
 21
-61.87628
  0
LINE
  8
別途部材
  6
CONTINUOUS
 10
-3.509562
 20
-61.87628
 11
-2.509562
 21
-61.87628
  0
LINE
  8
別途部材
  6
CONTINUOUS
 10
-7.509562
 20
-61.87628
 11
-6.509562
 21
-61.87628
  0
LINE
  8
別途部材
  6
CONTINUOUS
 10
-11.509562
 20
-61.87628
 11
-10.509562
 21
-61.87628
  0
LINE
  8
別途部材
  6
CONTINUOUS
 10
-14.509562
 20
-61.87628
 11
-15.509562
 21
-61.87628
  0
LINE
  8
別途部材
  6
CONTINUOUS
 10
29.490438
 20
-61.87628
 11
30.490438
 21
-60.87628
  0
LINE
  8
別途部材
  6
CONTINUOUS
 10
31.490438
 20
-60.87628
 11
32.490438
 21
-61.87628
  0
LINE
  8
別途部材
  6
CONTINUOUS
 10
30.490438
 20
-60.87628
 11
31.490438
 21
-60.87628
  0
LINE
  8
別途部材
  6
CONTINUOUS
 10
33.490438
 20
-61.87628
 11
34.490438
 21
-60.87628
  0
LINE
  8
別途部材
  6
CONTINUOUS
 10
35.490438
 20
-60.87628
 11
36.490438
 21
-61.87628
  0
LINE
  8
別途部材
  6
CONTINUOUS
 10
34.490438
 20
-60.87628
 11
35.490438
 21
-60.87628
  0
LINE
  8
別途部材
  6
CONTINUOUS
 10
37.490438
 20
-61.87628
 11
38.490438
 21
-60.87628
  0
LINE
  8
別途部材
  6
CONTINUOUS
 10
39.490438
 20
-60.87628
 11
40.490438
 21
-61.87628
  0
LINE
  8
別途部材
  6
CONTINUOUS
 10
38.490438
 20
-60.87628
 11
39.490438
 21
-60.87628
  0
LINE
  8
別途部材
  6
CONTINUOUS
 10
36.490438
 20
-61.87628
 11
37.490438
 21
-61.87628
  0
LINE
  8
別途部材
  6
CONTINUOUS
 10
32.490438
 20
-61.87628
 11
33.490438
 21
-61.87628
  0
LINE
  8
別途部材
  6
CONTINUOUS
 10
28.490438
 20
-61.87628
 11
29.490438
 21
-61.87628
  0
LINE
  8
別途部材
  6
CONTINUOUS
 10
40.490438
 20
-61.87628
 11
40.490438
 21
-70.209613
  0
LINE
  8
別途部材
  6
CONTINUOUS
 10
39.490438
 20
-60.87628
 11
39.490438
 21
-70.209613
  0
LINE
  8
別途部材
  6
CONTINUOUS
 10
38.490438
 20
-60.87628
 11
38.490438
 21
-70.209613
  0
LINE
  8
別途部材
  6
CONTINUOUS
 10
34.490438
 20
-60.87628
 11
34.490438
 21
-70.209613
  0
LINE
  8
別途部材
  6
CONTINUOUS
 10
27.490438
 20
-60.87628
 11
27.490438
 21
-70.209613
  0
LINE
  8
別途部材
  6
CONTINUOUS
 10
23.490438
 20
-60.87628
 11
23.490438
 21
-70.209613
  0
LINE
  8
別途部材
  6
CONTINUOUS
 10
21.490438
 20
-61.87628
 11
21.490438
 21
-70.209613
  0
LINE
  8
別途部材
  6
CONTINUOUS
 10
26.490438
 20
-60.87628
 11
26.490438
 21
-70.209613
  0
LINE
  8
別途部材
  6
CONTINUOUS
 10
30.490438
 20
-60.87628
 11
30.490438
 21
-70.209613
  0
LINE
  8
別途部材
  6
CONTINUOUS
 10
32.490438
 20
-61.87628
 11
32.490438
 21
-70.209613
  0
LINE
  8
別途部材
  6
CONTINUOUS
 10
35.490438
 20
-60.87628
 11
35.490438
 21
-70.209613
  0
LINE
  8
別途部材
  6
CONTINUOUS
 10
36.490438
 20
-61.87628
 11
36.490438
 21
-70.209613
  0
LINE
  8
別途部材
  6
CONTINUOUS
 10
37.490438
 20
-61.87628
 11
37.490438
 21
-70.209613
  0
LINE
  8
別途部材
  6
CONTINUOUS
 10
33.490438
 20
-61.87628
 11
33.490438
 21
-70.209613
  0
LINE
  8
別途部材
  6
CONTINUOUS
 10
31.490438
 20
-60.87628
 11
31.490438
 21
-70.209613
  0
LINE
  8
別途部材
  6
CONTINUOUS
 10
29.490438
 20
-61.87628
 11
29.490438
 21
-70.209613
  0
LINE
  8
別途部材
  6
CONTINUOUS
 10
28.490438
 20
-61.87628
 11
28.490438
 21
-70.209613
  0
LINE
  8
別途部材
  6
CONTINUOUS
 10
25.490438
 20
-61.87628
 11
25.490438
 21
-70.209613
  0
LINE
  8
別途部材
  6
CONTINUOUS
 10
24.490438
 20
-61.87628
 11
24.490438
 21
-70.209613
  0
LINE
  8
別途部材
  6
CONTINUOUS
 10
22.490438
 20
-60.87628
 11
22.490438
 21
-70.209613
  0
LINE
  8
別途部材
  6
CONTINUOUS
 10
19.490438
 20
-60.87628
 11
19.490438
 21
-70.209613
  0
LINE
  8
別途部材
  6
CONTINUOUS
 10
20.490438
 20
-61.87628
 11
20.490438
 21
-70.209613
  0
LINE
  8
別途部材
  6
CONTINUOUS
 10
18.490438
 20
-60.87628
 11
18.490438
 21
-70.209613
  0
LINE
  8
別途部材
  6
CONTINUOUS
 10
17.490438
 20
-61.87628
 11
17.490438
 21
-70.209613
  0
LINE
  8
別途部材
  6
CONTINUOUS
 10
16.490438
 20
-61.87628
 11
16.490438
 21
-70.209613
  0
LINE
  8
別途部材
  6
CONTINUOUS
 10
15.490438
 20
-60.87628
 11
15.490438
 21
-70.209613
  0
LINE
  8
別途部材
  6
CONTINUOUS
 10
13.490438
 20
-61.87628
 11
13.490438
 21
-70.209613
  0
LINE
  8
別途部材
  6
CONTINUOUS
 10
14.490438
 20
-60.87628
 11
14.490438
 21
-70.209613
  0
LINE
  8
別途部材
  6
CONTINUOUS
 10
11.490438
 20
-60.87628
 11
11.490438
 21
-70.209613
  0
LINE
  8
別途部材
  6
CONTINUOUS
 10
12.490438
 20
-61.87628
 11
12.490438
 21
-70.209613
  0
LINE
  8
別途部材
  6
CONTINUOUS
 10
8.490438
 20
-61.87628
 11
8.490438
 21
-70.209613
  0
LINE
  8
別途部材
  6
CONTINUOUS
 10
7.490438
 20
-60.87628
 11
7.490438
 21
-70.209613
  0
LINE
  8
別途部材
  6
CONTINUOUS
 10
6.490438
 20
-60.87628
 11
6.490438
 21
-70.209613
  0
LINE
  8
別途部材
  6
CONTINUOUS
 10
9.490438
 20
-61.87628
 11
9.490438
 21
-70.209613
  0
LINE
  8
別途部材
  6
CONTINUOUS
 10
10.490438
 20
-60.87628
 11
10.490438
 21
-70.209613
  0
LINE
  8
別途部材
  6
CONTINUOUS
 10
2.490438
 20
-60.87628
 11
2.490438
 21
-70.209613
  0
LINE
  8
別途部材
  6
CONTINUOUS
 10
4.490438
 20
-61.87628
 11
4.490438
 21
-70.209613
  0
LINE
  8
別途部材
  6
CONTINUOUS
 10
5.490438
 20
-61.87628
 11
5.490438
 21
-70.209613
  0
LINE
  8
別途部材
  6
CONTINUOUS
 10
3.490438
 20
-60.87628
 11
3.490438
 21
-70.209613
  0
LINE
  8
別途部材
  6
CONTINUOUS
 10
1.490438
 20
-61.87628
 11
1.490438
 21
-70.209613
  0
LINE
  8
別途部材
  6
CONTINUOUS
 10
-0.509562
 20
-60.87628
 11
-0.509562
 21
-70.209613
  0
LINE
  8
別途部材
  6
CONTINUOUS
 10
-1.509562
 20
-60.87628
 11
-1.509562
 21
-70.209613
  0
LINE
  8
別途部材
  6
CONTINUOUS
 10
-3.509562
 20
-61.87628
 11
-3.509562
 21
-70.209613
  0
LINE
  8
別途部材
  6
CONTINUOUS
 10
-2.509562
 20
-61.87628
 11
-2.509562
 21
-70.209613
  0
LINE
  8
別途部材
  6
CONTINUOUS
 10
0.490438
 20
-61.87628
 11
0.490438
 21
-70.209613
  0
LINE
  8
別途部材
  6
CONTINUOUS
 10
-4.509562
 20
-60.87628
 11
-4.509562
 21
-70.209613
  0
LINE
  8
別途部材
  6
CONTINUOUS
 10
-6.509562
 20
-61.87628
 11
-6.509562
 21
-70.209613
  0
LINE
  8
別途部材
  6
CONTINUOUS
 10
-5.509562
 20
-60.87628
 11
-5.509562
 21
-70.209613
  0
LINE
  8
別途部材
  6
CONTINUOUS
 10
-7.509562
 20
-61.87628
 11
-7.509562
 21
-70.209613
  0
LINE
  8
別途部材
  6
CONTINUOUS
 10
-8.509562
 20
-60.87628
 11
-8.509562
 21
-70.209613
  0
LINE
  8
別途部材
  6
CONTINUOUS
 10
-10.509562
 20
-61.87628
 11
-10.509562
 21
-70.209613
  0
LINE
  8
別途部材
  6
CONTINUOUS
 10
-9.509562
 20
-60.87628
 11
-9.509562
 21
-70.209613
  0
LINE
  8
別途部材
  6
CONTINUOUS
 10
-11.509562
 20
-61.87628
 11
-11.509562
 21
-70.209613
  0
LINE
  8
別途部材
  6
CONTINUOUS
 10
-12.509562
 20
-60.87628
 11
-12.509562
 21
-70.209613
  0
LINE
  8
別途部材
  6
CONTINUOUS
 10
-14.509562
 20
-61.87628
 11
-14.509562
 21
-70.209613
  0
LINE
  8
別途部材
  6
CONTINUOUS
 10
-13.509562
 20
-60.87628
 11
-13.509562
 21
-70.209613
  0
LINE
  8
別途部材
  6
CONTINUOUS
 10
-15.509562
 20
-61.87628
 11
-15.509562
 21
-70.209613
  0
LINE
  8
別途部材
  6
CONTINUOUS
 10
-16.509562
 20
-60.87628
 11
-16.509562
 21
-70.209613
  0
LINE
  8
別途部材
  6
CONTINUOUS
 10
40.490438
 20
-61.87628
 11
42.990438
 21
-61.87628
  0
ENDBLK
  0
BLOCK
  2
*GRP_0013
 70
    65
 10
0.0
 20
0.0
  0
LINE
  8
補助線
  6
BYBLOCK
 62
    64
 10
-71.945823
 20
-75.190572
 11
-72.073308
 21
-75.297933
  0
LINE
  8
補助線
  6
BYBLOCK
 62
    64
 10
-72.063245
 20
-75.180508
 11
-71.955885
 21
-75.307995
  0
LINE
  8
補助線
  6
BYBLOCK
 62
    64
 10
-63.455405
 20
-68.04055
 11
-63.58289
 21
-68.147905
  0
LINE
  8
補助線
  6
BYBLOCK
 62
    64
 10
-63.572828
 20
-68.030485
 11
-63.465467
 21
-68.157967
  0
LINE
  8
補助線
  6
BYBLOCK
 62
    64
 10
-55.09247
 20
-60.99788
 11
-54.964988
 21
-60.890523
  0
LINE
  8
補助線
  6
BYBLOCK
 62
    64
 10
-55.08241
 20
-60.880458
 11
-54.97505
 21
-61.007945
  0
LINE
  8
型材断面
  6
CONTINUOUS
 10
-72.80132
 20
-74.82155
 11
-72.861697
 21
-75.526075
  0
LINE
  8
型材断面
  6
CONTINUOUS
 10
-72.861697
 20
-75.526075
 11
-72.432265
 21
-76.03601
  0
LINE
  8
型材断面
  6
CONTINUOUS
 10
-72.432265
 20
-76.03601
 11
-71.72774
 21
-76.096388
  0
LINE
  8
型材断面
  6
CONTINUOUS
 10
-55.310552
 20
-60.09207
 11
-54.606027
 21
-60.152448
  0
LINE
  8
型材断面
  6
CONTINUOUS
 10
-54.606027
 20
-60.152448
 11
-54.176595
 21
-60.662382
  0
LINE
  8
型材断面
  6
CONTINUOUS
 10
-54.176595
 20
-60.662382
 11
-54.236972
 21
-61.366907
  0
LINE
  8
型材断面
  6
CONTINUOUS
 10
-72.80132
 20
-74.82155
 11
-55.310552
 21
-60.09207
  0
LINE
  8
型材断面
  6
CONTINUOUS
 10
-71.72774
 20
-76.096388
 11
-54.236972
 21
-61.366907
  0
CIRCLE
  8
ボルト／ビス
  6
CONTINUOUS
 10
-72.009565
 20
-75.244253
 40
0.250185
  0
CIRCLE
  8
ボルト／ビス
  6
CONTINUOUS
 10
-72.009565
 20
-75.244253
 40
0.301025
  0
LINE
  8
ボルト／ビス
  6
CONTINUOUS
 62
    64
 10
-72.255872
 20
-75.288135
 11
-72.17072
 21
-75.052887
  0
LINE
  8
ボルト／ビス
  6
CONTINUOUS
 62
    64
 10
-71.924413
 20
-75.009003
 11
-72.17072
 21
-75.052887
  0
LINE
  8
ボルト／ビス
  6
CONTINUOUS
 62
    64
 10
-72.094718
 20
-75.479503
 11
-71.84841
 21
-75.435617
  0
LINE
  8
ボルト／ビス
  6
CONTINUOUS
 62
    64
 10
-71.763257
 20
-75.20037
 11
-71.84841
 21
-75.435617
  0
LINE
  8
ボルト／ビス
  6
CONTINUOUS
 62
    64
 10
-72.255872
 20
-75.288135
 11
-72.094718
 21
-75.479503
  0
LINE
  8
ボルト／ビス
  6
CONTINUOUS
 62
    64
 10
-71.924413
 20
-75.009003
 11
-71.763257
 21
-75.20037
  0
CIRCLE
  8
ボルト／ビス
  6
CONTINUOUS
 62
    64
 10
-72.009565
 20
-75.244253
 40
0.216668
  0
CIRCLE
  8
ボルト／ビス
  6
CONTINUOUS
 10
-63.519147
 20
-68.094228
 40
0.250185
  0
CIRCLE
  8
ボルト／ビス
  6
CONTINUOUS
 10
-63.519147
 20
-68.094228
 40
0.301025
  0
LINE
  8
ボルト／ビス
  6
CONTINUOUS
 62
    64
 10
-63.765455
 20
-68.13811
 11
-63.680303
 21
-67.90286
  0
LINE
  8
ボルト／ビス
  6
CONTINUOUS
 62
    64
 10
-63.433995
 20
-67.858978
 11
-63.680303
 21
-67.90286
  0
LINE
  8
ボルト／ビス
  6
CONTINUOUS
 62
    64
 10
-63.6043
 20
-68.329478
 11
-63.35799
 21
-68.285595
  0
LINE
  8
ボルト／ビス
  6
CONTINUOUS
 62
    64
 10
-63.27284
 20
-68.050348
 11
-63.35799
 21
-68.285595
  0
LINE
  8
ボルト／ビス
  6
CONTINUOUS
 62
    64
 10
-63.765455
 20
-68.13811
 11
-63.6043
 21
-68.329478
  0
LINE
  8
ボルト／ビス
  6
CONTINUOUS
 62
    64
 10
-63.433995
 20
-67.858978
 11
-63.27284
 21
-68.050348
  0
CIRCLE
  8
ボルト／ビス
  6
CONTINUOUS
 62
    64
 10
-63.519147
 20
-68.094228
 40
0.216668
  0
CIRCLE
  8
ボルト／ビス
  6
CONTINUOUS
 10
-55.028727
 20
-60.944203
 40
0.250185
  0
CIRCLE
  8
ボルト／ビス
  6
CONTINUOUS
 10
-55.028727
 20
-60.944203
 40
0.301025
  0
LINE
  8
ボルト／ビス
  6
CONTINUOUS
 62
    64
 10
-54.943575
 20
-60.708953
 11
-55.189885
 21
-60.752837
  0
LINE
  8
ボルト／ビス
  6
CONTINUOUS
 62
    64
 10
-55.275037
 20
-60.988085
 11
-55.189885
 21
-60.752837
  0
LINE
  8
ボルト／ビス
  6
CONTINUOUS
 62
    64
 10
-54.782423
 20
-60.90032
 11
-54.867573
 21
-61.135567
  0
LINE
  8
ボルト／ビス
  6
CONTINUOUS
 62
    64
 10
-55.113883
 20
-61.179453
 11
-54.867573
 21
-61.135567
  0
LINE
  8
ボルト／ビス
  6
CONTINUOUS
 62
    64
 10
-54.943575
 20
-60.708953
 11
-54.782423
 21
-60.90032
  0
LINE
  8
ボルト／ビス
  6
CONTINUOUS
 62
    64
 10
-55.275037
 20
-60.988085
 11
-55.113883
 21
-61.179453
  0
CIRCLE
  8
ボルト／ビス
  6
CONTINUOUS
 62
    64
 10
-55.028727
 20
-60.944203
 40
0.216668
  0
ENDBLK
  0
BLOCK
  2
*GRP_0014
 70
    65
 10
0.0
 20
0.0
  0
LINE
  8
補助線
  6
BYBLOCK
 62
    64
 10
-55.092472
 20
-75.190572
 11
-54.964988
 21
-75.297933
  0
LINE
  8
補助線
  6
BYBLOCK
 62
    64
 10
-54.97505
 20
-75.180508
 11
-55.08241
 21
-75.307995
  0
LINE
  8
補助線
  6
BYBLOCK
 62
    64
 10
-63.58289
 20
-68.04055
 11
-63.455405
 21
-68.147905
  0
LINE
  8
補助線
  6
BYBLOCK
 62
    64
 10
-63.465467
 20
-68.030485
 11
-63.572828
 21
-68.157967
  0
LINE
  8
補助線
  6
BYBLOCK
 62
    64
 10
-71.945825
 20
-60.99788
 11
-72.073308
 21
-60.890523
  0
LINE
  8
補助線
  6
BYBLOCK
 62
    64
 10
-71.955885
 20
-60.880458
 11
-72.063245
 21
-61.007945
  0
LINE
  8
型材断面
  6
CONTINUOUS
 10
-54.236975
 20
-74.82155
 11
-54.176598
 21
-75.526075
  0
LINE
  8
型材断面
  6
CONTINUOUS
 10
-54.176598
 20
-75.526075
 11
-54.60603
 21
-76.03601
  0
LINE
  8
型材断面
  6
CONTINUOUS
 10
-54.60603
 20
-76.03601
 11
-55.310555
 21
-76.096388
  0
LINE
  8
型材断面
  6
CONTINUOUS
 10
-71.727743
 20
-60.09207
 11
-72.432268
 21
-60.152448
  0
LINE
  8
型材断面
  6
CONTINUOUS
 10
-72.432268
 20
-60.152448
 11
-72.8617
 21
-60.662382
  0
LINE
  8
型材断面
  6
CONTINUOUS
 10
-72.8617
 20
-60.662382
 11
-72.801322
 21
-61.366907
  0
LINE
  8
型材断面
  6
CONTINUOUS
 10
-54.236975
 20
-74.82155
 11
-71.727743
 21
-60.09207
  0
LINE
  8
型材断面
  6
CONTINUOUS
 10
-55.310555
 20
-76.096388
 11
-72.801322
 21
-61.366907
  0
CIRCLE
  8
ボルト／ビス
  6
CONTINUOUS
 10
-55.02873
 20
-75.244253
 40
0.250185
  0
CIRCLE
  8
ボルト／ビス
  6
CONTINUOUS
 10
-55.02873
 20
-75.244253
 40
0.301025
  0
LINE
  8
ボルト／ビス
  6
CONTINUOUS
 62
    64
 10
-54.782423
 20
-75.288135
 11
-54.867575
 21
-75.052887
  0
LINE
  8
ボルト／ビス
  6
CONTINUOUS
 62
    64
 10
-55.113883
 20
-75.009003
 11
-54.867575
 21
-75.052887
  0
LINE
  8
ボルト／ビス
  6
CONTINUOUS
 62
    64
 10
-54.943577
 20
-75.479503
 11
-55.189885
 21
-75.435617
  0
LINE
  8
ボルト／ビス
  6
CONTINUOUS
 62
    64
 10
-55.275037
 20
-75.20037
 11
-55.189885
 21
-75.435617
  0
LINE
  8
ボルト／ビス
  6
CONTINUOUS
 62
    64
 10
-54.782423
 20
-75.288135
 11
-54.943577
 21
-75.479503
  0
LINE
  8
ボルト／ビス
  6
CONTINUOUS
 62
    64
 10
-55.113883
 20
-75.009003
 11
-55.275037
 21
-75.20037
  0
CIRCLE
  8
ボルト／ビス
  6
CONTINUOUS
 62
    64
 10
-55.02873
 20
-75.244253
 40
0.216668
  0
CIRCLE
  8
ボルト／ビス
  6
CONTINUOUS
 10
-63.519147
 20
-68.094228
 40
0.250185
  0
CIRCLE
  8
ボルト／ビス
  6
CONTINUOUS
 10
-63.519147
 20
-68.094228
 40
0.301025
  0
LINE
  8
ボルト／ビス
  6
CONTINUOUS
 62
    64
 10
-63.27284
 20
-68.13811
 11
-63.357993
 21
-67.90286
  0
LINE
  8
ボルト／ビス
  6
CONTINUOUS
 62
    64
 10
-63.6043
 20
-67.858978
 11
-63.357993
 21
-67.90286
  0
LINE
  8
ボルト／ビス
  6
CONTINUOUS
 62
    64
 10
-63.433995
 20
-68.329478
 11
-63.680305
 21
-68.285595
  0
LINE
  8
ボルト／ビス
  6
CONTINUOUS
 62
    64
 10
-63.765455
 20
-68.050348
 11
-63.680305
 21
-68.285595
  0
LINE
  8
ボルト／ビス
  6
CONTINUOUS
 62
    64
 10
-63.27284
 20
-68.13811
 11
-63.433995
 21
-68.329478
  0
LINE
  8
ボルト／ビス
  6
CONTINUOUS
 62
    64
 10
-63.6043
 20
-67.858978
 11
-63.765455
 21
-68.050348
  0
CIRCLE
  8
ボルト／ビス
  6
CONTINUOUS
 62
    64
 10
-63.519147
 20
-68.094228
 40
0.216668
  0
CIRCLE
  8
ボルト／ビス
  6
CONTINUOUS
 10
-72.009567
 20
-60.944203
 40
0.250185
  0
CIRCLE
  8
ボルト／ビス
  6
CONTINUOUS
 10
-72.009567
 20
-60.944203
 40
0.301025
  0
LINE
  8
ボルト／ビス
  6
CONTINUOUS
 62
    64
 10
-72.09472
 20
-60.708953
 11
-71.84841
 21
-60.752837
  0
LINE
  8
ボルト／ビス
  6
CONTINUOUS
 62
    64
 10
-71.763257
 20
-60.988085
 11
-71.84841
 21
-60.752837
  0
LINE
  8
ボルト／ビス
  6
CONTINUOUS
 62
    64
 10
-72.255872
 20
-60.90032
 11
-72.170723
 21
-61.135567
  0
LINE
  8
ボルト／ビス
  6
CONTINUOUS
 62
    64
 10
-71.924413
 20
-61.179453
 11
-72.170723
 21
-61.135567
  0
LINE
  8
ボルト／ビス
  6
CONTINUOUS
 62
    64
 10
-72.09472
 20
-60.708953
 11
-72.255872
 21
-60.90032
  0
LINE
  8
ボルト／ビス
  6
CONTINUOUS
 62
    64
 10
-71.763257
 20
-60.988085
 11
-71.924413
 21
-61.179453
  0
CIRCLE
  8
ボルト／ビス
  6
CONTINUOUS
 62
    64
 10
-72.009567
 20
-60.944203
 40
0.216668
  0
ENDBLK
  0
BLOCK
  2
*GRP_0015
 70
    65
 10
0.0
 20
0.0
  0
LINE
  8
補助線
  6
BYBLOCK
 62
    64
 10
37.926698
 20
-75.190572
 11
38.054183
 21
-75.297933
  0
LINE
  8
補助線
  6
BYBLOCK
 62
    64
 10
38.04412
 20
-75.180508
 11
37.93676
 21
-75.307995
  0
LINE
  8
補助線
  6
BYBLOCK
 62
    64
 10
29.43628
 20
-68.04055
 11
29.563765
 21
-68.147905
  0
LINE
  8
補助線
  6
BYBLOCK
 62
    64
 10
29.553702
 20
-68.030485
 11
29.446342
 21
-68.157967
  0
LINE
  8
補助線
  6
BYBLOCK
 62
    64
 10
21.073345
 20
-60.99788
 11
20.945862
 21
-60.890523
  0
LINE
  8
補助線
  6
BYBLOCK
 62
    64
 10
21.063285
 20
-60.880458
 11
20.955925
 21
-61.007945
  0
LINE
  8
型材断面
  6
CONTINUOUS
 10
38.782195
 20
-74.82155
 11
38.842572
 21
-75.526075
  0
LINE
  8
型材断面
  6
CONTINUOUS
 10
38.842572
 20
-75.526075
 11
38.41314
 21
-76.03601
  0
LINE
  8
型材断面
  6
CONTINUOUS
 10
38.41314
 20
-76.03601
 11
37.708615
 21
-76.096388
  0
LINE
  8
型材断面
  6
CONTINUOUS
 10
21.291427
 20
-60.09207
 11
20.586902
 21
-60.152448
  0
LINE
  8
型材断面
  6
CONTINUOUS
 10
20.586902
 20
-60.152448
 11
20.15747
 21
-60.662382
  0
LINE
  8
型材断面
  6
CONTINUOUS
 10
20.15747
 20
-60.662382
 11
20.217848
 21
-61.366907
  0
LINE
  8
型材断面
  6
CONTINUOUS
 10
38.782195
 20
-74.82155
 11
21.291427
 21
-60.09207
  0
LINE
  8
型材断面
  6
CONTINUOUS
 10
37.708615
 20
-76.096388
 11
20.217848
 21
-61.366907
  0
CIRCLE
  8
ボルト／ビス
  6
CONTINUOUS
 10
37.99044
 20
-75.244253
 40
0.250185
  0
CIRCLE
  8
ボルト／ビス
  6
CONTINUOUS
 10
37.99044
 20
-75.244253
 40
0.301025
  0
LINE
  8
ボルト／ビス
  6
CONTINUOUS
 62
    64
 10
38.236747
 20
-75.288135
 11
38.151595
 21
-75.052887
  0
LINE
  8
ボルト／ビス
  6
CONTINUOUS
 62
    64
 10
37.905287
 20
-75.009003
 11
38.151595
 21
-75.052887
  0
LINE
  8
ボルト／ビス
  6
CONTINUOUS
 62
    64
 10
38.075592
 20
-75.479503
 11
37.829285
 21
-75.435617
  0
LINE
  8
ボルト／ビス
  6
CONTINUOUS
 62
    64
 10
37.744132
 20
-75.20037
 11
37.829285
 21
-75.435617
  0
LINE
  8
ボルト／ビス
  6
CONTINUOUS
 62
    64
 10
38.236747
 20
-75.288135
 11
38.075592
 21
-75.479503
  0
LINE
  8
ボルト／ビス
  6
CONTINUOUS
 62
    64
 10
37.905287
 20
-75.009003
 11
37.744132
 21
-75.20037
  0
CIRCLE
  8
ボルト／ビス
  6
CONTINUOUS
 62
    64
 10
37.99044
 20
-75.244253
 40
0.216668
  0
CIRCLE
  8
ボルト／ビス
  6
CONTINUOUS
 10
29.500022
 20
-68.094228
 40
0.250185
  0
CIRCLE
  8
ボルト／ビス
  6
CONTINUOUS
 10
29.500022
 20
-68.094228
 40
0.301025
  0
LINE
  8
ボルト／ビス
  6
CONTINUOUS
 62
    64
 10
29.74633
 20
-68.13811
 11
29.661177
 21
-67.90286
  0
LINE
  8
ボルト／ビス
  6
CONTINUOUS
 62
    64
 10
29.41487
 20
-67.858978
 11
29.661177
 21
-67.90286
  0
LINE
  8
ボルト／ビス
  6
CONTINUOUS
 62
    64
 10
29.585175
 20
-68.329478
 11
29.338865
 21
-68.285595
  0
LINE
  8
ボルト／ビス
  6
CONTINUOUS
 62
    64
 10
29.253715
 20
-68.050348
 11
29.338865
 21
-68.285595
  0
LINE
  8
ボルト／ビス
  6
CONTINUOUS
 62
    64
 10
29.74633
 20
-68.13811
 11
29.585175
 21
-68.329478
  0
LINE
  8
ボルト／ビス
  6
CONTINUOUS
 62
    64
 10
29.41487
 20
-67.858978
 11
29.253715
 21
-68.050348
  0
CIRCLE
  8
ボルト／ビス
  6
CONTINUOUS
 62
    64
 10
29.500022
 20
-68.094228
 40
0.216668
  0
CIRCLE
  8
ボルト／ビス
  6
CONTINUOUS
 10
21.009603
 20
-60.944203
 40
0.250185
  0
CIRCLE
  8
ボルト／ビス
  6
CONTINUOUS
 10
21.009603
 20
-60.944203
 40
0.301025
  0
LINE
  8
ボルト／ビス
  6
CONTINUOUS
 62
    64
 10
20.92445
 20
-60.708953
 11
21.17076
 21
-60.752837
  0
LINE
  8
ボルト／ビス
  6
CONTINUOUS
 62
    64
 10
21.255912
 20
-60.988085
 11
21.17076
 21
-60.752837
  0
LINE
  8
ボルト／ビス
  6
CONTINUOUS
 62
    64
 10
20.763298
 20
-60.90032
 11
20.848447
 21
-61.135567
  0
LINE
  8
ボルト／ビス
  6
CONTINUOUS
 62
    64
 10
21.094758
 20
-61.179453
 11
20.848447
 21
-61.135567
  0
LINE
  8
ボルト／ビス
  6
CONTINUOUS
 62
    64
 10
20.92445
 20
-60.708953
 11
20.763298
 21
-60.90032
  0
LINE
  8
ボルト／ビス
  6
CONTINUOUS
 62
    64
 10
21.255912
 20
-60.988085
 11
21.094758
 21
-61.179453
  0
CIRCLE
  8
ボルト／ビス
  6
CONTINUOUS
 62
    64
 10
21.009603
 20
-60.944203
 40
0.216668
  0
ENDBLK
  0
BLOCK
  2
*GRP_0016
 70
    65
 10
0.0
 20
0.0
  0
LINE
  8
補助線
  6
BYBLOCK
 62
    64
 10
21.073348
 20
-75.190572
 11
20.945862
 21
-75.297933
  0
LINE
  8
補助線
  6
BYBLOCK
 62
    64
 10
20.955925
 20
-75.180508
 11
21.063285
 21
-75.307995
  0
LINE
  8
補助線
  6
BYBLOCK
 62
    64
 10
29.563765
 20
-68.04055
 11
29.43628
 21
-68.147905
  0
LINE
  8
補助線
  6
BYBLOCK
 62
    64
 10
29.446342
 20
-68.030485
 11
29.553702
 21
-68.157967
  0
LINE
  8
補助線
  6
BYBLOCK
 62
    64
 10
37.9267
 20
-60.99788
 11
38.054183
 21
-60.890523
  0
LINE
  8
補助線
  6
BYBLOCK
 62
    64
 10
37.93676
 20
-60.880458
 11
38.04412
 21
-61.007945
  0
LINE
  8
型材断面
  6
CONTINUOUS
 10
20.21785
 20
-74.82155
 11
20.157473
 21
-75.526075
  0
LINE
  8
型材断面
  6
CONTINUOUS
 10
20.157473
 20
-75.526075
 11
20.586905
 21
-76.03601
  0
LINE
  8
型材断面
  6
CONTINUOUS
 10
20.586905
 20
-76.03601
 11
21.29143
 21
-76.096388
  0
LINE
  8
型材断面
  6
CONTINUOUS
 10
37.708618
 20
-60.09207
 11
38.413142
 21
-60.152448
  0
LINE
  8
型材断面
  6
CONTINUOUS
 10
38.413142
 20
-60.152448
 11
38.842575
 21
-60.662382
  0
LINE
  8
型材断面
  6
CONTINUOUS
 10
38.842575
 20
-60.662382
 11
38.782198
 21
-61.366907
  0
LINE
  8
型材断面
  6
CONTINUOUS
 10
20.21785
 20
-74.82155
 11
37.708618
 21
-60.09207
  0
LINE
  8
型材断面
  6
CONTINUOUS
 10
21.29143
 20
-76.096388
 11
38.782198
 21
-61.366907
  0
CIRCLE
  8
ボルト／ビス
  6
CONTINUOUS
 10
21.009605
 20
-75.244253
 40
0.250185
  0
CIRCLE
  8
ボルト／ビス
  6
CONTINUOUS
 10
21.009605
 20
-75.244253
 40
0.301025
  0
LINE
  8
ボルト／ビス
  6
CONTINUOUS
 62
    64
 10
20.763298
 20
-75.288135
 11
20.84845
 21
-75.052887
  0
LINE
  8
ボルト／ビス
  6
CONTINUOUS
 62
    64
 10
21.094758
 20
-75.009003
 11
20.84845
 21
-75.052887
  0
LINE
  8
ボルト／ビス
  6
CONTINUOUS
 62
    64
 10
20.924453
 20
-75.479503
 11
21.17076
 21
-75.435617
  0
LINE
  8
ボルト／ビス
  6
CONTINUOUS
 62
    64
 10
21.255912
 20
-75.20037
 11
21.17076
 21
-75.435617
  0
LINE
  8
ボルト／ビス
  6
CONTINUOUS
 62
    64
 10
20.763298
 20
-75.288135
 11
20.924453
 21
-75.479503
  0
LINE
  8
ボルト／ビス
  6
CONTINUOUS
 62
    64
 10
21.094758
 20
-75.009003
 11
21.255912
 21
-75.20037
  0
CIRCLE
  8
ボルト／ビス
  6
CONTINUOUS
 62
    64
 10
21.009605
 20
-75.244253
 40
0.216668
  0
CIRCLE
  8
ボルト／ビス
  6
CONTINUOUS
 10
29.500022
 20
-68.094228
 40
0.250185
  0
CIRCLE
  8
ボルト／ビス
  6
CONTINUOUS
 10
29.500022
 20
-68.094228
 40
0.301025
  0
LINE
  8
ボルト／ビス
  6
CONTINUOUS
 62
    64
 10
29.253715
 20
-68.13811
 11
29.338868
 21
-67.90286
  0
LINE
  8
ボルト／ビス
  6
CONTINUOUS
 62
    64
 10
29.585175
 20
-67.858978
 11
29.338868
 21
-67.90286
  0
LINE
  8
ボルト／ビス
  6
CONTINUOUS
 62
    64
 10
29.41487
 20
-68.329478
 11
29.66118
 21
-68.285595
  0
LINE
  8
ボルト／ビス
  6
CONTINUOUS
 62
    64
 10
29.74633
 20
-68.050348
 11
29.66118
 21
-68.285595
  0
LINE
  8
ボルト／ビス
  6
CONTINUOUS
 62
    64
 10
29.253715
 20
-68.13811
 11
29.41487
 21
-68.329478
  0
LINE
  8
ボルト／ビス
  6
CONTINUOUS
 62
    64
 10
29.585175
 20
-67.858978
 11
29.74633
 21
-68.050348
  0
CIRCLE
  8
ボルト／ビス
  6
CONTINUOUS
 62
    64
 10
29.500022
 20
-68.094228
 40
0.216668
  0
CIRCLE
  8
ボルト／ビス
  6
CONTINUOUS
 10
37.990443
 20
-60.944203
 40
0.250185
  0
CIRCLE
  8
ボルト／ビス
  6
CONTINUOUS
 10
37.990443
 20
-60.944203
 40
0.301025
  0
LINE
  8
ボルト／ビス
  6
CONTINUOUS
 62
    64
 10
38.075595
 20
-60.708953
 11
37.829285
 21
-60.752837
  0
LINE
  8
ボルト／ビス
  6
CONTINUOUS
 62
    64
 10
37.744132
 20
-60.988085
 11
37.829285
 21
-60.752837
  0
LINE
  8
ボルト／ビス
  6
CONTINUOUS
 62
    64
 10
38.236747
 20
-60.90032
 11
38.151598
 21
-61.135567
  0
LINE
  8
ボルト／ビス
  6
CONTINUOUS
 62
    64
 10
37.905287
 20
-61.179453
 11
38.151598
 21
-61.135567
  0
LINE
  8
ボルト／ビス
  6
CONTINUOUS
 62
    64
 10
38.075595
 20
-60.708953
 11
38.236747
 21
-60.90032
  0
LINE
  8
ボルト／ビス
  6
CONTINUOUS
 62
    64
 10
37.744132
 20
-60.988085
 11
37.905287
 21
-61.179453
  0
CIRCLE
  8
ボルト／ビス
  6
CONTINUOUS
 62
    64
 10
37.990443
 20
-60.944203
 40
0.216668
  0
ENDBLK
  0
BLOCK
  2
*DIM_0017
 70
    65
 10
0.0
 20
0.0
  0
LINE
  8
寸法
  6
BYBLOCK
 62
     0
 10
147.523703
 20
57.4807
 11
147.523703
 21
68.369967
  0
LINE
  8
寸法
  6
BYBLOCK
 62
     0
 10
154.557205
 20
57.797367
 11
154.557205
 21
68.369967
  0
LINE
  8
寸法
  6
BYBLOCK
 62
     0
 10
147.523703
 20
68.369967
 11
154.557205
 21
68.369967
  0
POINT
  8
寸法
 62
     0
 10
147.523703
 20
68.369967
  0
POINT
  8
寸法
 62
     0
 10
154.557205
 20
68.369967
  0
TEXT
  7
TextStyle03
  8
寸法
  6
CONTINUOUS
 62
     0
 10
148.5625
 20
68.725
  1
211
 40
3.0
 72
     5
 11
153.4375
 21
68.725
  0
ENDBLK
  0
BLOCK
  2
*DIM_0018
 70
    65
 10
0.0
 20
0.0
  0
LINE
  8
寸法
  6
BYBLOCK
 62
     0
 10
145.900488
 20
54.797367
 11
92.010088
 21
54.797367
  0
LINE
  8
寸法
  6
BYBLOCK
 62
     0
 10
92.010088
 20
52.814033
 11
92.010088
 21
54.797367
  0
POINT
  8
寸法
 62
     0
 10
92.010088
 20
52.814033
  0
POINT
  8
寸法
 62
     0
 10
92.010088
 20
54.797367
  0
TEXT
  7
TextStyle03
  8
寸法
  6
CONTINUOUS
 62
     0
 10
91.575
 20
57.26875
  1
59.5
 40
3.0
 50
90.0
 72
     5
 11
91.575
 21
63.83125
  0
ENDBLK
  0
BLOCK
  2
*DIM_0019
 70
    65
 10
0.0
 20
0.0
  0
LINE
  8
寸法
  6
BYBLOCK
 62
     0
 10
145.900488
 20
20.8307
 11
92.010088
 21
20.8307
  0
LINE
  8
寸法
  6
BYBLOCK
 62
     0
 10
92.010088
 20
22.814033
 11
92.010088
 21
20.8307
  0
POINT
  8
寸法
 62
     0
 10
92.010088
 20
22.814033
  0
POINT
  8
寸法
 62
     0
 10
92.010088
 20
20.8307
  0
TEXT
  7
TextStyle03
  8
寸法
  6
CONTINUOUS
 62
     0
 10
91.575
 20
11.76875
  1
59.5
 40
3.0
 50
90.0
 72
     5
 11
91.575
 21
18.33125
  0
ENDBLK
  0
BLOCK
  2
*DIM_0020
 70
    65
 10
0.0
 20
0.0
  0
LINE
  8
寸法
  6
BYBLOCK
 62
     0
 10
62.657105
 20
-70.209613
 11
73.960088
 21
-70.209613
  0
LINE
  8
寸法
  6
BYBLOCK
 62
     0
 10
62.973773
 20
-77.243115
 11
73.960088
 21
-77.243115
  0
LINE
  8
寸法
  6
BYBLOCK
 62
     0
 10
73.960088
 20
-70.209613
 11
73.960088
 21
-77.243115
  0
POINT
  8
寸法
 62
     0
 10
73.960088
 20
-70.209613
  0
POINT
  8
寸法
 62
     0
 10
73.960088
 20
-77.243115
  0
TEXT
  7
TextStyle03
  8
寸法
  6
CONTINUOUS
 62
     0
 10
73.55
 20
-76.1875
  1
211
 40
3.0
 50
90.0
 72
     5
 11
73.55
 21
-71.3125
  0
ENDBLK
  0
BLOCK
  2
*DIM_0021
 70
    65
 10
0.0
 20
0.0
  0
LINE
  8
寸法
  6
BYBLOCK
 62
     0
 10
59.973773
 20
-68.586398
 11
59.973773
 21
-13.121378
  0
LINE
  8
寸法
  6
BYBLOCK
 62
     0
 10
57.990438
 20
-13.121378
 11
59.973773
 21
-13.121378
  0
POINT
  8
寸法
 62
     0
 10
57.990438
 20
-13.121378
  0
POINT
  8
寸法
 62
     0
 10
59.973773
 20
-13.121378
  0
TEXT
  7
TextStyle03
  8
寸法
  6
CONTINUOUS
 62
     0
 10
62.41875
 20
-12.75
  1
59.5
 40
3.0
 72
     5
 11
68.98125
 21
-12.75
  0
ENDBLK
  0
BLOCK
  2
*DIM_0022
 70
    65
 10
0.0
 20
0.0
  0
LINE
  8
寸法
  6
BYBLOCK
 62
     0
 10
-93.992897
 20
-68.586398
 11
-93.992897
 21
-13.121378
  0
LINE
  8
寸法
  6
BYBLOCK
 62
     0
 10
-92.009562
 20
-13.121378
 11
-93.992897
 21
-13.121378
  0
POINT
  8
寸法
 62
     0
 10
-92.009562
 20
-13.121378
  0
POINT
  8
寸法
 62
     0
 10
-93.992897
 20
-13.121378
  0
TEXT
  7
TextStyle03
  8
寸法
  6
CONTINUOUS
 62
     0
 10
-103.05625
 20
-12.75
  1
59.5
 40
3.0
 72
     5
 11
-96.49375
 21
-12.75
  0
ENDBLK
  0
BLOCK
  2
*DIM_0023
 70
    65
 10
0.0
 20
0.0
  0
LINE
  8
寸法
  6
BYBLOCK
 62
     0
 10
-95.009562
 20
47.814033
 11
-108.3024
 21
47.814033
  0
LINE
  8
寸法
  6
BYBLOCK
 62
     0
 10
-95.009562
 20
27.814033
 11
-108.3024
 21
27.814033
  0
LINE
  8
寸法
  6
BYBLOCK
 62
     0
 10
-108.3024
 20
47.814033
 11
-108.3024
 21
27.814033
  0
POINT
  8
寸法
 62
     0
 10
-108.3024
 20
47.814033
  0
POINT
  8
寸法
 62
     0
 10
-108.3024
 20
27.814033
  0
TEXT
  7
TextStyle03
  8
寸法
  6
CONTINUOUS
 62
     0
 10
-108.675
 20
35.3625
  1
600
 40
3.0
 50
90.0
 72
     5
 11
-108.675
 21
40.2375
  0
ENDBLK
  0
BLOCK
  2
*DIM_0024
 70
    65
 10
0.0
 20
0.0
  0
LINE
  8
寸法
  6
BYBLOCK
 62
     0
 10
-83.67623
 20
55.814033
 11
-83.67623
 21
84.922105
  0
LINE
  8
寸法
  6
BYBLOCK
 62
     0
 10
-57.009562
 20
55.814033
 11
-57.009562
 21
84.922105
  0
LINE
  8
寸法
  6
BYBLOCK
 62
     0
 10
-83.67623
 20
84.922105
 11
-57.009562
 21
84.922105
  0
POINT
  8
寸法
 62
     0
 10
-83.67623
 20
84.922105
  0
POINT
  8
寸法
 62
     0
 10
-57.009562
 20
84.922105
  0
TEXT
  7
TextStyle03
  8
寸法
  6
CONTINUOUS
 62
     0
 10
-72.8125
 20
85.3
  1
800
 40
3.0
 72
     5
 11
-67.9375
 21
85.3
  0
ENDBLK
  0
BLOCK
  2
*DIM_0025
 70
    65
 10
0.0
 20
0.0
  0
LINE
  8
寸法
  6
BYBLOCK
 62
     0
 10
-30.342895
 20
55.814033
 11
-30.342895
 21
84.922105
  0
LINE
  8
寸法
  6
BYBLOCK
 62
     0
 10
-57.009562
 20
84.922105
 11
-30.342895
 21
84.922105
  0
POINT
  8
寸法
 62
     0
 10
-30.342895
 20
84.922105
  0
TEXT
  7
TextStyle03
  8
寸法
  6
CONTINUOUS
 62
     0
 10
-46.1375
 20
85.3
  1
800
 40
3.0
 72
     5
 11
-41.2625
 21
85.3
  0
ENDBLK
  0
BLOCK
  2
*DIM_0026
 70
    65
 10
0.0
 20
0.0
  0
LINE
  8
寸法
  6
BYBLOCK
 62
     0
 10
-3.67623
 20
55.814033
 11
-3.67623
 21
84.922105
  0
LINE
  8
寸法
  6
BYBLOCK
 62
     0
 10
-30.342895
 20
84.922105
 11
-3.67623
 21
84.922105
  0
POINT
  8
寸法
 62
     0
 10
-3.67623
 20
84.922105
  0
TEXT
  7
TextStyle03
  8
寸法
  6
CONTINUOUS
 62
     0
 10
-19.4625
 20
85.3
  1
800
 40
3.0
 72
     5
 11
-14.5875
 21
85.3
  0
ENDBLK
  0
BLOCK
  2
*DIM_0027
 70
    65
 10
0.0
 20
0.0
  0
LINE
  8
寸法
  6
BYBLOCK
 62
     0
 10
22.990438
 20
55.814033
 11
22.990438
 21
84.922105
  0
LINE
  8
寸法
  6
BYBLOCK
 62
     0
 10
-3.67623
 20
84.922105
 11
22.990438
 21
84.922105
  0
POINT
  8
寸法
 62
     0
 10
22.990438
 20
84.922105
  0
TEXT
  7
TextStyle03
  8
寸法
  6
CONTINUOUS
 62
     0
 10
7.1875
 20
85.3
  1
800
 40
3.0
 72
     5
 11
12.0625
 21
85.3
  0
ENDBLK
  0
BLOCK
  2
*DIM_0028
 70
    65
 10
0.0
 20
0.0
  0
LINE
  8
寸法
  6
BYBLOCK
 62
     0
 10
49.657105
 20
55.814033
 11
49.657105
 21
84.922105
  0
LINE
  8
寸法
  6
BYBLOCK
 62
     0
 10
22.990438
 20
84.922105
 11
49.657105
 21
84.922105
  0
POINT
  8
寸法
 62
     0
 10
49.657105
 20
84.922105
  0
TEXT
  7
TextStyle03
  8
寸法
  6
CONTINUOUS
 62
     0
 10
33.8625
 20
85.3
  1
800
 40
3.0
 72
     5
 11
38.7375
 21
85.3
  0
ENDBLK
  0
BLOCK
  2
*GRP_0030
 70
    65
 10
0.0
 20
0.0
  0
LINE
  8
ボルト／ビス
  6
CONTINUOUS
 10
147.523703
 20
22.147365
 11
147.057037
 21
22.147365
  0
LINE
  8
ボルト／ビス
  6
CONTINUOUS
 10
147.523703
 20
21.7807
 11
147.457037
 21
21.7807
  0
LINE
  8
ボルト／ビス
  6
CONTINUOUS
 10
147.457037
 20
21.7807
 11
147.457037
 21
22.514033
  0
LINE
  8
ボルト／ビス
  6
CONTINUOUS
 10
147.457037
 20
22.514033
 11
147.523703
 21
22.514033
  0
LINE
  8
ボルト／ビス
  6
CONTINUOUS
 10
147.523703
 20
21.7807
 11
147.523703
 21
22.514033
  0
LINE
  8
ボルト／ビス
  6
CONTINUOUS
 10
147.423703
 20
21.847365
 11
147.457037
 21
21.847365
  0
LINE
  8
ボルト／ビス
  6
CONTINUOUS
 10
147.423703
 20
21.847365
 11
147.423703
 21
22.447365
  0
LINE
  8
ボルト／ビス
  6
CONTINUOUS
 10
147.423703
 20
22.447365
 11
147.457037
 21
22.447365
  0
LINE
  8
ボルト／ビス
  6
CONTINUOUS
 62
    64
 10
147.223703
 20
21.98699
 11
147.235377
 21
21.954915
  0
ARC
  8
ボルト／ビス
  6
CONTINUOUS
 62
    64
 10
147.328683
 20
22.003029
 40
0.104978
 50
152.721967
 51
180.0
  0
ARC
  8
ボルト／ビス
  6
CONTINUOUS
 62
    64
 10
147.626107
 20
22.147367
 40
0.402402
 50
166.165002
 51
193.834985
  0
LINE
  8
ボルト／ビス
  6
CONTINUOUS
 62
    64
 10
147.223703
 20
22.30774
 11
147.235377
 21
22.339815
  0
ARC
  8
ボルト／ビス
  6
CONTINUOUS
 62
    64
 10
147.328683
 20
22.291704
 40
0.104978
 50
180.0
 51
207.278033
  0
LINE
  8
ボルト／ビス
  6
CONTINUOUS
 62
    64
 10
147.223703
 20
21.98699
 11
147.223703
 21
22.30774
  0
LINE
  8
ボルト／ビス
  6
CONTINUOUS
 62
    64
 10
147.235377
 20
22.339815
 11
147.357037
 21
22.339815
  0
LINE
  8
ボルト／ビス
  6
CONTINUOUS
 62
    64
 10
147.235377
 20
22.24359
 11
147.357037
 21
22.24359
  0
LINE
  8
ボルト／ビス
  6
CONTINUOUS
 62
    64
 10
147.235377
 20
21.954915
 11
147.357037
 21
21.954915
  0
LINE
  8
ボルト／ビス
  6
CONTINUOUS
 62
    64
 10
147.235377
 20
22.05114
 11
147.357037
 21
22.05114
  0
LINE
  8
ボルト／ビス
  6
CONTINUOUS
 10
147.357037
 20
21.954915
 11
147.357037
 21
22.339815
  0
LINE
  8
ボルト／ビス
  6
CONTINUOUS
 10
147.357037
 20
21.947365
 11
147.423703
 21
21.947365
  0
LINE
  8
ボルト／ビス
  6
CONTINUOUS
 10
147.357037
 20
21.947365
 11
147.357037
 21
22.347365
  0
LINE
  8
ボルト／ビス
  6
CONTINUOUS
 10
147.357037
 20
22.347365
 11
147.423703
 21
22.347365
  0
ENDBLK
  0
BLOCK
  2
*GRP_0031
 70
    65
 10
0.0
 20
0.0
  0
LINE
  8
ボルト／ビス
  6
CONTINUOUS
 10
147.523703
 20
53.4807
 11
147.057037
 21
53.4807
  0
LINE
  8
ボルト／ビス
  6
CONTINUOUS
 10
147.523703
 20
53.847365
 11
147.457037
 21
53.847365
  0
LINE
  8
ボルト／ビス
  6
CONTINUOUS
 10
147.457037
 20
53.847365
 11
147.457037
 21
53.114033
  0
LINE
  8
ボルト／ビス
  6
CONTINUOUS
 10
147.457037
 20
53.114033
 11
147.523703
 21
53.114033
  0
LINE
  8
ボルト／ビス
  6
CONTINUOUS
 10
147.523703
 20
53.847365
 11
147.523703
 21
53.114033
  0
LINE
  8
ボルト／ビス
  6
CONTINUOUS
 10
147.423703
 20
53.7807
 11
147.457037
 21
53.7807
  0
LINE
  8
ボルト／ビス
  6
CONTINUOUS
 10
147.423703
 20
53.7807
 11
147.423703
 21
53.1807
  0
LINE
  8
ボルト／ビス
  6
CONTINUOUS
 10
147.423703
 20
53.1807
 11
147.457037
 21
53.1807
  0
LINE
  8
ボルト／ビス
  6
CONTINUOUS
 62
    64
 10
147.223703
 20
53.641075
 11
147.235377
 21
53.67315
  0
ARC
  8
ボルト／ビス
  6
CONTINUOUS
 62
    64
 10
147.328683
 20
53.625036
 40
0.104978
 50
180.0
 51
207.278033
  0
ARC
  8
ボルト／ビス
  6
CONTINUOUS
 62
    64
 10
147.626107
 20
53.480698
 40
0.402402
 50
166.165015
 51
193.834998
  0
LINE
  8
ボルト／ビス
  6
CONTINUOUS
 62
    64
 10
147.223703
 20
53.320325
 11
147.235377
 21
53.28825
  0
ARC
  8
ボルト／ビス
  6
CONTINUOUS
 62
    64
 10
147.328683
 20
53.336361
 40
0.104978
 50
152.721967
 51
180.0
  0
LINE
  8
ボルト／ビス
  6
CONTINUOUS
 62
    64
 10
147.223703
 20
53.641075
 11
147.223703
 21
53.320325
  0
LINE
  8
ボルト／ビス
  6
CONTINUOUS
 62
    64
 10
147.235377
 20
53.28825
 11
147.357037
 21
53.28825
  0
LINE
  8
ボルト／ビス
  6
CONTINUOUS
 62
    64
 10
147.235377
 20
53.384475
 11
147.357037
 21
53.384475
  0
LINE
  8
ボルト／ビス
  6
CONTINUOUS
 62
    64
 10
147.235377
 20
53.67315
 11
147.357037
 21
53.67315
  0
LINE
  8
ボルト／ビス
  6
CONTINUOUS
 62
    64
 10
147.235377
 20
53.576925
 11
147.357037
 21
53.576925
  0
LINE
  8
ボルト／ビス
  6
CONTINUOUS
 10
147.357037
 20
53.67315
 11
147.357037
 21
53.28825
  0
LINE
  8
ボルト／ビス
  6
CONTINUOUS
 10
147.357037
 20
53.6807
 11
147.423703
 21
53.6807
  0
LINE
  8
ボルト／ビス
  6
CONTINUOUS
 10
147.357037
 20
53.6807
 11
147.357037
 21
53.2807
  0
LINE
  8
ボルト／ビス
  6
CONTINUOUS
 10
147.357037
 20
53.2807
 11
147.423703
 21
53.2807
  0
ENDBLK
  0
BLOCK
  2
*GRP_0032
 70
    65
 10
0.0
 20
0.0
  0
LINE
  8
ボルト／ビス
  6
CONTINUOUS
 10
58.657105
 20
-70.209613
 11
58.657105
 21
-69.742947
  0
LINE
  8
ボルト／ビス
  6
CONTINUOUS
 10
59.02377
 20
-70.209613
 11
59.02377
 21
-70.142947
  0
LINE
  8
ボルト／ビス
  6
CONTINUOUS
 10
59.02377
 20
-70.142947
 11
58.290438
 21
-70.142947
  0
LINE
  8
ボルト／ビス
  6
CONTINUOUS
 10
58.290438
 20
-70.142947
 11
58.290438
 21
-70.209613
  0
LINE
  8
ボルト／ビス
  6
CONTINUOUS
 10
59.02377
 20
-70.209613
 11
58.290438
 21
-70.209613
  0
LINE
  8
ボルト／ビス
  6
CONTINUOUS
 10
58.957105
 20
-70.109612
 11
58.957105
 21
-70.142947
  0
LINE
  8
ボルト／ビス
  6
CONTINUOUS
 10
58.957105
 20
-70.109612
 11
58.357105
 21
-70.109612
  0
LINE
  8
ボルト／ビス
  6
CONTINUOUS
 10
58.357105
 20
-70.109612
 11
58.357105
 21
-70.142947
  0
LINE
  8
ボルト／ビス
  6
CONTINUOUS
 62
    64
 10
58.81748
 20
-69.909613
 11
58.849555
 21
-69.921288
  0
ARC
  8
ボルト／ビス
  6
CONTINUOUS
 62
    64
 10
58.801441
 20
-70.014592
 40
0.104978
 50
90.0
 51
117.278033
  0
ARC
  8
ボルト／ビス
  6
CONTINUOUS
 62
    64
 10
58.657104
 20
-70.312016
 40
0.402402
 50
76.165015
 51
103.834998
  0
LINE
  8
ボルト／ビス
  6
CONTINUOUS
 62
    64
 10
58.49673
 20
-69.909613
 11
58.464655
 21
-69.921288
  0
ARC
  8
ボルト／ビス
  6
CONTINUOUS
 62
    64
 10
58.512766
 20
-70.014592
 40
0.104978
 50
62.721967
 51
90.0
  0
LINE
  8
ボルト／ビス
  6
CONTINUOUS
 62
    64
 10
58.81748
 20
-69.909613
 11
58.49673
 21
-69.909613
  0
LINE
  8
ボルト／ビス
  6
CONTINUOUS
 62
    64
 10
58.464655
 20
-69.921288
 11
58.464655
 21
-70.042947
  0
LINE
  8
ボルト／ビス
  6
CONTINUOUS
 62
    64
 10
58.56088
 20
-69.921288
 11
58.56088
 21
-70.042947
  0
LINE
  8
ボルト／ビス
  6
CONTINUOUS
 62
    64
 10
58.849555
 20
-69.921288
 11
58.849555
 21
-70.042947
  0
LINE
  8
ボルト／ビス
  6
CONTINUOUS
 62
    64
 10
58.75333
 20
-69.921288
 11
58.75333
 21
-70.042947
  0
LINE
  8
ボルト／ビス
  6
CONTINUOUS
 10
58.849555
 20
-70.042947
 11
58.464655
 21
-70.042947
  0
LINE
  8
ボルト／ビス
  6
CONTINUOUS
 10
58.857105
 20
-70.042947
 11
58.857105
 21
-70.109612
  0
LINE
  8
ボルト／ビス
  6
CONTINUOUS
 10
58.857105
 20
-70.042947
 11
58.457105
 21
-70.042947
  0
LINE
  8
ボルト／ビス
  6
CONTINUOUS
 10
58.457105
 20
-70.042947
 11
58.457105
 21
-70.109612
  0
ENDBLK
  0
BLOCK
  2
*GRP_0033
 70
    65
 10
0.0
 20
0.0
  0
LINE
  8
ボルト／ビス
  6
DOT
 10
58.657105
 20
-58.54295
 11
58.657105
 21
-58.076285
  0
LINE
  8
ボルト／ビス
  6
DOT
 10
59.02377
 20
-58.54295
 11
59.02377
 21
-58.476285
  0
LINE
  8
ボルト／ビス
  6
DOT
 10
59.02377
 20
-58.476285
 11
58.290438
 21
-58.476285
  0
LINE
  8
ボルト／ビス
  6
DOT
 10
58.290438
 20
-58.476285
 11
58.290438
 21
-58.54295
  0
LINE
  8
ボルト／ビス
  6
DOT
 10
59.02377
 20
-58.54295
 11
58.290438
 21
-58.54295
  0
LINE
  8
ボルト／ビス
  6
DOT
 10
58.957105
 20
-58.44295
 11
58.957105
 21
-58.476285
  0
LINE
  8
ボルト／ビス
  6
DOT
 10
58.957105
 20
-58.44295
 11
58.357105
 21
-58.44295
  0
LINE
  8
ボルト／ビス
  6
DOT
 10
58.357105
 20
-58.44295
 11
58.357105
 21
-58.476285
  0
LINE
  8
ボルト／ビス
  6
DOT
 62
    64
 10
58.81748
 20
-58.24295
 11
58.849555
 21
-58.254625
  0
ARC
  8
ボルト／ビス
  6
DOT
 62
    64
 10
58.801441
 20
-58.34793
 40
0.104978
 50
90.0
 51
117.278033
  0
ARC
  8
ボルト／ビス
  6
DOT
 62
    64
 10
58.657104
 20
-58.645354
 40
0.402402
 50
76.165015
 51
103.834998
  0
LINE
  8
ボルト／ビス
  6
DOT
 62
    64
 10
58.49673
 20
-58.24295
 11
58.464655
 21
-58.254625
  0
ARC
  8
ボルト／ビス
  6
DOT
 62
    64
 10
58.512766
 20
-58.34793
 40
0.104978
 50
62.721967
 51
90.0
  0
LINE
  8
ボルト／ビス
  6
DOT
 62
    64
 10
58.81748
 20
-58.24295
 11
58.49673
 21
-58.24295
  0
LINE
  8
ボルト／ビス
  6
DOT
 62
    64
 10
58.464655
 20
-58.254625
 11
58.464655
 21
-58.376285
  0
LINE
  8
ボルト／ビス
  6
DOT
 62
    64
 10
58.56088
 20
-58.254625
 11
58.56088
 21
-58.376285
  0
LINE
  8
ボルト／ビス
  6
DOT
 62
    64
 10
58.849555
 20
-58.254625
 11
58.849555
 21
-58.376285
  0
LINE
  8
ボルト／ビス
  6
DOT
 62
    64
 10
58.75333
 20
-58.254625
 11
58.75333
 21
-58.376285
  0
LINE
  8
ボルト／ビス
  6
DOT
 10
58.849555
 20
-58.376285
 11
58.464655
 21
-58.376285
  0
LINE
  8
ボルト／ビス
  6
DOT
 10
58.857105
 20
-58.376285
 11
58.857105
 21
-58.44295
  0
LINE
  8
ボルト／ビス
  6
DOT
 10
58.857105
 20
-58.376285
 11
58.457105
 21
-58.376285
  0
LINE
  8
ボルト／ビス
  6
DOT
 10
58.457105
 20
-58.376285
 11
58.457105
 21
-58.44295
  0
ENDBLK
  0
BLOCK
  2
*GRP_0034
 70
    65
 10
0.0
 20
0.0
  0
LINE
  8
ボルト／ビス
  6
CONTINUOUS
 10
-92.67623
 20
-70.209613
 11
-92.67623
 21
-69.742947
  0
LINE
  8
ボルト／ビス
  6
CONTINUOUS
 10
-92.309565
 20
-70.209613
 11
-92.309565
 21
-70.142947
  0
LINE
  8
ボルト／ビス
  6
CONTINUOUS
 10
-92.309565
 20
-70.142947
 11
-93.042897
 21
-70.142947
  0
LINE
  8
ボルト／ビス
  6
CONTINUOUS
 10
-93.042897
 20
-70.142947
 11
-93.042897
 21
-70.209613
  0
LINE
  8
ボルト／ビス
  6
CONTINUOUS
 10
-92.309565
 20
-70.209613
 11
-93.042897
 21
-70.209613
  0
LINE
  8
ボルト／ビス
  6
CONTINUOUS
 10
-92.37623
 20
-70.109612
 11
-92.37623
 21
-70.142947
  0
LINE
  8
ボルト／ビス
  6
CONTINUOUS
 10
-92.37623
 20
-70.109612
 11
-92.97623
 21
-70.109612
  0
LINE
  8
ボルト／ビス
  6
CONTINUOUS
 10
-92.97623
 20
-70.109612
 11
-92.97623
 21
-70.142947
  0
LINE
  8
ボルト／ビス
  6
CONTINUOUS
 62
    64
 10
-92.515855
 20
-69.909613
 11
-92.48378
 21
-69.921288
  0
ARC
  8
ボルト／ビス
  6
CONTINUOUS
 62
    64
 10
-92.531894
 20
-70.014592
 40
0.104978
 50
90.0
 51
117.278033
  0
ARC
  8
ボルト／ビス
  6
CONTINUOUS
 62
    64
 10
-92.676231
 20
-70.312016
 40
0.402402
 50
76.165015
 51
103.834998
  0
LINE
  8
ボルト／ビス
  6
CONTINUOUS
 62
    64
 10
-92.836605
 20
-69.909613
 11
-92.86868
 21
-69.921288
  0
ARC
  8
ボルト／ビス
  6
CONTINUOUS
 62
    64
 10
-92.820569
 20
-70.014592
 40
0.104978
 50
62.721967
 51
90.0
  0
LINE
  8
ボルト／ビス
  6
CONTINUOUS
 62
    64
 10
-92.515855
 20
-69.909613
 11
-92.836605
 21
-69.909613
  0
LINE
  8
ボルト／ビス
  6
CONTINUOUS
 62
    64
 10
-92.86868
 20
-69.921288
 11
-92.86868
 21
-70.042947
  0
LINE
  8
ボルト／ビス
  6
CONTINUOUS
 62
    64
 10
-92.772455
 20
-69.921288
 11
-92.772455
 21
-70.042947
  0
LINE
  8
ボルト／ビス
  6
CONTINUOUS
 62
    64
 10
-92.48378
 20
-69.921288
 11
-92.48378
 21
-70.042947
  0
LINE
  8
ボルト／ビス
  6
CONTINUOUS
 62
    64
 10
-92.580005
 20
-69.921288
 11
-92.580005
 21
-70.042947
  0
LINE
  8
ボルト／ビス
  6
CONTINUOUS
 10
-92.48378
 20
-70.042947
 11
-92.86868
 21
-70.042947
  0
LINE
  8
ボルト／ビス
  6
CONTINUOUS
 10
-92.47623
 20
-70.042947
 11
-92.47623
 21
-70.109612
  0
LINE
  8
ボルト／ビス
  6
CONTINUOUS
 10
-92.47623
 20
-70.042947
 11
-92.87623
 21
-70.042947
  0
LINE
  8
ボルト／ビス
  6
CONTINUOUS
 10
-92.87623
 20
-70.042947
 11
-92.87623
 21
-70.109612
  0
ENDBLK
  0
BLOCK
  2
*GRP_0035
 70
    65
 10
0.0
 20
0.0
  0
LINE
  8
ボルト／ビス
  6
DOT
 10
-92.67623
 20
-58.54295
 11
-92.67623
 21
-58.076285
  0
LINE
  8
ボルト／ビス
  6
DOT
 10
-92.309565
 20
-58.54295
 11
-92.309565
 21
-58.476285
  0
LINE
  8
ボルト／ビス
  6
DOT
 10
-92.309565
 20
-58.476285
 11
-93.042897
 21
-58.476285
  0
LINE
  8
ボルト／ビス
  6
DOT
 10
-93.042897
 20
-58.476285
 11
-93.042897
 21
-58.54295
  0
LINE
  8
ボルト／ビス
  6
DOT
 10
-92.309565
 20
-58.54295
 11
-93.042897
 21
-58.54295
  0
LINE
  8
ボルト／ビス
  6
DOT
 10
-92.37623
 20
-58.44295
 11
-92.37623
 21
-58.476285
  0
LINE
  8
ボルト／ビス
  6
DOT
 10
-92.37623
 20
-58.44295
 11
-92.97623
 21
-58.44295
  0
LINE
  8
ボルト／ビス
  6
DOT
 10
-92.97623
 20
-58.44295
 11
-92.97623
 21
-58.476285
  0
LINE
  8
ボルト／ビス
  6
DOT
 62
    64
 10
-92.515855
 20
-58.24295
 11
-92.48378
 21
-58.254625
  0
ARC
  8
ボルト／ビス
  6
DOT
 62
    64
 10
-92.531894
 20
-58.34793
 40
0.104978
 50
90.0
 51
117.278033
  0
ARC
  8
ボルト／ビス
  6
DOT
 62
    64
 10
-92.676231
 20
-58.645354
 40
0.402402
 50
76.165015
 51
103.834998
  0
LINE
  8
ボルト／ビス
  6
DOT
 62
    64
 10
-92.836605
 20
-58.24295
 11
-92.86868
 21
-58.254625
  0
ARC
  8
ボルト／ビス
  6
DOT
 62
    64
 10
-92.820569
 20
-58.34793
 40
0.104978
 50
62.721967
 51
90.0
  0
LINE
  8
ボルト／ビス
  6
DOT
 62
    64
 10
-92.515855
 20
-58.24295
 11
-92.836605
 21
-58.24295
  0
LINE
  8
ボルト／ビス
  6
DOT
 62
    64
 10
-92.86868
 20
-58.254625
 11
-92.86868
 21
-58.376285
  0
LINE
  8
ボルト／ビス
  6
DOT
 62
    64
 10
-92.772455
 20
-58.254625
 11
-92.772455
 21
-58.376285
  0
LINE
  8
ボルト／ビス
  6
DOT
 62
    64
 10
-92.48378
 20
-58.254625
 11
-92.48378
 21
-58.376285
  0
LINE
  8
ボルト／ビス
  6
DOT
 62
    64
 10
-92.580005
 20
-58.254625
 11
-92.580005
 21
-58.376285
  0
LINE
  8
ボルト／ビス
  6
DOT
 10
-92.48378
 20
-58.376285
 11
-92.86868
 21
-58.376285
  0
LINE
  8
ボルト／ビス
  6
DOT
 10
-92.47623
 20
-58.376285
 11
-92.47623
 21
-58.44295
  0
LINE
  8
ボルト／ビス
  6
DOT
 10
-92.47623
 20
-58.376285
 11
-92.87623
 21
-58.376285
  0
LINE
  8
ボルト／ビス
  6
DOT
 10
-92.87623
 20
-58.376285
 11
-92.87623
 21
-58.44295
  0
ENDBLK
  0
BLOCK
  2
*DIM_0036
 70
    65
 10
0.0
 20
0.0
  0
LINE
  8
寸法
  6
BYBLOCK
 62
     0
 10
45.990438
 20
-50.209613
 11
73.960088
 21
-50.209613
  0
LINE
  8
寸法
  6
BYBLOCK
 62
     0
 10
73.960088
 20
-61.87628
 11
73.960088
 21
-50.209613
  0
POINT
  8
寸法
 62
     0
 10
73.960088
 20
-61.87628
  0
POINT
  8
寸法
 62
     0
 10
73.960088
 20
-50.209613
  0
TEXT
  7
TextStyle03
  8
寸法
  6
CONTINUOUS
 62
     0
 10
73.4
 20
-48.9625
  1
上昇高さ350
 40
3.0
 50
90.0
 72
     5
 11
73.4
 21
-30.5875
  0
ENDBLK
  0
ENDSEC
  0
SECTION
  2
ENTITIES
  0
POLYLINE
  8
通り芯
  6
CONTINUOUS
 66
     1
 70
     1
  0
VERTEX
  8
通り芯
 10
-210.0
 20
-148.5
  0
VERTEX
  8
通り芯
 10
210.0
 20
-148.5
  0
VERTEX
  8
通り芯
 10
210.0
 20
148.5
  0
VERTEX
  8
通り芯
 10
-210.0
 20
148.5
  0
SEQEND
  0
INSERT
  2
*GRP_0001
  8
型材断面
  6
CONTINUOUS
 10
0.0
 20
0.0
  0
LINE
  8
型材断面
  6
DASHDOT
 10
57.990438
 20
-77.836442
 11
57.990438
 21
52.814033
  0
LINE
  8
型材断面
  6
DASHDOT
 10
-17.009562
 20
-77.836442
 11
-17.009562
 21
52.814033
  0
LINE
  8
型材断面
  6
DASHDOT
 10
-92.009562
 20
-77.836442
 11
-92.009562
 21
52.814033
  0
POLYLINE
  8
型材断面
  6
CONTINUOUS
 66
     1
 70
     1
  0
VERTEX
  8
型材断面
 10
-7.508612
 20
13.03811
  0
VERTEX
  8
型材断面
 10
-26.280542
 20
13.03811
  0
VERTEX
  8
型材断面
 10
-26.280542
 20
8.301267
  0
VERTEX
  8
型材断面
 10
-7.508612
 20
8.301267
  0
SEQEND
  0
POLYLINE
  8
型材断面
  6
CONTINUOUS
 66
     1
 70
     1
  0
VERTEX
  8
型材断面
 10
-7.508612
 20
62.589955
  0
VERTEX
  8
型材断面
 10
-26.280542
 20
62.589955
  0
VERTEX
  8
型材断面
 10
-26.280542
 20
67.326798
  0
VERTEX
  8
型材断面
 10
-7.508612
 20
67.326798
  0
SEQEND
  0
LINE
  8
型材断面
  6
DASHDOT
 10
155.6672
 20
52.814033
 11
-92.009562
 21
52.814033
  0
LINE
  8
型材断面
  6
DASHDOT
 10
155.6672
 20
37.814033
 11
-92.009562
 21
37.814033
  0
LINE
  8
型材断面
  6
DASHDOT
 10
155.6672
 20
22.814033
 11
-92.009562
 21
22.814033
  0
LINE
  8
型材断面
  6
DOT
 10
-53.359562
 20
22.814033
 11
-53.359562
 21
52.814033
  0
LINE
  8
型材断面
  6
DOT
 10
-55.859562
 20
22.814033
 11
-55.859562
 21
52.814033
  0
LINE
  8
型材断面
  6
DASHDOT
 10
-54.609562
 20
22.814033
 11
-54.609562
 21
52.814033
  0
LINE
  8
型材断面
  6
DOT
 10
-15.759562
 20
22.814033
 11
-15.759562
 21
52.814033
  0
LINE
  8
型材断面
  6
DOT
 10
-18.259562
 20
22.814033
 11
-18.259562
 21
52.814033
  0
LINE
  8
型材断面
  6
DASHDOT
 10
-17.009562
 20
22.814033
 11
-17.009562
 21
52.814033
  0
LINE
  8
型材断面
  6
DOT
 10
19.340438
 20
22.814033
 11
19.340438
 21
52.814033
  0
LINE
  8
型材断面
  6
DOT
 10
21.840438
 20
22.814033
 11
21.840438
 21
52.814033
  0
LINE
  8
型材断面
  6
DASHDOT
 10
20.590438
 20
22.814033
 11
20.590438
 21
52.814033
  0
LINE
  8
型材断面
  6
CONTINUOUS
 10
-75.342895
 20
55.444162
 11
-76.838525
 21
58.03467
  0
LINE
  8
型材断面
  6
CONTINUOUS
 10
-75.342895
 20
55.444162
 11
-73.847265
 21
58.03467
  0
LINE
  8
型材断面
  6
CONTINUOUS
 10
-73.847265
 20
58.03467
 11
-76.838525
 21
58.03467
  0
LINE
  8
型材断面
  6
CONTINUOUS
 10
-132.86177
 20
90.791505
 11
-132.265715
 21
88.200998
  0
LINE
  8
型材断面
  6
CONTINUOUS
 10
-132.86177
 20
90.791505
 11
-133.457827
 21
88.200998
  0
LINE
  8
型材断面
  6
CONTINUOUS
 10
-133.457827
 20
88.200998
 11
-132.265715
 21
88.200998
  0
LINE
  8
型材断面
  6
CONTINUOUS
 10
-138.884357
 20
84.922105
 11
-92.64258
 21
84.922105
  0
LINE
  8
型材断面
  6
CONTINUOUS
 10
-132.86177
 20
97.32138
 11
-134.3574
 21
94.730873
  0
LINE
  8
型材断面
  6
CONTINUOUS
 10
-132.86177
 20
97.32138
 11
-131.36614
 21
94.730873
  0
LINE
  8
型材断面
  6
CONTINUOUS
 10
-131.36614
 20
94.730873
 11
-134.3574
 21
94.730873
  0
LINE
  8
型材断面
  6
CONTINUOUS
 10
-138.884357
 20
93.792277
 11
-92.64258
 21
93.792277
  0
LINE
  8
型材断面
  6
CONTINUOUS
 10
-138.884357
 20
79.134073
 11
-92.64258
 21
79.134073
  0
LINE
  8
型材断面
  6
CONTINUOUS
 10
-94.639692
 20
37.814033
 11
-97.2302
 21
39.309663
  0
LINE
  8
型材断面
  6
CONTINUOUS
 10
-94.639692
 20
37.814033
 11
-97.2302
 21
36.318403
  0
LINE
  8
型材断面
  6
CONTINUOUS
 10
-97.2302
 20
36.318403
 11
-97.2302
 21
39.309663
  0
LINE
  8
型材断面
  6
CONTINUOUS
 10
-75.342895
 20
20.183902
 11
-76.838525
 21
17.593395
  0
LINE
  8
型材断面
  6
CONTINUOUS
 10
-75.342895
 20
20.183902
 11
-73.847265
 21
17.593395
  0
LINE
  8
型材断面
  6
CONTINUOUS
 10
-73.847265
 20
17.593395
 11
-76.838525
 21
17.593395
  0
LINE
  8
型材断面
  6
CONTINUOUS
 10
41.32377
 20
55.444162
 11
42.8194
 21
58.03467
  0
LINE
  8
型材断面
  6
CONTINUOUS
 10
41.32377
 20
55.444162
 11
39.82814
 21
58.03467
  0
LINE
  8
型材断面
  6
CONTINUOUS
 10
39.82814
 20
58.03467
 11
42.8194
 21
58.03467
  0
LINE
  8
型材断面
  6
CONTINUOUS
 10
60.620567
 20
37.814033
 11
63.211075
 21
39.309663
  0
LINE
  8
型材断面
  6
CONTINUOUS
 10
60.620567
 20
37.814033
 11
63.211075
 21
36.318403
  0
LINE
  8
型材断面
  6
CONTINUOUS
 10
63.211075
 20
36.318403
 11
63.211075
 21
39.309663
  0
LINE
  8
型材断面
  6
CONTINUOUS
 10
41.32377
 20
20.183902
 11
42.8194
 21
17.593395
  0
LINE
  8
型材断面
  6
CONTINUOUS
 10
41.32377
 20
20.183902
 11
39.82814
 21
17.593395
  0
LINE
  8
型材断面
  6
CONTINUOUS
 10
39.82814
 20
17.593395
 11
42.8194
 21
17.593395
  0
LINE
  8
型材断面
  6
CONTINUOUS
 10
-17.009562
 20
55.44416
 11
-15.513933
 21
58.034668
  0
LINE
  8
型材断面
  6
CONTINUOUS
 10
-17.009562
 20
55.44416
 11
-18.505192
 21
58.034668
  0
LINE
  8
型材断面
  6
CONTINUOUS
 10
-18.505192
 20
58.034668
 11
-15.513933
 21
58.034668
  0
LINE
  8
型材断面
  6
CONTINUOUS
 10
-17.009562
 20
20.1839
 11
-15.513933
 21
17.593392
  0
LINE
  8
型材断面
  6
CONTINUOUS
 10
-17.009562
 20
20.1839
 11
-18.505192
 21
17.593392
  0
LINE
  8
型材断面
  6
CONTINUOUS
 10
-18.505192
 20
17.593392
 11
-15.513933
 21
17.593392
  0
LINE
  8
型材断面
  6
CONTINUOUS
 10
60.620567
 20
49.114035
 11
63.211077
 21
48.517982
  0
LINE
  8
型材断面
  6
CONTINUOUS
 10
60.620567
 20
49.114035
 11
63.211075
 21
49.710095
  0
LINE
  8
型材断面
  6
CONTINUOUS
 10
63.211075
 20
49.710095
 11
63.211077
 21
48.517982
  0
LINE
  8
型材断面
  6
CONTINUOUS
 10
60.620567
 20
26.51403
 11
63.211077
 21
27.110082
  0
LINE
  8
型材断面
  6
CONTINUOUS
 10
60.620567
 20
26.51403
 11
63.211075
 21
25.91797
  0
LINE
  8
型材断面
  6
CONTINUOUS
 10
63.211075
 20
25.91797
 11
63.211077
 21
27.110082
  0
LINE
  8
型材断面
  6
CONTINUOUS
 10
-94.639692
 20
49.114035
 11
-97.230202
 21
48.517982
  0
LINE
  8
型材断面
  6
CONTINUOUS
 10
-94.639692
 20
49.114035
 11
-97.2302
 21
49.710095
  0
LINE
  8
型材断面
  6
CONTINUOUS
 10
-97.2302
 20
49.710095
 11
-97.230202
 21
48.517982
  0
LINE
  8
型材断面
  6
CONTINUOUS
 10
-94.639692
 20
26.51403
 11
-97.230202
 21
27.110082
  0
LINE
  8
型材断面
  6
CONTINUOUS
 10
-94.639692
 20
26.51403
 11
-97.2302
 21
25.91797
  0
LINE
  8
型材断面
  6
CONTINUOUS
 10
-97.2302
 20
25.91797
 11
-97.230202
 21
27.110082
  0
INSERT
  2
*GRP_0013
  8
型材断面
  6
CONTINUOUS
 10
0.0
 20
0.0
  0
INSERT
  2
*GRP_0014
  8
型材断面
  6
CONTINUOUS
 10
0.0
 20
0.0
  0
INSERT
  2
*GRP_0015
  8
型材断面
  6
CONTINUOUS
 10
0.0
 20
0.0
  0
INSERT
  2
*GRP_0016
  8
型材断面
  6
CONTINUOUS
 10
0.0
 20
0.0
  0
LINE
  8
型材断面
  6
CONTINUOUS
 62
    47
 10
155.057205
 20
21.3307
 11
154.557205
 21
21.3307
  0
LINE
  8
型材断面
  6
CONTINUOUS
 62
    47
 10
154.557205
 20
20.8307
 11
151.240538
 21
20.8307
  0
LINE
  8
型材断面
  6
CONTINUOUS
 62
    47
 10
148.900488
 20
20.8307
 11
151.07382
 21
20.8307
  0
LINE
  8
型材断面
  6
CONTINUOUS
 62
    47
 10
148.900488
 20
21.714033
 11
148.523703
 21
21.714033
  0
LINE
  8
型材断面
  6
CONTINUOUS
 62
    47
 10
148.900488
 20
20.8307
 11
148.900488
 21
37.814033
  0
LINE
  8
型材断面
  6
CONTINUOUS
 62
    47
 10
151.240538
 20
20.8307
 11
151.240505
 21
37.814033
  0
LINE
  8
型材断面
  6
CONTINUOUS
 62
    47
 10
154.557205
 20
20.8307
 11
154.557205
 21
37.814033
  0
LINE
  8
型材断面
  6
CONTINUOUS
 62
    47
 10
155.057205
 20
21.3307
 11
155.057205
 21
37.814033
  0
LINE
  8
型材断面
  6
CONTINUOUS
 62
    47
 10
151.07382
 20
20.8307
 11
151.07382
 21
37.814033
  0
LINE
  8
型材断面
  6
CONTINUOUS
 62
    47
 10
155.057205
 20
54.297367
 11
154.557205
 21
54.297367
  0
LINE
  8
型材断面
  6
CONTINUOUS
 62
    47
 10
154.557205
 20
54.797367
 11
151.240538
 21
54.797367
  0
LINE
  8
型材断面
  6
CONTINUOUS
 62
    47
 10
148.900488
 20
54.797367
 11
151.07382
 21
54.797367
  0
LINE
  8
型材断面
  6
CONTINUOUS
 62
    47
 10
148.900488
 20
53.914033
 11
148.523703
 21
53.914033
  0
LINE
  8
型材断面
  6
CONTINUOUS
 62
    47
 10
148.900488
 20
54.797367
 11
148.900488
 21
37.814033
  0
LINE
  8
型材断面
  6
CONTINUOUS
 62
    47
 10
151.240538
 20
54.797367
 11
151.240505
 21
37.814033
  0
LINE
  8
型材断面
  6
CONTINUOUS
 62
    47
 10
154.557205
 20
54.797367
 11
154.557205
 21
37.814033
  0
LINE
  8
型材断面
  6
CONTINUOUS
 62
    47
 10
155.057205
 20
54.297367
 11
155.057205
 21
37.814033
  0
LINE
  8
型材断面
  6
CONTINUOUS
 62
    47
 10
151.07382
 20
54.797367
 11
151.07382
 21
37.814033
  0
LINE
  8
型材断面
  6
CONTINUOUS
 62
    47
 10
-93.492897
 20
-77.743115
 11
-93.492897
 21
-77.243115
  0
LINE
  8
型材断面
  6
CONTINUOUS
 62
    47
 10
-93.992897
 20
-77.243115
 11
-93.992897
 21
-73.926447
  0
LINE
  8
型材断面
  6
CONTINUOUS
 62
    47
 10
-93.992897
 20
-71.586398
 11
-93.992897
 21
-73.75973
  0
LINE
  8
型材断面
  6
CONTINUOUS
 62
    47
 10
-93.109565
 20
-71.586398
 11
-93.109565
 21
-71.209613
  0
LINE
  8
型材断面
  6
CONTINUOUS
 62
    47
 10
-93.492897
 20
-77.743115
 11
-17.009562
 21
-77.743115
  0
LINE
  8
型材断面
  6
CONTINUOUS
 62
    47
 10
-93.992897
 20
-77.243115
 11
-17.009562
 21
-77.243115
  0
LINE
  8
型材断面
  6
CONTINUOUS
 62
    47
 10
-93.992897
 20
-73.926447
 11
-17.009562
 21
-73.926303
  0
LINE
  8
型材断面
  6
CONTINUOUS
 62
    47
 10
-93.992897
 20
-73.75973
 11
-17.009562
 21
-73.75973
  0
LINE
  8
型材断面
  6
CONTINUOUS
 62
    47
 10
-93.992897
 20
-71.586398
 11
-17.009562
 21
-71.586398
  0
LINE
  8
型材断面
  6
CONTINUOUS
 62
    47
 10
59.473773
 20
-77.743115
 11
59.473773
 21
-77.243115
  0
LINE
  8
型材断面
  6
CONTINUOUS
 62
    47
 10
59.973773
 20
-77.243115
 11
59.973773
 21
-73.926447
  0
LINE
  8
型材断面
  6
CONTINUOUS
 62
    47
 10
59.973773
 20
-71.586398
 11
59.973773
 21
-73.75973
  0
LINE
  8
型材断面
  6
CONTINUOUS
 62
    47
 10
59.09044
 20
-71.586398
 11
59.09044
 21
-71.209613
  0
LINE
  8
型材断面
  6
CONTINUOUS
 62
    47
 10
59.473773
 20
-77.743115
 11
-17.009562
 21
-77.743115
  0
LINE
  8
型材断面
  6
CONTINUOUS
 62
    47
 10
59.973773
 20
-77.243115
 11
-17.009562
 21
-77.243115
  0
LINE
  8
型材断面
  6
CONTINUOUS
 62
    47
 10
59.973773
 20
-73.926447
 11
-17.009562
 21
-73.926303
  0
LINE
  8
型材断面
  6
CONTINUOUS
 62
    47
 10
59.973773
 20
-73.75973
 11
-17.009562
 21
-73.75973
  0
LINE
  8
型材断面
  6
CONTINUOUS
 62
    47
 10
59.973773
 20
-71.586398
 11
-17.009562
 21
-71.586398
  0
LINE
  8
型材断面
  6
CONTINUOUS
 10
-138.884357
 20
73.34604
 11
-92.64258
 21
73.34604
  0
TEXT
  7
TextStyle03
  8
文字
  6
CONTINUOUS
 10
134.525
 20
-76.7
  1
網入り6.8t
 40
3.0
 72
     5
 11
151.2125
 21
-76.7
  0
TEXT
  7
TextStyle03
  8
文字
  6
CONTINUOUS
 10
-25.2
 20
9.325
  1
可動装置側
 40
3.0
 72
     5
 11
-8.7
 21
9.325
  0
TEXT
  7
TextStyle03
  8
文字
  6
CONTINUOUS
 10
-25.2
 20
63.275
  1
可動装置側
 40
3.0
 72
     5
 11
-8.7
 21
63.275
  0
TEXT
  7
TextStyle03
  8
文字
  6
CONTINUOUS
 10
141.2
 20
-81.375
  1
×４枚
 40
3.0
 72
     5
 11
150.95
 21
-81.375
  0
TEXT
  7
TextStyle03
  8
文字
  6
CONTINUOUS
 10
-130.075
 20
89.4
  1
はケーシング位置を示す
 40
3.0
 72
     5
 11
-93.325
 21
89.4
  0
TEXT
  7
TextStyle03
  8
文字
  6
CONTINUOUS
 10
-130.075
 20
86.025
  1
４ヶ所中1ヶ所に設定
 40
3.0
 72
     5
 11
-98.3875
 21
86.025
  0
TEXT
  7
TextStyle03
  8
文字
  6
CONTINUOUS
 10
-130.075
 20
94.925
  1
は排水穴位置を示す
 40
3.0
 72
     5
 11
-100.075
 21
94.925
  0
TEXT
  7
TextStyle03
  8
文字
  6
CONTINUOUS
 10
-113.0
 20
16.275
  1
アンカーピッチ
 40
3.0
 50
90.0
 72
     5
 11
-113.0
 21
39.525
  0
TEXT
  7
TextStyle03
  8
文字
  6
CONTINUOUS
 10
-77.075
 20
89.9
  1
アンカーピッチ
 40
3.0
 72
     5
 11
-53.825
 21
89.9
  0
TEXT
  7
TextStyle03
  8
文字
  6
CONTINUOUS
 10
-133.8
 20
80.05
  1
アンカー数量　１６ヶ所
 40
3.0
 72
     5
 11
-97.05
 21
80.05
  0
TEXT
  7
TextStyle03
  8
文字
  6
CONTINUOUS
 10
-133.85
 20
74.3
  1
アームユニット数　４ヶ所
 40
3.0
 72
     5
 11
-93.725
 21
74.3
  0
TEXT
  7
TextStyle03
  8
文字
  6
CONTINUOUS
 10
78.1
 20
125.25
  1
シリーズ：ＴＤ２Ｌ
 40
5.0
 72
     5
 11
128.1
 21
125.25
  0
TEXT
  7
TextStyle03
  8
文字
  6
CONTINUOUS
 10
78.1
 20
119.625
  1
　　　　　（上下可動）900×4500タイプ
 40
5.0
 72
     5
 11
181.5375
 21
119.625
  0
TEXT
  7
TextStyle03
  8
文字
  6
CONTINUOUS
 10
78.1
 20
114.0
  1
図面名　：外観姿図
 40
5.0
 72
     5
 11
128.1
 21
114.0
  0
TEXT
  7
TextStyle03
  8
文字
  6
CONTINUOUS
 10
78.1
 20
108.375
  1
　　　　　　
 40
5.0
 72
     5
 11
111.225
 21
108.375
  0
TEXT
  7
TextStyle03
  8
文字
  6
CONTINUOUS
 10
77.125
 20
103.95
  1
ＮＳコード：ＮＳＤＺＬ
 40
5.0
 72
     5
 11
138.375
 21
103.95
  0
INSERT
  2
*DIM_0002
  8
寸法
  6
CONTINUOUS
 10
0.0
 20
0.0
  0
INSERT
  2
*DIM_0003
  8
寸法
  6
CONTINUOUS
 10
0.0
 20
0.0
  0
INSERT
  2
*DIM_0004
  8
寸法
  6
CONTINUOUS
 10
0.0
 20
0.0
  0
INSERT
  2
*DIM_0005
  8
寸法
  6
CONTINUOUS
 10
0.0
 20
0.0
  0
INSERT
  2
*DIM_0006
  8
寸法
  6
CONTINUOUS
 10
0.0
 20
0.0
  0
INSERT
  2
*DIM_0007
  8
寸法
  6
CONTINUOUS
 10
0.0
 20
0.0
  0
INSERT
  2
*DIM_0008
  8
寸法
  6
CONTINUOUS
 10
0.0
 20
0.0
  0
INSERT
  2
*DIM_0009
  8
寸法
  6
CONTINUOUS
 10
0.0
 20
0.0
  0
INSERT
  2
*DIM_0010
  8
寸法
  6
CONTINUOUS
 10
0.0
 20
0.0
  0
INSERT
  2
*DIM_0011
  8
寸法
  6
CONTINUOUS
 10
0.0
 20
0.0
  0
INSERT
  2
*DIM_0017
  8
寸法
  6
CONTINUOUS
 10
0.0
 20
0.0
  0
INSERT
  2
*DIM_0018
  8
寸法
  6
CONTINUOUS
 10
0.0
 20
0.0
  0
INSERT
  2
*DIM_0019
  8
寸法
  6
CONTINUOUS
 10
0.0
 20
0.0
  0
INSERT
  2
*DIM_0020
  8
寸法
  6
CONTINUOUS
 10
0.0
 20
0.0
  0
INSERT
  2
*DIM_0021
  8
寸法
  6
CONTINUOUS
 10
0.0
 20
0.0
  0
INSERT
  2
*DIM_0022
  8
寸法
  6
CONTINUOUS
 10
0.0
 20
0.0
  0
INSERT
  2
*DIM_0023
  8
寸法
  6
CONTINUOUS
 10
0.0
 20
0.0
  0
INSERT
  2
*DIM_0024
  8
寸法
  6
CONTINUOUS
 10
0.0
 20
0.0
  0
INSERT
  2
*DIM_0025
  8
寸法
  6
CONTINUOUS
 10
0.0
 20
0.0
  0
INSERT
  2
*DIM_0026
  8
寸法
  6
CONTINUOUS
 10
0.0
 20
0.0
  0
INSERT
  2
*DIM_0027
  8
寸法
  6
CONTINUOUS
 10
0.0
 20
0.0
  0
INSERT
  2
*DIM_0028
  8
寸法
  6
CONTINUOUS
 10
0.0
 20
0.0
  0
INSERT
  2
*DIM_0036
  8
寸法
  6
CONTINUOUS
 10
0.0
 20
0.0
  0
LINE
  8
別途部材
  6
CONTINUOUS
 10
60.057105
 20
20.747365
 11
59.657105
 21
21.147365
  0
LINE
  8
別途部材
  6
CONTINUOUS
 10
57.990438
 20
22.814033
 11
49.931183
 21
30.87329
  0
LINE
  8
別途部材
  6
CONTINUOUS
 62
    96
 10
147.523703
 20
21.147365
 11
148.523703
 21
20.747365
  0
LINE
  8
別途部材
  6
CONTINUOUS
 10
59.657105
 20
21.147365
 11
59.657105
 21
37.814033
  0
LINE
  8
別途部材
  6
CONTINUOUS
 10
60.057105
 20
20.747365
 11
60.057105
 21
37.814033
  0
LINE
  8
別途部材
  6
CONTINUOUS
 10
60.057105
 20
54.8807
 11
59.657105
 21
54.4807
  0
LINE
  8
別途部材
  6
CONTINUOUS
 10
57.990438
 20
52.814033
 11
49.931183
 21
44.754775
  0
LINE
  8
別途部材
  6
CONTINUOUS
 10
59.657105
 20
54.4807
 11
59.657105
 21
37.814033
  0
LINE
  8
別途部材
  6
CONTINUOUS
 10
60.057105
 20
54.8807
 11
60.057105
 21
37.814033
  0
LINE
  8
別途部材
  6
CONTINUOUS
 62
    96
 10
147.523703
 20
21.147365
 11
147.523703
 21
37.814033
  0
LINE
  8
別途部材
  6
CONTINUOUS
 10
148.523703
 20
20.747365
 11
148.523703
 21
37.814033
  0
LINE
  8
別途部材
  6
CONTINUOUS
 62
    96
 10
147.523703
 20
54.4807
 11
148.523703
 21
54.8807
  0
LINE
  8
別途部材
  6
CONTINUOUS
 62
    96
 10
147.523703
 20
54.4807
 11
147.523703
 21
37.814033
  0
LINE
  8
別途部材
  6
CONTINUOUS
 10
148.523703
 20
54.8807
 11
148.523703
 21
37.814033
  0
ARC
  8
別途部材
  6
CONTINUOUS
 10
156.857037
 20
37.814033
 40
17.666667
 50
121.890796
 51
238.109204
  0
LINE
  8
別途部材
  6
CONTINUOUS
 10
59.657105
 20
54.4807
 11
-17.009562
 21
54.4807
  0
LINE
  8
別途部材
  6
CONTINUOUS
 10
60.057105
 20
54.8807
 11
-17.009562
 21
54.8807
  0
LINE
  8
別途部材
  6
CONTINUOUS
 10
60.057105
 20
20.747365
 11
-17.009562
 21
20.747365
  0
LINE
  8
別途部材
  6
CONTINUOUS
 10
59.657105
 20
21.147365
 11
-17.009562
 21
21.147365
  0
LINE
  8
別途部材
  6
CONTINUOUS
 10
-94.07623
 20
20.747365
 11
-93.67623
 21
21.147365
  0
LINE
  8
別途部材
  6
CONTINUOUS
 10
-92.009562
 20
22.814033
 11
-83.950307
 21
30.87329
  0
LINE
  8
別途部材
  6
CONTINUOUS
 10
-93.67623
 20
21.147365
 11
-93.67623
 21
37.814033
  0
LINE
  8
別途部材
  6
CONTINUOUS
 10
-94.07623
 20
20.747365
 11
-94.07623
 21
37.814033
  0
LINE
  8
別途部材
  6
CONTINUOUS
 10
-94.07623
 20
54.8807
 11
-93.67623
 21
54.4807
  0
LINE
  8
別途部材
  6
CONTINUOUS
 10
-92.009562
 20
52.814033
 11
-83.950307
 21
44.754775
  0
LINE
  8
別途部材
  6
CONTINUOUS
 10
-93.67623
 20
54.4807
 11
-93.67623
 21
37.814033
  0
LINE
  8
別途部材
  6
CONTINUOUS
 10
-94.07623
 20
54.8807
 11
-94.07623
 21
37.814033
  0
LINE
  8
別途部材
  6
CONTINUOUS
 10
-93.67623
 20
54.4807
 11
-17.009562
 21
54.4807
  0
LINE
  8
別途部材
  6
CONTINUOUS
 10
-94.07623
 20
54.8807
 11
-17.009562
 21
54.8807
  0
LINE
  8
別途部材
  6
CONTINUOUS
 10
-94.07623
 20
20.747365
 11
-17.009562
 21
20.747365
  0
LINE
  8
別途部材
  6
CONTINUOUS
 10
-93.67623
 20
21.147365
 11
-17.009562
 21
21.147365
  0
LINE
  8
別途部材
  6
DOT
 62
    96
 10
59.657105
 20
-58.542945
 11
60.057105
 21
-59.542945
  0
ARC
  8
別途部材
  6
DOT
 10
42.990437
 20
-67.876279
 40
17.666667
 50
31.890796
 51
90.0
  0
LINE
  8
別途部材
  6
DOT
 10
42.990438
 20
-50.209613
 11
-17.009562
 21
-50.209613
  0
LINE
  8
別途部材
  6
DOT
 62
    96
 10
59.657105
 20
-58.542945
 11
-17.009562
 21
-58.542945
  0
LINE
  8
別途部材
  6
DOT
 10
60.057105
 20
-59.542945
 11
-17.009562
 21
-59.542945
  0
LINE
  8
別途部材
  6
DOT
 62
    96
 10
-93.67623
 20
-58.542945
 11
-94.07623
 21
-59.542945
  0
ARC
  8
別途部材
  6
DOT
 10
-77.009562
 20
-67.876279
 40
17.666667
 50
90.0
 51
148.109204
  0
LINE
  8
別途部材
  6
DOT
 10
-77.009562
 20
-50.209613
 11
-17.009562
 21
-50.209613
  0
LINE
  8
別途部材
  6
DOT
 62
    96
 10
-93.67623
 20
-58.542945
 11
-17.009562
 21
-58.542945
  0
LINE
  8
別途部材
  6
DOT
 10
-94.07623
 20
-59.542945
 11
-17.009562
 21
-59.542945
  0
INSERT
  2
*GRP_0012
  8
別途部材
  6
CONTINUOUS
 10
0.0
 20
0.0
  0
INSERT
  2
*GRP_0030
  8
別途部材
  6
DOT
 10
0.0
 20
0.0
  0
INSERT
  2
*GRP_0031
  8
別途部材
  6
DOT
 10
0.0
 20
0.0
  0
INSERT
  2
*GRP_0032
  8
別途部材
  6
DOT
 10
0.0
 20
0.0
  0
INSERT
  2
*GRP_0033
  8
別途部材
  6
DOT
 10
0.0
 20
0.0
  0
INSERT
  2
*GRP_0034
  8
別途部材
  6
DOT
 10
0.0
 20
0.0
  0
INSERT
  2
*GRP_0035
  8
別途部材
  6
DOT
 10
0.0
 20
0.0
  0
LINE
  8
曲げ物
  6
CONTINUOUS
 10
153.076993
 20
-83.118728
 11
153.076993
 21
-53.785395
  0
LINE
  8
曲げ物
  6
CONTINUOUS
 10
116.54366
 20
-83.118728
 11
116.54366
 21
-53.785395
  0
LINE
  8
曲げ物
  6
CONTINUOUS
 10
153.076993
 20
-53.785395
 11
116.54366
 21
-53.785395
  0
LINE
  8
曲げ物
  6
CONTINUOUS
 10
153.076993
 20
-83.118728
 11
116.54366
 21
-83.118728
  0
ENDSEC
  0
EOF
