  0
SECTION
  2
HEADER
  9
$EXTMIN
 10
-210.0
 20
-148.5
  9
$EXTMAX
 10
210.0
 20
148.5
  9
$PDMODE
 70
    32
  9
$PDSIZE
 40
1.5
  9
$LTSCALE
 40
10.0
  0
ENDSEC
  0
SECTION
  2
TABLES
  0
TABLE
  2
LTYPE
 70
    15
  0
LTYPE
  2
CONTINUOUS
 70
    64
  3
実線
 72
    65
 73
     0
 40
0.0
  0
LTYPE
  2
DASHED
 70
    64
  3
破線A
 72
    65
 73
     2
 40
0.6
 49
0.4
 49
-0.2
  0
LTYPE
  2
DASHEDX2
 70
    64
  3
破線B
 72
    65
 73
     2
 40
1.3
 49
0.9
 49
-0.4
  0
LTYPE
  2
DASHDOT
 70
    64
  3
１点鎖線A
 72
    65
 73
     4
 40
0.5375
 49
0.375
 49
-0.05
 49
0.0625
 49
-0.05
  0
LTYPE
  2
DASHDOTX2
 70
    64
  3
１点鎖線B
 72
    65
 73
     4
 40
1.075
 49
0.75
 49
-0.1
 49
0.125
 49
-0.1
  0
LTYPE
  2
DIVIDE2
 70
    64
  3
２点鎖線A
 72
    65
 73
     6
 40
0.5125
 49
0.3
 49
-0.0375
 49
0.05
 49
-0.0375
 49
0.05
 49
-0.0375
  0
LTYPE
  2
DIVIDE
 70
    64
  3
２点鎖線B
 72
    65
 73
     6
 40
1.05
 49
0.55
 49
-0.1
 49
0.1
 49
-0.1
 49
0.1
 49
-0.1
  0
LTYPE
  2
DOT
 70
    64
  3
点線A
 72
    65
 73
     2
 40
0.1125
 49
0.0625
 49
-0.05
  0
LTYPE
  2
DOTX2
 70
    64
  3
点線B
 72
    65
 73
     2
 40
0.275
 49
0.15
 49
-0.125
  0
LTYPE
  2
CONTINUOUS
 70
    64
  3
実線
 72
    65
 73
     0
 40
0.0
  0
LTYPE
  2
CONTINUOUS
 70
    64
  3
実線
 72
    65
 73
     0
 40
0.0
  0
LTYPE
  2
CONTINUOUS
 70
    64
  3
実線
 72
    65
 73
     0
 40
0.0
  0
LTYPE
  2
CONTINUOUS
 70
    64
  3
実線
 72
    65
 73
     0
 40
0.0
  0
LTYPE
  2
CONTINUOUS
 70
    64
  3
実線
 72
    65
 73
     0
 40
0.0
  0
LTYPE
  2
CONTINUOUS
 70
    64
  3
実線
 72
    65
 73
     0
 40
0.0
  0
ENDTAB
  0
TABLE
  2
LAYER
 70
    34
  0
LAYER
  2
通り芯
 70
     0
 62
    15
  6
CONTINUOUS
  0
LAYER
  2
補助線
 70
     0
 62
    16
  6
DOT
  0
LAYER
  2
躯体
 70
     0
 62
    31
  6
CONTINUOUS
  0
LAYER
  2
型材
 70
     0
 62
    32
  6
CONTINUOUS
  0
LAYER
  2
型材断面
 70
     0
 62
    47
  6
CONTINUOUS
  0
LAYER
  2
ガラス
 70
     0
 62
    48
  6
CONTINUOUS
  0
LAYER
  2
ゴム等
 70
     0
 62
    63
  6
CONTINUOUS
  0
LAYER
  2
ボルト／ビス
 70
     0
 62
    64
  6
CONTINUOUS
  0
LAYER
  2
文字
 70
     0
 62
    79
  6
CONTINUOUS
  0
LAYER
  2
寸法
 70
     0
 62
    80
  6
CONTINUOUS
  0
LAYER
  2
ﾊｯﾁﾝｸﾞ
 70
     0
 62
    95
  6
CONTINUOUS
  0
LAYER
  2
別途部材
 70
     0
 62
    96
  6
CONTINUOUS
  0
LAYER
  2
曲げ物
 70
     0
 62
   111
  6
CONTINUOUS
  0
LAYER
  2
鉄骨等
 70
     0
 62
   112
  6
CONTINUOUS
  0
LAYER
  2
St
 70
     0
 62
   127
  6
CONTINUOUS
  0
LAYER
  2
その他部品等
 70
     0
 62
   128
  6
CONTINUOUS
  0
LAYER
  2
ｶﾞｽｹｯﾄ
 70
     0
 62
   143
  6
CONTINUOUS
  0
LAYER
  2
ｽｹｯﾁ
 70
     0
 62
    14
  6
CONTINUOUS
  0
LAYER
  2
0
 70
     0
 62
    17
  6
CONTINUOUS
  0
LAYER
  2
1
 70
     0
 62
    30
  6
CONTINUOUS
  0
LAYER
  2
4
 70
     0
 62
    33
  6
CONTINUOUS
  0
LAYER
  2
ﾚｲﾔ3
 70
     0
 62
    46
  6
CONTINUOUS
  0
LAYER
  2
外形線
 70
     0
 62
    49
  6
CONTINUOUS
  0
LAYER
  2
部品
 70
     0
 62
    14
  6
CONTINUOUS
  0
LAYER
  2
サッシ芯
 70
     0
 62
    17
  6
DASHDOTX2
  0
LAYER
  2
寸法線
 70
     0
 62
    62
  6
CONTINUOUS
  0
LAYER
  2
姿図外形線
 70
     0
 62
    65
  6
CONTINUOUS
  0
LAYER
  2
姿補助線
 70
     0
 62
    30
  6
CONTINUOUS
  0
LAYER
  2
透視線
 70
     0
 62
    78
  6
DOT
  0
LAYER
  2
用紙
 70
     0
 62
    81
  6
CONTINUOUS
  0
LAYER
  2
実線図枠
 70
     0
 62
    94
  6
CONTINUOUS
  0
LAYER
  2
補助図枠
 70
     0
 62
    97
  6
CONTINUOUS
  0
LAYER
  2
建具記号
 70
     0
 62
   110
  6
CONTINUOUS
  0
LAYER
  2
補助文字
 70
     0
 62
   113
  6
CONTINUOUS
  0
ENDTAB
  0
TABLE
  2
STYLE
 70
    10
  0
STYLE
  2
STANDARD
 70
     0
 40
1.0
 41
1.0
 42
1.0
 50
0.0
 71
     0
  3
TXT
  4
BIGFONT
  0
STYLE
  2
TATE
 70
     4
 40
1.0
 41
1.0
 42
1.0
 50
0.0
 71
     0
  3
TXT
  4
BIGFONT
  0
STYLE
  2
TextStyle03
 70
     0
 40
1.0
 41
1.0
 42
1.0
 50
0.0
 71
     0
  3
MONOTXT
  4
BIGFONT
  0
STYLE
  2
TextStyle04
 70
     0
 40
1.0
 41
1.0
 42
1.0
 50
0.0
 71
     0
  3
MONOTXT
  4
BIGFONT
  0
STYLE
  2
TextStyle05
 70
     0
 40
1.0
 41
1.0
 42
1.0
 50
0.0
 71
     0
  3
MONOTXT
  4
BIGFONT
  0
STYLE
  2
TextStyle06
 70
     0
 40
1.0
 41
1.0
 42
1.0
 50
0.0
 71
     0
  3
MONOTXT
  4
BIGFONT
  0
STYLE
  2
TextStyle07
 70
     0
 40
1.0
 41
1.0
 42
1.0
 50
0.0
 71
     0
  3
MONOTXT
  4
BIGFONT
  0
STYLE
  2
TextStyle08
 70
     0
 40
1.0
 41
1.0
 42
1.0
 50
0.0
 71
     0
  3
MONOTXT
  4
BIGFONT
  0
STYLE
  2
TextStyle09
 70
     0
 40
1.0
 41
1.0
 42
1.0
 50
0.0
 71
     0
  3
MONOTXT
  4
BIGFONT
  0
STYLE
  2
TextStyle10
 70
     0
 40
1.0
 41
1.0
 42
1.0
 50
0.0
 71
     0
  3
MONOTXT
  4
BIGFONT
  0
ENDTAB
  0
ENDSEC
  0
SECTION
  2
BLOCKS
  0
BLOCK
  2
*HAT_0001
 70
    65
 10
0.0
 20
0.0
  0
LINE
  8
型材断面
 10
48.975
 20
-6.925
 11
49.45
 21
-6.475
  0
LINE
  8
型材断面
 10
48.125
 20
-6.925
 11
48.875
 21
-6.175
  0
LINE
  8
型材断面
 10
47.275
 20
-6.925
 11
48.025
 21
-6.175
  0
LINE
  8
型材断面
 10
46.525
 20
-6.85
 11
47.275
 21
-6.1
  0
LINE
  8
型材断面
 10
46.5
 20
-6.025
 11
47.1
 21
-5.425
  0
LINE
  8
型材断面
 10
45.65
 20
-6.025
 11
46.25
 21
-5.425
  0
LINE
  8
型材断面
 10
43.9
 20
-6.925
 11
44.375
 21
-6.45
  0
LINE
  8
型材断面
 10
44.8
 20
-6.025
 11
45.4
 21
-5.425
  0
LINE
  8
型材断面
 10
43.05
 20
-6.925
 11
44.55
 21
-5.425
  0
LINE
  8
型材断面
 10
42.2
 20
-6.925
 11
42.95
 21
-6.175
  0
LINE
  8
型材断面
 10
43.625
 20
-5.5
 11
43.7
 21
-5.425
  0
LINE
  8
型材断面
 10
41.45
 20
-6.85
 11
42.1
 21
-6.175
  0
ENDBLK
  0
BLOCK
  2
*HAT_0002
 70
    65
 10
0.0
 20
0.0
  0
LINE
  8
その他部品等
 10
-67.9
 20
10.15
 11
-66.325
 21
10.15
  0
LINE
  8
その他部品等
 10
-69.425
 20
11.05
 11
-65.8
 21
11.05
  0
LINE
  8
その他部品等
 10
-70.225
 20
11.95
 11
-65.3
 21
11.95
  0
LINE
  8
その他部品等
 10
-69.7
 20
12.85
 11
-66.05
 21
12.85
  0
LINE
  8
その他部品等
 10
-69.175
 20
13.75
 11
-67.6
 21
13.75
  0
LINE
  8
その他部品等
 10
-65.675
 20
11.325
 11
-65.675
 21
12.675
  0
LINE
  8
その他部品等
 10
-66.575
 20
9.75
 11
-66.575
 21
13.2
  0
LINE
  8
その他部品等
 10
-67.475
 20
9.925
 11
-67.475
 21
13.675
  0
LINE
  8
その他部品等
 10
-68.375
 20
10.45
 11
-68.375
 21
14.2
  0
LINE
  8
その他部品等
 10
-69.25
 20
10.975
 11
-69.25
 21
13.6
  0
LINE
  8
その他部品等
 10
-70.15
 20
11.5
 11
-70.15
 21
12.025
  0
ENDBLK
  0
BLOCK
  2
*HAT_0003
 70
    65
 10
0.0
 20
0.0
  0
LINE
  8
その他部品等
 10
-113.825
 20
10.15
 11
-112.975
 21
10.15
  0
LINE
  8
その他部品等
 10
-114.325
 20
11.05
 11
-111.4
 21
11.05
  0
LINE
  8
その他部品等
 10
-114.85
 20
11.95
 11
-109.925
 21
11.95
  0
LINE
  8
その他部品等
 10
-114.1
 20
12.85
 11
-110.45
 21
12.85
  0
LINE
  8
その他部品等
 10
-112.525
 20
13.75
 11
-110.975
 21
13.75
  0
LINE
  8
その他部品等
 10
-110.6
 20
11.55
 11
-110.6
 21
13.15
  0
LINE
  8
その他部品等
 10
-111.5
 20
11.025
 11
-111.5
 21
14.35
  0
LINE
  8
その他部品等
 10
-112.4
 20
10.5
 11
-112.4
 21
13.825
  0
LINE
  8
その他部品等
 10
-113.3
 20
9.975
 11
-113.3
 21
13.35
  0
LINE
  8
その他部品等
 10
-114.2
 20
10.825
 11
-114.2
 21
12.825
  0
ENDBLK
  0
BLOCK
  2
*GRP_0001
 70
    65
 10
0.0
 20
0.0
  0
LINE
  8
型材断面
  6
CONTINUOUS
 10
195.0
 20
133.5
 11
195.0
 21
-133.5
  0
LINE
  8
型材断面
  6
CONTINUOUS
 10
195.0
 20
-133.5
 11
-185.0
 21
-133.5
  0
LINE
  8
型材断面
  6
CONTINUOUS
 10
-185.0
 20
-133.5
 11
-185.0
 21
133.5
  0
LINE
  8
型材断面
  6
CONTINUOUS
 10
195.0
 20
133.5
 11
-185.0
 21
133.5
  0
LINE
  8
型材断面
  6
CONTINUOUS
 10
145.0
 20
-133.5
 11
145.0
 21
-118.5
  0
LINE
  8
型材断面
  6
CONTINUOUS
 10
195.0
 20
-118.5
 11
145.0
 21
-118.5
  0
ENDBLK
  0
BLOCK
  2
*GRP_0002
 70
    65
 10
0.0
 20
0.0
  0
ARC
  8
型材断面
  6
CONTINUOUS
 62
    47
 10
20.16248
 20
-12.095882
 40
0.5
 50
120.000022
 51
210.000022
  0
LINE
  8
型材断面
  6
CONTINUOUS
 62
    47
 10
19.914103
 20
-11.661938
 11
45.460225
 21
3.087145
  0
LINE
  8
型材断面
  6
CONTINUOUS
 62
    47
 10
71.006358
 20
-11.66192
 11
45.46022
 21
3.087142
  0
LINE
  8
型材断面
  6
CONTINUOUS
 62
    47
 10
40.460217
 20
-6.91778
 11
44.385223
 21
-6.91778
  0
LINE
  8
型材断面
  6
CONTINUOUS
 62
    47
 10
43.635223
 20
-5.41778
 11
43.635223
 21
-6.16778
  0
LINE
  8
型材断面
  6
CONTINUOUS
 62
    47
 10
45.460232
 20
-5.41778
 11
43.635223
 21
-5.41778
  0
LINE
  8
型材断面
  6
CONTINUOUS
 62
    47
 10
44.385223
 20
-6.91778
 11
44.385223
 21
-6.01778
  0
LINE
  8
型材断面
  6
CONTINUOUS
 62
    47
 10
44.385223
 20
-6.01778
 11
45.460232
 21
-6.01778
  0
LINE
  8
型材断面
  6
CONTINUOUS
 62
    47
 10
50.460245
 20
-6.91778
 11
46.53524
 21
-6.91778
  0
LINE
  8
型材断面
  6
CONTINUOUS
 62
    47
 10
47.28524
 20
-5.41778
 11
47.28524
 21
-6.16778
  0
LINE
  8
型材断面
  6
CONTINUOUS
 62
    47
 10
45.460232
 20
-5.41778
 11
47.28524
 21
-5.41778
  0
LINE
  8
型材断面
  6
CONTINUOUS
 62
    47
 10
46.53524
 20
-6.91778
 11
46.53524
 21
-6.01778
  0
LINE
  8
型材断面
  6
CONTINUOUS
 62
    47
 10
46.53524
 20
-6.01778
 11
45.460232
 21
-6.01778
  0
LINE
  8
型材断面
  6
CONTINUOUS
 62
    47
 10
43.635223
 20
-6.16778
 11
40.89323
 21
-6.16778
  0
LINE
  8
型材断面
  6
CONTINUOUS
 62
    47
 10
40.460217
 20
-6.91778
 11
37.87796
 21
-2.445187
  0
LINE
  8
型材断面
  6
CONTINUOUS
 62
    47
 10
50.460245
 20
-6.91778
 11
53.042503
 21
-2.445187
  0
LINE
  8
型材断面
  6
CONTINUOUS
 62
    47
 10
47.28524
 20
-6.16778
 11
50.027232
 21
-6.16778
  0
LINE
  8
型材断面
  6
CONTINUOUS
 62
    47
 10
40.89323
 20
-6.16778
 11
38.402477
 21
-1.853677
  0
LINE
  8
型材断面
  6
CONTINUOUS
 62
    47
 10
38.402477
 20
-1.853677
 11
45.460225
 21
2.22112
  0
LINE
  8
型材断面
  6
CONTINUOUS
 62
    47
 10
45.460225
 20
2.22112
 11
52.517982
 21
-1.853685
  0
LINE
  8
型材断面
  6
CONTINUOUS
 62
    47
 10
50.027232
 20
-6.16778
 11
52.517982
 21
-1.853685
  0
LINE
  8
型材断面
  6
CONTINUOUS
 62
    47
 10
19.729467
 20
-12.345878
 11
20.479467
 21
-13.64492
  0
LINE
  8
型材断面
  6
CONTINUOUS
 62
    47
 10
37.87796
 20
-2.445187
 11
23.44357
 21
-10.778892
  0
LINE
  8
型材断面
  6
CONTINUOUS
 62
    47
 10
23.943572
 20
-11.644927
 11
23.44357
 21
-10.778892
  0
LINE
  8
型材断面
  6
CONTINUOUS
 62
    47
 10
20.479467
 20
-13.64492
 11
23.943568
 21
-11.644917
  0
ARC
  8
型材断面
  6
CONTINUOUS
 62
    47
 10
70.757968
 20
-12.095882
 40
0.5
 50
329.999978
 51
419.999978
  0
LINE
  8
型材断面
  6
CONTINUOUS
 62
    47
 10
71.19098
 20
-12.345878
 11
70.44098
 21
-13.64492
  0
LINE
  8
型材断面
  6
CONTINUOUS
 62
    47
 10
66.976878
 20
-11.644927
 11
67.47688
 21
-10.778892
  0
LINE
  8
型材断面
  6
CONTINUOUS
 62
    47
 10
70.44098
 20
-13.64492
 11
66.97688
 21
-11.644917
  0
LINE
  8
型材断面
  6
CONTINUOUS
 62
    47
 10
53.042503
 20
-2.445187
 11
67.476887
 21
-10.77888
  0
ENDBLK
  0
BLOCK
  2
*GRP_0003
 70
    65
 10
0.0
 20
0.0
  0
CIRCLE
  8
ボルト／ビス
  6
CONTINUOUS
 10
45.460225
 20
17.86264
 40
3.5
  0
LINE
  8
ボルト／ビス
  6
CONTINUOUS
 10
47.915963
 20
18.11264
 11
47.915963
 21
17.61264
  0
LINE
  8
ボルト／ビス
  6
CONTINUOUS
 10
43.004487
 20
18.11264
 11
43.004487
 21
17.61264
  0
LINE
  8
ボルト／ビス
  6
CONTINUOUS
 10
45.710225
 20
20.318377
 11
45.210225
 21
20.318377
  0
LINE
  8
ボルト／ビス
  6
CONTINUOUS
 10
45.710225
 20
15.406903
 11
45.210225
 21
15.406903
  0
LINE
  8
ボルト／ビス
  6
CONTINUOUS
 10
45.210225
 20
20.318377
 11
45.210225
 21
18.61264
  0
LINE
  8
ボルト／ビス
  6
CONTINUOUS
 10
44.710225
 20
18.11264
 11
43.004487
 21
18.11264
  0
ARC
  8
ボルト／ビス
  6
CONTINUOUS
 10
44.710225
 20
18.612639
 40
0.5
 50
-90.0
 51
0.0
  0
LINE
  8
ボルト／ビス
  6
CONTINUOUS
 10
44.710225
 20
17.61264
 11
43.004487
 21
17.61264
  0
LINE
  8
ボルト／ビス
  6
CONTINUOUS
 10
45.210225
 20
17.11264
 11
45.210225
 21
15.406903
  0
ARC
  8
ボルト／ビス
  6
CONTINUOUS
 10
44.710225
 20
17.112639
 40
0.5
 50
0.0
 51
90.0
  0
LINE
  8
ボルト／ビス
  6
CONTINUOUS
 10
45.710225
 20
17.11264
 11
45.710225
 21
15.406903
  0
LINE
  8
ボルト／ビス
  6
CONTINUOUS
 10
47.915963
 20
17.61264
 11
46.210225
 21
17.61264
  0
ARC
  8
ボルト／ビス
  6
CONTINUOUS
 10
46.210225
 20
17.112639
 40
0.5
 50
-270.0
 51
-180.0
  0
LINE
  8
ボルト／ビス
  6
CONTINUOUS
 10
47.915963
 20
18.11264
 11
46.210225
 21
18.11264
  0
LINE
  8
ボルト／ビス
  6
CONTINUOUS
 10
45.710225
 20
20.318377
 11
45.710225
 21
18.61264
  0
ARC
  8
ボルト／ビス
  6
CONTINUOUS
 10
46.210225
 20
18.612639
 40
0.5
 50
-180.0
 51
-90.0
  0
CIRCLE
  8
ボルト／ビス
  6
DOT
 10
45.460225
 20
17.86264
 40
1.5
  0
LINE
  8
ボルト／ビス
  6
CONTINUOUS
 10
45.460225
 20
17.86264
 11
45.460225
 21
22.88637
  0
LINE
  8
ボルト／ビス
  6
CONTINUOUS
 10
45.460225
 20
17.86264
 11
45.460225
 21
12.83891
  0
LINE
  8
ボルト／ビス
  6
CONTINUOUS
 10
45.460225
 20
17.86264
 11
40.436495
 21
17.86264
  0
LINE
  8
ボルト／ビス
  6
CONTINUOUS
 10
45.460225
 20
17.86264
 11
50.483955
 21
17.86264
  0
ENDBLK
  0
BLOCK
  2
*GRP_0004
 70
    65
 10
0.0
 20
0.0
  0
CIRCLE
  8
ボルト／ビス
  6
DOT
 10
45.460225
 20
24.86264
 40
3.5
  0
LINE
  8
ボルト／ビス
  6
DOT
 10
47.915963
 20
25.11264
 11
47.915963
 21
24.61264
  0
LINE
  8
ボルト／ビス
  6
DOT
 10
43.004487
 20
25.11264
 11
43.004487
 21
24.61264
  0
LINE
  8
ボルト／ビス
  6
DOT
 10
45.710225
 20
27.318377
 11
45.210225
 21
27.318377
  0
LINE
  8
ボルト／ビス
  6
DOT
 10
45.710225
 20
22.406903
 11
45.210225
 21
22.406903
  0
LINE
  8
ボルト／ビス
  6
DOT
 10
45.210225
 20
27.318377
 11
45.210225
 21
25.61264
  0
LINE
  8
ボルト／ビス
  6
DOT
 10
44.710225
 20
25.11264
 11
43.004487
 21
25.11264
  0
ARC
  8
ボルト／ビス
  6
DOT
 10
44.710225
 20
25.612639
 40
0.5
 50
-90.0
 51
0.0
  0
LINE
  8
ボルト／ビス
  6
DOT
 10
44.710225
 20
24.61264
 11
43.004487
 21
24.61264
  0
LINE
  8
ボルト／ビス
  6
DOT
 10
45.210225
 20
24.11264
 11
45.210225
 21
22.406903
  0
ARC
  8
ボルト／ビス
  6
DOT
 10
44.710225
 20
24.112639
 40
0.5
 50
0.0
 51
90.0
  0
LINE
  8
ボルト／ビス
  6
DOT
 10
45.710225
 20
24.11264
 11
45.710225
 21
22.406903
  0
LINE
  8
ボルト／ビス
  6
DOT
 10
47.915963
 20
24.61264
 11
46.210225
 21
24.61264
  0
ARC
  8
ボルト／ビス
  6
DOT
 10
46.210225
 20
24.112639
 40
0.5
 50
-270.0
 51
-180.0
  0
LINE
  8
ボルト／ビス
  6
DOT
 10
47.915963
 20
25.11264
 11
46.210225
 21
25.11264
  0
LINE
  8
ボルト／ビス
  6
DOT
 10
45.710225
 20
27.318377
 11
45.710225
 21
25.61264
  0
ARC
  8
ボルト／ビス
  6
DOT
 10
46.210225
 20
25.612639
 40
0.5
 50
-180.0
 51
-90.0
  0
CIRCLE
  8
ボルト／ビス
  6
DOT
 10
45.460225
 20
24.86264
 40
1.5
  0
LINE
  8
ボルト／ビス
  6
DOT
 10
45.460225
 20
24.86264
 11
45.460225
 21
29.88637
  0
LINE
  8
ボルト／ビス
  6
DOT
 10
45.460225
 20
24.86264
 11
45.460225
 21
19.83891
  0
LINE
  8
ボルト／ビス
  6
DOT
 10
45.460225
 20
24.86264
 11
40.436495
 21
24.86264
  0
LINE
  8
ボルト／ビス
  6
DOT
 10
45.460225
 20
24.86264
 11
50.483955
 21
24.86264
  0
ENDBLK
  0
BLOCK
  2
*GRP_0005
 70
    65
 10
0.0
 20
0.0
  0
ARC
  8
ボルト／ビス
  6
CONTINUOUS
 10
45.460232
 20
-21.968134
 40
4.235809
 50
34.280704
 51
145.719296
  0
LINE
  8
ボルト／ビス
  6
CONTINUOUS
 10
48.96023
 20
-19.582323
 11
41.960232
 21
-19.582323
  0
LINE
  8
ボルト／ビス
  6
CONTINUOUS
 10
44.46023
 20
-19.582323
 11
44.46023
 21
-24.58232
  0
LINE
  8
ボルト／ビス
  6
CONTINUOUS
 10
46.460232
 20
-19.582323
 11
46.460232
 21
-24.58232
  0
LINE
  8
ボルト／ビス
  6
CONTINUOUS
 10
43.960232
 20
-24.082323
 11
46.960232
 21
-24.082323
  0
LINE
  8
ボルト／ビス
  6
CONTINUOUS
 10
43.960232
 20
-24.082323
 11
44.46023
 21
-24.58232
  0
LINE
  8
ボルト／ビス
  6
CONTINUOUS
 10
46.460232
 20
-24.58232
 11
46.960232
 21
-24.082323
  0
LINE
  8
ボルト／ビス
  6
CONTINUOUS
 10
46.960232
 20
-19.582323
 11
46.960232
 21
-24.082323
  0
LINE
  8
ボルト／ビス
  6
CONTINUOUS
 10
46.460232
 20
-24.58232
 11
44.46023
 21
-24.58232
  0
LINE
  8
ボルト／ビス
  6
CONTINUOUS
 10
43.960232
 20
-19.582323
 11
43.960232
 21
-24.082323
  0
LINE
  8
ボルト／ビス
  6
CONTINUOUS
 10
45.460232
 20
-17.732323
 11
45.460232
 21
-24.58232
  0
ENDBLK
  0
BLOCK
  2
*DIM_0006
 70
    65
 10
0.0
 20
0.0
  0
LINE
  8
寸法
  6
BYBLOCK
 62
     0
 10
39.436495
 20
17.86264
 11
33.838378
 21
17.86264
  0
LINE
  8
寸法
  6
BYBLOCK
 62
     0
 10
39.436495
 20
24.86264
 11
33.838378
 21
24.86264
  0
LINE
  8
寸法
  6
BYBLOCK
 62
     0
 10
33.838378
 20
17.86264
 11
33.838378
 21
24.86264
  0
POINT
  8
寸法
 62
     0
 10
33.838378
 20
17.86264
  0
POINT
  8
寸法
 62
     0
 10
33.838378
 20
24.86264
  0
TEXT
  7
TextStyle03
  8
寸法
  6
CONTINUOUS
 62
     0
 10
33.45
 20
19.225
  1
14
 40
4.0
 50
90.0
 72
     5
 11
33.45
 21
23.475
  0
ENDBLK
  0
BLOCK
  2
*GRP_0007
 70
    65
 10
0.0
 20
0.0
  0
LINE
  8
補助線
  6
BYBLOCK
 62
     0
 10
69.789465
 20
17.86264
 11
68.789465
 21
17.86264
  0
LINE
  8
補助線
  6
BYBLOCK
 62
     0
 10
69.289465
 20
18.36264
 11
69.289465
 21
17.36264
  0
ENDBLK
  0
BLOCK
  2
*DIM_0008
 70
    65
 10
0.0
 20
0.0
  0
LINE
  8
寸法
  6
BYBLOCK
 62
     0
 10
67.464463
 20
37.521155
 11
67.464463
 21
43.02567
  0
LINE
  8
寸法
  6
BYBLOCK
 62
     0
 10
71.11448
 20
37.521155
 11
71.11448
 21
43.02567
  0
LINE
  8
寸法
  6
BYBLOCK
 62
     0
 10
67.464463
 20
43.02567
 11
71.11448
 21
43.02567
  0
POINT
  8
寸法
 62
     0
 10
67.464463
 20
43.02567
  0
POINT
  8
寸法
 62
     0
 10
71.11448
 20
43.02567
  0
TEXT
  7
TextStyle03
  8
寸法
  6
CONTINUOUS
 62
     0
 10
66.025
 20
43.4
  1
7.3
 40
4.0
 72
     5
 11
72.525
 21
43.4
  0
ENDBLK
  0
BLOCK
  2
*DIM_0009
 70
    65
 10
0.0
 20
0.0
  0
LINE
  8
寸法
  6
BYBLOCK
 62
     0
 10
51.46023
 20
-35.14276
 11
56.420567
 21
-35.14276
  0
LINE
  8
寸法
  6
BYBLOCK
 62
     0
 10
47.460232
 20
-34.24276
 11
56.420567
 21
-34.24276
  0
LINE
  8
寸法
  6
BYBLOCK
 62
     0
 10
56.420567
 20
-35.14276
 11
56.420567
 21
-34.24276
  0
POINT
  8
寸法
 62
     0
 10
56.420567
 20
-35.14276
  0
POINT
  8
寸法
 62
     0
 10
56.420567
 20
-34.24276
  0
TEXT
  7
TextStyle03
  8
寸法
  6
CONTINUOUS
 62
     0
 10
60.525
 20
-37.95
  1
1.8
 40
4.0
 50
90.0
 72
     5
 11
60.525
 21
-31.45
  0
ENDBLK
  0
BLOCK
  2
*DIM_0010
 70
    65
 10
0.0
 20
0.0
  0
LINE
  8
寸法
  6
BYBLOCK
 62
     0
 10
51.027232
 20
-6.16778
 11
79.310453
 21
-6.16778
  0
LINE
  8
寸法
  6
BYBLOCK
 62
     0
 10
51.460245
 20
-6.91778
 11
79.310453
 21
-6.91778
  0
LINE
  8
寸法
  6
BYBLOCK
 62
     0
 10
79.310453
 20
-6.16778
 11
79.310453
 21
-6.91778
  0
POINT
  8
寸法
 62
     0
 10
79.310453
 20
-6.16778
  0
POINT
  8
寸法
 62
     0
 10
79.310453
 20
-6.91778
  0
TEXT
  7
TextStyle03
  8
寸法
  6
CONTINUOUS
 62
     0
 10
84.825
 20
-9.675
  1
1.5
 40
4.0
 50
90.0
 72
     5
 11
84.825
 21
-3.175
  0
ENDBLK
  0
BLOCK
  2
*GRP_0011
 70
    65
 10
0.0
 20
0.0
  0
ARC
  8
型材断面
  6
CONTINUOUS
 62
    47
 10
-115.430313
 20
13.958215
 40
0.5
 50
120.000022
 51
210.000022
  0
LINE
  8
型材断面
  6
CONTINUOUS
 62
    47
 10
-115.67869
 20
14.39216
 11
-90.13257
 21
29.141243
  0
LINE
  8
型材断面
  6
CONTINUOUS
 62
    47
 10
-64.586438
 20
14.392178
 11
-90.132572
 21
29.14124
  0
LINE
  8
型材断面
  6
CONTINUOUS
 62
    47
 10
-95.132575
 20
19.136318
 11
-91.20757
 21
19.136318
  0
LINE
  8
型材断面
  6
CONTINUOUS
 62
    47
 10
-91.95757
 20
20.636318
 11
-91.95757
 21
19.886318
  0
LINE
  8
型材断面
  6
CONTINUOUS
 62
    47
 10
-90.132563
 20
20.636318
 11
-91.95757
 21
20.636318
  0
LINE
  8
型材断面
  6
CONTINUOUS
 62
    47
 10
-91.20757
 20
19.136318
 11
-91.20757
 21
20.036318
  0
LINE
  8
型材断面
  6
CONTINUOUS
 62
    47
 10
-91.20757
 20
20.036318
 11
-90.132563
 21
20.036318
  0
LINE
  8
型材断面
  6
CONTINUOUS
 62
    47
 10
-85.132547
 20
19.136318
 11
-89.057553
 21
19.136318
  0
LINE
  8
型材断面
  6
CONTINUOUS
 62
    47
 10
-88.307553
 20
20.636318
 11
-88.307553
 21
19.886318
  0
LINE
  8
型材断面
  6
CONTINUOUS
 62
    47
 10
-90.132563
 20
20.636318
 11
-88.307553
 21
20.636318
  0
LINE
  8
型材断面
  6
CONTINUOUS
 62
    47
 10
-89.057553
 20
19.136318
 11
-89.057553
 21
20.036318
  0
LINE
  8
型材断面
  6
CONTINUOUS
 62
    47
 10
-89.057553
 20
20.036318
 11
-90.132563
 21
20.036318
  0
LINE
  8
型材断面
  6
CONTINUOUS
 62
    47
 10
-91.95757
 20
19.886318
 11
-94.699562
 21
19.886318
  0
LINE
  8
型材断面
  6
CONTINUOUS
 62
    47
 10
-95.132575
 20
19.136318
 11
-97.714833
 21
23.60891
  0
LINE
  8
型材断面
  6
CONTINUOUS
 62
    47
 10
-85.132547
 20
19.136318
 11
-82.55029
 21
23.60891
  0
LINE
  8
型材断面
  6
CONTINUOUS
 62
    47
 10
-88.307553
 20
19.886318
 11
-85.56556
 21
19.886318
  0
LINE
  8
型材断面
  6
CONTINUOUS
 62
    47
 10
-94.699562
 20
19.886318
 11
-97.190318
 21
24.20042
  0
LINE
  8
型材断面
  6
CONTINUOUS
 62
    47
 10
-97.190318
 20
24.20042
 11
-90.13257
 21
28.275217
  0
LINE
  8
型材断面
  6
CONTINUOUS
 62
    47
 10
-90.13257
 20
28.275217
 11
-83.07481
 21
24.200412
  0
LINE
  8
型材断面
  6
CONTINUOUS
 62
    47
 10
-85.56556
 20
19.886318
 11
-83.07481
 21
24.200412
  0
LINE
  8
型材断面
  6
CONTINUOUS
 62
    47
 10
-115.863325
 20
13.70822
 11
-115.113325
 21
12.409178
  0
LINE
  8
型材断面
  6
CONTINUOUS
 62
    47
 10
-97.714833
 20
23.60891
 11
-112.149225
 21
15.275205
  0
LINE
  8
型材断面
  6
CONTINUOUS
 62
    47
 10
-111.649222
 20
14.40917
 11
-112.149225
 21
15.275205
  0
LINE
  8
型材断面
  6
CONTINUOUS
 62
    47
 10
-115.113325
 20
12.409178
 11
-111.649225
 21
14.40918
  0
ARC
  8
型材断面
  6
CONTINUOUS
 62
    47
 10
-64.834825
 20
13.958215
 40
0.5
 50
329.999978
 51
419.999978
  0
LINE
  8
型材断面
  6
CONTINUOUS
 62
    47
 10
-64.401812
 20
13.70822
 11
-65.151812
 21
12.409178
  0
LINE
  8
型材断面
  6
CONTINUOUS
 62
    47
 10
-68.615917
 20
14.40917
 11
-68.115915
 21
15.275205
  0
LINE
  8
型材断面
  6
CONTINUOUS
 62
    47
 10
-65.151812
 20
12.409178
 11
-68.615913
 21
14.40918
  0
LINE
  8
型材断面
  6
CONTINUOUS
 62
    47
 10
-82.55029
 20
23.60891
 11
-68.115907
 21
15.275217
  0
ENDBLK
  0
BLOCK
  2
*GRP_0012
 70
    65
 10
0.0
 20
0.0
  0
LINE
  8
ゴム等
  6
CONTINUOUS
 10
-72.443213
 20
0.280115
 11
-74.00206
 21
1.180118
  0
LINE
  8
ゴム等
  6
CONTINUOUS
 10
-76.080518
 20
2.380118
 11
-77.639365
 21
3.280122
  0
LINE
  8
ゴム等
  6
CONTINUOUS
 10
-76.963533
 20
1.850698
 11
-76.53052
 21
1.600695
  0
LINE
  8
ゴム等
  6
CONTINUOUS
 10
-74.452057
 20
0.400695
 11
-74.019048
 21
0.150698
  0
LINE
  8
ゴム等
  6
CONTINUOUS
 10
-76.080518
 20
2.380118
 11
-76.53052
 21
1.600695
  0
LINE
  8
ゴム等
  6
CONTINUOUS
 10
-74.00206
 20
1.180118
 11
-74.452057
 21
0.400695
  0
LINE
  8
ゴム等
  6
CONTINUOUS
 10
-77.088533
 20
1.63419
 11
-76.599302
 21
0.081567
  0
LINE
  8
ゴム等
  6
CONTINUOUS
 10
-74.144048
 20
-0.065808
 11
-75.733275
 21
-0.41844
  0
LINE
  8
ゴム等
  6
CONTINUOUS
 10
-74.019048
 20
0.150698
 11
-74.144048
 21
-0.065808
  0
LINE
  8
ゴム等
  6
CONTINUOUS
 10
-76.963533
 20
1.850698
 11
-77.088533
 21
1.63419
  0
LINE
  8
ゴム等
  6
CONTINUOUS
 10
-76.599302
 20
0.081567
 11
-75.733275
 21
-0.41844
  0
ARC
  8
ゴム等
  6
CONTINUOUS
 10
-75.291284
 20
1.347105
 40
0.5
 50
330.0
 51
510.0
  0
ARC
  8
ゴム等
  6
CONTINUOUS
 10
-75.691284
 20
0.654285
 40
0.5
 50
150.0
 51
330.0
  0
LINE
  8
ゴム等
  6
CONTINUOUS
 10
-75.724305
 20
1.59711
 11
-76.124305
 21
0.90429
  0
LINE
  8
ゴム等
  6
CONTINUOUS
 10
-74.85828
 20
1.097107
 11
-75.258277
 21
0.404287
  0
LINE
  8
ゴム等
  6
CONTINUOUS
 10
-71.772242
 20
1.44227
 11
-73.60536
 21
0.951087
  0
LINE
  8
ゴム等
  6
CONTINUOUS
 10
-74.231088
 20
0.783427
 11
-75.187308
 21
0.52721
  0
LINE
  8
ゴム等
  6
CONTINUOUS
 10
-76.042225
 20
0.298137
 11
-76.618855
 21
0.14363
  0
LINE
  8
ゴム等
  6
CONTINUOUS
 10
-75.846227
 20
1.385932
 11
-76.919678
 21
1.098298
  0
LINE
  8
ゴム等
  6
CONTINUOUS
 10
-72.443213
 20
0.280115
 11
-71.44321
 21
2.012173
  0
LINE
  8
ゴム等
  6
CONTINUOUS
 10
-75.681835
 20
4.170665
 11
-72.650748
 21
2.420667
  0
ARC
  8
ゴム等
  6
CONTINUOUS
 10
-75.556829
 20
4.387168
 40
0.25
 50
150.0
 51
240.0
  0
ARC
  8
ゴム等
  6
CONTINUOUS
 10
-72.52574
 20
2.637168
 40
0.25
 50
240.0
 51
330.0
  0
LINE
  8
ゴム等
  6
CONTINUOUS
 10
-75.77334
 20
4.512173
 11
-76.639365
 21
5.012175
  0
LINE
  8
ゴム等
  6
CONTINUOUS
 10
-72.309235
 20
2.512175
 11
-71.44321
 21
2.012173
  0
LINE
  8
ゴム等
  6
CONTINUOUS
 10
-77.639365
 20
3.280122
 11
-76.639365
 21
5.012175
  0
LINE
  8
ゴム等
  6
CONTINUOUS
 10
-77.13997
 20
4.1451
 11
-75.772297
 21
4.511572
  0
LINE
  8
ゴム等
  6
CONTINUOUS
 10
-77.27959
 20
3.072413
 11
-74.889055
 21
3.712958
  0
LINE
  8
ゴム等
  6
CONTINUOUS
 10
-76.095333
 20
2.354457
 11
-73.664312
 21
3.005847
  0
LINE
  8
ゴム等
  6
CONTINUOUS
 10
-74.88801
 20
1.642685
 11
-72.098057
 21
2.390248
  0
ENDBLK
  0
BLOCK
  2
*GRP_0013
 70
    65
 10
0.0
 20
0.0
  0
ARC
  8
ボルト／ビス
  6
DOT
 10
-90.132561
 20
17.650508
 40
4.235809
 50
34.280704
 51
145.719296
  0
LINE
  8
ボルト／ビス
  6
DOT
 10
-86.632563
 20
20.036318
 11
-93.63256
 21
20.036318
  0
LINE
  8
ボルト／ビス
  6
DOT
 10
-91.132563
 20
20.036318
 11
-91.132563
 21
15.03632
  0
LINE
  8
ボルト／ビス
  6
DOT
 10
-89.13256
 20
20.036318
 11
-89.13256
 21
15.03632
  0
LINE
  8
ボルト／ビス
  6
DOT
 10
-91.632563
 20
15.536318
 11
-88.632563
 21
15.536318
  0
LINE
  8
ボルト／ビス
  6
DOT
 10
-91.632563
 20
15.536318
 11
-91.132563
 21
15.03632
  0
LINE
  8
ボルト／ビス
  6
DOT
 10
-89.13256
 20
15.03632
 11
-88.632563
 21
15.536318
  0
LINE
  8
ボルト／ビス
  6
DOT
 10
-88.632563
 20
20.036318
 11
-88.632563
 21
15.536318
  0
LINE
  8
ボルト／ビス
  6
DOT
 10
-89.13256
 20
15.03632
 11
-91.132563
 21
15.03632
  0
LINE
  8
ボルト／ビス
  6
DOT
 10
-91.632563
 20
20.036318
 11
-91.632563
 21
15.536318
  0
LINE
  8
ボルト／ビス
  6
DOT
 10
-90.132563
 20
21.886318
 11
-90.132563
 21
15.03632
  0
ENDBLK
  0
BLOCK
  2
*GRP_0014
 70
    65
 10
0.0
 20
0.0
  0
LINE
  8
ボルト／ビス
  6
DOT
 62
    64
 10
-82.400625
 20
14.862245
 11
-81.976195
 21
15.468395
  0
ARC
  8
ボルト／ビス
  6
DOT
 62
    64
 10
-81.15704
 20
14.894819
 40
1.0
 50
59.99996
 51
144.999957
  0
LINE
  8
ボルト／ビス
  6
DOT
 62
    64
 10
-78.503513
 20
12.612245
 11
-78.190787
 21
13.282887
  0
ARC
  8
ボルト／ビス
  6
DOT
 62
    64
 10
-79.097091
 20
13.705505
 40
1.0
 50
334.999963
 51
419.99996
  0
LINE
  8
ボルト／ビス
  6
DOT
 62
    64
 10
-82.400625
 20
14.862245
 11
-78.503513
 21
12.612245
  0
LINE
  8
ボルト／ビス
  6
DOT
 62
    64
 10
-80.657042
 20
15.760843
 11
-78.597092
 21
14.57153
  0
LINE
  8
ボルト／ビス
  6
DOT
 62
    64
 10
-78.471068
 20
17.168438
 11
-87.95208
 21
0.74687
  0
LINE
  8
ボルト／ビス
  6
DOT
 62
    64
 10
-88.909608
 20
1.588378
 11
-88.8181
 21
1.246868
  0
LINE
  8
ボルト／ビス
  6
DOT
 62
    64
 10
-86.744545
 20
0.338375
 11
-87.086055
 21
0.246868
  0
LINE
  8
ボルト／ビス
  6
DOT
 62
    64
 10
-86.744545
 20
0.338375
 11
-88.909608
 21
1.588378
  0
LINE
  8
ボルト／ビス
  6
DOT
 62
    64
 10
-87.086055
 20
0.246868
 11
-88.8181
 21
1.246868
  0
LINE
  8
ボルト／ビス
  6
DOT
 62
    64
 10
-81.318092
 20
14.237242
 11
-88.8181
 21
1.246868
  0
LINE
  8
ボルト／ビス
  6
DOT
 62
    64
 10
-79.586042
 20
13.237242
 11
-87.086055
 21
0.246868
  0
LINE
  8
ボルト／ビス
  6
DOT
 62
    64
 10
-79.369538
 20
13.112242
 11
-86.744545
 21
0.338375
  0
LINE
  8
ボルト／ビス
  6
DOT
 62
    64
 10
-81.5346
 20
14.362245
 11
-88.909608
 21
1.588378
  0
ENDBLK
  0
BLOCK
  2
*GRP_0015
 70
    65
 10
0.0
 20
0.0
  0
LINE
  8
ボルト／ビス
  6
DOT
 62
    64
 10
-97.8645
 20
14.862245
 11
-98.288928
 21
15.468395
  0
ARC
  8
ボルト／ビス
  6
DOT
 62
    64
 10
-99.108083
 20
14.894819
 40
1.0
 50
35.000043
 51
120.00004
  0
LINE
  8
ボルト／ビス
  6
DOT
 62
    64
 10
-101.761612
 20
12.612245
 11
-102.074335
 21
13.282887
  0
ARC
  8
ボルト／ビス
  6
DOT
 62
    64
 10
-101.168031
 20
13.705505
 40
1.0
 50
120.00004
 51
205.000037
  0
LINE
  8
ボルト／ビス
  6
DOT
 62
    64
 10
-97.8645
 20
14.862245
 11
-101.761612
 21
12.612245
  0
LINE
  8
ボルト／ビス
  6
DOT
 62
    64
 10
-99.60808
 20
15.760843
 11
-101.66803
 21
14.57153
  0
LINE
  8
ボルト／ビス
  6
DOT
 62
    64
 10
-101.794057
 20
17.168438
 11
-92.313045
 21
0.74687
  0
LINE
  8
ボルト／ビス
  6
DOT
 62
    64
 10
-91.355515
 20
1.588378
 11
-91.447023
 21
1.246868
  0
LINE
  8
ボルト／ビス
  6
DOT
 62
    64
 10
-93.520578
 20
0.338375
 11
-93.17907
 21
0.246868
  0
LINE
  8
ボルト／ビス
  6
DOT
 62
    64
 10
-93.520578
 20
0.338375
 11
-91.355515
 21
1.588378
  0
LINE
  8
ボルト／ビス
  6
DOT
 62
    64
 10
-93.17907
 20
0.246868
 11
-91.447023
 21
1.246868
  0
LINE
  8
ボルト／ビス
  6
DOT
 62
    64
 10
-98.94703
 20
14.237242
 11
-91.447023
 21
1.246868
  0
LINE
  8
ボルト／ビス
  6
DOT
 62
    64
 10
-100.67908
 20
13.237242
 11
-93.17907
 21
0.246868
  0
LINE
  8
ボルト／ビス
  6
DOT
 62
    64
 10
-100.895587
 20
13.112242
 11
-93.520578
 21
0.338375
  0
LINE
  8
ボルト／ビス
  6
DOT
 62
    64
 10
-98.730525
 20
14.362245
 11
-91.355515
 21
1.588378
  0
ENDBLK
  0
BLOCK
  2
*DIM_0016
 70
    65
 10
0.0
 20
0.0
  0
LINE
  8
寸法
  6
BYBLOCK
 62
     0
 10
-115.93029
 20
14.953543
 11
-115.93029
 21
51.145025
  0
LINE
  8
寸法
  6
BYBLOCK
 62
     0
 10
-64.334847
 20
14.953543
 11
-64.334847
 21
51.145025
  0
LINE
  8
寸法
  6
BYBLOCK
 62
     0
 10
-115.93029
 20
51.145025
 11
-64.334847
 21
51.145025
  0
POINT
  8
寸法
 62
     0
 10
-115.93029
 20
51.145025
  0
POINT
  8
寸法
 62
     0
 10
-64.334847
 20
51.145025
  0
TEXT
  7
TextStyle03
  8
寸法
  6
CONTINUOUS
 62
     0
 10
-95.625
 20
51.5
  1
103.2
 40
4.0
 72
     5
 11
-84.625
 21
51.5
  0
ENDBLK
  0
BLOCK
  2
*DIM_0017
 70
    65
 10
0.0
 20
0.0
  0
LINE
  8
寸法
  6
BYBLOCK
 62
     0
 10
-90.63257
 20
30.007267
 11
-100.074635
 21
46.361377
  0
LINE
  8
寸法
  6
BYBLOCK
 62
     0
 10
-116.363325
 20
14.574237
 11
-126.05539
 21
31.361357
  0
LINE
  8
寸法
  6
BYBLOCK
 62
     0
 10
-100.074635
 20
46.361377
 11
-126.05539
 21
31.361357
  0
POINT
  8
寸法
 62
     0
 10
-100.074635
 20
46.361377
  0
POINT
  8
寸法
 62
     0
 10
-126.05539
 20
31.361357
  0
TEXT
  7
TextStyle03
  8
寸法
  6
CONTINUOUS
 62
     0
 10
-113.090304
 20
39.455449
  1
60
 40
4.0
 50
30.0
 72
     5
 11
-109.409696
 21
41.580449
  0
ENDBLK
  0
BLOCK
  2
*DIM_0018
 70
    65
 10
0.0
 20
0.0
  0
LINE
  8
寸法
  6
BYBLOCK
 62
     0
 10
-63.513047
 20
13.77245
 11
-36.377845
 21
-1.89406
  0
LINE
  8
寸法
  6
BYBLOCK
 62
     0
 10
-64.078423
 20
11.78945
 11
-37.377852
 21
-3.626125
  0
LINE
  8
寸法
  6
BYBLOCK
 62
     0
 10
-36.377845
 20
-1.89406
 11
-37.377852
 21
-3.626125
  0
POINT
  8
寸法
 62
     0
 10
-36.377845
 20
-1.89406
  0
POINT
  8
寸法
 62
     0
 10
-37.377852
 20
-3.626125
  0
TEXT
  7
TextStyle03
  8
寸法
  6
CONTINUOUS
 62
     0
 10
-36.592949
 20
-1.491025
  1
4
 40
4.0
 50
60.0
 72
     5
 11
-35.592949
 21
0.241025
  0
ENDBLK
  0
BLOCK
  2
*DIM_0019
 70
    65
 10
0.0
 20
0.0
  0
LINE
  8
寸法
  6
BYBLOCK
 62
     0
 10
-71.360665
 20
-0.344877
 11
-44.45273
 21
-15.880175
  0
LINE
  8
寸法
  6
BYBLOCK
 62
     0
 10
-37.377852
 20
-3.626125
 11
-44.45273
 21
-15.880175
  0
POINT
  8
寸法
 62
     0
 10
-44.45273
 20
-15.880175
  0
TEXT
  7
TextStyle03
  8
寸法
  6
CONTINUOUS
 62
     0
 10
-43.430449
 20
-13.363861
  1
28.3
 40
4.0
 50
60.0
 72
     5
 11
-39.055449
 21
-5.786139
  0
ENDBLK
  0
BLOCK
  2
*DIM_0020
 70
    65
 10
0.0
 20
0.0
  0
LINE
  8
寸法
  6
BYBLOCK
 62
     0
 10
-73.535287
 20
-15.311463
 11
-51.477105
 21
-28.046755
  0
LINE
  8
寸法
  6
BYBLOCK
 62
     0
 10
-44.45273
 20
-15.880175
 11
-51.477105
 21
-28.046755
  0
POINT
  8
寸法
 62
     0
 10
-51.477105
 20
-28.046755
  0
TEXT
  7
TextStyle03
  8
寸法
  6
CONTINUOUS
 62
     0
 10
-50.480449
 20
-25.563861
  1
28.1
 40
4.0
 50
60.0
 72
     5
 11
-46.105449
 21
-17.986139
  0
ENDBLK
  0
BLOCK
  2
*DIM_0021
 70
    65
 10
0.0
 20
0.0
  0
LINE
  8
寸法
  6
BYBLOCK
 62
     0
 10
-76.28529
 20
-20.0746
 11
-54.227103
 21
-32.809895
  0
LINE
  8
寸法
  6
BYBLOCK
 62
     0
 10
-51.477105
 20
-28.046755
 11
-54.227103
 21
-32.809895
  0
POINT
  8
寸法
 62
     0
 10
-54.227103
 20
-32.809895
  0
TEXT
  7
TextStyle03
  8
寸法
  6
CONTINUOUS
 62
     0
 10
-54.255449
 20
-32.090304
  1
11
 40
4.0
 50
60.0
 72
     5
 11
-52.130449
 21
-28.409696
  0
ENDBLK
  0
BLOCK
  2
*DIM_0022
 70
    65
 10
0.0
 20
0.0
  0
LINE
  8
寸法
  6
BYBLOCK
 62
     0
 10
-75.419265
 20
-20.5746
 11
-47.922613
 21
-36.449792
  0
LINE
  8
寸法
  6
BYBLOCK
 62
     0
 10
-62.647023
 20
13.27245
 11
-30.073352
 21
-5.533957
  0
LINE
  8
寸法
  6
BYBLOCK
 62
     0
 10
-47.922613
 20
-36.449792
 11
-30.073352
 21
-5.533957
  0
POINT
  8
寸法
 62
     0
 10
-47.922613
 20
-36.449792
  0
POINT
  8
寸法
 62
     0
 10
-30.073352
 20
-5.533957
  0
TEXT
  7
TextStyle03
  8
寸法
  6
CONTINUOUS
 62
     0
 10
-41.530449
 20
-24.588861
  1
71.4
 40
4.0
 50
60.0
 72
     5
 11
-37.155449
 21
-17.011139
  0
ENDBLK
  0
BLOCK
  2
*DIM_0023
 70
    65
 10
0.0
 20
0.0
  0
LINE
  8
寸法
  6
BYBLOCK
 62
     0
 10
-89.632563
 20
-12.945888
 11
-83.45436
 21
-23.64686
  0
LINE
  8
寸法
  6
BYBLOCK
 62
     0
 10
-101.22817
 20
-19.64062
 11
-95.049972
 21
-30.341585
  0
LINE
  8
寸法
  6
BYBLOCK
 62
     0
 10
-83.45436
 20
-23.64686
 11
-95.049972
 21
-30.341585
  0
POINT
  8
寸法
 62
     0
 10
-83.45436
 20
-23.64686
  0
POINT
  8
寸法
 62
     0
 10
-95.049972
 20
-30.341585
  0
TEXT
  7
TextStyle03
  8
寸法
  6
CONTINUOUS
 62
     0
 10
-92.316646
 20
-28.339663
  1
26.8
 40
3.0
 50
30.0
 72
     5
 11
-86.633354
 21
-25.058413
  0
ENDBLK
  0
BLOCK
  2
*GRP_0024
 70
    65
 10
0.0
 20
0.0
  0
LINE
  8
型材断面
  6
CONTINUOUS
 62
    47
 10
-91.132563
 20
19.136318
 11
-91.132563
 21
20.036318
  0
LINE
  8
型材断面
  6
CONTINUOUS
 62
    47
 10
-89.13256
 20
19.136318
 11
-89.13256
 21
20.036318
  0
LINE
  8
型材断面
  6
CONTINUOUS
 62
    47
 10
-95.132568
 20
19.136318
 11
-91.132563
 21
19.136318
  0
LINE
  8
型材断面
  6
CONTINUOUS
 62
    47
 10
-89.13256
 20
19.136318
 11
-85.132563
 21
19.136318
  0
LINE
  8
型材断面
  6
CONTINUOUS
 62
    47
 10
-89.13256
 20
20.036318
 11
-89.88256
 21
20.036318
  0
LINE
  8
型材断面
  6
CONTINUOUS
 62
    47
 10
-90.132563
 20
19.786318
 11
-89.88256
 21
20.036318
  0
LINE
  8
型材断面
  6
CONTINUOUS
 62
    47
 10
-90.132563
 20
19.786318
 11
-90.382563
 21
20.036318
  0
LINE
  8
型材断面
  6
CONTINUOUS
 62
    47
 10
-91.132563
 20
20.036318
 11
-90.382563
 21
20.036318
  0
LINE
  8
型材断面
  6
CONTINUOUS
 62
    47
 10
-90.432563
 20
18.386325
 11
-90.68257
 21
18.136318
  0
LINE
  8
型材断面
  6
CONTINUOUS
 62
    47
 10
-94.13257
 20
18.136318
 11
-90.68257
 21
18.136318
  0
LINE
  8
型材断面
  6
CONTINUOUS
 62
    47
 10
-89.832563
 20
18.386325
 11
-89.582553
 21
18.136318
  0
LINE
  8
型材断面
  6
CONTINUOUS
 62
    47
 10
-86.132568
 20
18.136318
 11
-89.582553
 21
18.136318
  0
LINE
  8
型材断面
  6
CONTINUOUS
 62
    47
 10
-89.832563
 20
18.386325
 11
-90.432565
 21
18.386322
  0
LINE
  8
型材断面
  6
CONTINUOUS
 62
    47
 10
-82.357938
 20
-15.413843
 11
-74.83357
 21
-2.381238
  0
LINE
  8
型材断面
  6
CONTINUOUS
 62
    47
 10
-81.836572
 20
5.010305
 11
-81.21157
 21
6.092835
  0
LINE
  8
型材断面
  6
CONTINUOUS
 62
    47
 10
-81.73119
 20
6.392835
 11
-81.981188
 21
5.959828
  0
LINE
  8
型材断面
  6
CONTINUOUS
 62
    47
 10
-81.73119
 20
6.392835
 11
-81.21157
 21
6.092835
  0
LINE
  8
型材断面
  6
CONTINUOUS
 62
    47
 10
-84.401152
 20
7.068315
 11
-84.492655
 21
7.409817
  0
LINE
  8
型材断面
  6
CONTINUOUS
 62
    47
 10
-84.401152
 20
7.068315
 11
-84.05965
 21
7.15982
  0
LINE
  8
型材断面
  6
CONTINUOUS
 62
    47
 10
-81.981188
 20
5.959828
 11
-84.059648
 21
7.15982
  0
LINE
  8
型材断面
  6
CONTINUOUS
 62
    47
 10
-84.492655
 20
7.409817
 11
-86.44122
 21
8.534817
  0
ARC
  8
型材断面
  6
CONTINUOUS
 62
    47
 10
-87.124232
 20
8.3518
 40
0.5
 50
149.999962
 51
240.000041
  0
LINE
  8
型材断面
  6
CONTINUOUS
 62
    47
 10
-87.37423
 20
7.91879
 11
-86.941223
 21
7.668793
  0
ARC
  8
型材断面
  6
CONTINUOUS
 62
    47
 10
-87.191224
 20
7.235777
 40
0.5
 50
330.000104
 51
420.000129
  0
LINE
  8
型材断面
  6
CONTINUOUS
 62
    47
 10
-76.2738
 20
2.145307
 11
-76.498795
 21
1.75559
  0
LINE
  8
型材断面
  6
CONTINUOUS
 62
    47
 10
-76.383595
 20
2.555112
 11
-76.2738
 21
2.145307
  0
LINE
  8
型材断面
  6
CONTINUOUS
 62
    47
 10
-74.108733
 20
0.89531
 11
-74.333733
 21
0.505597
  0
LINE
  8
型材断面
  6
CONTINUOUS
 62
    47
 10
-74.108733
 20
0.89531
 11
-73.698925
 21
1.005118
  0
LINE
  8
型材断面
  6
CONTINUOUS
 62
    47
 10
-74.333733
 20
0.505597
 11
-73.251217
 21
-0.119395
  0
LINE
  8
型材断面
  6
CONTINUOUS
 62
    47
 10
-73.698925
 20
1.005118
 11
-72.226688
 21
0.155122
  0
LINE
  8
型材断面
  6
CONTINUOUS
 62
    47
 10
-76.498795
 20
1.75559
 11
-77.58133
 21
2.380597
  0
LINE
  8
型材断面
  6
CONTINUOUS
 62
    47
 10
-76.383595
 20
2.555112
 11
-77.85585
 21
3.405118
  0
LINE
  8
型材断面
  6
CONTINUOUS
 62
    47
 10
-74.126207
 20
-1.634947
 11
-73.251217
 21
-0.119395
  0
LINE
  8
型材断面
  6
CONTINUOUS
 62
    47
 10
-78.45633
 20
0.86505
 11
-77.58133
 21
2.380597
  0
LINE
  8
型材断面
  6
CONTINUOUS
 62
    47
 10
-79.105845
 20
1.240048
 11
-77.85585
 21
3.405118
  0
LINE
  8
型材断面
  6
CONTINUOUS
 62
    47
 10
-81.501052
 20
-15.908565
 11
-72.226688
 21
0.155122
  0
ARC
  8
型材断面
  6
CONTINUOUS
 62
    47
 10
-75.991856
 20
-14.066366
 40
0.15
 50
329.999977
 51
419.999977
  0
LINE
  8
型材断面
  6
CONTINUOUS
 62
    47
 10
-76.09603
 20
-13.833015
 11
-75.91686
 21
-13.936463
  0
ARC
  8
型材断面
  6
CONTINUOUS
 62
    47
 10
-76.171031
 20
-13.96292
 40
0.15
 50
59.999977
 51
147.305693
  0
LINE
  8
型材断面
  6
CONTINUOUS
 62
    47
 10
-76.297268
 20
-13.881895
 11
-78.653365
 21
-17.552693
  0
LINE
  8
型材断面
  6
CONTINUOUS
 62
    47
 10
-75.861955
 20
-14.141365
 11
-78.536955
 21
-18.774595
  0
LINE
  8
型材断面
  6
CONTINUOUS
 62
    47
 10
-81.501052
 20
-15.908565
 11
-78.653358
 21
-17.55268
  0
LINE
  8
型材断面
  6
CONTINUOUS
 62
    47
 10
-74.126207
 20
-1.634947
 11
-78.45633
 21
0.86505
  0
LINE
  8
型材断面
  6
CONTINUOUS
 62
    47
 10
-86.132568
 20
18.136318
 11
-86.132568
 21
11.069407
  0
LINE
  8
型材断面
  6
CONTINUOUS
 62
    47
 10
-87.557243
 20
8.601802
 11
-86.132568
 21
11.069407
  0
LINE
  8
型材断面
  6
CONTINUOUS
 62
    47
 10
-85.132563
 20
19.136318
 11
-85.132563
 21
10.801462
  0
LINE
  8
型材断面
  6
CONTINUOUS
 62
    47
 10
-86.441212
 20
8.534828
 11
-85.132563
 21
10.801462
  0
LINE
  8
型材断面
  6
CONTINUOUS
 62
    47
 10
-97.907185
 20
-15.413843
 11
-105.431553
 21
-2.381238
  0
LINE
  8
型材断面
  6
CONTINUOUS
 62
    47
 10
-98.428553
 20
5.010305
 11
-99.053553
 21
6.092835
  0
LINE
  8
型材断面
  6
CONTINUOUS
 62
    47
 10
-98.533935
 20
6.392835
 11
-98.283937
 21
5.959828
  0
LINE
  8
型材断面
  6
CONTINUOUS
 62
    47
 10
-98.533935
 20
6.392835
 11
-99.053553
 21
6.092835
  0
LINE
  8
型材断面
  6
CONTINUOUS
 62
    47
 10
-95.863973
 20
7.068315
 11
-95.772468
 21
7.409817
  0
LINE
  8
型材断面
  6
CONTINUOUS
 62
    47
 10
-95.863973
 20
7.068315
 11
-96.205472
 21
7.15982
  0
LINE
  8
型材断面
  6
CONTINUOUS
 62
    47
 10
-98.283937
 20
5.959828
 11
-96.205477
 21
7.15982
  0
LINE
  8
型材断面
  6
CONTINUOUS
 62
    47
 10
-95.772468
 20
7.409817
 11
-93.823905
 21
8.534817
  0
ARC
  8
型材断面
  6
CONTINUOUS
 62
    47
 10
-93.140896
 20
8.3518
 40
0.5
 50
-60.000041
 51
30.000038
  0
LINE
  8
型材断面
  6
CONTINUOUS
 62
    47
 10
-92.890892
 20
7.91879
 11
-93.323902
 21
7.668793
  0
ARC
  8
型材断面
  6
CONTINUOUS
 62
    47
 10
-93.073904
 20
7.235777
 40
0.5
 50
119.999871
 51
209.999896
  0
LINE
  8
型材断面
  6
CONTINUOUS
 62
    47
 10
-103.991325
 20
2.145307
 11
-103.766327
 21
1.75559
  0
LINE
  8
型材断面
  6
CONTINUOUS
 62
    47
 10
-103.881527
 20
2.555112
 11
-103.991325
 21
2.145307
  0
LINE
  8
型材断面
  6
CONTINUOUS
 62
    47
 10
-106.15639
 20
0.89531
 11
-105.93139
 21
0.505597
  0
LINE
  8
型材断面
  6
CONTINUOUS
 62
    47
 10
-106.15639
 20
0.89531
 11
-106.566198
 21
1.005118
  0
LINE
  8
型材断面
  6
CONTINUOUS
 62
    47
 10
-105.93139
 20
0.505597
 11
-107.013908
 21
-0.119395
  0
LINE
  8
型材断面
  6
CONTINUOUS
 62
    47
 10
-106.566198
 20
1.005118
 11
-108.038437
 21
0.155122
  0
LINE
  8
型材断面
  6
CONTINUOUS
 62
    47
 10
-103.766327
 20
1.75559
 11
-102.683792
 21
2.380597
  0
LINE
  8
型材断面
  6
CONTINUOUS
 62
    47
 10
-103.881527
 20
2.555112
 11
-102.409275
 21
3.405118
  0
LINE
  8
型材断面
  6
CONTINUOUS
 62
    47
 10
-106.138915
 20
-1.634947
 11
-107.013908
 21
-0.119395
  0
LINE
  8
型材断面
  6
CONTINUOUS
 62
    47
 10
-101.808795
 20
0.86505
 11
-102.683792
 21
2.380597
  0
LINE
  8
型材断面
  6
CONTINUOUS
 62
    47
 10
-101.15928
 20
1.240048
 11
-102.409275
 21
3.405118
  0
LINE
  8
型材断面
  6
CONTINUOUS
 62
    47
 10
-98.764073
 20
-15.908565
 11
-108.038437
 21
0.155122
  0
ARC
  8
型材断面
  6
CONTINUOUS
 62
    47
 10
-104.273272
 20
-14.066366
 40
0.15
 50
120.000023
 51
210.000023
  0
LINE
  8
型材断面
  6
CONTINUOUS
 62
    47
 10
-104.169098
 20
-13.833015
 11
-104.348268
 21
-13.936463
  0
ARC
  8
型材断面
  6
CONTINUOUS
 62
    47
 10
-104.094098
 20
-13.96292
 40
0.15
 50
32.694307
 51
120.000023
  0
LINE
  8
型材断面
  6
CONTINUOUS
 62
    47
 10
-103.96786
 20
-13.881895
 11
-101.611762
 21
-17.552693
  0
LINE
  8
型材断面
  6
CONTINUOUS
 62
    47
 10
-104.403172
 20
-14.141365
 11
-101.72817
 21
-18.774595
  0
LINE
  8
型材断面
  6
CONTINUOUS
 62
    47
 10
-98.764073
 20
-15.908565
 11
-101.61177
 21
-17.55268
  0
LINE
  8
型材断面
  6
CONTINUOUS
 62
    47
 10
-106.138915
 20
-1.634947
 11
-101.808795
 21
0.86505
  0
LINE
  8
型材断面
  6
CONTINUOUS
 62
    47
 10
-94.132555
 20
18.136318
 11
-94.132555
 21
11.069407
  0
LINE
  8
型材断面
  6
CONTINUOUS
 62
    47
 10
-92.707882
 20
8.601802
 11
-94.132555
 21
11.069407
  0
LINE
  8
型材断面
  6
CONTINUOUS
 62
    47
 10
-95.13256
 20
19.136318
 11
-95.13256
 21
10.801462
  0
LINE
  8
型材断面
  6
CONTINUOUS
 62
    47
 10
-93.823913
 20
8.534828
 11
-95.13256
 21
10.801462
  0
LINE
  8
型材断面
  6
CONTINUOUS
 62
    47
 10
-101.728178
 20
-18.774587
 11
-90.132563
 21
-12.079863
  0
LINE
  8
型材断面
  6
CONTINUOUS
 62
    47
 10
-78.53695
 20
-18.774587
 11
-90.132563
 21
-12.079863
  0
LINE
  8
型材断面
  6
CONTINUOUS
 62
    47
 10
-97.898048
 20
-15.408565
 11
-90.132563
 21
-10.925168
  0
LINE
  8
型材断面
  6
CONTINUOUS
 62
    47
 10
-82.367077
 20
-15.408565
 11
-90.132563
 21
-10.925168
  0
LINE
  8
型材断面
  6
CONTINUOUS
 62
    47
 10
-105.422415
 20
-2.375962
 11
-95.246625
 21
3.49902
  0
LINE
  8
型材断面
  6
CONTINUOUS
 62
    47
 10
-95.246625
 20
3.49902
 11
-95.57151
 21
4.061743
  0
LINE
  8
型材断面
  6
CONTINUOUS
 62
    47
 10
-93.506917
 20
6.985782
 11
-93.256915
 21
6.552765
  0
LINE
  8
型材断面
  6
CONTINUOUS
 62
    47
 10
-93.622945
 20
5.186737
 11
-95.57151
 21
4.061743
  0
ARC
  8
型材断面
  6
CONTINUOUS
 62
    47
 10
-94.122944
 20
6.052764
 40
1.0
 50
-60.000156
 51
29.999934
  0
LINE
  8
型材断面
  6
CONTINUOUS
 62
    47
 10
-85.0185
 20
3.49902
 11
-84.693615
 21
4.061743
  0
LINE
  8
型材断面
  6
CONTINUOUS
 62
    47
 10
-86.642183
 20
5.186737
 11
-84.693615
 21
4.061743
  0
ARC
  8
型材断面
  6
CONTINUOUS
 62
    47
 10
-86.142185
 20
6.052764
 40
1.0
 50
150.000066
 51
240.000156
  0
LINE
  8
型材断面
  6
CONTINUOUS
 62
    47
 10
-86.758208
 20
6.985782
 11
-87.008208
 21
6.552765
  0
LINE
  8
型材断面
  6
CONTINUOUS
 62
    47
 10
-74.84271
 20
-2.375962
 11
-85.0185
 21
3.49902
  0
LINE
  8
型材断面
  6
CONTINUOUS
 62
    47
 10
-101.159282
 20
1.240055
 11
-96.612652
 21
3.86505
  0
LINE
  8
型材断面
  6
CONTINUOUS
 62
    47
 10
-98.428553
 20
5.010305
 11
-97.56253
 21
5.510303
  0
LINE
  8
型材断面
  6
CONTINUOUS
 62
    47
 10
-97.56253
 20
5.510303
 11
-96.612652
 21
3.86505
  0
LINE
  8
型材断面
  6
CONTINUOUS
 62
    47
 10
-82.702592
 20
5.510303
 11
-83.652475
 21
3.86505
  0
LINE
  8
型材断面
  6
CONTINUOUS
 62
    47
 10
-81.836572
 20
5.010305
 11
-82.702592
 21
5.510303
  0
LINE
  8
型材断面
  6
CONTINUOUS
 62
    47
 10
-79.10584
 20
1.240055
 11
-83.652475
 21
3.86505
  0
ENDBLK
  0
BLOCK
  2
*GRP_0025
 70
    65
 10
0.0
 20
0.0
  0
LINE
  8
型材断面
  6
CONTINUOUS
 62
    47
 10
44.46023
 20
-35.142763
 11
44.46023
 21
-34.242763
  0
LINE
  8
型材断面
  6
CONTINUOUS
 62
    47
 10
46.460232
 20
-35.142763
 11
46.460232
 21
-34.242763
  0
LINE
  8
型材断面
  6
CONTINUOUS
 62
    47
 10
40.460225
 20
-35.142763
 11
44.46023
 21
-35.142763
  0
LINE
  8
型材断面
  6
CONTINUOUS
 62
    47
 10
46.460232
 20
-35.142763
 11
50.46023
 21
-35.142763
  0
LINE
  8
型材断面
  6
CONTINUOUS
 62
    47
 10
46.460232
 20
-34.242763
 11
45.710232
 21
-34.242763
  0
LINE
  8
型材断面
  6
CONTINUOUS
 62
    47
 10
45.46023
 20
-34.492763
 11
45.710232
 21
-34.242763
  0
LINE
  8
型材断面
  6
CONTINUOUS
 62
    47
 10
45.46023
 20
-34.492763
 11
45.21023
 21
-34.242763
  0
LINE
  8
型材断面
  6
CONTINUOUS
 62
    47
 10
44.46023
 20
-34.242763
 11
45.21023
 21
-34.242763
  0
LINE
  8
型材断面
  6
CONTINUOUS
 62
    47
 10
45.16023
 20
-35.892755
 11
44.910223
 21
-36.142763
  0
LINE
  8
型材断面
  6
CONTINUOUS
 62
    47
 10
41.460223
 20
-36.142763
 11
44.910223
 21
-36.142763
  0
LINE
  8
型材断面
  6
CONTINUOUS
 62
    47
 10
45.76023
 20
-35.892755
 11
46.01024
 21
-36.142763
  0
LINE
  8
型材断面
  6
CONTINUOUS
 62
    47
 10
49.460225
 20
-36.142763
 11
46.01024
 21
-36.142763
  0
LINE
  8
型材断面
  6
CONTINUOUS
 62
    47
 10
45.76023
 20
-35.892755
 11
45.160227
 21
-35.892757
  0
LINE
  8
型材断面
  6
CONTINUOUS
 62
    47
 10
53.234855
 20
-69.692922
 11
60.759223
 21
-56.660318
  0
LINE
  8
型材断面
  6
CONTINUOUS
 62
    47
 10
53.75622
 20
-49.268775
 11
54.381222
 21
-48.186245
  0
LINE
  8
型材断面
  6
CONTINUOUS
 62
    47
 10
53.861602
 20
-47.886245
 11
53.611605
 21
-48.319253
  0
LINE
  8
型材断面
  6
CONTINUOUS
 62
    47
 10
53.861602
 20
-47.886245
 11
54.381222
 21
-48.186245
  0
LINE
  8
型材断面
  6
CONTINUOUS
 62
    47
 10
51.19164
 20
-47.210765
 11
51.100137
 21
-46.869262
  0
LINE
  8
型材断面
  6
CONTINUOUS
 62
    47
 10
51.19164
 20
-47.210765
 11
51.533143
 21
-47.11926
  0
LINE
  8
型材断面
  6
CONTINUOUS
 62
    47
 10
53.611605
 20
-48.319253
 11
51.533145
 21
-47.11926
  0
LINE
  8
型材断面
  6
CONTINUOUS
 62
    47
 10
51.100137
 20
-46.869262
 11
49.151572
 21
-45.744262
  0
ARC
  8
型材断面
  6
CONTINUOUS
 62
    47
 10
48.468561
 20
-45.927279
 40
0.5
 50
149.999962
 51
240.000041
  0
LINE
  8
型材断面
  6
CONTINUOUS
 62
    47
 10
48.218563
 20
-46.36029
 11
48.65157
 21
-46.610287
  0
ARC
  8
型材断面
  6
CONTINUOUS
 62
    47
 10
48.401569
 20
-47.043302
 40
0.5
 50
330.000104
 51
420.000129
  0
LINE
  8
型材断面
  6
CONTINUOUS
 62
    47
 10
59.318993
 20
-52.133773
 11
59.093997
 21
-52.52349
  0
LINE
  8
型材断面
  6
CONTINUOUS
 62
    47
 10
59.209197
 20
-51.723967
 11
59.318993
 21
-52.133773
  0
LINE
  8
型材断面
  6
CONTINUOUS
 62
    47
 10
61.48406
 20
-53.38377
 11
61.25906
 21
-53.773482
  0
LINE
  8
型材断面
  6
CONTINUOUS
 62
    47
 10
61.48406
 20
-53.38377
 11
61.893867
 21
-53.273963
  0
LINE
  8
型材断面
  6
CONTINUOUS
 62
    47
 10
61.25906
 20
-53.773482
 11
62.341575
 21
-54.398475
  0
LINE
  8
型材断面
  6
CONTINUOUS
 62
    47
 10
61.893867
 20
-53.273963
 11
63.366105
 21
-54.123957
  0
LINE
  8
型材断面
  6
CONTINUOUS
 62
    47
 10
59.093997
 20
-52.52349
 11
58.011463
 21
-51.898482
  0
LINE
  8
型材断面
  6
CONTINUOUS
 62
    47
 10
59.209197
 20
-51.723967
 11
57.736943
 21
-50.873963
  0
LINE
  8
型材断面
  6
CONTINUOUS
 62
    47
 10
61.466585
 20
-55.914027
 11
62.341575
 21
-54.398475
  0
LINE
  8
型材断面
  6
CONTINUOUS
 62
    47
 10
57.136463
 20
-53.41403
 11
58.011463
 21
-51.898482
  0
LINE
  8
型材断面
  6
CONTINUOUS
 62
    47
 10
56.486947
 20
-53.039033
 11
57.736943
 21
-50.873963
  0
LINE
  8
型材断面
  6
CONTINUOUS
 62
    47
 10
54.09174
 20
-70.187645
 11
63.366105
 21
-54.123957
  0
ARC
  8
型材断面
  6
CONTINUOUS
 62
    47
 10
59.600937
 20
-68.345445
 40
0.15
 50
329.999977
 51
419.999977
  0
LINE
  8
型材断面
  6
CONTINUOUS
 62
    47
 10
59.496762
 20
-68.112095
 11
59.675933
 21
-68.215542
  0
ARC
  8
型材断面
  6
CONTINUOUS
 62
    47
 10
59.421763
 20
-68.241998
 40
0.15
 50
59.999977
 51
147.305693
  0
LINE
  8
型材断面
  6
CONTINUOUS
 62
    47
 10
59.295525
 20
-68.160975
 11
56.939428
 21
-71.831772
  0
LINE
  8
型材断面
  6
CONTINUOUS
 62
    47
 10
59.730838
 20
-68.420445
 11
57.055838
 21
-73.053675
  0
LINE
  8
型材断面
  6
CONTINUOUS
 62
    47
 10
54.09174
 20
-70.187645
 11
56.939435
 21
-71.83176
  0
LINE
  8
型材断面
  6
CONTINUOUS
 62
    47
 10
61.466585
 20
-55.914027
 11
57.136463
 21
-53.41403
  0
LINE
  8
型材断面
  6
CONTINUOUS
 62
    47
 10
49.460225
 20
-36.142763
 11
49.460225
 21
-43.209673
  0
LINE
  8
型材断面
  6
CONTINUOUS
 62
    47
 10
48.03555
 20
-45.677278
 11
49.460225
 21
-43.209673
  0
LINE
  8
型材断面
  6
CONTINUOUS
 62
    47
 10
50.46023
 20
-35.142763
 11
50.46023
 21
-43.477617
  0
LINE
  8
型材断面
  6
CONTINUOUS
 62
    47
 10
49.15158
 20
-45.744253
 11
50.46023
 21
-43.477617
  0
LINE
  8
型材断面
  6
CONTINUOUS
 62
    47
 10
37.685607
 20
-69.692922
 11
30.16124
 21
-56.660318
  0
LINE
  8
型材断面
  6
CONTINUOUS
 62
    47
 10
37.16424
 20
-49.268775
 11
36.53924
 21
-48.186245
  0
LINE
  8
型材断面
  6
CONTINUOUS
 62
    47
 10
37.058857
 20
-47.886245
 11
37.308855
 21
-48.319253
  0
LINE
  8
型材断面
  6
CONTINUOUS
 62
    47
 10
37.058857
 20
-47.886245
 11
36.53924
 21
-48.186245
  0
LINE
  8
型材断面
  6
CONTINUOUS
 62
    47
 10
39.72882
 20
-47.210765
 11
39.820325
 21
-46.869262
  0
LINE
  8
型材断面
  6
CONTINUOUS
 62
    47
 10
39.72882
 20
-47.210765
 11
39.38732
 21
-47.11926
  0
LINE
  8
型材断面
  6
CONTINUOUS
 62
    47
 10
37.308855
 20
-48.319253
 11
39.387315
 21
-47.11926
  0
LINE
  8
型材断面
  6
CONTINUOUS
 62
    47
 10
39.820325
 20
-46.869262
 11
41.768887
 21
-45.744262
  0
ARC
  8
型材断面
  6
CONTINUOUS
 62
    47
 10
42.451897
 20
-45.927279
 40
0.5
 50
-60.000041
 51
30.000038
  0
LINE
  8
型材断面
  6
CONTINUOUS
 62
    47
 10
42.7019
 20
-46.36029
 11
42.26889
 21
-46.610287
  0
ARC
  8
型材断面
  6
CONTINUOUS
 62
    47
 10
42.518889
 20
-47.043302
 40
0.5
 50
119.999871
 51
209.999896
  0
LINE
  8
型材断面
  6
CONTINUOUS
 62
    47
 10
31.601468
 20
-52.133773
 11
31.826465
 21
-52.52349
  0
LINE
  8
型材断面
  6
CONTINUOUS
 62
    47
 10
31.711265
 20
-51.723967
 11
31.601468
 21
-52.133773
  0
LINE
  8
型材断面
  6
CONTINUOUS
 62
    47
 10
29.436403
 20
-53.38377
 11
29.661403
 21
-53.773482
  0
LINE
  8
型材断面
  6
CONTINUOUS
 62
    47
 10
29.436403
 20
-53.38377
 11
29.026595
 21
-53.273963
  0
LINE
  8
型材断面
  6
CONTINUOUS
 62
    47
 10
29.661403
 20
-53.773482
 11
28.578885
 21
-54.398475
  0
LINE
  8
型材断面
  6
CONTINUOUS
 62
    47
 10
29.026595
 20
-53.273963
 11
27.554355
 21
-54.123957
  0
LINE
  8
型材断面
  6
CONTINUOUS
 62
    47
 10
31.826465
 20
-52.52349
 11
32.909
 21
-51.898482
  0
LINE
  8
型材断面
  6
CONTINUOUS
 62
    47
 10
31.711265
 20
-51.723967
 11
33.183518
 21
-50.873963
  0
LINE
  8
型材断面
  6
CONTINUOUS
 62
    47
 10
29.453878
 20
-55.914027
 11
28.578885
 21
-54.398475
  0
LINE
  8
型材断面
  6
CONTINUOUS
 62
    47
 10
33.783998
 20
-53.41403
 11
32.909
 21
-51.898482
  0
LINE
  8
型材断面
  6
CONTINUOUS
 62
    47
 10
34.433512
 20
-53.039033
 11
33.183518
 21
-50.873963
  0
LINE
  8
型材断面
  6
CONTINUOUS
 62
    47
 10
36.82872
 20
-70.187645
 11
27.554355
 21
-54.123957
  0
ARC
  8
型材断面
  6
CONTINUOUS
 62
    47
 10
31.319521
 20
-68.345445
 40
0.15
 50
120.000023
 51
210.000023
  0
LINE
  8
型材断面
  6
CONTINUOUS
 62
    47
 10
31.423695
 20
-68.112095
 11
31.244525
 21
-68.215542
  0
ARC
  8
型材断面
  6
CONTINUOUS
 62
    47
 10
31.498696
 20
-68.241998
 40
0.15
 50
32.694307
 51
120.000023
  0
LINE
  8
型材断面
  6
CONTINUOUS
 62
    47
 10
31.624933
 20
-68.160975
 11
33.98103
 21
-71.831772
  0
LINE
  8
型材断面
  6
CONTINUOUS
 62
    47
 10
31.18962
 20
-68.420445
 11
33.864623
 21
-73.053675
  0
LINE
  8
型材断面
  6
CONTINUOUS
 62
    47
 10
36.82872
 20
-70.187645
 11
33.981022
 21
-71.83176
  0
LINE
  8
型材断面
  6
CONTINUOUS
 62
    47
 10
29.453878
 20
-55.914027
 11
33.783998
 21
-53.41403
  0
LINE
  8
型材断面
  6
CONTINUOUS
 62
    47
 10
41.460238
 20
-36.142763
 11
41.460238
 21
-43.209673
  0
LINE
  8
型材断面
  6
CONTINUOUS
 62
    47
 10
42.88491
 20
-45.677278
 11
41.460238
 21
-43.209673
  0
LINE
  8
型材断面
  6
CONTINUOUS
 62
    47
 10
40.460232
 20
-35.142763
 11
40.460232
 21
-43.477617
  0
LINE
  8
型材断面
  6
CONTINUOUS
 62
    47
 10
41.76888
 20
-45.744253
 11
40.460232
 21
-43.477617
  0
LINE
  8
型材断面
  6
CONTINUOUS
 62
    47
 10
33.864615
 20
-73.053668
 11
45.46023
 21
-66.358943
  0
LINE
  8
型材断面
  6
CONTINUOUS
 62
    47
 10
57.055842
 20
-73.053668
 11
45.46023
 21
-66.358943
  0
LINE
  8
型材断面
  6
CONTINUOUS
 62
    47
 10
37.694745
 20
-69.687645
 11
45.46023
 21
-65.204248
  0
LINE
  8
型材断面
  6
CONTINUOUS
 62
    47
 10
53.225715
 20
-69.687645
 11
45.46023
 21
-65.204248
  0
LINE
  8
型材断面
  6
CONTINUOUS
 62
    47
 10
30.170377
 20
-56.655043
 11
40.346168
 21
-50.78006
  0
LINE
  8
型材断面
  6
CONTINUOUS
 62
    47
 10
40.346168
 20
-50.78006
 11
40.021283
 21
-50.217338
  0
LINE
  8
型材断面
  6
CONTINUOUS
 62
    47
 10
42.085875
 20
-47.293297
 11
42.335878
 21
-47.726315
  0
LINE
  8
型材断面
  6
CONTINUOUS
 62
    47
 10
41.969847
 20
-49.092342
 11
40.021283
 21
-50.217338
  0
ARC
  8
型材断面
  6
CONTINUOUS
 62
    47
 10
41.46985
 20
-48.226315
 40
1.0
 50
-60.000156
 51
29.999934
  0
LINE
  8
型材断面
  6
CONTINUOUS
 62
    47
 10
50.574293
 20
-50.78006
 11
50.899178
 21
-50.217338
  0
LINE
  8
型材断面
  6
CONTINUOUS
 62
    47
 10
48.95061
 20
-49.092342
 11
50.899178
 21
-50.217338
  0
ARC
  8
型材断面
  6
CONTINUOUS
 62
    47
 10
49.450609
 20
-48.226315
 40
1.0
 50
150.000066
 51
240.000156
  0
LINE
  8
型材断面
  6
CONTINUOUS
 62
    47
 10
48.834585
 20
-47.293297
 11
48.584585
 21
-47.726315
  0
LINE
  8
型材断面
  6
CONTINUOUS
 62
    47
 10
60.750082
 20
-56.655043
 11
50.574293
 21
-50.78006
  0
LINE
  8
型材断面
  6
CONTINUOUS
 62
    47
 10
34.43351
 20
-53.039025
 11
38.98014
 21
-50.41403
  0
LINE
  8
型材断面
  6
CONTINUOUS
 62
    47
 10
37.16424
 20
-49.268775
 11
38.030263
 21
-48.768778
  0
LINE
  8
型材断面
  6
CONTINUOUS
 62
    47
 10
38.030263
 20
-48.768778
 11
38.98014
 21
-50.41403
  0
LINE
  8
型材断面
  6
CONTINUOUS
 62
    47
 10
52.8902
 20
-48.768778
 11
51.940317
 21
-50.41403
  0
LINE
  8
型材断面
  6
CONTINUOUS
 62
    47
 10
53.75622
 20
-49.268775
 11
52.8902
 21
-48.768778
  0
LINE
  8
型材断面
  6
CONTINUOUS
 62
    47
 10
56.486953
 20
-53.039025
 11
51.940317
 21
-50.41403
  0
ENDBLK
  0
BLOCK
  2
*DIM_0026
 70
    65
 10
0.0
 20
0.0
  0
LINE
  8
寸法
  6
BYBLOCK
 62
     0
 10
71.36448
 20
28.36264
 11
84.901505
 21
28.36264
  0
LINE
  8
寸法
  6
BYBLOCK
 62
     0
 10
71.36448
 20
12.86264
 11
84.901505
 21
12.86264
  0
LINE
  8
寸法
  6
BYBLOCK
 62
     0
 10
84.901505
 20
28.36264
 11
84.901505
 21
12.86264
  0
POINT
  8
寸法
 62
     0
 10
84.901505
 20
28.36264
  0
POINT
  8
寸法
 62
     0
 10
84.901505
 20
12.86264
  0
TEXT
  7
TextStyle03
  8
寸法
  6
CONTINUOUS
 62
     0
 10
84.525
 20
18.475
  1
31
 40
4.0
 50
90.0
 72
     5
 11
84.525
 21
22.725
  0
ENDBLK
  0
BLOCK
  2
*DIM_0027
 70
    65
 10
0.0
 20
0.0
  0
LINE
  8
寸法
  6
BYBLOCK
 62
     0
 10
78.932302
 20
28.36264
 11
79.799443
 21
28.36264
  0
LINE
  8
寸法
  6
BYBLOCK
 62
     0
 10
72.114482
 20
21.861515
 11
79.799443
 21
21.861515
  0
LINE
  8
寸法
  6
BYBLOCK
 62
     0
 10
79.799443
 20
28.36264
 11
79.799443
 21
21.861515
  0
POINT
  8
寸法
 62
     0
 10
79.799443
 20
28.36264
  0
POINT
  8
寸法
 62
     0
 10
79.799443
 20
21.861515
  0
TEXT
  7
TextStyle03
  8
寸法
  6
CONTINUOUS
 62
     0
 10
79.4
 20
22.975
  1
13
 40
4.0
 50
90.0
 72
     5
 11
79.4
 21
27.225
  0
ENDBLK
  0
BLOCK
  2
*DIM_0028
 70
    65
 10
0.0
 20
0.0
  0
LINE
  8
寸法
  6
BYBLOCK
 62
     0
 10
75.289485
 20
12.86264
 11
79.799443
 21
12.86264
  0
LINE
  8
寸法
  6
BYBLOCK
 62
     0
 10
79.799443
 20
21.861515
 11
79.799443
 21
12.86264
  0
POINT
  8
寸法
 62
     0
 10
79.799443
 20
12.86264
  0
TEXT
  7
TextStyle03
  8
寸法
  6
CONTINUOUS
 62
     0
 10
79.4
 20
15.225
  1
18
 40
4.0
 50
90.0
 72
     5
 11
79.4
 21
19.475
  0
ENDBLK
  0
BLOCK
  2
*GRP_0029
 70
    65
 10
0.0
 20
0.0
  0
POLYLINE
  8
寸法
  6
BYBLOCK
 62
     0
 66
     1
  0
VERTEX
  8
寸法
 10
-63.090128
 20
7.46636
  0
VERTEX
  8
寸法
 10
-34.906818
 20
62.145455
  0
VERTEX
  8
寸法
 10
-26.270455
 20
62.145455
  0
SEQEND
  0
ENDBLK
  0
BLOCK
  2
*GRP_0030
 70
    65
 10
0.0
 20
0.0
  0
LINE
  8
ゴム等
  6
CONTINUOUS
 62
    63
 10
-106.121118
 20
-0.065793
 11
-106.246118
 21
0.150713
  0
LINE
  8
ゴム等
  6
CONTINUOUS
 62
    63
 10
-106.246118
 20
0.150713
 11
-105.8131
 21
0.400707
  0
LINE
  8
ゴム等
  6
CONTINUOUS
 62
    63
 10
-105.8131
 20
0.400707
 11
-106.263087
 21
1.180133
  0
LINE
  8
ゴム等
  6
CONTINUOUS
 62
    63
 10
-106.263087
 20
1.180133
 11
-107.821945
 21
0.280148
  0
LINE
  8
ゴム等
  6
CONTINUOUS
 62
    63
 10
-103.176617
 20
1.634182
 11
-103.301615
 21
1.850695
  0
LINE
  8
ゴム等
  6
CONTINUOUS
 62
    63
 10
-103.301615
 20
1.850695
 11
-103.734633
 21
1.600687
  0
LINE
  8
ゴム等
  6
CONTINUOUS
 62
    63
 10
-103.176617
 20
1.634182
 11
-103.579252
 21
0.131555
  0
LINE
  8
ゴム等
  6
CONTINUOUS
 62
    63
 10
-103.734633
 20
1.600687
 11
-104.184617
 21
2.380122
  0
LINE
  8
ゴム等
  6
CONTINUOUS
 62
    63
 10
-104.184617
 20
2.380122
 11
-102.62577
 21
3.280107
  0
LINE
  8
ゴム等
  6
CONTINUOUS
 62
    63
 10
-104.618492
 20
-0.468435
 11
-103.579252
 21
0.131555
  0
ARC
  8
ゴム等
  6
CONTINUOUS
 62
    63
 10
-104.973866
 20
1.347109
 40
0.5
 50
119.999576
 51
209.999576
  0
LINE
  8
ゴム等
  6
CONTINUOUS
 62
    63
 10
-105.223855
 20
1.780122
 11
-105.223855
 21
1.780122
  0
ARC
  8
ゴム等
  6
CONTINUOUS
 62
    63
 10
-104.973866
 20
1.347109
 40
0.5
 50
29.999576
 51
119.999576
  0
LINE
  8
ゴム等
  6
CONTINUOUS
 62
    63
 10
-104.540852
 20
1.597105
 11
-104.140852
 21
0.904285
  0
ARC
  8
ゴム等
  6
CONTINUOUS
 62
    63
 10
-104.573871
 20
0.654285
 40
0.5
 50
299.999576
 51
389.999576
  0
LINE
  8
ゴム等
  6
CONTINUOUS
 62
    63
 10
-104.32387
 20
0.221275
 11
-104.32387
 21
0.221275
  0
LINE
  8
ゴム等
  6
CONTINUOUS
 62
    63
 10
-105.406873
 20
1.097115
 11
-105.006885
 21
0.404295
  0
ARC
  8
ゴム等
  6
CONTINUOUS
 62
    63
 10
-104.573871
 20
0.654285
 40
0.5
 50
209.999576
 51
299.999576
  0
LINE
  8
ゴム等
  6
CONTINUOUS
 62
    63
 10
-106.121118
 20
-0.065793
 11
-104.618492
 21
-0.468435
  0
LINE
  8
ゴム等
  6
CONTINUOUS
 10
-104.523945
 20
-0.413847
 11
-106.175702
 21
0.028747
  0
LINE
  8
ゴム等
  6
CONTINUOUS
 10
-106.372747
 20
1.116827
 11
-108.658627
 21
1.729345
  0
LINE
  8
ゴム等
  6
CONTINUOUS
 10
-103.923245
 20
2.531027
 11
-110.072818
 21
4.178847
  0
LINE
  8
ゴム等
  6
CONTINUOUS
 10
-102.698495
 20
3.238127
 11
-110.77992
 21
5.403598
  0
LINE
  8
ゴム等
  6
CONTINUOUS
 10
-106.199785
 20
1.070485
 11
-105.243575
 21
0.814252
  0
LINE
  8
ゴム等
  6
CONTINUOUS
 10
-103.26125
 20
1.318355
 11
-104.584645
 21
1.67297
  0
LINE
  8
ゴム等
  6
CONTINUOUS
 10
-109.365718
 20
2.954092
 11
-105.13499
 21
1.820437
  0
LINE
  8
ゴム等
  6
CONTINUOUS
 10
-103.520072
 20
0.352435
 11
-104.096125
 21
0.50679
  0
LINE
  8
ゴム等
  6
CONTINUOUS
 62
    63
 10
-111.5719
 20
6.775367
 11
-110.705868
 21
7.27536
  0
LINE
  8
ゴム等
  6
CONTINUOUS
 62
    63
 10
-106.375723
 20
9.775323
 11
-107.24175
 21
9.275327
  0
LINE
  8
ゴム等
  6
CONTINUOUS
 62
    63
 10
-107.24175
 20
9.275327
 11
-107.24175
 21
9.275327
  0
ARC
  8
ゴム等
  6
CONTINUOUS
 62
    63
 10
-107.458264
 20
9.15033
 40
0.25
 50
299.999576
 51
389.999576
  0
LINE
  8
ゴム等
  6
CONTINUOUS
 62
    63
 10
-110.705868
 20
7.27536
 11
-110.705868
 21
7.27536
  0
LINE
  8
ゴム等
  6
CONTINUOUS
 62
    63
 10
-110.364368
 20
7.18385
 11
-107.333258
 21
8.933825
  0
ARC
  8
ゴム等
  6
CONTINUOUS
 62
    63
 10
-110.489366
 20
7.400353
 40
0.25
 50
209.999576
 51
299.999576
  0
LINE
  8
ゴム等
  6
CONTINUOUS
 62
    63
 10
-107.821945
 20
0.280148
 11
-111.5719
 21
6.775367
  0
LINE
  8
ゴム等
  6
CONTINUOUS
 62
    63
 10
-102.62577
 20
3.280107
 11
-106.375723
 21
9.775323
  0
LINE
  8
ゴム等
  6
CONTINUOUS
 10
-105.412177
 20
8.106382
 11
-107.703165
 21
8.720268
  0
LINE
  8
ゴム等
  6
CONTINUOUS
 10
-104.70508
 20
6.881632
 11
-108.927915
 21
8.013172
  0
LINE
  8
ゴム等
  6
CONTINUOUS
 10
-103.99798
 20
5.656885
 11
-110.152665
 21
7.306077
  0
LINE
  8
ゴム等
  6
CONTINUOUS
 10
-103.290885
 20
4.432135
 11
-111.48702
 21
6.628345
  0
LINE
  8
ゴム等
  6
CONTINUOUS
 10
-106.85776
 20
9.49703
 11
-106.097422
 21
9.29329
  0
ENDBLK
  0
ENDSEC
  0
SECTION
  2
ENTITIES
  0
POLYLINE
  8
通り芯
  6
CONTINUOUS
 66
     1
 70
     1
  0
VERTEX
  8
通り芯
 10
-210.0
 20
-148.5
  0
VERTEX
  8
通り芯
 10
210.0
 20
-148.5
  0
VERTEX
  8
通り芯
 10
210.0
 20
148.5
  0
VERTEX
  8
通り芯
 10
-210.0
 20
148.5
  0
SEQEND
  0
INSERT
  2
*GRP_0007
  8
補助線
  6
CONTINUOUS
 10
0.0
 20
0.0
  0
INSERT
  2
*GRP_0001
  8
型材断面
  6
CONTINUOUS
 10
0.0
 20
0.0
  0
INSERT
  2
*GRP_0002
  8
型材断面
  6
CONTINUOUS
 10
0.0
 20
0.0
  0
LINE
  8
型材断面
  6
CONTINUOUS
 10
50.460245
 20
6.073495
 11
50.460245
 21
36.521155
  0
LINE
  8
型材断面
  6
CONTINUOUS
 10
40.460217
 20
6.073495
 11
40.460217
 21
36.521155
  0
LINE
  8
型材断面
  6
DOT
 10
41.460225
 20
-6.16778
 11
41.460225
 21
-6.91778
  0
LINE
  8
型材断面
  6
DOT
 10
43.635223
 20
-6.16778
 11
43.635223
 21
-6.91778
  0
LINE
  8
型材断面
  6
DOT
 10
49.46024
 20
-6.16778
 11
49.46024
 21
-6.91778
  0
LINE
  8
型材断面
  6
DOT
 10
47.285242
 20
-6.16778
 11
47.285242
 21
-6.91778
  0
INSERT
  2
*HAT_0001
  8
型材断面
 10
0.0
 20
0.0
  0
LINE
  8
型材断面
  6
CONTINUOUS
 10
74.289485
 20
6.073495
 11
74.289485
 21
36.521155
  0
LINE
  8
型材断面
  6
CONTINUOUS
 10
64.289458
 20
6.073495
 11
64.289458
 21
36.521155
  0
POLYLINE
  8
型材断面
  6
CONTINUOUS
 66
     1
  0
VERTEX
  8
型材断面
 10
22.44097
 20
33.114632
  0
VERTEX
  8
型材断面
 10
22.44097
 20
11.940803
  0
VERTEX
  8
型材断面
 10
20.39189
 20
18.185618
  0
VERTEX
  8
型材断面
 10
22.44097
 20
18.185618
  0
SEQEND
  0
INSERT
  2
*GRP_0011
  8
型材断面
  6
CONTINUOUS
 10
0.0
 20
0.0
  0
LINE
  8
型材断面
  6
DOT
 10
-81.972045
 20
5.954548
 11
-86.43207
 21
8.529545
  0
LINE
  8
型材断面
  6
DOT
 10
-81.972048
 20
5.954548
 11
-78.222045
 21
12.449738
  0
LINE
  8
型材断面
  6
DOT
 10
-78.222045
 20
12.449738
 11
-82.68207
 21
15.024735
  0
LINE
  8
型材断面
  6
DOT
 10
-86.43207
 20
8.529548
 11
-82.68207
 21
15.024735
  0
LINE
  8
型材断面
  6
DOT
 10
-98.29308
 20
5.954548
 11
-93.833055
 21
8.529545
  0
LINE
  8
型材断面
  6
DOT
 10
-98.293075
 20
5.954548
 11
-102.04308
 21
12.449738
  0
LINE
  8
型材断面
  6
DOT
 10
-102.04308
 20
12.449738
 11
-97.583055
 21
15.024735
  0
LINE
  8
型材断面
  6
DOT
 10
-93.833055
 20
8.529548
 11
-97.583055
 21
15.024735
  0
INSERT
  2
*GRP_0024
  8
型材断面
  6
CONTINUOUS
 62
    47
 10
0.0
 20
0.0
  0
INSERT
  2
*GRP_0025
  8
型材断面
  6
CONTINUOUS
 62
    47
 10
0.0
 20
0.0
  0
ARC
  8
型材断面
  6
CONTINUOUS
 10
47.210222
 20
15.36264
 40
2.5
 50
-90.0
 51
0.0
  0
LINE
  8
型材断面
  6
CONTINUOUS
 10
43.710227
 20
12.86264
 11
47.210223
 21
12.86264
  0
ARC
  8
型材断面
  6
CONTINUOUS
 10
43.710227
 20
15.36264
 40
2.5
 50
-180.0
 51
-90.0
  0
LINE
  8
型材断面
  6
CONTINUOUS
 10
49.710223
 20
15.36264
 11
49.710223
 21
19.36264
  0
LINE
  8
型材断面
  6
CONTINUOUS
 10
41.210227
 20
15.36264
 11
41.210227
 21
19.36264
  0
ARC
  8
型材断面
  6
CONTINUOUS
 10
43.710227
 20
19.36264
 40
2.5
 50
91.719189
 51
180.0
  0
ARC
  8
型材断面
  6
CONTINUOUS
 10
47.210222
 20
19.36264
 40
2.5
 50
0.0
 51
88.28041
  0
LINE
  8
型材断面
  6
CONTINUOUS
 10
44.38521
 20
36.521155
 11
44.38521
 21
28.36264
  0
LINE
  8
型材断面
  6
CONTINUOUS
 10
46.53524
 20
36.521155
 11
46.53524
 21
28.36264
  0
LINE
  8
型材断面
  6
DOT
 10
43.635223
 20
36.521155
 11
43.635223
 21
28.36264
  0
LINE
  8
型材断面
  6
DOT
 10
47.28524
 20
36.521155
 11
47.28524
 21
28.36264
  0
LINE
  8
型材断面
  6
CONTINUOUS
 10
44.385223
 20
6.073495
 11
44.385223
 21
12.86264
  0
LINE
  8
型材断面
  6
CONTINUOUS
 10
46.53524
 20
6.073495
 11
46.53524
 21
12.86264
  0
LINE
  8
型材断面
  6
DOT
 10
47.28524
 20
6.073495
 11
47.28524
 21
12.86264
  0
LINE
  8
型材断面
  6
DOT
 10
43.635223
 20
6.073495
 11
43.635223
 21
12.86264
  0
ARC
  8
型材断面
  6
CONTINUOUS
 10
71.039462
 20
15.36264
 40
2.5
 50
-90.0
 51
0.0
  0
LINE
  8
型材断面
  6
CONTINUOUS
 10
67.539467
 20
12.86264
 11
71.039463
 21
12.86264
  0
ARC
  8
型材断面
  6
CONTINUOUS
 10
67.539467
 20
15.36264
 40
2.5
 50
-180.0
 51
-90.0
  0
LINE
  8
型材断面
  6
CONTINUOUS
 10
73.539463
 20
15.36264
 11
73.539463
 21
19.36264
  0
LINE
  8
型材断面
  6
CONTINUOUS
 10
65.039467
 20
15.36264
 11
65.039467
 21
19.36264
  0
ARC
  8
型材断面
  6
CONTINUOUS
 10
67.539467
 20
19.36264
 40
2.5
 50
91.719189
 51
180.0
  0
ARC
  8
型材断面
  6
CONTINUOUS
 10
71.039462
 20
19.36264
 40
2.5
 50
0.0
 51
88.28041
  0
LINE
  8
型材断面
  6
DOT
 10
67.464463
 20
6.073495
 11
67.464463
 21
12.86264
  0
LINE
  8
型材断面
  6
CONTINUOUS
 10
68.214463
 20
6.073495
 11
68.214463
 21
12.86264
  0
LINE
  8
型材断面
  6
CONTINUOUS
 10
70.36448
 20
6.073495
 11
70.36448
 21
12.86264
  0
LINE
  8
型材断面
  6
DOT
 10
71.11448
 20
6.073495
 11
71.11448
 21
12.86264
  0
LINE
  8
型材断面
  6
CONTINUOUS
 10
68.21445
 20
36.521155
 11
68.21445
 21
28.36264
  0
LINE
  8
型材断面
  6
CONTINUOUS
 10
70.36448
 20
36.521155
 11
70.36448
 21
28.36264
  0
LINE
  8
型材断面
  6
DOT
 10
71.11448
 20
36.521155
 11
71.11448
 21
28.36264
  0
LINE
  8
型材断面
  6
DOT
 10
67.464463
 20
36.521155
 11
67.464463
 21
28.36264
  0
LINE
  8
型材断面
  6
CONTINUOUS
 10
67.464465
 20
21.86264
 11
67.464465
 21
27.86264
  0
ARC
  8
型材断面
  6
CONTINUOUS
 10
67.964465
 20
27.86264
 40
0.5
 50
90.0
 51
180.0
  0
LINE
  8
型材断面
  6
CONTINUOUS
 10
67.964465
 20
28.36264
 11
70.614482
 21
28.36264
  0
LINE
  8
型材断面
  6
CONTINUOUS
 10
71.114482
 20
21.86264
 11
71.114482
 21
27.86264
  0
ARC
  8
型材断面
  6
CONTINUOUS
 10
70.614482
 20
27.86264
 40
0.5
 50
0.0
 51
90.0
  0
LINE
  8
型材断面
  6
CONTINUOUS
 10
47.285242
 20
21.86264
 11
47.285242
 21
27.86264
  0
ARC
  8
型材断面
  6
CONTINUOUS
 10
46.785242
 20
27.86264
 40
0.5
 50
0.0
 51
90.0
  0
LINE
  8
型材断面
  6
CONTINUOUS
 10
44.135225
 20
28.36264
 11
46.785242
 21
28.36264
  0
LINE
  8
型材断面
  6
CONTINUOUS
 10
43.635225
 20
21.86264
 11
43.635225
 21
27.86264
  0
ARC
  8
型材断面
  6
CONTINUOUS
 10
44.135225
 20
27.86264
 40
0.5
 50
90.0
 51
180.0
  0
LINE
  8
型材断面
  6
CONTINUOUS
 10
-24.23106
 20
57.209175
 11
-2.6149
 21
57.209175
  0
LINE
  8
型材断面
  6
CONTINUOUS
 10
-24.23106
 20
56.90101
 11
-2.6149
 21
56.90101
  0
LINE
  8
型材断面
  6
CONTINUOUS
 10
-24.811867
 20
67.478535
 11
3.63165
 21
67.478535
  0
LINE
  8
型材断面
  6
CONTINUOUS
 10
-24.811867
 20
67.210185
 11
3.63165
 21
67.210185
  0
LINE
  8
ガラス
  6
CONTINUOUS
 10
-49.767045
 20
-0.22572
 11
-74.570928
 21
14.0948
  0
LINE
  8
ガラス
  6
CONTINUOUS
 10
-51.017043
 20
-2.390783
 11
-75.820928
 21
11.929738
  0
LINE
  8
ガラス
  6
CONTINUOUS
 10
-52.517043
 20
-4.988857
 11
-77.320928
 21
9.331662
  0
LINE
  8
ガラス
  6
CONTINUOUS
 10
-54.217043
 20
-7.933345
 11
-79.02093
 21
6.387173
  0
LINE
  8
ガラス
  6
CONTINUOUS
 10
-79.02093
 20
6.387173
 11
-74.570928
 21
14.0948
  0
LINE
  8
ガラス
  6
CONTINUOUS
 10
-49.892043
 20
-0.442225
 11
-74.695928
 21
13.878292
  0
LINE
  8
ガラス
  6
CONTINUOUS
 10
-50.892045
 20
-2.174275
 11
-75.695928
 21
12.146242
  0
LINE
  8
ガラス
  6
CONTINUOUS
 10
-52.642043
 20
-5.205362
 11
-77.445925
 21
9.115155
  0
LINE
  8
ガラス
  6
CONTINUOUS
 10
-54.092043
 20
-7.71684
 11
-78.89593
 21
6.60368
  0
LINE
  8
ガラス
  6
CONTINUOUS
 10
-73.222853
 20
10.429738
 11
-74.722853
 21
7.831662
  0
LINE
  8
ガラス
  6
CONTINUOUS
 10
-77.320928
 20
9.331662
 11
-73.222853
 21
10.429738
  0
LINE
  8
ガラス
  6
CONTINUOUS
 10
-75.820928
 20
11.929738
 11
-74.722853
 21
7.831662
  0
LINE
  8
ガラス
  6
CONTINUOUS
 10
-128.798085
 20
-3.170227
 11
-103.994203
 21
11.150293
  0
LINE
  8
ガラス
  6
CONTINUOUS
 10
-130.498085
 20
-0.225738
 11
-105.6942
 21
14.09478
  0
LINE
  8
ガラス
  6
CONTINUOUS
 10
-105.6942
 20
14.09478
 11
-103.994197
 21
11.150293
  0
LINE
  8
ガラス
  6
CONTINUOUS
 10
-130.373085
 20
-0.442245
 11
-105.569203
 21
13.878275
  0
LINE
  8
ガラス
  6
CONTINUOUS
 10
-128.923085
 20
-2.95372
 11
-104.1192
 21
11.366798
  0
INSERT
  2
*GRP_0012
  8
ゴム等
  6
CONTINUOUS
 10
0.0
 20
0.0
  0
INSERT
  2
*GRP_0003
  8
ボルト／ビス
  6
CONTINUOUS
 10
0.0
 20
0.0
  0
INSERT
  2
*GRP_0004
  8
ボルト／ビス
  6
DOT
 10
0.0
 20
0.0
  0
INSERT
  2
*GRP_0005
  8
ボルト／ビス
  6
CONTINUOUS
 10
0.0
 20
0.0
  0
INSERT
  2
*GRP_0013
  8
ボルト／ビス
  6
DOT
 10
0.0
 20
0.0
  0
INSERT
  2
*GRP_0014
  8
ボルト／ビス
  6
DOT
 62
    64
 10
0.0
 20
0.0
  0
INSERT
  2
*GRP_0015
  8
ボルト／ビス
  6
DOT
 62
    64
 10
0.0
 20
0.0
  0
TEXT
  7
TextStyle03
  8
文字
  6
CONTINUOUS
 10
-93.8
 20
-51.15
  1
稜線フレーム
 40
4.0
 72
     5
 11
-67.3
 21
-51.15
  0
TEXT
  7
TextStyle03
  8
文字
  6
CONTINUOUS
 10
29.95
 20
36.125
  1
水上
 40
4.0
 72
     5
 11
38.45
 21
36.125
  0
TEXT
  7
TextStyle03
  8
文字
  6
CONTINUOUS
 10
29.95
 20
4.075
  1
水下
 40
4.0
 72
     5
 11
38.45
 21
4.075
  0
TEXT
  7
TextStyle03
  8
文字
  6
CONTINUOUS
 10
2.5
 20
31.225
  1
スライド
 40
4.0
 72
     5
 11
20.0
 21
31.225
  0
TEXT
  7
TextStyle03
  8
文字
  6
CONTINUOUS
 10
-23.1
 20
67.65
  1
上下可動のガラスは6+A6+6.8までの重量を
 40
3.0
 72
     5
 11
40.65
 21
67.65
  0
TEXT
  7
TextStyle03
  8
文字
  6
CONTINUOUS
 10
-23.1
 20
64.275
  1
限界とする。
 40
3.0
 72
     5
 11
-3.225
 21
64.275
  0
TEXT
  7
TextStyle03
  8
文字
  6
CONTINUOUS
 10
-22.9
 20
57.45
  1
固定のガラスは20.3mmまでの厚さを
 40
3.0
 72
     5
 11
30.725
 21
57.45
  0
TEXT
  7
TextStyle03
  8
文字
  6
CONTINUOUS
 10
-22.9
 20
54.075
  1
限界とする。
 40
3.0
 72
     5
 11
-3.025
 21
54.075
  0
TEXT
  7
TextStyle03
  8
文字
  6
CONTINUOUS
 10
65.125
 20
81.025
  1
ＮＳコード：ＮＳ４ＣＺ・ＮＳ４ＣＫＺ
 40
5.0
 72
     5
 11
165.75
 21
81.025
  0
TEXT
  7
TextStyle03
  8
文字
  6
CONTINUOUS
 10
65.2
 20
108.125
  1
シリーズ：ＴＦ２４・ＴＦ２４Ｋ
 40
5.0
 72
     5
 11
148.95
 21
108.125
  0
TEXT
  7
TextStyle03
  8
文字
  6
CONTINUOUS
 10
65.2
 20
102.5
  1
　　　　　四角錘（上下可動・固定）
 40
5.0
 72
     5
 11
160.2
 21
102.5
  0
TEXT
  7
TextStyle03
  8
文字
  6
CONTINUOUS
 10
65.2
 20
96.875
  1

 40
5.0
 41
1.125
  0
TEXT
  7
TextStyle03
  8
文字
  6
CONTINUOUS
 10
65.2
 20
91.25
  1
図面名　：稜線フレーム断面図
 40
5.0
 72
     5
 11
143.325
 21
91.25
  0
TEXT
  7
TextStyle03
  8
文字
  6
CONTINUOUS
 10
65.2
 20
85.625
  1
　　　　　　
 40
5.0
 72
     5
 11
98.325
 21
85.625
  0
POLYLINE
  8
寸法
  6
CONTINUOUS
 66
     1
 70
     1
  0
VERTEX
  8
寸法
 10
-64.22383
 20
-44.702687
  0
VERTEX
  8
寸法
 10
-96.995118
 20
-44.702687
  0
VERTEX
  8
寸法
 10
-96.995118
 20
-53.60587
  0
VERTEX
  8
寸法
 10
-64.22383
 20
-53.60587
  0
SEQEND
  0
INSERT
  2
*DIM_0006
  8
寸法
  6
CONTINUOUS
 10
0.0
 20
0.0
  0
INSERT
  2
*DIM_0008
  8
寸法
  6
CONTINUOUS
 10
0.0
 20
0.0
  0
INSERT
  2
*DIM_0009
  8
寸法
  6
CONTINUOUS
 10
0.0
 20
0.0
  0
INSERT
  2
*DIM_0010
  8
寸法
  6
CONTINUOUS
 10
0.0
 20
0.0
  0
INSERT
  2
*DIM_0016
  8
寸法
  6
CONTINUOUS
 10
0.0
 20
0.0
  0
INSERT
  2
*DIM_0017
  8
寸法
  6
CONTINUOUS
 10
0.0
 20
0.0
  0
INSERT
  2
*DIM_0018
  8
寸法
  6
CONTINUOUS
 10
0.0
 20
0.0
  0
INSERT
  2
*DIM_0019
  8
寸法
  6
CONTINUOUS
 10
0.0
 20
0.0
  0
INSERT
  2
*DIM_0020
  8
寸法
  6
CONTINUOUS
 10
0.0
 20
0.0
  0
INSERT
  2
*DIM_0021
  8
寸法
  6
CONTINUOUS
 10
0.0
 20
0.0
  0
INSERT
  2
*DIM_0022
  8
寸法
  6
CONTINUOUS
 10
0.0
 20
0.0
  0
INSERT
  2
*DIM_0023
  8
寸法
  6
CONTINUOUS
 10
0.0
 20
0.0
  0
INSERT
  2
*DIM_0026
  8
寸法
  6
CONTINUOUS
 10
0.0
 20
0.0
  0
INSERT
  2
*DIM_0027
  8
寸法
  6
CONTINUOUS
 10
0.0
 20
0.0
  0
INSERT
  2
*DIM_0028
  8
寸法
  6
CONTINUOUS
 10
0.0
 20
0.0
  0
INSERT
  2
*GRP_0029
  8
寸法
  6
CONTINUOUS
 10
0.0
 20
0.0
  0
LINE
  8
その他部品等
  6
CONTINUOUS
 10
-66.776695
 20
9.5948
 11
-65.151805
 21
12.409197
  0
LINE
  8
その他部品等
  6
CONTINUOUS
 10
-70.465795
 20
11.724698
 11
-68.840905
 21
14.539095
  0
LINE
  8
その他部品等
  6
CONTINUOUS
 10
-74.570932
 20
14.094795
 11
-72.446043
 21
17.775215
  0
LINE
  8
その他部品等
  6
CONTINUOUS
 10
-74.570928
 20
14.0948
 11
-68.465905
 21
15.18861
  0
INSERT
  2
*HAT_0002
  8
その他部品等
 10
0.0
 20
0.0
  0
LINE
  8
その他部品等
  6
CONTINUOUS
 10
-109.974363
 20
12.02783
 11
-107.819092
 21
17.775208
  0
INSERT
  2
*HAT_0003
  8
その他部品等
 10
0.0
 20
0.0
  0
INSERT
  2
*GRP_0030
  8
その他部品等
  6
CONTINUOUS
 10
0.0
 20
0.0
  0
LINE
  8
その他部品等
  6
CONTINUOUS
 10
-107.819092
 20
17.775208
 11
-105.6942
 21
14.09478
  0
LINE
  8
その他部品等
  6
CONTINUOUS
 10
-111.42423
 20
14.539072
 11
-109.799338
 21
11.72468
  0
LINE
  8
その他部品等
  6
CONTINUOUS
 10
-115.113325
 20
12.409175
 11
-113.488437
 21
9.59478
  0
ENDSEC
  0
EOF
