  0
SECTION
  2
HEADER
  9
$EXTMIN
 10
-210.0
 20
-148.5
  9
$EXTMAX
 10
210.0
 20
148.5
  9
$PDMODE
 70
    32
  9
$PDSIZE
 40
1.5
  9
$LTSCALE
 40
10.0
  0
ENDSEC
  0
SECTION
  2
TABLES
  0
TABLE
  2
LTYPE
 70
    15
  0
LTYPE
  2
CONTINUOUS
 70
    64
  3
実線
 72
    65
 73
     0
 40
0.0
  0
LTYPE
  2
DASHED
 70
    64
  3
破線A
 72
    65
 73
     2
 40
0.6
 49
0.4
 49
-0.2
  0
LTYPE
  2
DASHEDX2
 70
    64
  3
破線B
 72
    65
 73
     2
 40
1.3
 49
0.9
 49
-0.4
  0
LTYPE
  2
DASHDOT
 70
    64
  3
１点鎖線A
 72
    65
 73
     4
 40
0.5375
 49
0.375
 49
-0.05
 49
0.0625
 49
-0.05
  0
LTYPE
  2
DASHDOTX2
 70
    64
  3
１点鎖線B
 72
    65
 73
     4
 40
1.075
 49
0.75
 49
-0.1
 49
0.125
 49
-0.1
  0
LTYPE
  2
DIVIDE2
 70
    64
  3
２点鎖線A
 72
    65
 73
     6
 40
0.5125
 49
0.3
 49
-0.0375
 49
0.05
 49
-0.0375
 49
0.05
 49
-0.0375
  0
LTYPE
  2
DIVIDE
 70
    64
  3
２点鎖線B
 72
    65
 73
     6
 40
1.05
 49
0.55
 49
-0.1
 49
0.1
 49
-0.1
 49
0.1
 49
-0.1
  0
LTYPE
  2
DOT
 70
    64
  3
点線A
 72
    65
 73
     2
 40
0.1125
 49
0.0625
 49
-0.05
  0
LTYPE
  2
DOTX2
 70
    64
  3
点線B
 72
    65
 73
     2
 40
0.275
 49
0.15
 49
-0.125
  0
LTYPE
  2
CONTINUOUS
 70
    64
  3
実線
 72
    65
 73
     0
 40
0.0
  0
LTYPE
  2
CONTINUOUS
 70
    64
  3
実線
 72
    65
 73
     0
 40
0.0
  0
LTYPE
  2
CONTINUOUS
 70
    64
  3
実線
 72
    65
 73
     0
 40
0.0
  0
LTYPE
  2
CONTINUOUS
 70
    64
  3
実線
 72
    65
 73
     0
 40
0.0
  0
LTYPE
  2
CONTINUOUS
 70
    64
  3
実線
 72
    65
 73
     0
 40
0.0
  0
LTYPE
  2
CONTINUOUS
 70
    64
  3
実線
 72
    65
 73
     0
 40
0.0
  0
ENDTAB
  0
TABLE
  2
LAYER
 70
    34
  0
LAYER
  2
通り芯
 70
     0
 62
    15
  6
CONTINUOUS
  0
LAYER
  2
補助線
 70
     0
 62
    16
  6
DOT
  0
LAYER
  2
躯体
 70
     0
 62
    31
  6
CONTINUOUS
  0
LAYER
  2
型材
 70
     0
 62
    32
  6
CONTINUOUS
  0
LAYER
  2
型材断面
 70
     0
 62
    47
  6
CONTINUOUS
  0
LAYER
  2
ガラス
 70
     0
 62
    48
  6
CONTINUOUS
  0
LAYER
  2
ゴム等
 70
     0
 62
    63
  6
CONTINUOUS
  0
LAYER
  2
ボルト／ビス
 70
     0
 62
    64
  6
CONTINUOUS
  0
LAYER
  2
文字
 70
     0
 62
    79
  6
CONTINUOUS
  0
LAYER
  2
寸法
 70
     0
 62
    80
  6
CONTINUOUS
  0
LAYER
  2
ﾊｯﾁﾝｸﾞ
 70
     0
 62
    95
  6
CONTINUOUS
  0
LAYER
  2
別途部材
 70
     0
 62
    96
  6
CONTINUOUS
  0
LAYER
  2
曲げ物
 70
     0
 62
   111
  6
CONTINUOUS
  0
LAYER
  2
鉄骨等
 70
     0
 62
   112
  6
CONTINUOUS
  0
LAYER
  2
St
 70
     0
 62
   127
  6
CONTINUOUS
  0
LAYER
  2
その他部品等
 70
     0
 62
   128
  6
CONTINUOUS
  0
LAYER
  2
ｶﾞｽｹｯﾄ
 70
     0
 62
   143
  6
CONTINUOUS
  0
LAYER
  2
ｽｹｯﾁ
 70
     0
 62
    14
  6
CONTINUOUS
  0
LAYER
  2
0
 70
     0
 62
    17
  6
CONTINUOUS
  0
LAYER
  2
1
 70
     0
 62
    30
  6
CONTINUOUS
  0
LAYER
  2
4
 70
     0
 62
    33
  6
CONTINUOUS
  0
LAYER
  2
ﾚｲﾔ3
 70
     0
 62
    46
  6
CONTINUOUS
  0
LAYER
  2
外形線
 70
     0
 62
    49
  6
CONTINUOUS
  0
LAYER
  2
部品
 70
     0
 62
    14
  6
CONTINUOUS
  0
LAYER
  2
サッシ芯
 70
     0
 62
    17
  6
DASHDOTX2
  0
LAYER
  2
寸法線
 70
     0
 62
    62
  6
CONTINUOUS
  0
LAYER
  2
姿図外形線
 70
     0
 62
    65
  6
CONTINUOUS
  0
LAYER
  2
姿補助線
 70
     0
 62
    30
  6
CONTINUOUS
  0
LAYER
  2
透視線
 70
     0
 62
    78
  6
DOT
  0
LAYER
  2
用紙
 70
     0
 62
    81
  6
CONTINUOUS
  0
LAYER
  2
実線図枠
 70
     0
 62
    94
  6
CONTINUOUS
  0
LAYER
  2
補助図枠
 70
     0
 62
    97
  6
CONTINUOUS
  0
LAYER
  2
建具記号
 70
     0
 62
   110
  6
CONTINUOUS
  0
LAYER
  2
補助文字
 70
     0
 62
   113
  6
CONTINUOUS
  0
ENDTAB
  0
TABLE
  2
STYLE
 70
    10
  0
STYLE
  2
STANDARD
 70
     0
 40
1.0
 41
1.0
 42
1.0
 50
0.0
 71
     0
  3
TXT
  4
BIGFONT
  0
STYLE
  2
TATE
 70
     4
 40
1.0
 41
1.0
 42
1.0
 50
0.0
 71
     0
  3
TXT
  4
BIGFONT
  0
STYLE
  2
TextStyle03
 70
     0
 40
1.0
 41
1.0
 42
1.0
 50
0.0
 71
     0
  3
MONOTXT
  4
BIGFONT
  0
STYLE
  2
TextStyle04
 70
     0
 40
1.0
 41
1.0
 42
1.0
 50
0.0
 71
     0
  3
MONOTXT
  4
BIGFONT
  0
STYLE
  2
TextStyle05
 70
     0
 40
1.0
 41
1.0
 42
1.0
 50
0.0
 71
     0
  3
MONOTXT
  4
BIGFONT
  0
STYLE
  2
TextStyle06
 70
     0
 40
1.0
 41
1.0
 42
1.0
 50
0.0
 71
     0
  3
MONOTXT
  4
BIGFONT
  0
STYLE
  2
TextStyle07
 70
     0
 40
1.0
 41
1.0
 42
1.0
 50
0.0
 71
     0
  3
MONOTXT
  4
BIGFONT
  0
STYLE
  2
TextStyle08
 70
     0
 40
1.0
 41
1.0
 42
1.0
 50
0.0
 71
     0
  3
MONOTXT
  4
BIGFONT
  0
STYLE
  2
TextStyle09
 70
     0
 40
1.0
 41
1.0
 42
1.0
 50
0.0
 71
     0
  3
MONOTXT
  4
BIGFONT
  0
STYLE
  2
TextStyle10
 70
     0
 40
1.0
 41
1.0
 42
1.0
 50
0.0
 71
     0
  3
MONOTXT
  4
BIGFONT
  0
ENDTAB
  0
ENDSEC
  0
SECTION
  2
BLOCKS
  0
BLOCK
  2
*GRP_0001
 70
    65
 10
0.0
 20
0.0
  0
LINE
  8
型材断面
  6
CONTINUOUS
 10
195.0
 20
133.5
 11
195.0
 21
-133.5
  0
LINE
  8
型材断面
  6
CONTINUOUS
 10
195.0
 20
-133.5
 11
-185.0
 21
-133.5
  0
LINE
  8
型材断面
  6
CONTINUOUS
 10
-185.0
 20
-133.5
 11
-185.0
 21
133.5
  0
LINE
  8
型材断面
  6
CONTINUOUS
 10
195.0
 20
133.5
 11
-185.0
 21
133.5
  0
LINE
  8
型材断面
  6
CONTINUOUS
 10
145.0
 20
-133.5
 11
145.0
 21
-118.5
  0
LINE
  8
型材断面
  6
CONTINUOUS
 10
195.0
 20
-118.5
 11
145.0
 21
-118.5
  0
ENDBLK
  0
BLOCK
  2
*DIM_0002
 70
    65
 10
0.0
 20
0.0
  0
LINE
  8
寸法
  6
BYBLOCK
 62
     0
 10
-127.750185
 20
-21.77266
 11
-47.750185
 21
-21.77266
  0
POINT
  8
寸法
 62
     0
 10
-127.750185
 20
-21.77266
  0
POINT
  8
寸法
 62
     0
 10
-47.750185
 20
-21.77266
  0
TEXT
  7
TextStyle03
  8
寸法
  6
CONTINUOUS
 62
     0
 10
-99.49375
 20
-21.4
  1
呼称寸法　1600
 40
3.0
 72
     5
 11
-76.05625
 21
-21.4
  0
ENDBLK
  0
BLOCK
  2
*DIM_0003
 70
    65
 10
0.0
 20
0.0
  0
LINE
  8
寸法
  6
BYBLOCK
 62
     0
 10
-92.875187
 20
-48.697887
 11
-92.875187
 21
-32.358242
  0
LINE
  8
寸法
  6
BYBLOCK
 62
     0
 10
-82.625183
 20
-48.697887
 11
-82.625183
 21
-32.358242
  0
LINE
  8
寸法
  6
BYBLOCK
 62
     0
 10
-92.875187
 20
-32.358242
 11
-82.625183
 21
-32.358242
  0
POINT
  8
寸法
 62
     0
 10
-92.875187
 20
-32.358242
  0
POINT
  8
寸法
 62
     0
 10
-82.625183
 20
-32.358242
  0
TEXT
  7
TextStyle03
  8
寸法
  6
CONTINUOUS
 62
     0
 10
-90.2125
 20
-31.975
  1
205
 40
3.0
 72
     5
 11
-85.3375
 21
-31.975
  0
ENDBLK
  0
BLOCK
  2
*DIM_0004
 70
    65
 10
0.0
 20
0.0
  0
LINE
  8
寸法
  6
BYBLOCK
 62
     0
 10
-73.25809
 20
-44.57289
 11
-72.536697
 21
-44.57289
  0
LINE
  8
寸法
  6
BYBLOCK
 62
     0
 10
-81.625183
 20
-49.697887
 11
-72.536697
 21
-49.697887
  0
LINE
  8
寸法
  6
BYBLOCK
 62
     0
 10
-72.536697
 20
-44.57289
 11
-72.536697
 21
-49.697887
  0
POINT
  8
寸法
 62
     0
 10
-72.536697
 20
-44.57289
  0
POINT
  8
寸法
 62
     0
 10
-72.536697
 20
-49.697887
  0
TEXT
  7
TextStyle03
  8
寸法
  6
CONTINUOUS
 62
     0
 10
-69.55
 20
-51.25
  1
102.5
 40
3.0
 50
90.0
 72
     5
 11
-69.55
 21
-43.0
  0
ENDBLK
  0
BLOCK
  2
*DIM_0005
 70
    65
 10
0.0
 20
0.0
  0
LINE
  8
寸法
  6
BYBLOCK
 62
     0
 10
-47.322987
 20
82.395463
 11
-26.77356
 21
82.395463
  0
LINE
  8
寸法
  6
BYBLOCK
 62
     0
 10
-39.299112
 20
76.845463
 11
-26.77356
 21
76.845463
  0
LINE
  8
寸法
  6
BYBLOCK
 62
     0
 10
-26.77356
 20
82.395463
 11
-26.77356
 21
76.845463
  0
POINT
  8
寸法
 62
     0
 10
-26.77356
 20
82.395463
  0
POINT
  8
寸法
 62
     0
 10
-26.77356
 20
76.845463
  0
TEXT
  7
TextStyle03
  8
寸法
  6
CONTINUOUS
 62
     0
 10
-27.15
 20
77.1875
  1
111
 40
3.0
 50
90.0
 72
     5
 11
-27.15
 21
82.0625
  0
ENDBLK
  0
BLOCK
  2
*GRP_0006
 70
    65
 10
0.0
 20
0.0
  0
POLYLINE
  8
寸法
  6
BYBLOCK
 62
     0
 66
     1
  0
VERTEX
  8
寸法
 10
-50.989525
 20
28.67943
  0
VERTEX
  8
寸法
 10
-44.573023
 20
22.262927
  0
VERTEX
  8
寸法
 10
-38.665895
 20
22.262927
  0
SEQEND
  0
ENDBLK
  0
BLOCK
  2
*DIM_0007
 70
    65
 10
0.0
 20
0.0
  0
LINE
  8
寸法
  6
BYBLOCK
 62
     0
 10
-47.322987
 20
2.395457
 11
-26.77356
 21
2.395457
  0
LINE
  8
寸法
  6
BYBLOCK
 62
     0
 10
-39.299112
 20
7.945457
 11
-26.77356
 21
7.945457
  0
LINE
  8
寸法
  6
BYBLOCK
 62
     0
 10
-26.77356
 20
2.395457
 11
-26.77356
 21
7.945457
  0
POINT
  8
寸法
 62
     0
 10
-26.77356
 20
2.395457
  0
POINT
  8
寸法
 62
     0
 10
-26.77356
 20
7.945457
  0
TEXT
  7
TextStyle03
  8
寸法
  6
CONTINUOUS
 62
     0
 10
-27.15
 20
2.7375
  1
111
 40
3.0
 50
90.0
 72
     5
 11
-27.15
 21
7.6125
  0
ENDBLK
  0
BLOCK
  2
*DIM_0008
 70
    65
 10
0.0
 20
0.0
  0
LINE
  8
寸法
  6
BYBLOCK
 62
     0
 10
-152.345185
 20
59.89546
 11
-163.168485
 21
59.89546
  0
LINE
  8
寸法
  6
BYBLOCK
 62
     0
 10
-152.345185
 20
24.89546
 11
-163.168485
 21
24.89546
  0
LINE
  8
寸法
  6
BYBLOCK
 62
     0
 10
-163.168485
 20
59.89546
 11
-163.168485
 21
24.89546
  0
POINT
  8
寸法
 62
     0
 10
-163.168485
 20
59.89546
  0
POINT
  8
寸法
 62
     0
 10
-163.168485
 20
24.89546
  0
TEXT
  7
TextStyle03
  8
寸法
  6
CONTINUOUS
 62
     0
 10
-163.5
 20
39.9625
  1
700
 40
3.0
 50
90.0
 72
     5
 11
-163.5
 21
44.8375
  0
ENDBLK
  0
BLOCK
  2
*GRP_0009
 70
    65
 10
0.0
 20
0.0
  0
POLYLINE
  8
寸法
  6
BYBLOCK
 62
     0
 66
     1
  0
VERTEX
  8
寸法
 10
-124.510845
 20
65.02149
  0
VERTEX
  8
寸法
 10
-130.927348
 20
71.437992
  0
VERTEX
  8
寸法
 10
-136.834475
 20
71.437992
  0
SEQEND
  0
ENDBLK
  0
BLOCK
  2
*DIM_0010
 70
    65
 10
0.0
 20
0.0
  0
LINE
  8
寸法
  6
BYBLOCK
 62
     0
 10
-117.750185
 20
111.497285
 11
-117.750185
 21
119.272795
  0
LINE
  8
寸法
  6
BYBLOCK
 62
     0
 10
-87.750185
 20
111.497285
 11
-87.750185
 21
119.272795
  0
LINE
  8
寸法
  6
BYBLOCK
 62
     0
 10
-117.750185
 20
119.272795
 11
-87.750185
 21
119.272795
  0
POINT
  8
寸法
 62
     0
 10
-117.750185
 20
119.272795
  0
POINT
  8
寸法
 62
     0
 10
-87.750185
 20
119.272795
  0
TEXT
  7
TextStyle03
  8
寸法
  6
CONTINUOUS
 62
     0
 10
-105.1875
 20
119.65
  1
600
 40
3.0
 72
     5
 11
-100.3125
 21
119.65
  0
ENDBLK
  0
BLOCK
  2
*DIM_0011
 70
    65
 10
0.0
 20
0.0
  0
LINE
  8
寸法
  6
BYBLOCK
 62
     0
 10
-57.750185
 20
111.497285
 11
-57.750185
 21
119.272795
  0
LINE
  8
寸法
  6
BYBLOCK
 62
     0
 10
-87.750185
 20
119.272795
 11
-57.750185
 21
119.272795
  0
POINT
  8
寸法
 62
     0
 10
-57.750185
 20
119.272795
  0
TEXT
  7
TextStyle03
  8
寸法
  6
CONTINUOUS
 62
     0
 10
-75.1875
 20
119.65
  1
600
 40
3.0
 72
     5
 11
-70.3125
 21
119.65
  0
ENDBLK
  0
BLOCK
  2
*DIM_0012
 70
    65
 10
0.0
 20
0.0
  0
LINE
  8
寸法
  6
BYBLOCK
 62
     0
 10
-133.600388
 20
-87.599892
 11
-133.600388
 21
-21.77266
  0
LINE
  8
寸法
  6
BYBLOCK
 62
     0
 10
-127.750185
 20
-21.77266
 11
-133.600388
 21
-21.77266
  0
POINT
  8
寸法
 62
     0
 10
-127.750185
 20
-21.77266
  0
POINT
  8
寸法
 62
     0
 10
-133.600388
 20
-21.77266
  0
TEXT
  7
TextStyle03
  8
寸法
  6
CONTINUOUS
 62
     0
 10
-133.1375
 20
-21.4
  1
117
 40
3.0
 72
     5
 11
-128.2625
 21
-21.4
  0
ENDBLK
  0
BLOCK
  2
*DIM_0013
 70
    65
 10
0.0
 20
0.0
  0
LINE
  8
寸法
  6
BYBLOCK
 62
     0
 10
-41.899982
 20
-87.599892
 11
-41.899982
 21
-21.77266
  0
LINE
  8
寸法
  6
BYBLOCK
 62
     0
 10
-47.750185
 20
-21.77266
 11
-41.899982
 21
-21.77266
  0
POINT
  8
寸法
 62
     0
 10
-47.750185
 20
-21.77266
  0
POINT
  8
寸法
 62
     0
 10
-41.899982
 20
-21.77266
  0
TEXT
  7
TextStyle03
  8
寸法
  6
CONTINUOUS
 62
     0
 10
-47.2875
 20
-21.4
  1
117
 40
3.0
 72
     5
 11
-42.4125
 21
-21.4
  0
ENDBLK
  0
BLOCK
  2
*DIM_0014
 70
    65
 10
0.0
 20
0.0
  0
LINE
  8
寸法
  6
BYBLOCK
 62
     0
 10
-41.775185
 20
-99.724968
 11
-16.504388
 21
-99.724968
  0
LINE
  8
寸法
  6
BYBLOCK
 62
     0
 10
-38.899982
 20
-90.599892
 11
-16.504388
 21
-90.599892
  0
LINE
  8
寸法
  6
BYBLOCK
 62
     0
 10
-16.504388
 20
-99.724968
 11
-16.504388
 21
-90.599892
  0
POINT
  8
寸法
 62
     0
 10
-16.504388
 20
-99.724968
  0
POINT
  8
寸法
 62
     0
 10
-16.504388
 20
-90.599892
  0
TEXT
  7
TextStyle03
  8
寸法
  6
CONTINUOUS
 62
     0
 10
-16.9
 20
-99.3
  1
182.5
 40
3.0
 50
90.0
 72
     5
 11
-16.9
 21
-91.05
  0
ENDBLK
  0
BLOCK
  2
*DIM_0015
 70
    65
 10
0.0
 20
0.0
  0
LINE
  8
寸法
  6
BYBLOCK
 62
     0
 10
-84.750185
 20
-44.57289
 11
-16.504388
 21
-44.57289
  0
LINE
  8
寸法
  6
BYBLOCK
 62
     0
 10
-16.504388
 20
-90.599892
 11
-16.504388
 21
-44.57289
  0
POINT
  8
寸法
 62
     0
 10
-16.504388
 20
-44.57289
  0
TEXT
  7
TextStyle03
  8
寸法
  6
CONTINUOUS
 62
     0
 10
-16.9
 20
-71.725
  1
920.5
 40
3.0
 50
90.0
 72
     5
 11
-16.9
 21
-63.475
  0
ENDBLK
  0
BLOCK
  2
*GRP_0016
 70
    65
 10
0.0
 20
0.0
  0
LINE
  8
型材断面
  6
DOT
 10
7.352275
 20
-70.599892
 11
53.202477
 21
-70.599892
  0
LINE
  8
型材断面
  6
DOT
 62
    47
 10
10.226978
 20
-74.399892
 11
10.227258
 21
-74.399892
  0
ARC
  8
型材断面
  6
DOT
 62
    47
 10
10.217479
 20
-74.484892
 40
0.015
 50
180.0
 51
270.0
  0
LINE
  8
型材断面
  6
DOT
 62
    47
 10
7.352275
 20
-70.599892
 11
7.35228
 21
-70.849892
  0
LINE
  8
型材断面
  6
DOT
 62
    47
 10
7.709327
 20
-70.24284
 11
7.352275
 21
-70.599892
  0
LINE
  8
型材断面
  6
DOT
 62
    47
 10
10.202477
 20
-74.484893
 11
10.202477
 21
-74.424892
  0
ARC
  8
型材断面
  6
DOT
 62
    47
 10
10.227479
 20
-74.424892
 40
0.025
 50
89.999657
 51
180.0
  0
LINE
  8
型材断面
  6
DOT
 62
    47
 10
7.35228
 20
-70.849892
 11
53.202477
 21
-70.849892
  0
LINE
  8
型材断面
  6
DOT
 62
    47
 10
8.852477
 20
-72.989893
 11
53.202477
 21
-72.989893
  0
LINE
  8
型材断面
  6
DOT
 62
    47
 10
10.217477
 20
-74.499892
 11
53.202477
 21
-74.499892
  0
LINE
  8
型材断面
  6
DOT
 62
    47
 10
10.227477
 20
-74.399898
 11
10.227477
 21
-72.989893
  0
LINE
  8
型材断面
  6
DOT
 62
    47
 10
8.852477
 20
-72.989893
 11
8.852477
 21
-71.527412
  0
LINE
  8
型材断面
  6
DOT
 62
    47
 10
8.852477
 20
-71.527412
 11
8.17496
 21
-70.849892
  0
LINE
  8
型材断面
  6
DOT
 62
    47
 10
7.709327
 20
-70.24284
 11
8.769995
 21
-69.182175
  0
LINE
  8
型材断面
  6
DOT
 10
8.852477
 20
-71.527412
 11
53.202477
 21
-71.527412
  0
LINE
  8
型材断面
  6
DOT
 10
13.15134
 20
-69.182175
 11
12.090675
 21
-70.24284
  0
LINE
  8
型材断面
  6
DOT
 10
11.883573
 20
-69.74284
 11
8.209327
 21
-69.74284
  0
LINE
  8
型材断面
  6
DOT
 10
12.090675
 20
-70.24284
 11
7.709327
 21
-70.24284
  0
LINE
  8
型材断面
  6
DOT
 10
53.202477
 20
-69.182175
 11
12.444238
 21
-69.182175
  0
LINE
  8
型材断面
  6
DOT
 10
48.077477
 20
-29.697893
 11
53.202477
 21
-29.697893
  0
LINE
  8
型材断面
  6
DOT
 10
48.077477
 20
-29.697893
 11
48.148187
 21
-29.768602
  0
LINE
  8
型材断面
  6
DOT
 10
53.202477
 20
-29.768602
 11
48.148187
 21
-29.768602
  0
LINE
  8
型材断面
  6
DOT
 10
8.769993
 20
-69.182175
 11
48.183542
 21
-29.768602
  0
LINE
  8
型材断面
  6
DOT
 10
11.883573
 20
-69.74284
 11
51.857785
 21
-29.768602
  0
LINE
  8
型材断面
  6
DOT
 10
48.077477
 20
-29.697893
 11
53.202477
 21
-24.57289
  0
LINE
  8
型材断面
  6
DOT
 10
99.05268
 20
-70.599892
 11
53.202477
 21
-70.599892
  0
LINE
  8
型材断面
  6
DOT
 62
    47
 10
96.177978
 20
-74.399892
 11
96.177698
 21
-74.399892
  0
ARC
  8
型材断面
  6
DOT
 62
    47
 10
96.187479
 20
-74.484892
 40
0.015
 50
270.0
 51
360.0
  0
LINE
  8
型材断面
  6
DOT
 62
    47
 10
99.05268
 20
-70.599892
 11
99.052675
 21
-70.849892
  0
LINE
  8
型材断面
  6
DOT
 62
    47
 10
98.695628
 20
-70.24284
 11
99.05268
 21
-70.599892
  0
LINE
  8
型材断面
  6
DOT
 62
    47
 10
96.202477
 20
-74.484893
 11
96.202477
 21
-74.424892
  0
ARC
  8
型材断面
  6
DOT
 62
    47
 10
96.177479
 20
-74.424892
 40
0.025
 50
0.0
 51
90.000343
  0
LINE
  8
型材断面
  6
DOT
 62
    47
 10
99.052675
 20
-70.849892
 11
53.202477
 21
-70.849892
  0
LINE
  8
型材断面
  6
DOT
 62
    47
 10
97.552477
 20
-72.989893
 11
53.202477
 21
-72.989893
  0
LINE
  8
型材断面
  6
DOT
 62
    47
 10
96.187478
 20
-74.499892
 11
53.202477
 21
-74.499892
  0
LINE
  8
型材断面
  6
DOT
 62
    47
 10
96.177477
 20
-74.399898
 11
96.177477
 21
-72.989893
  0
LINE
  8
型材断面
  6
DOT
 62
    47
 10
97.552477
 20
-72.989893
 11
97.552477
 21
-71.527412
  0
LINE
  8
型材断面
  6
DOT
 62
    47
 10
97.552477
 20
-71.527412
 11
98.229995
 21
-70.849892
  0
LINE
  8
型材断面
  6
DOT
 62
    47
 10
98.695628
 20
-70.24284
 11
97.63496
 21
-69.182175
  0
LINE
  8
型材断面
  6
DOT
 10
97.552477
 20
-71.527412
 11
53.202477
 21
-71.527412
  0
LINE
  8
型材断面
  6
DOT
 10
93.253615
 20
-69.182175
 11
94.31428
 21
-70.24284
  0
LINE
  8
型材断面
  6
DOT
 10
94.521383
 20
-69.74284
 11
98.195628
 21
-69.74284
  0
LINE
  8
型材断面
  6
DOT
 10
94.31428
 20
-70.24284
 11
98.695628
 21
-70.24284
  0
LINE
  8
型材断面
  6
DOT
 10
53.202477
 20
-69.182175
 11
93.960717
 21
-69.182175
  0
LINE
  8
型材断面
  6
DOT
 10
58.327477
 20
-29.697893
 11
53.202477
 21
-29.697893
  0
LINE
  8
型材断面
  6
DOT
 10
58.327477
 20
-29.697893
 11
58.256768
 21
-29.768602
  0
LINE
  8
型材断面
  6
DOT
 10
53.202477
 20
-29.768602
 11
58.256768
 21
-29.768602
  0
LINE
  8
型材断面
  6
DOT
 10
97.634963
 20
-69.182175
 11
58.221413
 21
-29.768602
  0
LINE
  8
型材断面
  6
DOT
 10
94.521383
 20
-69.74284
 11
54.54717
 21
-29.768602
  0
LINE
  8
型材断面
  6
DOT
 10
58.327477
 20
-29.697893
 11
53.202477
 21
-24.57289
  0
ENDBLK
  0
BLOCK
  2
*GRP_0017
 70
    65
 10
0.0
 20
0.0
  0
LINE
  8
補助線
  6
DOT
 62
    64
 10
91.115573
 20
-97.02989
 11
91.289263
 21
-97.209695
  0
LINE
  8
補助線
  6
DOT
 62
    64
 10
91.29232
 20
-97.032947
 11
91.112515
 21
-97.206638
  0
LINE
  8
補助線
  6
DOT
 62
    64
 10
79.721077
 20
-85.234745
 11
79.54738
 21
-85.054937
  0
LINE
  8
補助線
  6
DOT
 62
    64
 10
79.724128
 20
-85.057992
 11
79.544325
 21
-85.23169
  0
LINE
  8
補助線
  6
DOT
 62
    64
 10
68.152825
 20
-73.259847
 11
67.979127
 21
-73.080048
  0
LINE
  8
補助線
  6
DOT
 62
    64
 10
68.155877
 20
-73.0831
 11
67.976075
 21
-73.256797
  0
LINE
  8
型材断面
  6
DOT
 10
92.448833
 20
-96.610917
 11
92.430508
 21
-97.671418
  0
LINE
  8
型材断面
  6
DOT
 10
92.430508
 20
-97.671418
 11
91.711292
 21
-98.366208
  0
LINE
  8
型材断面
  6
DOT
 10
91.711292
 20
-98.366208
 11
90.650792
 21
-98.347883
  0
LINE
  8
型材断面
  6
DOT
 10
68.617598
 20
-71.941853
 11
67.557098
 21
-71.923538
  0
LINE
  8
型材断面
  6
DOT
 10
67.557098
 20
-71.923538
 11
66.83788
 21
-72.618328
  0
LINE
  8
型材断面
  6
DOT
 10
66.83788
 20
-72.618328
 11
66.819565
 21
-73.678827
  0
LINE
  8
型材断面
  6
DOT
 10
92.448833
 20
-96.610917
 11
68.617718
 21
-71.941855
  0
LINE
  8
型材断面
  6
DOT
 10
90.650792
 20
-98.347883
 11
66.819568
 21
-73.678718
  0
LINE
  8
ボルト／ビス
  6
DOT
 62
    64
 10
91.534607
 20
-96.798883
 11
91.646428
 21
-97.247025
  0
LINE
  8
ボルト／ビス
  6
DOT
 62
    64
 10
91.534607
 20
-96.798883
 11
91.0906
 21
-96.671655
  0
LINE
  8
ボルト／ビス
  6
DOT
 62
    64
 10
90.870227
 20
-97.440703
 11
91.314235
 21
-97.56793
  0
LINE
  8
ボルト／ビス
  6
DOT
 62
    64
 10
90.870227
 20
-97.440703
 11
90.758408
 21
-96.99256
  0
CIRCLE
  8
ボルト／ビス
  6
DOT
 62
    64
 10
91.202418
 20
-97.119793
 40
0.4
  0
LINE
  8
ボルト／ビス
  6
DOT
 62
    64
 10
91.0906
 20
-96.671655
 11
90.758408
 21
-96.99256
  0
LINE
  8
ボルト／ビス
  6
DOT
 62
    64
 10
91.646428
 20
-97.247025
 11
91.314235
 21
-97.56793
  0
LINE
  8
ボルト／ビス
  6
DOT
 62
    64
 10
79.96642
 20
-84.823935
 11
79.522408
 21
-84.6967
  0
LINE
  8
ボルト／ビス
  6
DOT
 62
    64
 10
79.96642
 20
-84.823935
 11
80.07824
 21
-85.272073
  0
LINE
  8
ボルト／ビス
  6
DOT
 62
    64
 10
79.302035
 20
-85.465747
 11
79.190217
 21
-85.017608
  0
LINE
  8
ボルト／ビス
  6
DOT
 62
    64
 10
79.302035
 20
-85.465747
 11
79.746045
 21
-85.59298
  0
CIRCLE
  8
ボルト／ビス
  6
DOT
 62
    64
 10
79.634225
 20
-85.14484
 40
0.4
  0
LINE
  8
ボルト／ビス
  6
DOT
 62
    64
 10
80.07824
 20
-85.272073
 11
79.746045
 21
-85.59298
  0
LINE
  8
ボルト／ビス
  6
DOT
 62
    64
 10
79.522408
 20
-84.6967
 11
79.190217
 21
-85.017608
  0
LINE
  8
ボルト／ビス
  6
DOT
 62
    64
 10
68.398168
 20
-72.849038
 11
67.954155
 21
-72.721807
  0
LINE
  8
ボルト／ビス
  6
DOT
 62
    64
 10
68.398168
 20
-72.849038
 11
68.509985
 21
-73.297178
  0
LINE
  8
ボルト／ビス
  6
DOT
 62
    64
 10
67.733785
 20
-73.490858
 11
67.621968
 21
-73.042715
  0
LINE
  8
ボルト／ビス
  6
DOT
 62
    64
 10
67.733785
 20
-73.490858
 11
68.1778
 21
-73.618088
  0
CIRCLE
  8
ボルト／ビス
  6
DOT
 62
    64
 10
68.065978
 20
-73.169948
 40
0.4
  0
LINE
  8
ボルト／ビス
  6
DOT
 62
    64
 10
68.509985
 20
-73.297178
 11
68.1778
 21
-73.618088
  0
LINE
  8
ボルト／ビス
  6
DOT
 62
    64
 10
67.954155
 20
-72.721807
 11
67.621968
 21
-73.042715
  0
ENDBLK
  0
BLOCK
  2
*GRP_0018
 70
    65
 10
0.0
 20
0.0
  0
LINE
  8
補助線
  6
DOT
 62
    64
 10
68.152882
 20
-97.02989
 11
67.979192
 21
-97.209695
  0
LINE
  8
補助線
  6
DOT
 62
    64
 10
67.976135
 20
-97.032947
 11
68.15594
 21
-97.206638
  0
LINE
  8
補助線
  6
DOT
 62
    64
 10
79.547378
 20
-85.234745
 11
79.721075
 21
-85.054937
  0
LINE
  8
補助線
  6
DOT
 62
    64
 10
79.544327
 20
-85.057992
 11
79.72413
 21
-85.23169
  0
LINE
  8
補助線
  6
DOT
 62
    64
 10
91.11563
 20
-73.259847
 11
91.289328
 21
-73.080048
  0
LINE
  8
補助線
  6
DOT
 62
    64
 10
91.112578
 20
-73.0831
 11
91.29238
 21
-73.256797
  0
LINE
  8
型材断面
  6
DOT
 10
66.819622
 20
-96.610917
 11
66.837947
 21
-97.671418
  0
LINE
  8
型材断面
  6
DOT
 10
66.837947
 20
-97.671418
 11
67.557163
 21
-98.366208
  0
LINE
  8
型材断面
  6
DOT
 10
67.557163
 20
-98.366208
 11
68.617663
 21
-98.347883
  0
LINE
  8
型材断面
  6
DOT
 10
90.650857
 20
-71.941853
 11
91.711357
 21
-71.923538
  0
LINE
  8
型材断面
  6
DOT
 10
91.711357
 20
-71.923538
 11
92.430575
 21
-72.618328
  0
LINE
  8
型材断面
  6
DOT
 10
92.430575
 20
-72.618328
 11
92.44889
 21
-73.678827
  0
LINE
  8
型材断面
  6
DOT
 10
66.819622
 20
-96.610917
 11
90.650737
 21
-71.941855
  0
LINE
  8
型材断面
  6
DOT
 10
68.617663
 20
-98.347883
 11
92.448887
 21
-73.678718
  0
LINE
  8
ボルト／ビス
  6
DOT
 62
    64
 10
67.733848
 20
-96.798883
 11
67.622027
 21
-97.247025
  0
LINE
  8
ボルト／ビス
  6
DOT
 62
    64
 10
67.733848
 20
-96.798883
 11
68.177855
 21
-96.671655
  0
LINE
  8
ボルト／ビス
  6
DOT
 62
    64
 10
68.398228
 20
-97.440703
 11
67.95422
 21
-97.56793
  0
LINE
  8
ボルト／ビス
  6
DOT
 62
    64
 10
68.398228
 20
-97.440703
 11
68.510047
 21
-96.99256
  0
CIRCLE
  8
ボルト／ビス
  6
DOT
 62
    64
 10
68.066037
 20
-97.119793
 40
0.4
  0
LINE
  8
ボルト／ビス
  6
DOT
 62
    64
 10
68.177855
 20
-96.671655
 11
68.510047
 21
-96.99256
  0
LINE
  8
ボルト／ビス
  6
DOT
 62
    64
 10
67.622027
 20
-97.247025
 11
67.95422
 21
-97.56793
  0
LINE
  8
ボルト／ビス
  6
DOT
 62
    64
 10
79.302035
 20
-84.823935
 11
79.746047
 21
-84.6967
  0
LINE
  8
ボルト／ビス
  6
DOT
 62
    64
 10
79.302035
 20
-84.823935
 11
79.190215
 21
-85.272073
  0
LINE
  8
ボルト／ビス
  6
DOT
 62
    64
 10
79.96642
 20
-85.465747
 11
80.078238
 21
-85.017608
  0
LINE
  8
ボルト／ビス
  6
DOT
 62
    64
 10
79.96642
 20
-85.465747
 11
79.52241
 21
-85.59298
  0
CIRCLE
  8
ボルト／ビス
  6
DOT
 62
    64
 10
79.63423
 20
-85.14484
 40
0.4
  0
LINE
  8
ボルト／ビス
  6
DOT
 62
    64
 10
79.190215
 20
-85.272073
 11
79.52241
 21
-85.59298
  0
LINE
  8
ボルト／ビス
  6
DOT
 62
    64
 10
79.746047
 20
-84.6967
 11
80.078238
 21
-85.017608
  0
LINE
  8
ボルト／ビス
  6
DOT
 62
    64
 10
90.870288
 20
-72.849038
 11
91.3143
 21
-72.721807
  0
LINE
  8
ボルト／ビス
  6
DOT
 62
    64
 10
90.870288
 20
-72.849038
 11
90.75847
 21
-73.297178
  0
LINE
  8
ボルト／ビス
  6
DOT
 62
    64
 10
91.53467
 20
-73.490858
 11
91.646487
 21
-73.042715
  0
LINE
  8
ボルト／ビス
  6
DOT
 62
    64
 10
91.53467
 20
-73.490858
 11
91.090655
 21
-73.618088
  0
CIRCLE
  8
ボルト／ビス
  6
DOT
 62
    64
 10
91.202477
 20
-73.169948
 40
0.4
  0
LINE
  8
ボルト／ビス
  6
DOT
 62
    64
 10
90.75847
 20
-73.297178
 11
91.090655
 21
-73.618088
  0
LINE
  8
ボルト／ビス
  6
DOT
 62
    64
 10
91.3143
 20
-72.721807
 11
91.646487
 21
-73.042715
  0
ENDBLK
  0
BLOCK
  2
*GRP_0019
 70
    65
 10
0.0
 20
0.0
  0
LINE
  8
補助線
  6
DOT
 62
    64
 10
15.259382
 20
-97.02989
 11
15.085693
 21
-97.209695
  0
LINE
  8
補助線
  6
DOT
 62
    64
 10
15.082635
 20
-97.032947
 11
15.26244
 21
-97.206638
  0
LINE
  8
補助線
  6
DOT
 62
    64
 10
26.653878
 20
-85.234745
 11
26.827575
 21
-85.054937
  0
LINE
  8
補助線
  6
DOT
 62
    64
 10
26.650828
 20
-85.057992
 11
26.83063
 21
-85.23169
  0
LINE
  8
補助線
  6
DOT
 62
    64
 10
38.22213
 20
-73.259847
 11
38.395828
 21
-73.080048
  0
LINE
  8
補助線
  6
DOT
 62
    64
 10
38.219077
 20
-73.0831
 11
38.39888
 21
-73.256797
  0
LINE
  8
型材断面
  6
DOT
 10
13.926123
 20
-96.610917
 11
13.944448
 21
-97.671418
  0
LINE
  8
型材断面
  6
DOT
 10
13.944448
 20
-97.671418
 11
14.663662
 21
-98.366208
  0
LINE
  8
型材断面
  6
DOT
 10
14.663662
 20
-98.366208
 11
15.724163
 21
-98.347883
  0
LINE
  8
型材断面
  6
DOT
 10
37.757358
 20
-71.941853
 11
38.817857
 21
-71.923538
  0
LINE
  8
型材断面
  6
DOT
 10
38.817857
 20
-71.923538
 11
39.537075
 21
-72.618328
  0
LINE
  8
型材断面
  6
DOT
 10
39.537075
 20
-72.618328
 11
39.55539
 21
-73.678827
  0
LINE
  8
型材断面
  6
DOT
 10
13.926123
 20
-96.610917
 11
37.757237
 21
-71.941855
  0
LINE
  8
型材断面
  6
DOT
 10
15.724163
 20
-98.347883
 11
39.555387
 21
-73.678718
  0
LINE
  8
ボルト／ビス
  6
DOT
 62
    64
 10
14.840347
 20
-96.798883
 11
14.728528
 21
-97.247025
  0
LINE
  8
ボルト／ビス
  6
DOT
 62
    64
 10
14.840347
 20
-96.798883
 11
15.284355
 21
-96.671655
  0
LINE
  8
ボルト／ビス
  6
DOT
 62
    64
 10
15.504728
 20
-97.440703
 11
15.06072
 21
-97.56793
  0
LINE
  8
ボルト／ビス
  6
DOT
 62
    64
 10
15.504728
 20
-97.440703
 11
15.616547
 21
-96.99256
  0
CIRCLE
  8
ボルト／ビス
  6
DOT
 62
    64
 10
15.172537
 20
-97.119793
 40
0.4
  0
LINE
  8
ボルト／ビス
  6
DOT
 62
    64
 10
15.284355
 20
-96.671655
 11
15.616547
 21
-96.99256
  0
LINE
  8
ボルト／ビス
  6
DOT
 62
    64
 10
14.728528
 20
-97.247025
 11
15.06072
 21
-97.56793
  0
LINE
  8
ボルト／ビス
  6
DOT
 62
    64
 10
26.408535
 20
-84.823935
 11
26.852548
 21
-84.6967
  0
LINE
  8
ボルト／ビス
  6
DOT
 62
    64
 10
26.408535
 20
-84.823935
 11
26.296715
 21
-85.272073
  0
LINE
  8
ボルト／ビス
  6
DOT
 62
    64
 10
27.07292
 20
-85.465747
 11
27.184737
 21
-85.017608
  0
LINE
  8
ボルト／ビス
  6
DOT
 62
    64
 10
27.07292
 20
-85.465747
 11
26.62891
 21
-85.59298
  0
CIRCLE
  8
ボルト／ビス
  6
DOT
 62
    64
 10
26.74073
 20
-85.14484
 40
0.4
  0
LINE
  8
ボルト／ビス
  6
DOT
 62
    64
 10
26.296715
 20
-85.272073
 11
26.62891
 21
-85.59298
  0
LINE
  8
ボルト／ビス
  6
DOT
 62
    64
 10
26.852548
 20
-84.6967
 11
27.184737
 21
-85.017608
  0
LINE
  8
ボルト／ビス
  6
DOT
 62
    64
 10
37.976787
 20
-72.849038
 11
38.4208
 21
-72.721807
  0
LINE
  8
ボルト／ビス
  6
DOT
 62
    64
 10
37.976787
 20
-72.849038
 11
37.86497
 21
-73.297178
  0
LINE
  8
ボルト／ビス
  6
DOT
 62
    64
 10
38.64117
 20
-73.490858
 11
38.752988
 21
-73.042715
  0
LINE
  8
ボルト／ビス
  6
DOT
 62
    64
 10
38.64117
 20
-73.490858
 11
38.197155
 21
-73.618088
  0
CIRCLE
  8
ボルト／ビス
  6
DOT
 62
    64
 10
38.308978
 20
-73.169948
 40
0.4
  0
LINE
  8
ボルト／ビス
  6
DOT
 62
    64
 10
37.86497
 20
-73.297178
 11
38.197155
 21
-73.618088
  0
LINE
  8
ボルト／ビス
  6
DOT
 62
    64
 10
38.4208
 20
-72.721807
 11
38.752988
 21
-73.042715
  0
ENDBLK
  0
BLOCK
  2
*GRP_0020
 70
    65
 10
0.0
 20
0.0
  0
LINE
  8
補助線
  6
DOT
 62
    64
 10
38.222072
 20
-97.02989
 11
38.395762
 21
-97.209695
  0
LINE
  8
補助線
  6
DOT
 62
    64
 10
38.39882
 20
-97.032947
 11
38.219015
 21
-97.206638
  0
LINE
  8
補助線
  6
DOT
 62
    64
 10
26.827578
 20
-85.234745
 11
26.65388
 21
-85.054937
  0
LINE
  8
補助線
  6
DOT
 62
    64
 10
26.830628
 20
-85.057992
 11
26.650825
 21
-85.23169
  0
LINE
  8
補助線
  6
DOT
 62
    64
 10
15.259325
 20
-73.259847
 11
15.085628
 21
-73.080048
  0
LINE
  8
補助線
  6
DOT
 62
    64
 10
15.262378
 20
-73.0831
 11
15.082575
 21
-73.256797
  0
LINE
  8
型材断面
  6
DOT
 10
39.555333
 20
-96.610917
 11
39.537008
 21
-97.671418
  0
LINE
  8
型材断面
  6
DOT
 10
39.537008
 20
-97.671418
 11
38.817792
 21
-98.366208
  0
LINE
  8
型材断面
  6
DOT
 10
38.817792
 20
-98.366208
 11
37.757293
 21
-98.347883
  0
LINE
  8
型材断面
  6
DOT
 10
15.724098
 20
-71.941853
 11
14.663597
 21
-71.923538
  0
LINE
  8
型材断面
  6
DOT
 10
14.663597
 20
-71.923538
 11
13.94438
 21
-72.618328
  0
LINE
  8
型材断面
  6
DOT
 10
13.94438
 20
-72.618328
 11
13.926065
 21
-73.678827
  0
LINE
  8
型材断面
  6
DOT
 10
39.555333
 20
-96.610917
 11
15.724217
 21
-71.941855
  0
LINE
  8
型材断面
  6
DOT
 10
37.757293
 20
-98.347883
 11
13.926067
 21
-73.678718
  0
LINE
  8
ボルト／ビス
  6
DOT
 62
    64
 10
38.641107
 20
-96.798883
 11
38.752928
 21
-97.247025
  0
LINE
  8
ボルト／ビス
  6
DOT
 62
    64
 10
38.641107
 20
-96.798883
 11
38.1971
 21
-96.671655
  0
LINE
  8
ボルト／ビス
  6
DOT
 62
    64
 10
37.976728
 20
-97.440703
 11
38.420735
 21
-97.56793
  0
LINE
  8
ボルト／ビス
  6
DOT
 62
    64
 10
37.976728
 20
-97.440703
 11
37.864907
 21
-96.99256
  0
CIRCLE
  8
ボルト／ビス
  6
DOT
 62
    64
 10
38.308917
 20
-97.119793
 40
0.4
  0
LINE
  8
ボルト／ビス
  6
DOT
 62
    64
 10
38.1971
 20
-96.671655
 11
37.864907
 21
-96.99256
  0
LINE
  8
ボルト／ビス
  6
DOT
 62
    64
 10
38.752928
 20
-97.247025
 11
38.420735
 21
-97.56793
  0
LINE
  8
ボルト／ビス
  6
DOT
 62
    64
 10
27.07292
 20
-84.823935
 11
26.628908
 21
-84.6967
  0
LINE
  8
ボルト／ビス
  6
DOT
 62
    64
 10
27.07292
 20
-84.823935
 11
27.18474
 21
-85.272073
  0
LINE
  8
ボルト／ビス
  6
DOT
 62
    64
 10
26.408535
 20
-85.465747
 11
26.296717
 21
-85.017608
  0
LINE
  8
ボルト／ビス
  6
DOT
 62
    64
 10
26.408535
 20
-85.465747
 11
26.852545
 21
-85.59298
  0
CIRCLE
  8
ボルト／ビス
  6
DOT
 62
    64
 10
26.740725
 20
-85.14484
 40
0.4
  0
LINE
  8
ボルト／ビス
  6
DOT
 62
    64
 10
27.18474
 20
-85.272073
 11
26.852545
 21
-85.59298
  0
LINE
  8
ボルト／ビス
  6
DOT
 62
    64
 10
26.628908
 20
-84.6967
 11
26.296717
 21
-85.017608
  0
LINE
  8
ボルト／ビス
  6
DOT
 62
    64
 10
15.504667
 20
-72.849038
 11
15.060655
 21
-72.721807
  0
LINE
  8
ボルト／ビス
  6
DOT
 62
    64
 10
15.504667
 20
-72.849038
 11
15.616485
 21
-73.297178
  0
LINE
  8
ボルト／ビス
  6
DOT
 62
    64
 10
14.840285
 20
-73.490858
 11
14.728468
 21
-73.042715
  0
LINE
  8
ボルト／ビス
  6
DOT
 62
    64
 10
14.840285
 20
-73.490858
 11
15.2843
 21
-73.618088
  0
CIRCLE
  8
ボルト／ビス
  6
DOT
 62
    64
 10
15.172478
 20
-73.169948
 40
0.4
  0
LINE
  8
ボルト／ビス
  6
DOT
 62
    64
 10
15.616485
 20
-73.297178
 11
15.2843
 21
-73.618088
  0
LINE
  8
ボルト／ビス
  6
DOT
 62
    64
 10
15.060655
 20
-72.721807
 11
14.728468
 21
-73.042715
  0
ENDBLK
  0
BLOCK
  2
*DIM_0021
 70
    65
 10
0.0
 20
0.0
  0
LINE
  8
寸法
  6
BYBLOCK
 62
     0
 10
81.453912
 20
-11.939517
 11
81.453912
 21
-21.915657
  0
LINE
  8
寸法
  6
BYBLOCK
 62
     0
 10
166.233913
 20
-11.939517
 11
166.233913
 21
-21.915657
  0
LINE
  8
寸法
  6
BYBLOCK
 62
     0
 10
81.453912
 20
-21.915657
 11
166.233913
 21
-21.915657
  0
POINT
  8
寸法
 62
     0
 10
81.453912
 20
-21.915657
  0
POINT
  8
寸法
 62
     0
 10
166.233913
 20
-21.915657
  0
TEXT
  7
TextStyle03
  8
寸法
  6
CONTINUOUS
 62
     0
 10
118.85625
 20
-21.55
  1
1695.6
 40
3.0
 72
     5
 11
128.79375
 21
-21.55
  0
ENDBLK
  0
BLOCK
  2
*DIM_0022
 70
    65
 10
0.0
 20
0.0
  0
LINE
  8
寸法
  6
BYBLOCK
 62
     0
 10
169.233913
 20
-8.939517
 11
178.68432
 21
-8.939517
  0
LINE
  8
寸法
  6
BYBLOCK
 62
     0
 10
126.843913
 20
51.008742
 11
178.68432
 21
51.008742
  0
LINE
  8
寸法
  6
BYBLOCK
 62
     0
 10
178.68432
 20
-8.939517
 11
178.68432
 21
51.008742
  0
POINT
  8
寸法
 62
     0
 10
178.68432
 20
-8.939517
  0
POINT
  8
寸法
 62
     0
 10
178.68432
 20
51.008742
  0
TEXT
  7
TextStyle03
  8
寸法
  6
CONTINUOUS
 62
     0
 10
178.3
 20
17.74375
  1
1199
 40
3.0
 50
90.0
 72
     5
 11
178.3
 21
24.30625
  0
ENDBLK
  0
BLOCK
  2
*DIM_0023
 70
    65
 10
0.0
 20
0.0
  0
LINE
  8
寸法
  6
BYBLOCK
 62
     0
 10
102.05268
 20
-90.599892
 11
112.890788
 21
-90.599892
  0
LINE
  8
寸法
  6
BYBLOCK
 62
     0
 10
102.05268
 20
-70.599892
 11
112.890788
 21
-70.599892
  0
LINE
  8
寸法
  6
BYBLOCK
 62
     0
 10
112.890788
 20
-90.599892
 11
112.890788
 21
-70.599892
  0
POINT
  8
寸法
 62
     0
 10
112.890788
 20
-90.599892
  0
POINT
  8
寸法
 62
     0
 10
112.890788
 20
-70.599892
  0
TEXT
  7
TextStyle03
  8
寸法
  6
CONTINUOUS
 62
     0
 10
112.5
 20
-89.69375
  1
上昇335以上
 40
3.0
 50
90.0
 72
     5
 11
112.5
 21
-71.50625
  0
ENDBLK
  0
ENDSEC
  0
SECTION
  2
ENTITIES
  0
POLYLINE
  8
通り芯
  6
CONTINUOUS
 66
     1
 70
     1
  0
VERTEX
  8
通り芯
 10
-210.0
 20
-148.5
  0
VERTEX
  8
通り芯
 10
210.0
 20
-148.5
  0
VERTEX
  8
通り芯
 10
210.0
 20
148.5
  0
VERTEX
  8
通り芯
 10
-210.0
 20
148.5
  0
SEQEND
  0
INSERT
  2
*GRP_0001
  8
型材断面
  6
CONTINUOUS
 10
0.0
 20
0.0
  0
LINE
  8
型材断面
  6
CONTINUOUS
 10
-135.77406
 20
7.945457
 11
-139.65982
 21
8.839543
  0
LINE
  8
型材断面
  6
CONTINUOUS
 10
-135.77406
 20
7.945457
 11
-139.65982
 21
7.051373
  0
LINE
  8
型材断面
  6
CONTINUOUS
 10
-139.65982
 20
7.051373
 11
-139.65982
 21
8.839543
  0
LINE
  8
型材断面
  6
CONTINUOUS
 10
-92.875185
 20
37.270457
 11
-92.875185
 21
42.395457
  0
LINE
  8
型材断面
  6
CONTINUOUS
 10
-92.875185
 20
37.270457
 11
-87.750185
 21
37.270457
  0
LINE
  8
型材断面
  6
DASHDOT
 10
-127.750185
 20
42.39546
 11
-47.750185
 21
42.39546
  0
LINE
  8
型材断面
  6
DASHDOT
 10
-127.750185
 20
82.39546
 11
-47.750185
 21
82.39546
  0
LINE
  8
型材断面
  6
DASHDOT
 10
-127.750185
 20
-101.119793
 11
-127.750185
 21
82.39546
  0
LINE
  8
型材断面
  6
DASHDOT
 10
-87.750185
 20
-101.119793
 11
-87.750185
 21
82.39546
  0
LINE
  8
型材断面
  6
DASHDOT
 10
-47.750185
 20
-101.119793
 11
-47.750185
 21
82.39546
  0
LINE
  8
型材断面
  6
CONTINUOUS
 10
-82.625185
 20
37.270457
 11
-82.625185
 21
42.395457
  0
LINE
  8
型材断面
  6
CONTINUOUS
 10
-82.625185
 20
37.270457
 11
-87.750185
 21
37.270457
  0
LINE
  8
型材断面
  6
CONTINUOUS
 10
-82.625185
 20
47.520463
 11
-82.625185
 21
42.395463
  0
LINE
  8
型材断面
  6
CONTINUOUS
 10
-82.625185
 20
47.520463
 11
-87.750185
 21
47.520463
  0
LINE
  8
型材断面
  6
CONTINUOUS
 10
-92.875185
 20
47.520463
 11
-92.875185
 21
42.395463
  0
LINE
  8
型材断面
  6
CONTINUOUS
 10
-92.875185
 20
47.520463
 11
-87.750185
 21
47.520463
  0
LINE
  8
型材断面
  6
DOT
 10
-124.510845
 20
2.39546
 11
-124.510845
 21
82.39546
  0
LINE
  8
型材断面
  6
DOT
 10
-122.510845
 20
2.39546
 11
-122.510845
 21
82.39546
  0
LINE
  8
型材断面
  6
DASHDOT
 10
-127.750185
 20
2.39546
 11
-47.750185
 21
2.39546
  0
LINE
  8
型材断面
  6
DOT
 10
-50.989525
 20
2.39546
 11
-50.989525
 21
82.39546
  0
LINE
  8
型材断面
  6
DOT
 10
-52.989525
 20
2.39546
 11
-52.989525
 21
82.39546
  0
LINE
  8
型材断面
  6
CONTINUOUS
 10
-87.750185
 20
-5.985178
 11
-89.99363
 21
-9.870938
  0
LINE
  8
型材断面
  6
CONTINUOUS
 10
-87.750185
 20
-5.985178
 11
-85.50674
 21
-9.870938
  0
LINE
  8
型材断面
  6
CONTINUOUS
 10
-85.50674
 20
-9.870938
 11
-89.99363
 21
-9.870938
  0
LINE
  8
型材断面
  6
CONTINUOUS
 10
-136.130822
 20
42.395463
 11
-140.016583
 21
40.152017
  0
LINE
  8
型材断面
  6
CONTINUOUS
 10
-136.130822
 20
42.395463
 11
-140.016583
 21
44.638907
  0
LINE
  8
型材断面
  6
CONTINUOUS
 10
-140.016583
 20
44.638907
 11
-140.016583
 21
40.152017
  0
LINE
  8
型材断面
  6
CONTINUOUS
 10
-87.75019
 20
90.776097
 11
-85.506745
 21
94.661858
  0
LINE
  8
型材断面
  6
CONTINUOUS
 10
-87.75019
 20
90.776097
 11
-89.993635
 21
94.661858
  0
LINE
  8
型材断面
  6
CONTINUOUS
 10
-89.993635
 20
94.661858
 11
-85.506745
 21
94.661858
  0
LINE
  8
型材断面
  6
CONTINUOUS
 10
-39.369548
 20
42.395452
 11
-35.483788
 21
44.638897
  0
LINE
  8
型材断面
  6
CONTINUOUS
 10
-39.369548
 20
42.395452
 11
-35.483788
 21
40.152008
  0
LINE
  8
型材断面
  6
CONTINUOUS
 10
-35.483788
 20
40.152008
 11
-35.483788
 21
44.638897
  0
LINE
  8
型材断面
  6
CONTINUOUS
 10
-135.77406
 20
76.845463
 11
-139.65982
 21
75.951377
  0
LINE
  8
型材断面
  6
CONTINUOUS
 10
-135.77406
 20
76.845463
 11
-139.65982
 21
77.739547
  0
LINE
  8
型材断面
  6
CONTINUOUS
 10
-139.65982
 20
77.739547
 11
-139.65982
 21
75.951377
  0
LINE
  8
型材断面
  6
CONTINUOUS
 10
-39.72631
 20
76.845463
 11
-35.84055
 21
75.951377
  0
LINE
  8
型材断面
  6
CONTINUOUS
 10
-39.72631
 20
76.845463
 11
-35.84055
 21
77.739547
  0
LINE
  8
型材断面
  6
CONTINUOUS
 10
-35.84055
 20
77.739547
 11
-35.84055
 21
75.951377
  0
LINE
  8
型材断面
  6
CONTINUOUS
 10
-39.72631
 20
7.945457
 11
-35.84055
 21
8.839543
  0
LINE
  8
型材断面
  6
CONTINUOUS
 10
-39.72631
 20
7.945457
 11
-35.84055
 21
7.051373
  0
LINE
  8
型材断面
  6
CONTINUOUS
 10
-35.84055
 20
7.051373
 11
-35.84055
 21
8.839543
  0
POLYLINE
  8
型材断面
  6
CONTINUOUS
 66
     1
 70
     1
  0
VERTEX
  8
型材断面
 10
-78.496353
 20
-10.398775
  0
VERTEX
  8
型材断面
 10
-97.051565
 20
-10.398775
  0
VERTEX
  8
型材断面
 10
-97.051565
 20
-15.19081
  0
VERTEX
  8
型材断面
 10
-78.496353
 20
-15.19081
  0
SEQEND
  0
POLYLINE
  8
型材断面
  6
CONTINUOUS
 66
     1
 70
     1
  0
VERTEX
  8
型材断面
 10
-78.496353
 20
100.361643
  0
VERTEX
  8
型材断面
 10
-97.051565
 20
100.361643
  0
VERTEX
  8
型材断面
 10
-97.051565
 20
95.569607
  0
VERTEX
  8
型材断面
 10
-78.496353
 20
95.569607
  0
SEQEND
  0
LINE
  8
型材断面
  6
CONTINUOUS
 10
-133.600388
 20
-90.599892
 11
-87.750185
 21
-90.599892
  0
LINE
  8
型材断面
  6
CONTINUOUS
 62
    47
 10
-130.725685
 20
-94.399892
 11
-130.725405
 21
-94.399892
  0
ARC
  8
型材断面
  6
CONTINUOUS
 62
    47
 10
-130.735185
 20
-94.484892
 40
0.015
 50
180.0
 51
270.0
  0
LINE
  8
型材断面
  6
CONTINUOUS
 62
    47
 10
-133.600388
 20
-90.599892
 11
-133.600382
 21
-90.849892
  0
LINE
  8
型材断面
  6
CONTINUOUS
 62
    47
 10
-133.243335
 20
-90.24284
 11
-133.600388
 21
-90.599892
  0
LINE
  8
型材断面
  6
CONTINUOUS
 62
    47
 10
-130.750185
 20
-94.484893
 11
-130.750185
 21
-94.424892
  0
ARC
  8
型材断面
  6
CONTINUOUS
 62
    47
 10
-130.725185
 20
-94.424892
 40
0.025
 50
89.999657
 51
180.0
  0
LINE
  8
型材断面
  6
CONTINUOUS
 62
    47
 10
-133.600382
 20
-90.849892
 11
-87.750185
 21
-90.849892
  0
LINE
  8
型材断面
  6
CONTINUOUS
 62
    47
 10
-132.100185
 20
-92.989893
 11
-87.750185
 21
-92.989893
  0
LINE
  8
型材断面
  6
CONTINUOUS
 62
    47
 10
-130.735185
 20
-94.499892
 11
-87.750185
 21
-94.499892
  0
LINE
  8
型材断面
  6
CONTINUOUS
 62
    47
 10
-129.574965
 20
-94.614967
 11
-87.750185
 21
-94.614967
  0
LINE
  8
型材断面
  6
CONTINUOUS
 62
    47
 10
-130.725185
 20
-99.724968
 11
-87.750185
 21
-99.724968
  0
LINE
  8
型材断面
  6
CONTINUOUS
 62
    47
 10
-129.975185
 20
-100.474968
 11
-87.750185
 21
-100.474968
  0
LINE
  8
型材断面
  6
CONTINUOUS
 62
    47
 10
-129.975185
 20
-100.474968
 11
-129.975185
 21
-99.724968
  0
LINE
  8
型材断面
  6
CONTINUOUS
 62
    47
 10
-87.750185
 20
-94.749967
 11
-130.725185
 21
-94.749967
  0
LINE
  8
型材断面
  6
CONTINUOUS
 62
    47
 10
-130.725185
 20
-99.724968
 11
-130.725185
 21
-94.749967
  0
LINE
  8
型材断面
  6
CONTINUOUS
 62
    47
 10
-129.574965
 20
-94.614967
 11
-129.574965
 21
-94.499892
  0
LINE
  8
型材断面
  6
CONTINUOUS
 62
    47
 10
-129.324965
 20
-94.749967
 11
-129.324965
 21
-94.614967
  0
LINE
  8
型材断面
  6
CONTINUOUS
 62
    47
 10
-130.725185
 20
-94.399898
 11
-130.725185
 21
-92.989893
  0
LINE
  8
型材断面
  6
CONTINUOUS
 62
    47
 10
-132.100185
 20
-92.989893
 11
-132.100185
 21
-91.527412
  0
LINE
  8
型材断面
  6
CONTINUOUS
 62
    47
 10
-132.100185
 20
-91.527412
 11
-132.777703
 21
-90.849892
  0
LINE
  8
型材断面
  6
CONTINUOUS
 62
    47
 10
-133.243335
 20
-90.24284
 11
-132.182668
 21
-89.182175
  0
LINE
  8
型材断面
  6
CONTINUOUS
 10
-132.100185
 20
-91.527412
 11
-87.750185
 21
-91.527412
  0
LINE
  8
型材断面
  6
CONTINUOUS
 10
-127.801322
 20
-89.182175
 11
-128.861988
 21
-90.24284
  0
LINE
  8
型材断面
  6
CONTINUOUS
 10
-129.06909
 20
-89.74284
 11
-132.743335
 21
-89.74284
  0
LINE
  8
型材断面
  6
CONTINUOUS
 10
-128.861988
 20
-90.24284
 11
-133.243335
 21
-90.24284
  0
LINE
  8
型材断面
  6
CONTINUOUS
 10
-87.750185
 20
-89.182175
 11
-128.508425
 21
-89.182175
  0
LINE
  8
型材断面
  6
CONTINUOUS
 10
-92.875185
 20
-49.697893
 11
-87.750185
 21
-49.697893
  0
LINE
  8
型材断面
  6
CONTINUOUS
 10
-92.875185
 20
-49.697893
 11
-92.804475
 21
-49.768603
  0
LINE
  8
型材断面
  6
CONTINUOUS
 10
-87.750185
 20
-49.768603
 11
-92.804475
 21
-49.768603
  0
LINE
  8
型材断面
  6
CONTINUOUS
 10
-132.18267
 20
-89.182175
 11
-92.76912
 21
-49.768603
  0
LINE
  8
型材断面
  6
CONTINUOUS
 10
-129.06909
 20
-89.74284
 11
-89.094877
 21
-49.768603
  0
LINE
  8
型材断面
  6
CONTINUOUS
 10
-92.875185
 20
-49.697893
 11
-87.750185
 21
-44.57289
  0
LINE
  8
型材断面
  6
CONTINUOUS
 10
-41.899982
 20
-90.599892
 11
-87.750185
 21
-90.599892
  0
LINE
  8
型材断面
  6
CONTINUOUS
 62
    47
 10
-44.774685
 20
-94.399892
 11
-44.774965
 21
-94.399892
  0
ARC
  8
型材断面
  6
CONTINUOUS
 62
    47
 10
-44.765185
 20
-94.484892
 40
0.015
 50
270.0
 51
360.0
  0
LINE
  8
型材断面
  6
CONTINUOUS
 62
    47
 10
-41.899982
 20
-90.599892
 11
-41.899988
 21
-90.849892
  0
LINE
  8
型材断面
  6
CONTINUOUS
 62
    47
 10
-42.257035
 20
-90.24284
 11
-41.899982
 21
-90.599892
  0
LINE
  8
型材断面
  6
CONTINUOUS
 62
    47
 10
-44.750185
 20
-94.484893
 11
-44.750185
 21
-94.424892
  0
ARC
  8
型材断面
  6
CONTINUOUS
 62
    47
 10
-44.775185
 20
-94.424892
 40
0.025
 50
0.0
 51
90.000343
  0
LINE
  8
型材断面
  6
CONTINUOUS
 62
    47
 10
-41.899988
 20
-90.849892
 11
-87.750185
 21
-90.849892
  0
LINE
  8
型材断面
  6
CONTINUOUS
 62
    47
 10
-43.400185
 20
-92.989893
 11
-87.750185
 21
-92.989893
  0
LINE
  8
型材断面
  6
CONTINUOUS
 62
    47
 10
-44.765185
 20
-94.499892
 11
-87.750185
 21
-94.499892
  0
LINE
  8
型材断面
  6
CONTINUOUS
 62
    47
 10
-45.925405
 20
-94.614967
 11
-87.750185
 21
-94.614967
  0
LINE
  8
型材断面
  6
CONTINUOUS
 62
    47
 10
-44.775185
 20
-99.724968
 11
-87.750185
 21
-99.724968
  0
LINE
  8
型材断面
  6
CONTINUOUS
 62
    47
 10
-45.525185
 20
-100.474968
 11
-87.750185
 21
-100.474968
  0
LINE
  8
型材断面
  6
CONTINUOUS
 62
    47
 10
-45.525185
 20
-100.474968
 11
-45.525185
 21
-99.724968
  0
LINE
  8
型材断面
  6
CONTINUOUS
 62
    47
 10
-87.750185
 20
-94.749967
 11
-44.775185
 21
-94.749967
  0
LINE
  8
型材断面
  6
CONTINUOUS
 62
    47
 10
-44.775185
 20
-99.724968
 11
-44.775185
 21
-94.749967
  0
LINE
  8
型材断面
  6
CONTINUOUS
 62
    47
 10
-45.925405
 20
-94.614967
 11
-45.925405
 21
-94.499892
  0
LINE
  8
型材断面
  6
CONTINUOUS
 62
    47
 10
-46.175405
 20
-94.749967
 11
-46.175405
 21
-94.614967
  0
LINE
  8
型材断面
  6
CONTINUOUS
 62
    47
 10
-44.775185
 20
-94.399898
 11
-44.775185
 21
-92.989893
  0
LINE
  8
型材断面
  6
CONTINUOUS
 62
    47
 10
-43.400185
 20
-92.989893
 11
-43.400185
 21
-91.527412
  0
LINE
  8
型材断面
  6
CONTINUOUS
 62
    47
 10
-43.400185
 20
-91.527412
 11
-42.722667
 21
-90.849892
  0
LINE
  8
型材断面
  6
CONTINUOUS
 62
    47
 10
-42.257035
 20
-90.24284
 11
-43.317702
 21
-89.182175
  0
LINE
  8
型材断面
  6
CONTINUOUS
 10
-43.400185
 20
-91.527412
 11
-87.750185
 21
-91.527412
  0
LINE
  8
型材断面
  6
CONTINUOUS
 10
-47.699047
 20
-89.182175
 11
-46.638382
 21
-90.24284
  0
LINE
  8
型材断面
  6
CONTINUOUS
 10
-46.43128
 20
-89.74284
 11
-42.757035
 21
-89.74284
  0
LINE
  8
型材断面
  6
CONTINUOUS
 10
-46.638382
 20
-90.24284
 11
-42.257035
 21
-90.24284
  0
LINE
  8
型材断面
  6
CONTINUOUS
 10
-87.750185
 20
-89.182175
 11
-46.991945
 21
-89.182175
  0
LINE
  8
型材断面
  6
CONTINUOUS
 10
-82.625185
 20
-49.697893
 11
-87.750185
 21
-49.697893
  0
LINE
  8
型材断面
  6
CONTINUOUS
 10
-82.625185
 20
-49.697893
 11
-82.695895
 21
-49.768603
  0
LINE
  8
型材断面
  6
CONTINUOUS
 10
-87.750185
 20
-49.768603
 11
-82.695895
 21
-49.768603
  0
LINE
  8
型材断面
  6
CONTINUOUS
 10
-43.3177
 20
-89.182175
 11
-82.73125
 21
-49.768603
  0
LINE
  8
型材断面
  6
CONTINUOUS
 10
-46.43128
 20
-89.74284
 11
-86.405493
 21
-49.768603
  0
LINE
  8
型材断面
  6
CONTINUOUS
 10
-82.625185
 20
-49.697893
 11
-87.750185
 21
-44.57289
  0
LINE
  8
型材断面
  6
CONTINUOUS
 10
-132.895158
 20
-2.749513
 11
-132.895158
 21
0.898785
  0
LINE
  8
型材断面
  6
CONTINUOUS
 10
-132.895158
 20
-2.749513
 11
-129.24686
 21
-2.749513
  0
LINE
  8
型材断面
  6
CONTINUOUS
 10
-133.248712
 20
-3.103067
 11
-133.248712
 21
1.252338
  0
LINE
  8
型材断面
  6
CONTINUOUS
 10
-133.248712
 20
1.252338
 11
-132.187218
 21
2.313832
  0
LINE
  8
型材断面
  6
CONTINUOUS
 10
-128.893305
 20
-3.103065
 11
-127.831812
 21
-2.041572
  0
LINE
  8
型材断面
  6
CONTINUOUS
 10
-133.248712
 20
-3.103067
 11
-128.893307
 21
-3.103067
  0
LINE
  8
型材断面
  6
CONTINUOUS
 10
-133.600165
 20
-3.454522
 11
-87.750185
 21
-3.454522
  0
LINE
  8
型材断面
  6
CONTINUOUS
 10
-128.534148
 20
-2.036802
 11
-87.750185
 21
-2.036802
  0
LINE
  8
型材断面
  6
CONTINUOUS
 10
-132.182445
 20
1.611498
 11
-132.182445
 21
42.39546
  0
LINE
  8
型材断面
  6
CONTINUOUS
 10
-133.600165
 20
-3.454522
 11
-133.600165
 21
42.39546
  0
LINE
  8
型材断面
  6
CONTINUOUS
 10
-129.24686
 20
-2.749513
 11
-89.226887
 21
37.270457
  0
LINE
  8
型材断面
  6
CONTINUOUS
 10
-133.600165
 20
-3.454522
 11
-87.750185
 21
42.39546
  0
LINE
  8
型材断面
  6
CONTINUOUS
 10
-132.895158
 20
0.898785
 11
-92.875185
 21
40.91876
  0
LINE
  8
型材断面
  6
CONTINUOUS
 10
-42.605213
 20
-2.749513
 11
-42.605213
 21
0.898785
  0
LINE
  8
型材断面
  6
CONTINUOUS
 10
-42.605213
 20
-2.749513
 11
-46.25351
 21
-2.749513
  0
LINE
  8
型材断面
  6
CONTINUOUS
 10
-42.251657
 20
-3.103067
 11
-42.251657
 21
1.252338
  0
LINE
  8
型材断面
  6
CONTINUOUS
 10
-42.251657
 20
1.252338
 11
-43.313152
 21
2.313832
  0
LINE
  8
型材断面
  6
CONTINUOUS
 10
-46.607065
 20
-3.103065
 11
-47.668558
 21
-2.041572
  0
LINE
  8
型材断面
  6
CONTINUOUS
 10
-42.251657
 20
-3.103067
 11
-46.607063
 21
-3.103067
  0
LINE
  8
型材断面
  6
CONTINUOUS
 10
-41.900205
 20
-3.454522
 11
-87.750185
 21
-3.454522
  0
LINE
  8
型材断面
  6
CONTINUOUS
 10
-46.966223
 20
-2.036802
 11
-87.750185
 21
-2.036802
  0
LINE
  8
型材断面
  6
CONTINUOUS
 10
-43.317925
 20
1.611498
 11
-43.317925
 21
42.39546
  0
LINE
  8
型材断面
  6
CONTINUOUS
 10
-41.900205
 20
-3.454522
 11
-41.900205
 21
42.39546
  0
LINE
  8
型材断面
  6
CONTINUOUS
 10
-46.25351
 20
-2.749513
 11
-86.273482
 21
37.270457
  0
LINE
  8
型材断面
  6
CONTINUOUS
 10
-41.900205
 20
-3.454522
 11
-87.750185
 21
42.39546
  0
LINE
  8
型材断面
  6
CONTINUOUS
 10
-42.605213
 20
0.898785
 11
-82.625185
 21
40.91876
  0
LINE
  8
型材断面
  6
CONTINUOUS
 10
-42.605213
 20
87.540432
 11
-42.605213
 21
83.892135
  0
LINE
  8
型材断面
  6
CONTINUOUS
 10
-42.605213
 20
87.540432
 11
-46.25351
 21
87.540432
  0
LINE
  8
型材断面
  6
CONTINUOUS
 10
-42.251657
 20
87.893988
 11
-42.251657
 21
83.538582
  0
LINE
  8
型材断面
  6
CONTINUOUS
 10
-42.251657
 20
83.538582
 11
-43.313152
 21
82.477088
  0
LINE
  8
型材断面
  6
CONTINUOUS
 10
-46.607065
 20
87.893985
 11
-47.668558
 21
86.832493
  0
LINE
  8
型材断面
  6
CONTINUOUS
 10
-42.251657
 20
87.893988
 11
-46.607063
 21
87.893988
  0
LINE
  8
型材断面
  6
CONTINUOUS
 10
-41.900205
 20
88.245442
 11
-87.750185
 21
88.245442
  0
LINE
  8
型材断面
  6
CONTINUOUS
 10
-46.966223
 20
86.827722
 11
-87.750185
 21
86.827722
  0
LINE
  8
型材断面
  6
CONTINUOUS
 10
-43.317925
 20
83.179422
 11
-43.317925
 21
42.39546
  0
LINE
  8
型材断面
  6
CONTINUOUS
 10
-41.900205
 20
88.245442
 11
-41.900205
 21
42.39546
  0
LINE
  8
型材断面
  6
CONTINUOUS
 10
-46.25351
 20
87.540432
 11
-86.273482
 21
47.520463
  0
LINE
  8
型材断面
  6
CONTINUOUS
 10
-41.900205
 20
88.245442
 11
-87.750185
 21
42.39546
  0
LINE
  8
型材断面
  6
CONTINUOUS
 10
-42.605213
 20
83.892135
 11
-82.625185
 21
43.87216
  0
LINE
  8
型材断面
  6
CONTINUOUS
 10
-132.895158
 20
87.540432
 11
-132.895158
 21
83.892135
  0
LINE
  8
型材断面
  6
CONTINUOUS
 10
-132.895158
 20
87.540432
 11
-129.24686
 21
87.540432
  0
LINE
  8
型材断面
  6
CONTINUOUS
 10
-133.248712
 20
87.893988
 11
-133.248712
 21
83.538582
  0
LINE
  8
型材断面
  6
CONTINUOUS
 10
-133.248712
 20
83.538582
 11
-132.187218
 21
82.477088
  0
LINE
  8
型材断面
  6
CONTINUOUS
 10
-128.893305
 20
87.893985
 11
-127.831812
 21
86.832493
  0
LINE
  8
型材断面
  6
CONTINUOUS
 10
-133.248712
 20
87.893988
 11
-128.893307
 21
87.893988
  0
LINE
  8
型材断面
  6
CONTINUOUS
 10
-133.600165
 20
88.245442
 11
-87.750185
 21
88.245442
  0
LINE
  8
型材断面
  6
CONTINUOUS
 10
-128.534148
 20
86.827722
 11
-87.750185
 21
86.827722
  0
LINE
  8
型材断面
  6
CONTINUOUS
 10
-132.182445
 20
83.179422
 11
-132.182445
 21
42.39546
  0
LINE
  8
型材断面
  6
CONTINUOUS
 10
-133.600165
 20
88.245442
 11
-133.600165
 21
42.39546
  0
LINE
  8
型材断面
  6
CONTINUOUS
 10
-129.24686
 20
87.540432
 11
-89.226887
 21
47.520463
  0
LINE
  8
型材断面
  6
CONTINUOUS
 10
-133.600165
 20
88.245442
 11
-87.750185
 21
42.39546
  0
LINE
  8
型材断面
  6
CONTINUOUS
 10
-132.895158
 20
83.892135
 11
-92.875185
 21
43.87216
  0
LINE
  8
型材断面
  6
CONTINUOUS
 10
10.516347
 20
21.704708
 11
8.272903
 21
17.818947
  0
LINE
  8
型材断面
  6
CONTINUOUS
 10
10.516347
 20
21.704708
 11
12.759793
 21
17.818947
  0
LINE
  8
型材断面
  6
CONTINUOUS
 10
12.759793
 20
17.818947
 11
8.272903
 21
17.818947
  0
LINE
  8
型材断面
  6
CONTINUOUS
 10
10.516347
 20
14.01516
 11
11.410433
 21
10.1294
  0
LINE
  8
型材断面
  6
CONTINUOUS
 10
10.516347
 20
14.01516
 11
9.622263
 21
10.1294
  0
LINE
  8
型材断面
  6
CONTINUOUS
 10
9.622263
 20
10.1294
 11
11.410433
 21
10.1294
  0
LINE
  8
型材断面
  6
CONTINUOUS
 10
1.482467
 20
16.411055
 11
54.139148
 21
16.411055
  0
LINE
  8
型材断面
  6
CONTINUOUS
 10
1.482467
 20
5.211062
 11
54.139148
 21
5.211062
  0
LINE
  8
型材断面
  6
CONTINUOUS
 10
1.482467
 20
-1.628882
 11
54.139148
 21
-1.628882
  0
LINE
  8
型材断面
  6
CONTINUOUS
 10
7.352275
 20
-90.599892
 11
53.202477
 21
-90.599892
  0
LINE
  8
型材断面
  6
CONTINUOUS
 62
    47
 10
10.226978
 20
-94.399892
 11
10.227258
 21
-94.399892
  0
ARC
  8
型材断面
  6
CONTINUOUS
 62
    47
 10
10.217479
 20
-94.484892
 40
0.015
 50
180.0
 51
270.0
  0
LINE
  8
型材断面
  6
CONTINUOUS
 62
    47
 10
7.352275
 20
-90.599892
 11
7.35228
 21
-90.849892
  0
LINE
  8
型材断面
  6
CONTINUOUS
 62
    47
 10
7.709327
 20
-90.24284
 11
7.352275
 21
-90.599892
  0
LINE
  8
型材断面
  6
CONTINUOUS
 62
    47
 10
10.202477
 20
-94.484893
 11
10.202477
 21
-94.424892
  0
ARC
  8
型材断面
  6
CONTINUOUS
 62
    47
 10
10.227479
 20
-94.424892
 40
0.025
 50
89.999657
 51
180.0
  0
LINE
  8
型材断面
  6
CONTINUOUS
 62
    47
 10
7.35228
 20
-90.849892
 11
53.202477
 21
-90.849892
  0
LINE
  8
型材断面
  6
CONTINUOUS
 62
    47
 10
8.852477
 20
-92.989893
 11
53.202477
 21
-92.989893
  0
LINE
  8
型材断面
  6
CONTINUOUS
 62
    47
 10
10.217477
 20
-94.499892
 11
53.202477
 21
-94.499892
  0
LINE
  8
型材断面
  6
CONTINUOUS
 62
    47
 10
11.377698
 20
-94.614967
 11
53.202477
 21
-94.614967
  0
LINE
  8
型材断面
  6
CONTINUOUS
 62
    47
 10
10.227477
 20
-99.724968
 11
53.202477
 21
-99.724968
  0
LINE
  8
型材断面
  6
CONTINUOUS
 62
    47
 10
10.977477
 20
-100.474968
 11
53.202477
 21
-100.474968
  0
LINE
  8
型材断面
  6
CONTINUOUS
 62
    47
 10
10.977477
 20
-100.474968
 11
10.977477
 21
-99.724968
  0
LINE
  8
型材断面
  6
CONTINUOUS
 62
    47
 10
53.202477
 20
-94.749967
 11
10.227477
 21
-94.749967
  0
LINE
  8
型材断面
  6
CONTINUOUS
 62
    47
 10
10.227477
 20
-99.724968
 11
10.227477
 21
-94.749967
  0
LINE
  8
型材断面
  6
CONTINUOUS
 62
    47
 10
11.377698
 20
-94.614967
 11
11.377698
 21
-94.499892
  0
LINE
  8
型材断面
  6
CONTINUOUS
 62
    47
 10
11.627698
 20
-94.749967
 11
11.627698
 21
-94.614967
  0
LINE
  8
型材断面
  6
CONTINUOUS
 62
    47
 10
10.227477
 20
-94.399898
 11
10.227477
 21
-92.989893
  0
LINE
  8
型材断面
  6
CONTINUOUS
 62
    47
 10
8.852477
 20
-92.989893
 11
8.852477
 21
-91.527412
  0
LINE
  8
型材断面
  6
CONTINUOUS
 62
    47
 10
8.852477
 20
-91.527412
 11
8.17496
 21
-90.849892
  0
LINE
  8
型材断面
  6
CONTINUOUS
 62
    47
 10
7.709327
 20
-90.24284
 11
8.769995
 21
-89.182175
  0
LINE
  8
型材断面
  6
CONTINUOUS
 10
8.852477
 20
-91.527412
 11
53.202477
 21
-91.527412
  0
LINE
  8
型材断面
  6
CONTINUOUS
 10
13.15134
 20
-89.182175
 11
12.090675
 21
-90.24284
  0
LINE
  8
型材断面
  6
CONTINUOUS
 10
11.883573
 20
-89.74284
 11
8.209327
 21
-89.74284
  0
LINE
  8
型材断面
  6
CONTINUOUS
 10
12.090675
 20
-90.24284
 11
7.709327
 21
-90.24284
  0
LINE
  8
型材断面
  6
CONTINUOUS
 10
53.202477
 20
-89.182175
 11
12.444238
 21
-89.182175
  0
LINE
  8
型材断面
  6
CONTINUOUS
 10
48.077477
 20
-49.697893
 11
53.202477
 21
-49.697893
  0
LINE
  8
型材断面
  6
CONTINUOUS
 10
48.077477
 20
-49.697893
 11
48.148187
 21
-49.768603
  0
LINE
  8
型材断面
  6
CONTINUOUS
 10
53.202477
 20
-49.768603
 11
48.148187
 21
-49.768603
  0
LINE
  8
型材断面
  6
CONTINUOUS
 10
8.769993
 20
-89.182175
 11
48.183542
 21
-49.768603
  0
LINE
  8
型材断面
  6
CONTINUOUS
 10
11.883573
 20
-89.74284
 11
51.857785
 21
-49.768603
  0
LINE
  8
型材断面
  6
CONTINUOUS
 10
48.077477
 20
-49.697893
 11
53.202477
 21
-44.57289
  0
LINE
  8
型材断面
  6
CONTINUOUS
 10
99.05268
 20
-90.599892
 11
53.202477
 21
-90.599892
  0
LINE
  8
型材断面
  6
CONTINUOUS
 62
    47
 10
96.177978
 20
-94.399892
 11
96.177698
 21
-94.399892
  0
ARC
  8
型材断面
  6
CONTINUOUS
 62
    47
 10
96.187479
 20
-94.484892
 40
0.015
 50
270.0
 51
360.0
  0
LINE
  8
型材断面
  6
CONTINUOUS
 62
    47
 10
99.05268
 20
-90.599892
 11
99.052675
 21
-90.849892
  0
LINE
  8
型材断面
  6
CONTINUOUS
 62
    47
 10
98.695628
 20
-90.24284
 11
99.05268
 21
-90.599892
  0
LINE
  8
型材断面
  6
CONTINUOUS
 62
    47
 10
96.202477
 20
-94.484893
 11
96.202477
 21
-94.424892
  0
ARC
  8
型材断面
  6
CONTINUOUS
 62
    47
 10
96.177479
 20
-94.424892
 40
0.025
 50
0.0
 51
90.000343
  0
LINE
  8
型材断面
  6
CONTINUOUS
 62
    47
 10
99.052675
 20
-90.849892
 11
53.202477
 21
-90.849892
  0
LINE
  8
型材断面
  6
CONTINUOUS
 62
    47
 10
97.552477
 20
-92.989893
 11
53.202477
 21
-92.989893
  0
LINE
  8
型材断面
  6
CONTINUOUS
 62
    47
 10
96.187478
 20
-94.499892
 11
53.202477
 21
-94.499892
  0
LINE
  8
型材断面
  6
CONTINUOUS
 62
    47
 10
95.027258
 20
-94.614967
 11
53.202477
 21
-94.614967
  0
LINE
  8
型材断面
  6
CONTINUOUS
 62
    47
 10
96.177477
 20
-99.724968
 11
53.202477
 21
-99.724968
  0
LINE
  8
型材断面
  6
CONTINUOUS
 62
    47
 10
95.427477
 20
-100.474968
 11
53.202477
 21
-100.474968
  0
LINE
  8
型材断面
  6
CONTINUOUS
 62
    47
 10
95.427477
 20
-100.474968
 11
95.427477
 21
-99.724968
  0
LINE
  8
型材断面
  6
CONTINUOUS
 62
    47
 10
53.202477
 20
-94.749967
 11
96.177477
 21
-94.749967
  0
LINE
  8
型材断面
  6
CONTINUOUS
 62
    47
 10
96.177477
 20
-99.724968
 11
96.177477
 21
-94.749967
  0
LINE
  8
型材断面
  6
CONTINUOUS
 62
    47
 10
95.027258
 20
-94.614967
 11
95.027258
 21
-94.499892
  0
LINE
  8
型材断面
  6
CONTINUOUS
 62
    47
 10
94.777258
 20
-94.749967
 11
94.777258
 21
-94.614967
  0
LINE
  8
型材断面
  6
CONTINUOUS
 62
    47
 10
96.177477
 20
-94.399898
 11
96.177477
 21
-92.989893
  0
LINE
  8
型材断面
  6
CONTINUOUS
 62
    47
 10
97.552477
 20
-92.989893
 11
97.552477
 21
-91.527412
  0
LINE
  8
型材断面
  6
CONTINUOUS
 62
    47
 10
97.552477
 20
-91.527412
 11
98.229995
 21
-90.849892
  0
LINE
  8
型材断面
  6
CONTINUOUS
 62
    47
 10
98.695628
 20
-90.24284
 11
97.63496
 21
-89.182175
  0
LINE
  8
型材断面
  6
CONTINUOUS
 10
97.552477
 20
-91.527412
 11
53.202477
 21
-91.527412
  0
LINE
  8
型材断面
  6
CONTINUOUS
 10
93.253615
 20
-89.182175
 11
94.31428
 21
-90.24284
  0
LINE
  8
型材断面
  6
CONTINUOUS
 10
94.521383
 20
-89.74284
 11
98.195628
 21
-89.74284
  0
LINE
  8
型材断面
  6
CONTINUOUS
 10
94.31428
 20
-90.24284
 11
98.695628
 21
-90.24284
  0
LINE
  8
型材断面
  6
CONTINUOUS
 10
53.202477
 20
-89.182175
 11
93.960717
 21
-89.182175
  0
LINE
  8
型材断面
  6
CONTINUOUS
 10
58.327477
 20
-49.697893
 11
53.202477
 21
-49.697893
  0
LINE
  8
型材断面
  6
CONTINUOUS
 10
58.327477
 20
-49.697893
 11
58.256768
 21
-49.768603
  0
LINE
  8
型材断面
  6
CONTINUOUS
 10
53.202477
 20
-49.768603
 11
58.256768
 21
-49.768603
  0
LINE
  8
型材断面
  6
CONTINUOUS
 10
97.634963
 20
-89.182175
 11
58.221413
 21
-49.768603
  0
LINE
  8
型材断面
  6
CONTINUOUS
 10
94.521383
 20
-89.74284
 11
54.54717
 21
-49.768603
  0
LINE
  8
型材断面
  6
CONTINUOUS
 10
58.327477
 20
-49.697893
 11
53.202477
 21
-44.57289
  0
INSERT
  2
*GRP_0016
  8
型材断面
  6
CONTINUOUS
 10
0.0
 20
0.0
  0
INSERT
  2
*GRP_0017
  8
型材断面
  6
DOT
 10
0.0
 20
0.0
  0
INSERT
  2
*GRP_0018
  8
型材断面
  6
DOT
 10
0.0
 20
0.0
  0
INSERT
  2
*GRP_0019
  8
型材断面
  6
DOT
 10
0.0
 20
0.0
  0
INSERT
  2
*GRP_0020
  8
型材断面
  6
DOT
 10
0.0
 20
0.0
  0
LINE
  8
型材断面
  6
CONTINUOUS
 10
88.971665
 20
42.649883
 11
112.903288
 21
42.649883
  0
LINE
  8
型材断面
  6
CONTINUOUS
 10
1.482467
 20
-8.468828
 11
54.139148
 21
-8.468828
  0
LINE
  8
ガラス
  6
CONTINUOUS
 10
-85.370128
 20
19.1114
 11
-89.242763
 21
15.238765
  0
LINE
  8
ガラス
  6
CONTINUOUS
 10
-86.968485
 20
18.231077
 11
-88.36244
 21
16.837123
  0
LINE
  8
ガラス
  6
CONTINUOUS
 10
-85.370128
 20
69.567128
 11
-89.242763
 21
65.694492
  0
LINE
  8
ガラス
  6
CONTINUOUS
 10
-86.968485
 20
68.686805
 11
-88.36244
 21
67.29285
  0
LINE
  8
ガラス
  6
CONTINUOUS
 10
-61.35698
 20
44.325353
 11
-65.229615
 21
40.452717
  0
LINE
  8
ガラス
  6
CONTINUOUS
 10
-62.955338
 20
43.44503
 11
-64.349292
 21
42.051075
  0
LINE
  8
ガラス
  6
CONTINUOUS
 10
-110.168885
 20
44.325353
 11
-114.04152
 21
40.452717
  0
LINE
  8
ガラス
  6
CONTINUOUS
 10
-111.767242
 20
43.44503
 11
-113.161197
 21
42.051075
  0
LINE
  8
ガラス
  6
CONTINUOUS
 10
-86.25045
 20
67.96877
 11
-87.644405
 21
66.574815
  0
LINE
  8
ガラス
  6
CONTINUOUS
 10
-111.049208
 20
42.726995
 11
-112.443163
 21
41.33304
  0
LINE
  8
ガラス
  6
CONTINUOUS
 10
-62.237302
 20
42.726995
 11
-63.631257
 21
41.33304
  0
LINE
  8
ガラス
  6
CONTINUOUS
 10
-86.25045
 20
17.513042
 11
-87.644405
 21
16.119088
  0
LINE
  8
ガラス
  6
CONTINUOUS
 10
-85.655945
 20
-71.188903
 11
-89.52858
 21
-75.061538
  0
LINE
  8
ガラス
  6
CONTINUOUS
 10
-86.536268
 20
-72.78726
 11
-87.930223
 21
-74.181215
  0
LINE
  8
ガラス
  6
CONTINUOUS
 10
-87.254302
 20
-72.069225
 11
-88.648258
 21
-73.46318
  0
LINE
  8
ガラス
  6
CONTINUOUS
 10
55.296717
 20
-71.188903
 11
51.424083
 21
-75.061538
  0
LINE
  8
ガラス
  6
CONTINUOUS
 10
54.416395
 20
-72.78726
 11
53.02244
 21
-74.181215
  0
LINE
  8
ガラス
  6
CONTINUOUS
 10
53.69836
 20
-72.069225
 11
52.304405
 21
-73.46318
  0
TEXT
  7
TextStyle03
  8
文字
  6
CONTINUOUS
 10
-38.1
 20
21.125
  1
ﾊﾞﾗﾝｽｽﾃｰ
 40
3.0
 72
     5
 11
-24.7875
 21
21.125
  0
TEXT
  7
TextStyle03
  8
文字
  6
CONTINUOUS
 10
-96.075
 20
-14.225
  1
可動装置側
 40
3.0
 72
     5
 11
-79.575
 21
-14.225
  0
TEXT
  7
TextStyle03
  8
文字
  6
CONTINUOUS
 10
-96.075
 20
96.525
  1
可動装置側
 40
3.0
 72
     5
 11
-79.575
 21
96.525
  0
TEXT
  7
TextStyle03
  8
文字
  6
CONTINUOUS
 10
-150.6625
 20
69.575
  1
ﾊﾞﾗﾝｽｽﾃｰ
 40
3.0
 72
     5
 11
-137.35
 21
69.575
  0
TEXT
  7
TextStyle03
  8
文字
  6
CONTINUOUS
 10
-160.0
 20
-0.675
  1
アンカーピッチ
 40
3.0
 50
90.0
 72
     5
 11
-160.0
 21
22.575
  0
TEXT
  7
TextStyle03
  8
文字
  6
CONTINUOUS
 10
-147.975
 20
115.35
  1
アンカーピッチ
 40
3.0
 72
     5
 11
-124.725
 21
115.35
  0
TEXT
  7
TextStyle03
  8
文字
  6
CONTINUOUS
 10
66.325
 20
95.525
  1
ＮＳコード：ＮＳ４ＣＺ
 40
5.0
 72
     5
 11
127.575
 21
95.525
  0
TEXT
  7
TextStyle03
  8
文字
  6
CONTINUOUS
 10
14.825
 20
18.175
  1
は排水穴位置を示す
 40
3.0
 72
     5
 11
44.825
 21
18.175
  0
TEXT
  7
TextStyle03
  8
文字
  6
CONTINUOUS
 10
14.825
 20
10.325
  1
はケーシング位置を示す
 40
3.0
 72
     5
 11
51.575
 21
10.325
  0
TEXT
  7
TextStyle03
  8
文字
  6
CONTINUOUS
 10
14.825
 20
6.95
  1
４ヶ所中1ヶ所に設定
 40
3.0
 72
     5
 11
46.5125
 21
6.95
  0
TEXT
  7
TextStyle03
  8
文字
  6
CONTINUOUS
 10
9.225
 20
-0.2
  1
アンカー数量　１０ヶ所
 40
3.0
 72
     5
 11
45.975
 21
-0.2
  0
TEXT
  7
TextStyle03
  8
文字
  6
CONTINUOUS
 10
144.2
 20
-5.875
  1
×４枚
 40
3.0
 72
     5
 11
153.95
 21
-5.875
  0
TEXT
  7
TextStyle03
  8
文字
  6
CONTINUOUS
 10
92.575
 20
43.85
  1
ガラス寸法
 40
3.0
 72
     5
 11
109.075
 21
43.85
  0
TEXT
  7
TextStyle03
  8
文字
  6
CONTINUOUS
 10
9.15
 20
-7.05
  1
アームユニット数　４ヶ所
 40
3.0
 72
     5
 11
49.275
 21
-7.05
  0
TEXT
  7
TextStyle03
  8
文字
  6
CONTINUOUS
 10
66.625
 20
117.825
  1
シリーズ：ＴＦ２４
 40
5.0
 72
     5
 11
116.625
 21
117.825
  0
TEXT
  7
TextStyle03
  8
文字
  6
CONTINUOUS
 10
66.625
 20
112.2
  1
　　　　　四角錘（上下可動）1600×1600タイプ
 40
5.0
 72
     5
 11
189.75
 21
112.2
  0
TEXT
  7
TextStyle03
  8
文字
  6
CONTINUOUS
 10
66.625
 20
106.575
  1
図面名　：外観姿図
 40
5.0
 72
     5
 11
116.625
 21
106.575
  0
TEXT
  7
TextStyle03
  8
文字
  6
CONTINUOUS
 10
66.625
 20
100.95
  1
　　　　　　
 40
5.0
 72
     5
 11
99.75
 21
100.95
  0
INSERT
  2
*DIM_0002
  8
寸法
  6
CONTINUOUS
 10
0.0
 20
0.0
  0
INSERT
  2
*DIM_0003
  8
寸法
  6
CONTINUOUS
 10
0.0
 20
0.0
  0
INSERT
  2
*DIM_0004
  8
寸法
  6
CONTINUOUS
 10
0.0
 20
0.0
  0
INSERT
  2
*DIM_0005
  8
寸法
  6
CONTINUOUS
 10
0.0
 20
0.0
  0
INSERT
  2
*GRP_0006
  8
寸法
  6
CONTINUOUS
 10
0.0
 20
0.0
  0
INSERT
  2
*DIM_0007
  8
寸法
  6
CONTINUOUS
 10
0.0
 20
0.0
  0
INSERT
  2
*DIM_0008
  8
寸法
  6
CONTINUOUS
 10
0.0
 20
0.0
  0
INSERT
  2
*GRP_0009
  8
寸法
  6
CONTINUOUS
 10
0.0
 20
0.0
  0
INSERT
  2
*DIM_0010
  8
寸法
  6
CONTINUOUS
 10
0.0
 20
0.0
  0
INSERT
  2
*DIM_0011
  8
寸法
  6
CONTINUOUS
 10
0.0
 20
0.0
  0
INSERT
  2
*DIM_0012
  8
寸法
  6
CONTINUOUS
 10
0.0
 20
0.0
  0
INSERT
  2
*DIM_0013
  8
寸法
  6
CONTINUOUS
 10
0.0
 20
0.0
  0
INSERT
  2
*DIM_0014
  8
寸法
  6
CONTINUOUS
 10
0.0
 20
0.0
  0
INSERT
  2
*DIM_0015
  8
寸法
  6
CONTINUOUS
 10
0.0
 20
0.0
  0
INSERT
  2
*DIM_0021
  8
寸法
  6
CONTINUOUS
 10
0.0
 20
0.0
  0
INSERT
  2
*DIM_0022
  8
寸法
  6
CONTINUOUS
 10
0.0
 20
0.0
  0
INSERT
  2
*DIM_0023
  8
寸法
  6
CONTINUOUS
 10
0.0
 20
0.0
  0
LINE
  8
曲げ物
  6
CONTINUOUS
 10
166.233913
 20
-8.939517
 11
81.453912
 21
-8.939517
  0
LINE
  8
曲げ物
  6
CONTINUOUS
 10
81.453912
 20
-8.939517
 11
123.843913
 21
51.008742
  0
LINE
  8
曲げ物
  6
CONTINUOUS
 10
166.233913
 20
-8.939517
 11
123.843913
 21
51.008742
  0
ENDSEC
  0
EOF
