  0
SECTION
  2
HEADER
  9
$EXTMIN
 10
-210.0
 20
-148.5
  9
$EXTMAX
 10
210.0
 20
148.5
  9
$PDMODE
 70
    32
  9
$PDSIZE
 40
1.5
  9
$LTSCALE
 40
10.0
  0
ENDSEC
  0
SECTION
  2
TABLES
  0
TABLE
  2
LTYPE
 70
    15
  0
LTYPE
  2
CONTINUOUS
 70
    64
  3
実線
 72
    65
 73
     0
 40
0.0
  0
LTYPE
  2
DASHED
 70
    64
  3
破線A
 72
    65
 73
     2
 40
0.6
 49
0.4
 49
-0.2
  0
LTYPE
  2
DASHEDX2
 70
    64
  3
破線B
 72
    65
 73
     2
 40
1.3
 49
0.9
 49
-0.4
  0
LTYPE
  2
DASHDOT
 70
    64
  3
１点鎖線A
 72
    65
 73
     4
 40
0.5375
 49
0.375
 49
-0.05
 49
0.0625
 49
-0.05
  0
LTYPE
  2
DASHDOTX2
 70
    64
  3
１点鎖線B
 72
    65
 73
     4
 40
1.075
 49
0.75
 49
-0.1
 49
0.125
 49
-0.1
  0
LTYPE
  2
DIVIDE2
 70
    64
  3
２点鎖線A
 72
    65
 73
     6
 40
0.5125
 49
0.3
 49
-0.0375
 49
0.05
 49
-0.0375
 49
0.05
 49
-0.0375
  0
LTYPE
  2
DIVIDE
 70
    64
  3
２点鎖線B
 72
    65
 73
     6
 40
1.05
 49
0.55
 49
-0.1
 49
0.1
 49
-0.1
 49
0.1
 49
-0.1
  0
LTYPE
  2
DOT
 70
    64
  3
点線A
 72
    65
 73
     2
 40
0.1125
 49
0.0625
 49
-0.05
  0
LTYPE
  2
DOTX2
 70
    64
  3
点線B
 72
    65
 73
     2
 40
0.275
 49
0.15
 49
-0.125
  0
LTYPE
  2
CONTINUOUS
 70
    64
  3
実線
 72
    65
 73
     0
 40
0.0
  0
LTYPE
  2
CONTINUOUS
 70
    64
  3
実線
 72
    65
 73
     0
 40
0.0
  0
LTYPE
  2
CONTINUOUS
 70
    64
  3
実線
 72
    65
 73
     0
 40
0.0
  0
LTYPE
  2
CONTINUOUS
 70
    64
  3
実線
 72
    65
 73
     0
 40
0.0
  0
LTYPE
  2
CONTINUOUS
 70
    64
  3
実線
 72
    65
 73
     0
 40
0.0
  0
LTYPE
  2
CONTINUOUS
 70
    64
  3
実線
 72
    65
 73
     0
 40
0.0
  0
ENDTAB
  0
TABLE
  2
LAYER
 70
    34
  0
LAYER
  2
通り芯
 70
     0
 62
    15
  6
CONTINUOUS
  0
LAYER
  2
補助線
 70
     0
 62
    16
  6
DOT
  0
LAYER
  2
躯体
 70
     0
 62
    31
  6
CONTINUOUS
  0
LAYER
  2
型材
 70
     0
 62
    32
  6
CONTINUOUS
  0
LAYER
  2
型材断面
 70
     0
 62
    47
  6
CONTINUOUS
  0
LAYER
  2
ガラス
 70
     0
 62
    48
  6
CONTINUOUS
  0
LAYER
  2
ゴム等
 70
     0
 62
    63
  6
CONTINUOUS
  0
LAYER
  2
ボルト／ビス
 70
     0
 62
    64
  6
CONTINUOUS
  0
LAYER
  2
文字
 70
     0
 62
    79
  6
CONTINUOUS
  0
LAYER
  2
寸法
 70
     0
 62
    80
  6
CONTINUOUS
  0
LAYER
  2
ﾊｯﾁﾝｸﾞ
 70
     0
 62
    95
  6
CONTINUOUS
  0
LAYER
  2
別途部材
 70
     0
 62
    96
  6
CONTINUOUS
  0
LAYER
  2
曲げ物
 70
     0
 62
   111
  6
CONTINUOUS
  0
LAYER
  2
鉄骨等
 70
     0
 62
   112
  6
CONTINUOUS
  0
LAYER
  2
St
 70
     0
 62
   127
  6
CONTINUOUS
  0
LAYER
  2
その他部品等
 70
     0
 62
   128
  6
CONTINUOUS
  0
LAYER
  2
ｶﾞｽｹｯﾄ
 70
     0
 62
   143
  6
CONTINUOUS
  0
LAYER
  2
ｽｹｯﾁ
 70
     0
 62
    14
  6
CONTINUOUS
  0
LAYER
  2
0
 70
     0
 62
    17
  6
CONTINUOUS
  0
LAYER
  2
1
 70
     0
 62
    30
  6
CONTINUOUS
  0
LAYER
  2
4
 70
     0
 62
    33
  6
CONTINUOUS
  0
LAYER
  2
ﾚｲﾔ3
 70
     0
 62
    46
  6
CONTINUOUS
  0
LAYER
  2
外形線
 70
     0
 62
    49
  6
CONTINUOUS
  0
LAYER
  2
部品
 70
     0
 62
    14
  6
CONTINUOUS
  0
LAYER
  2
サッシ芯
 70
     0
 62
    17
  6
DASHDOTX2
  0
LAYER
  2
寸法線
 70
     0
 62
    62
  6
CONTINUOUS
  0
LAYER
  2
姿図外形線
 70
     0
 62
    65
  6
CONTINUOUS
  0
LAYER
  2
姿補助線
 70
     0
 62
    30
  6
CONTINUOUS
  0
LAYER
  2
透視線
 70
     0
 62
    78
  6
DOT
  0
LAYER
  2
用紙
 70
     0
 62
    81
  6
CONTINUOUS
  0
LAYER
  2
実線図枠
 70
     0
 62
    94
  6
CONTINUOUS
  0
LAYER
  2
補助図枠
 70
     0
 62
    97
  6
CONTINUOUS
  0
LAYER
  2
建具記号
 70
     0
 62
   110
  6
CONTINUOUS
  0
LAYER
  2
補助文字
 70
     0
 62
   113
  6
CONTINUOUS
  0
ENDTAB
  0
TABLE
  2
STYLE
 70
    10
  0
STYLE
  2
STANDARD
 70
     0
 40
1.0
 41
1.0
 42
1.0
 50
0.0
 71
     0
  3
TXT
  4
BIGFONT
  0
STYLE
  2
TATE
 70
     4
 40
1.0
 41
1.0
 42
1.0
 50
0.0
 71
     0
  3
TXT
  4
BIGFONT
  0
STYLE
  2
TextStyle03
 70
     0
 40
1.0
 41
1.0
 42
1.0
 50
0.0
 71
     0
  3
MONOTXT
  4
BIGFONT
  0
STYLE
  2
TextStyle04
 70
     0
 40
1.0
 41
1.0
 42
1.0
 50
0.0
 71
     0
  3
MONOTXT
  4
BIGFONT
  0
STYLE
  2
TextStyle05
 70
     0
 40
1.0
 41
1.0
 42
1.0
 50
0.0
 71
     0
  3
MONOTXT
  4
BIGFONT
  0
STYLE
  2
TextStyle06
 70
     0
 40
1.0
 41
1.0
 42
1.0
 50
0.0
 71
     0
  3
MONOTXT
  4
BIGFONT
  0
STYLE
  2
TextStyle07
 70
     0
 40
1.0
 41
1.0
 42
1.0
 50
0.0
 71
     0
  3
MONOTXT
  4
BIGFONT
  0
STYLE
  2
TextStyle08
 70
     0
 40
1.0
 41
1.0
 42
1.0
 50
0.0
 71
     0
  3
MONOTXT
  4
BIGFONT
  0
STYLE
  2
TextStyle09
 70
     0
 40
1.0
 41
1.0
 42
1.0
 50
0.0
 71
     0
  3
MONOTXT
  4
BIGFONT
  0
STYLE
  2
TextStyle10
 70
     0
 40
1.0
 41
1.0
 42
1.0
 50
0.0
 71
     0
  3
MONOTXT
  4
BIGFONT
  0
ENDTAB
  0
ENDSEC
  0
SECTION
  2
BLOCKS
  0
BLOCK
  2
*GRP_0001
 70
    65
 10
0.0
 20
0.0
  0
LINE
  8
型材断面
  6
CONTINUOUS
 10
195.0
 20
133.5
 11
195.0
 21
-133.5
  0
LINE
  8
型材断面
  6
CONTINUOUS
 10
195.0
 20
-133.5
 11
-185.0
 21
-133.5
  0
LINE
  8
型材断面
  6
CONTINUOUS
 10
-185.0
 20
-133.5
 11
-185.0
 21
133.5
  0
LINE
  8
型材断面
  6
CONTINUOUS
 10
195.0
 20
133.5
 11
-185.0
 21
133.5
  0
LINE
  8
型材断面
  6
CONTINUOUS
 10
145.0
 20
-133.5
 11
145.0
 21
-118.5
  0
LINE
  8
型材断面
  6
CONTINUOUS
 10
195.0
 20
-118.5
 11
145.0
 21
-118.5
  0
ENDBLK
  0
BLOCK
  2
*DIM_0002
 70
    65
 10
0.0
 20
0.0
  0
LINE
  8
寸法
  6
BYBLOCK
 62
     0
 10
-92.875187
 20
-66.197897
 11
-92.875187
 21
-49.858252
  0
LINE
  8
寸法
  6
BYBLOCK
 62
     0
 10
-82.625183
 20
-66.197897
 11
-82.625183
 21
-49.858252
  0
LINE
  8
寸法
  6
BYBLOCK
 62
     0
 10
-92.875187
 20
-49.858252
 11
-82.625183
 21
-49.858252
  0
POINT
  8
寸法
 62
     0
 10
-92.875187
 20
-49.858252
  0
POINT
  8
寸法
 62
     0
 10
-82.625183
 20
-49.858252
  0
TEXT
  7
TextStyle03
  8
寸法
  6
CONTINUOUS
 62
     0
 10
-90.2125
 20
-49.475
  1
205
 40
3.0
 72
     5
 11
-85.3375
 21
-49.475
  0
ENDBLK
  0
BLOCK
  2
*DIM_0003
 70
    65
 10
0.0
 20
0.0
  0
LINE
  8
寸法
  6
BYBLOCK
 62
     0
 10
-73.25809
 20
-62.0729
 11
-72.536697
 21
-62.0729
  0
LINE
  8
寸法
  6
BYBLOCK
 62
     0
 10
-81.625183
 20
-67.197897
 11
-72.536697
 21
-67.197897
  0
LINE
  8
寸法
  6
BYBLOCK
 62
     0
 10
-72.536697
 20
-62.0729
 11
-72.536697
 21
-67.197897
  0
POINT
  8
寸法
 62
     0
 10
-72.536697
 20
-62.0729
  0
POINT
  8
寸法
 62
     0
 10
-72.536697
 20
-67.197897
  0
TEXT
  7
TextStyle03
  8
寸法
  6
CONTINUOUS
 62
     0
 10
-69.55
 20
-68.75
  1
102.5
 40
3.0
 50
90.0
 72
     5
 11
-69.55
 21
-60.5
  0
ENDBLK
  0
BLOCK
  2
*DIM_0004
 70
    65
 10
0.0
 20
0.0
  0
LINE
  8
寸法
  6
BYBLOCK
 62
     0
 10
-59.275185
 20
-99.724968
 11
-34.004388
 21
-99.724968
  0
LINE
  8
寸法
  6
BYBLOCK
 62
     0
 10
-56.399982
 20
-90.599892
 11
-34.004388
 21
-90.599892
  0
LINE
  8
寸法
  6
BYBLOCK
 62
     0
 10
-34.004388
 20
-99.724968
 11
-34.004388
 21
-90.599892
  0
POINT
  8
寸法
 62
     0
 10
-34.004388
 20
-99.724968
  0
POINT
  8
寸法
 62
     0
 10
-34.004388
 20
-90.599892
  0
TEXT
  7
TextStyle03
  8
寸法
  6
CONTINUOUS
 62
     0
 10
-34.4
 20
-99.3
  1
182.5
 40
3.0
 50
90.0
 72
     5
 11
-34.4
 21
-91.05
  0
ENDBLK
  0
BLOCK
  2
*DIM_0005
 70
    65
 10
0.0
 20
0.0
  0
LINE
  8
寸法
  6
CONTINUOUS
 62
     0
 10
-84.750185
 20
-62.0729
 11
-34.004388
 21
-62.0729
  0
LINE
  8
寸法
  6
CONTINUOUS
 62
     0
 10
-34.004388
 20
-90.599892
 11
-34.004388
 21
-62.0729
  0
POINT
  8
寸法
 62
     0
 10
-34.004388
 20
-90.599892
  0
POINT
  8
寸法
 62
     0
 10
-34.004388
 20
-62.0729
  0
TEXT
  7
TextStyle03
  8
寸法
  6
CONTINUOUS
 62
     0
 10
-34.4
 20
-80.475
  1
570.5
 40
3.0
 50
90.0
 72
     5
 11
-34.4
 21
-72.225
  0
ENDBLK
  0
BLOCK
  2
*DIM_0006
 70
    65
 10
0.0
 20
0.0
  0
LINE
  8
寸法
  6
BYBLOCK
 62
     0
 10
-110.250185
 20
-41.549492
 11
-65.250185
 21
-41.549492
  0
POINT
  8
寸法
 62
     0
 10
-110.250185
 20
-41.549492
  0
POINT
  8
寸法
 62
     0
 10
-65.250185
 20
-41.549492
  0
TEXT
  7
TextStyle03
  8
寸法
  6
CONTINUOUS
 62
     0
 10
-98.65
 20
-41.175
  1
呼称寸法＝900
 40
3.0
 72
     5
 11
-76.9
 21
-41.175
  0
ENDBLK
  0
BLOCK
  2
*DIM_0007
 70
    65
 10
0.0
 20
0.0
  0
LINE
  8
寸法
  6
BYBLOCK
 62
     0
 10
-59.399982
 20
-87.599892
 11
-59.399982
 21
-41.549492
  0
LINE
  8
寸法
  6
BYBLOCK
 62
     0
 10
-65.250185
 20
-41.549492
 11
-59.399982
 21
-41.549492
  0
POINT
  8
寸法
 62
     0
 10
-59.399982
 20
-41.549492
  0
TEXT
  7
TextStyle03
  8
寸法
  6
CONTINUOUS
 62
     0
 10
-64.7875
 20
-41.175
  1
117
 40
3.0
 72
     5
 11
-59.9125
 21
-41.175
  0
ENDBLK
  0
BLOCK
  2
*DIM_0008
 70
    65
 10
0.0
 20
0.0
  0
LINE
  8
寸法
  6
BYBLOCK
 62
     0
 10
-116.100388
 20
-87.599892
 11
-116.100388
 21
-41.549492
  0
LINE
  8
寸法
  6
BYBLOCK
 62
     0
 10
-110.250185
 20
-41.549492
 11
-116.100388
 21
-41.549492
  0
POINT
  8
寸法
 62
     0
 10
-110.250185
 20
-41.549492
  0
POINT
  8
寸法
 62
     0
 10
-116.100388
 20
-41.549492
  0
TEXT
  7
TextStyle03
  8
寸法
  6
CONTINUOUS
 62
     0
 10
-115.6375
 20
-41.175
  1
117
 40
3.0
 72
     5
 11
-110.7625
 21
-41.175
  0
ENDBLK
  0
BLOCK
  2
*GRP_0009
 70
    65
 10
0.0
 20
0.0
  0
POLYLINE
  8
寸法
  6
CONTINUOUS
 62
     0
 66
     1
  0
VERTEX
  8
寸法
 10
-67.35243
 20
32.391753
  0
VERTEX
  8
寸法
 10
-63.671235
 20
28.710557
  0
VERTEX
  8
寸法
 10
-40.828658
 20
28.710557
  0
SEQEND
  0
ENDBLK
  0
BLOCK
  2
*DIM_0010
 70
    65
 10
0.0
 20
0.0
  0
LINE
  8
寸法
  6
BYBLOCK
 62
     0
 10
-64.250185
 20
64.89546
 11
-47.390272
 21
64.89546
  0
LINE
  8
寸法
  6
BYBLOCK
 62
     0
 10
-56.22631
 20
59.345463
 11
-47.390272
 21
59.345463
  0
LINE
  8
寸法
  6
BYBLOCK
 62
     0
 10
-47.390272
 20
64.89546
 11
-47.390272
 21
59.345463
  0
POINT
  8
寸法
 62
     0
 10
-47.390272
 20
64.89546
  0
POINT
  8
寸法
 62
     0
 10
-47.390272
 20
59.345463
  0
TEXT
  7
TextStyle03
  8
寸法
  6
CONTINUOUS
 62
     0
 10
-47.75
 20
59.6625
  1
111
 40
3.0
 50
90.0
 72
     5
 11
-47.75
 21
64.5375
  0
ENDBLK
  0
BLOCK
  2
*DIM_0011
 70
    65
 10
0.0
 20
0.0
  0
LINE
  8
寸法
  6
BYBLOCK
 62
     0
 10
-64.250185
 20
19.89546
 11
-47.390272
 21
19.89546
  0
LINE
  8
寸法
  6
BYBLOCK
 62
     0
 10
-56.22631
 20
25.445457
 11
-47.390272
 21
25.445457
  0
LINE
  8
寸法
  6
BYBLOCK
 62
     0
 10
-47.390272
 20
19.89546
 11
-47.390272
 21
25.445457
  0
POINT
  8
寸法
 62
     0
 10
-47.390272
 20
19.89546
  0
POINT
  8
寸法
 62
     0
 10
-47.390272
 20
25.445457
  0
TEXT
  7
TextStyle03
  8
寸法
  6
CONTINUOUS
 62
     0
 10
-47.75
 20
20.2125
  1
111
 40
3.0
 50
90.0
 72
     5
 11
-47.75
 21
25.0875
  0
ENDBLK
  0
BLOCK
  2
*DIM_0012
 70
    65
 10
0.0
 20
0.0
  0
LINE
  8
寸法
  6
BYBLOCK
 62
     0
 10
-102.750185
 20
65.89546
 11
-102.750185
 21
83.834475
  0
LINE
  8
寸法
  6
BYBLOCK
 62
     0
 10
-72.750185
 20
65.89546
 11
-72.750185
 21
83.834475
  0
LINE
  8
寸法
  6
BYBLOCK
 62
     0
 10
-102.750185
 20
83.834475
 11
-72.750185
 21
83.834475
  0
POINT
  8
寸法
 62
     0
 10
-102.750185
 20
83.834475
  0
POINT
  8
寸法
 62
     0
 10
-72.750185
 20
83.834475
  0
TEXT
  7
TextStyle03
  8
寸法
  6
CONTINUOUS
 62
     0
 10
-90.1875
 20
84.2
  1
600
 40
3.0
 72
     5
 11
-85.3125
 21
84.2
  0
ENDBLK
  0
BLOCK
  2
*DIM_0013
 70
    65
 10
0.0
 20
0.0
  0
LINE
  8
寸法
  6
BYBLOCK
 62
     0
 10
-111.250185
 20
64.89546
 11
-134.158428
 21
64.89546
  0
LINE
  8
寸法
  6
BYBLOCK
 62
     0
 10
-111.250185
 20
42.39546
 11
-134.158428
 21
42.39546
  0
LINE
  8
寸法
  6
BYBLOCK
 62
     0
 10
-134.158428
 20
64.89546
 11
-134.158428
 21
42.39546
  0
POINT
  8
寸法
 62
     0
 10
-134.158428
 20
64.89546
  0
POINT
  8
寸法
 62
     0
 10
-134.158428
 20
42.39546
  0
TEXT
  7
TextStyle03
  8
寸法
  6
CONTINUOUS
 62
     0
 10
-134.525
 20
51.1875
  1
450
 40
3.0
 50
90.0
 72
     5
 11
-134.525
 21
56.0625
  0
ENDBLK
  0
BLOCK
  2
*DIM_0014
 70
    65
 10
0.0
 20
0.0
  0
LINE
  8
寸法
  6
BYBLOCK
 62
     0
 10
-111.250185
 20
19.89546
 11
-134.158428
 21
19.89546
  0
LINE
  8
寸法
  6
BYBLOCK
 62
     0
 10
-134.158428
 20
42.39546
 11
-134.158428
 21
19.89546
  0
POINT
  8
寸法
 62
     0
 10
-134.158428
 20
19.89546
  0
TEXT
  7
TextStyle03
  8
寸法
  6
CONTINUOUS
 62
     0
 10
-134.525
 20
28.6875
  1
450
 40
3.0
 50
90.0
 72
     5
 11
-134.525
 21
33.5625
  0
ENDBLK
  0
BLOCK
  2
*GRP_0015
 70
    65
 10
0.0
 20
0.0
  0
LINE
  8
補助線
  6
DOT
 62
    64
 10
51.978943
 20
-95.643847
 11
52.202327
 21
-95.756088
  0
LINE
  8
補助線
  6
DOT
 62
    64
 10
52.146755
 20
-95.588275
 11
52.034515
 21
-95.81166
  0
LINE
  8
補助線
  6
DOT
 62
    64
 10
37.324582
 20
-88.281127
 11
37.10119
 21
-88.168887
  0
LINE
  8
補助線
  6
DOT
 62
    64
 10
37.269002
 20
-88.11331
 11
37.156768
 21
-88.3367
  0
LINE
  8
補助線
  6
DOT
 62
    64
 10
22.446793
 20
-80.806238
 11
22.223402
 21
-80.694005
  0
LINE
  8
補助線
  6
DOT
 62
    64
 10
22.391215
 20
-80.638425
 11
22.27898
 21
-80.861815
  0
LINE
  8
型材断面
  6
DOT
 10
53.098597
 20
-94.807492
 11
53.432055
 21
-95.81437
  0
LINE
  8
型材断面
  6
DOT
 10
53.432055
 20
-95.81437
 11
52.98311
 21
-96.70793
  0
LINE
  8
型材断面
  6
DOT
 10
52.98311
 20
-96.70793
 11
51.976232
 21
-97.041388
  0
LINE
  8
型材断面
  6
DOT
 10
22.449493
 20
-79.408698
 11
21.44262
 21
-79.742162
  0
LINE
  8
型材断面
  6
DOT
 10
21.44262
 20
-79.742162
 11
20.993672
 21
-80.635725
  0
LINE
  8
型材断面
  6
DOT
 10
20.993672
 20
-80.635725
 11
21.32714
 21
-81.6426
  0
LINE
  8
型材断面
  6
DOT
 10
53.098597
 20
-94.807492
 11
22.449607
 21
-79.408658
  0
LINE
  8
型材断面
  6
DOT
 10
51.976232
 20
-97.041388
 11
21.327105
 21
-81.642493
  0
LINE
  8
ボルト／ビス
  6
DOT
 62
    64
 10
52.297992
 20
-95.28725
 11
52.551737
 21
-95.673188
  0
LINE
  8
ボルト／ビス
  6
DOT
 62
    64
 10
52.297992
 20
-95.28725
 11
51.836893
 21
-95.314033
  0
LINE
  8
ボルト／ビス
  6
DOT
 62
    64
 10
51.883278
 20
-96.112685
 11
52.344377
 21
-96.085902
  0
LINE
  8
ボルト／ビス
  6
DOT
 62
    64
 10
51.883278
 20
-96.112685
 11
51.629532
 21
-95.726747
  0
CIRCLE
  8
ボルト／ビス
  6
DOT
 62
    64
 10
52.090635
 20
-95.699968
 40
0.4
  0
LINE
  8
ボルト／ビス
  6
DOT
 62
    64
 10
51.836893
 20
-95.314033
 11
51.629532
 21
-95.726747
  0
LINE
  8
ボルト／ビス
  6
DOT
 62
    64
 10
52.551737
 20
-95.673188
 11
52.344377
 21
-96.085902
  0
LINE
  8
ボルト／ビス
  6
DOT
 62
    64
 10
37.420245
 20
-87.81229
 11
36.95914
 21
-87.839067
  0
LINE
  8
ボルト／ビス
  6
DOT
 62
    64
 10
37.420245
 20
-87.81229
 11
37.67399
 21
-88.198225
  0
LINE
  8
ボルト／ビス
  6
DOT
 62
    64
 10
37.005525
 20
-88.637723
 11
36.751783
 21
-88.251787
  0
LINE
  8
ボルト／ビス
  6
DOT
 62
    64
 10
37.005525
 20
-88.637723
 11
37.466627
 21
-88.610942
  0
CIRCLE
  8
ボルト／ビス
  6
DOT
 62
    64
 10
37.212882
 20
-88.225007
 40
0.4
  0
LINE
  8
ボルト／ビス
  6
DOT
 62
    64
 10
37.67399
 20
-88.198225
 11
37.466627
 21
-88.610942
  0
LINE
  8
ボルト／ビス
  6
DOT
 62
    64
 10
36.95914
 20
-87.839067
 11
36.751783
 21
-88.251787
  0
LINE
  8
ボルト／ビス
  6
DOT
 62
    64
 10
22.542455
 20
-80.3374
 11
22.08135
 21
-80.364182
  0
LINE
  8
ボルト／ビス
  6
DOT
 62
    64
 10
22.542455
 20
-80.3374
 11
22.796198
 21
-80.723337
  0
LINE
  8
ボルト／ビス
  6
DOT
 62
    64
 10
22.127737
 20
-81.162838
 11
21.873995
 21
-80.7769
  0
LINE
  8
ボルト／ビス
  6
DOT
 62
    64
 10
22.127737
 20
-81.162838
 11
22.588845
 21
-81.136055
  0
CIRCLE
  8
ボルト／ビス
  6
DOT
 62
    64
 10
22.3351
 20
-80.75012
 40
0.4
  0
LINE
  8
ボルト／ビス
  6
DOT
 62
    64
 10
22.796198
 20
-80.723337
 11
22.588845
 21
-81.136055
  0
LINE
  8
ボルト／ビス
  6
DOT
 62
    64
 10
22.08135
 20
-80.364182
 11
21.873995
 21
-80.7769
  0
ENDBLK
  0
BLOCK
  2
*GRP_0016
 70
    65
 10
0.0
 20
0.0
  0
LINE
  8
補助線
  6
DOT
 62
    64
 10
22.446827
 20
-95.643847
 11
22.223443
 21
-95.756088
  0
LINE
  8
補助線
  6
DOT
 62
    64
 10
22.279015
 20
-95.588275
 11
22.391255
 21
-95.81166
  0
LINE
  8
補助線
  6
DOT
 62
    64
 10
37.101188
 20
-88.281127
 11
37.32458
 21
-88.168887
  0
LINE
  8
補助線
  6
DOT
 62
    64
 10
37.156768
 20
-88.11331
 11
37.269002
 21
-88.3367
  0
LINE
  8
補助線
  6
DOT
 62
    64
 10
51.978977
 20
-80.806238
 11
52.202368
 21
-80.694005
  0
LINE
  8
補助線
  6
DOT
 62
    64
 10
52.034555
 20
-80.638425
 11
52.14679
 21
-80.861815
  0
LINE
  8
型材断面
  6
DOT
 10
21.327173
 20
-94.807492
 11
20.993715
 21
-95.81437
  0
LINE
  8
型材断面
  6
DOT
 10
20.993715
 20
-95.81437
 11
21.44266
 21
-96.70793
  0
LINE
  8
型材断面
  6
DOT
 10
21.44266
 20
-96.70793
 11
22.449538
 21
-97.041388
  0
LINE
  8
型材断面
  6
DOT
 10
51.976277
 20
-79.408698
 11
52.98315
 21
-79.742162
  0
LINE
  8
型材断面
  6
DOT
 10
52.98315
 20
-79.742162
 11
53.432098
 21
-80.635725
  0
LINE
  8
型材断面
  6
DOT
 10
53.432098
 20
-80.635725
 11
53.09863
 21
-81.6426
  0
LINE
  8
型材断面
  6
DOT
 10
21.327173
 20
-94.807492
 11
51.976162
 21
-79.408658
  0
LINE
  8
型材断面
  6
DOT
 10
22.449538
 20
-97.041388
 11
53.098665
 21
-81.642493
  0
LINE
  8
ボルト／ビス
  6
DOT
 62
    64
 10
22.127778
 20
-95.28725
 11
21.874033
 21
-95.673188
  0
LINE
  8
ボルト／ビス
  6
DOT
 62
    64
 10
22.127778
 20
-95.28725
 11
22.588877
 21
-95.314033
  0
LINE
  8
ボルト／ビス
  6
DOT
 62
    64
 10
22.542492
 20
-96.112685
 11
22.081393
 21
-96.085902
  0
LINE
  8
ボルト／ビス
  6
DOT
 62
    64
 10
22.542492
 20
-96.112685
 11
22.796237
 21
-95.726747
  0
CIRCLE
  8
ボルト／ビス
  6
DOT
 62
    64
 10
22.335135
 20
-95.699968
 40
0.4
  0
LINE
  8
ボルト／ビス
  6
DOT
 62
    64
 10
22.588877
 20
-95.314033
 11
22.796237
 21
-95.726747
  0
LINE
  8
ボルト／ビス
  6
DOT
 62
    64
 10
21.874033
 20
-95.673188
 11
22.081393
 21
-96.085902
  0
LINE
  8
ボルト／ビス
  6
DOT
 62
    64
 10
37.005525
 20
-87.81229
 11
37.46663
 21
-87.839067
  0
LINE
  8
ボルト／ビス
  6
DOT
 62
    64
 10
37.005525
 20
-87.81229
 11
36.75178
 21
-88.198225
  0
LINE
  8
ボルト／ビス
  6
DOT
 62
    64
 10
37.420245
 20
-88.637723
 11
37.673987
 21
-88.251787
  0
LINE
  8
ボルト／ビス
  6
DOT
 62
    64
 10
37.420245
 20
-88.637723
 11
36.959143
 21
-88.610942
  0
CIRCLE
  8
ボルト／ビス
  6
DOT
 62
    64
 10
37.212888
 20
-88.225007
 40
0.4
  0
LINE
  8
ボルト／ビス
  6
DOT
 62
    64
 10
36.75178
 20
-88.198225
 11
36.959143
 21
-88.610942
  0
LINE
  8
ボルト／ビス
  6
DOT
 62
    64
 10
37.46663
 20
-87.839067
 11
37.673987
 21
-88.251787
  0
LINE
  8
ボルト／ビス
  6
DOT
 62
    64
 10
51.883315
 20
-80.3374
 11
52.34442
 21
-80.364182
  0
LINE
  8
ボルト／ビス
  6
DOT
 62
    64
 10
51.883315
 20
-80.3374
 11
51.629572
 21
-80.723337
  0
LINE
  8
ボルト／ビス
  6
DOT
 62
    64
 10
52.298033
 20
-81.162838
 11
52.551775
 21
-80.7769
  0
LINE
  8
ボルト／ビス
  6
DOT
 62
    64
 10
52.298033
 20
-81.162838
 11
51.836925
 21
-81.136055
  0
CIRCLE
  8
ボルト／ビス
  6
DOT
 62
    64
 10
52.09067
 20
-80.75012
 40
0.4
  0
LINE
  8
ボルト／ビス
  6
DOT
 62
    64
 10
51.629572
 20
-80.723337
 11
51.836925
 21
-81.136055
  0
LINE
  8
ボルト／ビス
  6
DOT
 62
    64
 10
52.34442
 20
-80.364182
 11
52.551775
 21
-80.7769
  0
ENDBLK
  0
BLOCK
  2
*DIM_0017
 70
    65
 10
0.0
 20
0.0
  0
LINE
  8
寸法
  6
BYBLOCK
 62
     0
 10
120.53566
 20
-88.202017
 11
120.53566
 21
-97.239285
  0
LINE
  8
寸法
  6
BYBLOCK
 62
     0
 10
170.315662
 20
-88.202017
 11
170.315662
 21
-97.239285
  0
LINE
  8
寸法
  6
BYBLOCK
 62
     0
 10
120.53566
 20
-97.239285
 11
170.315662
 21
-97.239285
  0
POINT
  8
寸法
 62
     0
 10
120.53566
 20
-97.239285
  0
POINT
  8
寸法
 62
     0
 10
170.315662
 20
-97.239285
  0
TEXT
  7
TextStyle03
  8
寸法
  6
CONTINUOUS
 62
     0
 10
141.3
 20
-96.875
  1
995.6
 40
3.0
 72
     5
 11
149.55
 21
-96.875
  0
ENDBLK
  0
BLOCK
  2
*DIM_0018
 70
    65
 10
0.0
 20
0.0
  0
LINE
  8
寸法
  6
BYBLOCK
 62
     0
 10
173.315662
 20
-85.202017
 11
181.084525
 21
-85.202017
  0
LINE
  8
寸法
  6
BYBLOCK
 62
     0
 10
148.425662
 20
-50.00239
 11
181.084525
 21
-50.00239
  0
LINE
  8
寸法
  6
BYBLOCK
 62
     0
 10
181.084525
 20
-85.202017
 11
181.084525
 21
-50.00239
  0
POINT
  8
寸法
 62
     0
 10
181.084525
 20
-85.202017
  0
POINT
  8
寸法
 62
     0
 10
181.084525
 20
-50.00239
  0
TEXT
  7
TextStyle03
  8
寸法
  6
CONTINUOUS
 62
     0
 10
180.7
 20
-70.0625
  1
704
 40
3.0
 50
90.0
 72
     5
 11
180.7
 21
-65.1875
  0
ENDBLK
  0
BLOCK
  2
*DIM_0019
 70
    65
 10
0.0
 20
0.0
  0
LINE
  8
寸法
  6
BYBLOCK
 62
     0
 10
65.940838
 20
-79.599892
 11
80.779608
 21
-79.599892
  0
LINE
  8
寸法
  6
BYBLOCK
 62
     0
 10
65.940838
 20
-90.599892
 11
80.779608
 21
-90.599892
  0
LINE
  8
寸法
  6
BYBLOCK
 62
     0
 10
80.779608
 20
-79.599892
 11
80.779608
 21
-90.599892
  0
POINT
  8
寸法
 62
     0
 10
80.779608
 20
-79.599892
  0
POINT
  8
寸法
 62
     0
 10
80.779608
 20
-90.599892
  0
TEXT
  7
TextStyle03
  8
寸法
  6
CONTINUOUS
 62
     0
 10
85.725
 20
-94.16875
  1
上昇159以上
 40
3.0
 50
90.0
 72
     5
 11
85.725
 21
-75.98125
  0
ENDBLK
  0
ENDSEC
  0
SECTION
  2
ENTITIES
  0
POLYLINE
  8
通り芯
  6
CONTINUOUS
 66
     1
 70
     1
  0
VERTEX
  8
通り芯
 10
-210.0
 20
-148.5
  0
VERTEX
  8
通り芯
 10
210.0
 20
-148.5
  0
VERTEX
  8
通り芯
 10
210.0
 20
148.5
  0
VERTEX
  8
通り芯
 10
-210.0
 20
148.5
  0
SEQEND
  0
INSERT
  2
*GRP_0001
  8
型材断面
  6
CONTINUOUS
 10
0.0
 20
0.0
  0
LINE
  8
型材断面
  6
CONTINUOUS
 10
10.516347
 20
8.164417
 11
8.272903
 21
4.278658
  0
LINE
  8
型材断面
  6
CONTINUOUS
 10
10.516347
 20
8.164417
 11
12.759793
 21
4.278658
  0
LINE
  8
型材断面
  6
CONTINUOUS
 10
12.759793
 20
4.278658
 11
8.272903
 21
4.278658
  0
LINE
  8
型材断面
  6
CONTINUOUS
 10
10.516347
 20
0.47487
 11
11.410433
 21
-3.41089
  0
LINE
  8
型材断面
  6
CONTINUOUS
 10
10.516347
 20
0.47487
 11
9.622263
 21
-3.41089
  0
LINE
  8
型材断面
  6
CONTINUOUS
 10
9.622263
 20
-3.41089
 11
11.410433
 21
-3.41089
  0
LINE
  8
型材断面
  6
CONTINUOUS
 10
1.482467
 20
2.870765
 11
54.139148
 21
2.870765
  0
LINE
  8
型材断面
  6
CONTINUOUS
 10
1.482467
 20
-8.329227
 11
54.139148
 21
-8.329227
  0
LINE
  8
型材断面
  6
CONTINUOUS
 10
1.482467
 20
-15.169172
 11
54.139148
 21
-15.169172
  0
LINE
  8
型材断面
  6
CONTINUOUS
 10
-92.875185
 20
47.520463
 11
-92.875185
 21
42.395463
  0
LINE
  8
型材断面
  6
CONTINUOUS
 10
-92.875185
 20
47.520463
 11
-87.750185
 21
47.520463
  0
LINE
  8
型材断面
  6
CONTINUOUS
 10
-115.395158
 20
70.040432
 11
-115.395158
 21
66.392135
  0
LINE
  8
型材断面
  6
CONTINUOUS
 10
-115.395158
 20
70.040432
 11
-111.74686
 21
70.040432
  0
LINE
  8
型材断面
  6
CONTINUOUS
 10
-115.748712
 20
70.393988
 11
-115.748712
 21
66.038582
  0
LINE
  8
型材断面
  6
CONTINUOUS
 10
-115.748712
 20
66.038582
 11
-114.687218
 21
64.977088
  0
LINE
  8
型材断面
  6
CONTINUOUS
 10
-111.393305
 20
70.393985
 11
-110.331812
 21
69.332493
  0
LINE
  8
型材断面
  6
CONTINUOUS
 10
-115.748712
 20
70.393988
 11
-111.393307
 21
70.393988
  0
LINE
  8
型材断面
  6
DASHDOT
 10
-110.250185
 20
64.89546
 11
-87.750185
 21
64.89546
  0
LINE
  8
型材断面
  6
CONTINUOUS
 10
-111.034148
 20
69.327722
 11
-87.750185
 21
69.327722
  0
LINE
  8
型材断面
  6
CONTINUOUS
 10
-116.100165
 20
70.745442
 11
-87.750185
 21
70.745442
  0
LINE
  8
型材断面
  6
CONTINUOUS
 10
-114.682445
 20
65.679422
 11
-114.682445
 21
42.39546
  0
LINE
  8
型材断面
  6
DASHDOT
 10
-110.250185
 20
64.89546
 11
-110.250185
 21
42.39546
  0
LINE
  8
型材断面
  6
CONTINUOUS
 10
-116.100165
 20
70.745442
 11
-116.100165
 21
42.39546
  0
LINE
  8
型材断面
  6
CONTINUOUS
 10
-115.395158
 20
66.392135
 11
-92.875185
 21
43.87216
  0
LINE
  8
型材断面
  6
CONTINUOUS
 10
-111.74686
 20
70.040432
 11
-89.226887
 21
47.520463
  0
LINE
  8
型材断面
  6
CONTINUOUS
 10
-116.100165
 20
70.745442
 11
-87.750185
 21
42.39546
  0
LINE
  8
型材断面
  6
DASHDOT
 10
-87.750185
 20
42.39546
 11
-87.750185
 21
64.89546
  0
LINE
  8
型材断面
  6
DASHDOT
 10
-87.750185
 20
42.39546
 11
-110.250185
 21
42.39546
  0
LINE
  8
型材断面
  6
CONTINUOUS
 10
-82.625185
 20
47.520463
 11
-82.625185
 21
42.395463
  0
LINE
  8
型材断面
  6
CONTINUOUS
 10
-82.625185
 20
47.520463
 11
-87.750185
 21
47.520463
  0
LINE
  8
型材断面
  6
CONTINUOUS
 10
-60.105213
 20
70.040432
 11
-60.105213
 21
66.392135
  0
LINE
  8
型材断面
  6
CONTINUOUS
 10
-60.105213
 20
70.040432
 11
-63.75351
 21
70.040432
  0
LINE
  8
型材断面
  6
CONTINUOUS
 10
-59.751657
 20
70.393988
 11
-59.751657
 21
66.038582
  0
LINE
  8
型材断面
  6
CONTINUOUS
 10
-59.751657
 20
66.038582
 11
-60.813152
 21
64.977088
  0
LINE
  8
型材断面
  6
CONTINUOUS
 10
-64.107065
 20
70.393985
 11
-65.168558
 21
69.332493
  0
LINE
  8
型材断面
  6
CONTINUOUS
 10
-59.751657
 20
70.393988
 11
-64.107063
 21
70.393988
  0
LINE
  8
型材断面
  6
DASHDOT
 10
-65.250185
 20
64.89546
 11
-87.750185
 21
64.89546
  0
LINE
  8
型材断面
  6
CONTINUOUS
 10
-64.466223
 20
69.327722
 11
-87.750185
 21
69.327722
  0
LINE
  8
型材断面
  6
CONTINUOUS
 10
-59.400205
 20
70.745442
 11
-87.750185
 21
70.745442
  0
LINE
  8
型材断面
  6
CONTINUOUS
 10
-60.817925
 20
65.679422
 11
-60.817925
 21
42.39546
  0
LINE
  8
型材断面
  6
DASHDOT
 10
-65.250185
 20
64.89546
 11
-65.250185
 21
42.39546
  0
LINE
  8
型材断面
  6
CONTINUOUS
 10
-59.400205
 20
70.745442
 11
-59.400205
 21
42.39546
  0
LINE
  8
型材断面
  6
CONTINUOUS
 10
-60.105213
 20
66.392135
 11
-82.625185
 21
43.87216
  0
LINE
  8
型材断面
  6
CONTINUOUS
 10
-63.75351
 20
70.040432
 11
-86.273482
 21
47.520463
  0
LINE
  8
型材断面
  6
CONTINUOUS
 10
-59.400205
 20
70.745442
 11
-87.750185
 21
42.39546
  0
LINE
  8
型材断面
  6
DASHDOT
 10
-87.750185
 20
42.39546
 11
-65.250185
 21
42.39546
  0
LINE
  8
型材断面
  6
CONTINUOUS
 10
-92.875185
 20
37.270457
 11
-92.875185
 21
42.395457
  0
LINE
  8
型材断面
  6
CONTINUOUS
 10
-92.875185
 20
37.270457
 11
-87.750185
 21
37.270457
  0
LINE
  8
型材断面
  6
CONTINUOUS
 10
-115.395158
 20
14.750488
 11
-115.395158
 21
18.398785
  0
LINE
  8
型材断面
  6
CONTINUOUS
 10
-115.395158
 20
14.750488
 11
-111.74686
 21
14.750488
  0
LINE
  8
型材断面
  6
CONTINUOUS
 10
-115.748712
 20
14.396933
 11
-115.748712
 21
18.752338
  0
LINE
  8
型材断面
  6
CONTINUOUS
 10
-115.748712
 20
18.752338
 11
-114.687218
 21
19.813832
  0
LINE
  8
型材断面
  6
CONTINUOUS
 10
-111.393305
 20
14.396935
 11
-110.331812
 21
15.458427
  0
LINE
  8
型材断面
  6
CONTINUOUS
 10
-115.748712
 20
14.396933
 11
-111.393307
 21
14.396933
  0
LINE
  8
型材断面
  6
DASHDOT
 10
-110.250185
 20
19.89546
 11
-87.750185
 21
19.89546
  0
LINE
  8
型材断面
  6
CONTINUOUS
 10
-111.034148
 20
15.463198
 11
-87.750185
 21
15.463198
  0
LINE
  8
型材断面
  6
CONTINUOUS
 10
-116.100165
 20
14.045478
 11
-87.750185
 21
14.045478
  0
LINE
  8
型材断面
  6
CONTINUOUS
 10
-114.682445
 20
19.111498
 11
-114.682445
 21
42.39546
  0
LINE
  8
型材断面
  6
CONTINUOUS
 10
-116.100165
 20
14.045478
 11
-116.100165
 21
42.39546
  0
LINE
  8
型材断面
  6
CONTINUOUS
 10
-115.395158
 20
18.398785
 11
-92.875185
 21
40.91876
  0
LINE
  8
型材断面
  6
CONTINUOUS
 10
-111.74686
 20
14.750488
 11
-89.226887
 21
37.270457
  0
LINE
  8
型材断面
  6
CONTINUOUS
 10
-116.100165
 20
14.045478
 11
-87.750185
 21
42.39546
  0
LINE
  8
型材断面
  6
CONTINUOUS
 10
-82.625185
 20
37.270457
 11
-82.625185
 21
42.395457
  0
LINE
  8
型材断面
  6
CONTINUOUS
 10
-82.625185
 20
37.270457
 11
-87.750185
 21
37.270457
  0
LINE
  8
型材断面
  6
CONTINUOUS
 10
-60.105213
 20
14.750488
 11
-60.105213
 21
18.398785
  0
LINE
  8
型材断面
  6
CONTINUOUS
 10
-60.105213
 20
14.750488
 11
-63.75351
 21
14.750488
  0
LINE
  8
型材断面
  6
CONTINUOUS
 10
-59.751657
 20
14.396933
 11
-59.751657
 21
18.752338
  0
LINE
  8
型材断面
  6
CONTINUOUS
 10
-59.751657
 20
18.752338
 11
-60.813152
 21
19.813832
  0
LINE
  8
型材断面
  6
CONTINUOUS
 10
-64.107065
 20
14.396935
 11
-65.168558
 21
15.458427
  0
LINE
  8
型材断面
  6
CONTINUOUS
 10
-59.751657
 20
14.396933
 11
-64.107063
 21
14.396933
  0
LINE
  8
型材断面
  6
DASHDOT
 10
-65.250185
 20
19.89546
 11
-87.750185
 21
19.89546
  0
LINE
  8
型材断面
  6
CONTINUOUS
 10
-64.466223
 20
15.463198
 11
-87.750185
 21
15.463198
  0
LINE
  8
型材断面
  6
CONTINUOUS
 10
-59.400205
 20
14.045478
 11
-87.750185
 21
14.045478
  0
LINE
  8
型材断面
  6
CONTINUOUS
 10
-60.817925
 20
19.111498
 11
-60.817925
 21
42.39546
  0
LINE
  8
型材断面
  6
CONTINUOUS
 10
-59.400205
 20
14.045478
 11
-59.400205
 21
42.39546
  0
LINE
  8
型材断面
  6
CONTINUOUS
 10
-60.105213
 20
18.398785
 11
-82.625185
 21
40.91876
  0
LINE
  8
型材断面
  6
CONTINUOUS
 10
-63.75351
 20
14.750488
 11
-86.273482
 21
37.270457
  0
LINE
  8
型材断面
  6
CONTINUOUS
 10
-59.400205
 20
14.045478
 11
-87.750185
 21
42.39546
  0
LINE
  8
型材断面
  6
CONTINUOUS
 62
    47
 10
-113.225685
 20
-94.399892
 11
-113.225405
 21
-94.399892
  0
ARC
  8
型材断面
  6
CONTINUOUS
 62
    47
 10
-113.235185
 20
-94.484892
 40
0.015
 50
180.0
 51
270.0
  0
LINE
  8
型材断面
  6
CONTINUOUS
 62
    47
 10
-116.100388
 20
-90.599892
 11
-116.100382
 21
-90.849892
  0
LINE
  8
型材断面
  6
CONTINUOUS
 62
    47
 10
-115.743335
 20
-90.24284
 11
-116.100388
 21
-90.599892
  0
LINE
  8
型材断面
  6
CONTINUOUS
 62
    47
 10
-113.250185
 20
-94.484893
 11
-113.250185
 21
-94.424892
  0
ARC
  8
型材断面
  6
CONTINUOUS
 62
    47
 10
-113.225185
 20
-94.424892
 40
0.025
 50
89.999657
 51
180.0
  0
LINE
  8
型材断面
  6
CONTINUOUS
 62
    47
 10
-112.475185
 20
-100.474968
 11
-112.475185
 21
-99.724968
  0
LINE
  8
型材断面
  6
CONTINUOUS
 62
    47
 10
-113.225185
 20
-99.724968
 11
-113.225185
 21
-94.749967
  0
LINE
  8
型材断面
  6
CONTINUOUS
 62
    47
 10
-112.074965
 20
-94.614967
 11
-112.074965
 21
-94.499892
  0
LINE
  8
型材断面
  6
CONTINUOUS
 62
    47
 10
-111.824965
 20
-94.749967
 11
-111.824965
 21
-94.614967
  0
LINE
  8
型材断面
  6
CONTINUOUS
 62
    47
 10
-113.225185
 20
-94.399898
 11
-113.225185
 21
-92.989893
  0
LINE
  8
型材断面
  6
CONTINUOUS
 62
    47
 10
-114.600185
 20
-92.989893
 11
-114.600185
 21
-91.527412
  0
LINE
  8
型材断面
  6
CONTINUOUS
 62
    47
 10
-114.600185
 20
-91.527412
 11
-115.277703
 21
-90.849892
  0
LINE
  8
型材断面
  6
CONTINUOUS
 62
    47
 10
-115.743335
 20
-90.24284
 11
-114.682668
 21
-89.182175
  0
LINE
  8
型材断面
  6
CONTINUOUS
 10
-110.301322
 20
-89.182175
 11
-111.361988
 21
-90.24284
  0
LINE
  8
型材断面
  6
CONTINUOUS
 10
-111.56909
 20
-89.74284
 11
-115.243335
 21
-89.74284
  0
LINE
  8
型材断面
  6
CONTINUOUS
 10
-111.361988
 20
-90.24284
 11
-115.743335
 21
-90.24284
  0
LINE
  8
型材断面
  6
CONTINUOUS
 10
-92.875185
 20
-67.197902
 11
-87.750185
 21
-67.197902
  0
LINE
  8
型材断面
  6
CONTINUOUS
 10
-92.875185
 20
-67.197902
 11
-92.804475
 21
-67.268613
  0
LINE
  8
型材断面
  6
CONTINUOUS
 10
-87.750185
 20
-67.268613
 11
-92.804475
 21
-67.268613
  0
LINE
  8
型材断面
  6
CONTINUOUS
 10
-92.875185
 20
-67.197902
 11
-87.750185
 21
-62.0729
  0
LINE
  8
型材断面
  6
CONTINUOUS
 10
-82.625185
 20
-67.197902
 11
-87.750185
 21
-67.197902
  0
LINE
  8
型材断面
  6
CONTINUOUS
 10
-82.625185
 20
-67.197902
 11
-82.695895
 21
-67.268613
  0
LINE
  8
型材断面
  6
CONTINUOUS
 10
-87.750185
 20
-67.268613
 11
-82.695895
 21
-67.268613
  0
LINE
  8
型材断面
  6
CONTINUOUS
 10
-82.625185
 20
-67.197902
 11
-87.750185
 21
-62.0729
  0
LINE
  8
型材断面
  6
CONTINUOUS
 10
-111.56909
 20
-89.74284
 11
-89.094877
 21
-67.268613
  0
LINE
  8
型材断面
  6
CONTINUOUS
 10
-114.68267
 20
-89.182175
 11
-92.76912
 21
-67.268613
  0
LINE
  8
型材断面
  6
CONTINUOUS
 62
    47
 10
-113.225185
 20
-99.724968
 11
-87.750185
 21
-99.724968
  0
LINE
  8
型材断面
  6
CONTINUOUS
 62
    47
 10
-112.475185
 20
-100.474968
 11
-87.750185
 21
-100.474968
  0
LINE
  8
型材断面
  6
CONTINUOUS
 62
    47
 10
-113.235185
 20
-94.499892
 11
-87.750185
 21
-94.499892
  0
LINE
  8
型材断面
  6
CONTINUOUS
 62
    47
 10
-116.100382
 20
-90.849892
 11
-87.750185
 21
-90.849892
  0
LINE
  8
型材断面
  6
CONTINUOUS
 10
-116.100388
 20
-90.599892
 11
-87.750185
 21
-90.599892
  0
LINE
  8
型材断面
  6
CONTINUOUS
 10
-111.008425
 20
-89.182175
 11
-87.750185
 21
-89.182175
  0
LINE
  8
型材断面
  6
CONTINUOUS
 62
    47
 10
-114.600185
 20
-92.989893
 11
-87.750185
 21
-92.989893
  0
LINE
  8
型材断面
  6
CONTINUOUS
 10
-114.600185
 20
-91.527412
 11
-87.750185
 21
-91.527412
  0
LINE
  8
型材断面
  6
CONTINUOUS
 62
    47
 10
-112.074965
 20
-94.614967
 11
-87.750185
 21
-94.614967
  0
LINE
  8
型材断面
  6
CONTINUOUS
 62
    47
 10
-113.225185
 20
-94.749967
 11
-87.750185
 21
-94.749967
  0
LINE
  8
型材断面
  6
CONTINUOUS
 62
    47
 10
-62.274685
 20
-94.399892
 11
-62.274965
 21
-94.399892
  0
ARC
  8
型材断面
  6
CONTINUOUS
 62
    47
 10
-62.265185
 20
-94.484892
 40
0.015
 50
270.0
 51
360.0
  0
LINE
  8
型材断面
  6
CONTINUOUS
 62
    47
 10
-59.399982
 20
-90.599892
 11
-59.399988
 21
-90.849892
  0
LINE
  8
型材断面
  6
CONTINUOUS
 62
    47
 10
-59.757035
 20
-90.24284
 11
-59.399982
 21
-90.599892
  0
LINE
  8
型材断面
  6
CONTINUOUS
 62
    47
 10
-62.250185
 20
-94.484893
 11
-62.250185
 21
-94.424892
  0
ARC
  8
型材断面
  6
CONTINUOUS
 62
    47
 10
-62.275185
 20
-94.424892
 40
0.025
 50
0.0
 51
90.000343
  0
LINE
  8
型材断面
  6
CONTINUOUS
 62
    47
 10
-63.025185
 20
-100.474968
 11
-63.025185
 21
-99.724968
  0
LINE
  8
型材断面
  6
CONTINUOUS
 62
    47
 10
-62.275185
 20
-99.724968
 11
-62.275185
 21
-94.749967
  0
LINE
  8
型材断面
  6
CONTINUOUS
 62
    47
 10
-63.425405
 20
-94.614967
 11
-63.425405
 21
-94.499892
  0
LINE
  8
型材断面
  6
CONTINUOUS
 62
    47
 10
-63.675405
 20
-94.749967
 11
-63.675405
 21
-94.614967
  0
LINE
  8
型材断面
  6
CONTINUOUS
 62
    47
 10
-62.275185
 20
-94.399898
 11
-62.275185
 21
-92.989893
  0
LINE
  8
型材断面
  6
CONTINUOUS
 62
    47
 10
-60.900185
 20
-92.989893
 11
-60.900185
 21
-91.527412
  0
LINE
  8
型材断面
  6
CONTINUOUS
 62
    47
 10
-60.900185
 20
-91.527412
 11
-60.222667
 21
-90.849892
  0
LINE
  8
型材断面
  6
CONTINUOUS
 62
    47
 10
-59.757035
 20
-90.24284
 11
-60.817702
 21
-89.182175
  0
LINE
  8
型材断面
  6
CONTINUOUS
 10
-65.199047
 20
-89.182175
 11
-64.138382
 21
-90.24284
  0
LINE
  8
型材断面
  6
CONTINUOUS
 10
-63.93128
 20
-89.74284
 11
-60.257035
 21
-89.74284
  0
LINE
  8
型材断面
  6
CONTINUOUS
 10
-64.138382
 20
-90.24284
 11
-59.757035
 21
-90.24284
  0
LINE
  8
型材断面
  6
CONTINUOUS
 10
-63.93128
 20
-89.74284
 11
-86.405493
 21
-67.268613
  0
LINE
  8
型材断面
  6
CONTINUOUS
 10
-60.8177
 20
-89.182175
 11
-82.73125
 21
-67.268613
  0
LINE
  8
型材断面
  6
CONTINUOUS
 62
    47
 10
-62.275185
 20
-99.724968
 11
-87.750185
 21
-99.724968
  0
LINE
  8
型材断面
  6
CONTINUOUS
 62
    47
 10
-63.025185
 20
-100.474968
 11
-87.750185
 21
-100.474968
  0
LINE
  8
型材断面
  6
CONTINUOUS
 62
    47
 10
-62.265185
 20
-94.499892
 11
-87.750185
 21
-94.499892
  0
LINE
  8
型材断面
  6
CONTINUOUS
 62
    47
 10
-59.399988
 20
-90.849892
 11
-87.750185
 21
-90.849892
  0
LINE
  8
型材断面
  6
CONTINUOUS
 10
-59.399982
 20
-90.599892
 11
-87.750185
 21
-90.599892
  0
LINE
  8
型材断面
  6
CONTINUOUS
 10
-64.491945
 20
-89.182175
 11
-87.750185
 21
-89.182175
  0
LINE
  8
型材断面
  6
CONTINUOUS
 62
    47
 10
-60.900185
 20
-92.989893
 11
-87.750185
 21
-92.989893
  0
LINE
  8
型材断面
  6
CONTINUOUS
 10
-60.900185
 20
-91.527412
 11
-87.750185
 21
-91.527412
  0
LINE
  8
型材断面
  6
CONTINUOUS
 62
    47
 10
-63.425405
 20
-94.614967
 11
-87.750185
 21
-94.614967
  0
LINE
  8
型材断面
  6
CONTINUOUS
 62
    47
 10
-62.275185
 20
-94.749967
 11
-87.750185
 21
-94.749967
  0
LINE
  8
型材断面
  6
DASHDOT
 10
-110.250185
 20
42.39546
 11
-110.250185
 21
-99.724968
  0
LINE
  8
型材断面
  6
DASHDOT
 10
-65.250185
 20
42.39546
 11
-65.250185
 21
-99.724968
  0
LINE
  8
型材断面
  6
DASHDOT
 10
-87.750185
 20
42.39546
 11
-87.750185
 21
-99.724968
  0
LINE
  8
型材断面
  6
CONTINUOUS
 10
-118.27406
 20
25.445457
 11
-122.15982
 21
26.339543
  0
LINE
  8
型材断面
  6
CONTINUOUS
 10
-118.27406
 20
25.445457
 11
-122.15982
 21
24.551373
  0
LINE
  8
型材断面
  6
CONTINUOUS
 10
-122.15982
 20
24.551373
 11
-122.15982
 21
26.339543
  0
LINE
  8
型材断面
  6
CONTINUOUS
 10
-118.27406
 20
59.345463
 11
-122.15982
 21
58.451377
  0
LINE
  8
型材断面
  6
CONTINUOUS
 10
-118.27406
 20
59.345463
 11
-122.15982
 21
60.239547
  0
LINE
  8
型材断面
  6
CONTINUOUS
 10
-122.15982
 20
60.239547
 11
-122.15982
 21
58.451377
  0
LINE
  8
型材断面
  6
CONTINUOUS
 10
-57.22631
 20
25.445457
 11
-53.34055
 21
26.339543
  0
LINE
  8
型材断面
  6
CONTINUOUS
 10
-57.22631
 20
25.445457
 11
-53.34055
 21
24.551373
  0
LINE
  8
型材断面
  6
CONTINUOUS
 10
-53.34055
 20
24.551373
 11
-53.34055
 21
26.339543
  0
LINE
  8
型材断面
  6
CONTINUOUS
 10
-57.22631
 20
59.345463
 11
-53.34055
 21
58.451377
  0
LINE
  8
型材断面
  6
CONTINUOUS
 10
-57.22631
 20
59.345463
 11
-53.34055
 21
60.239547
  0
LINE
  8
型材断面
  6
CONTINUOUS
 10
-53.34055
 20
60.239547
 11
-53.34055
 21
58.451377
  0
LINE
  8
型材断面
  6
CONTINUOUS
 10
-87.750185
 20
72.919335
 11
-89.99363
 21
76.805095
  0
LINE
  8
型材断面
  6
CONTINUOUS
 10
-87.750185
 20
72.919335
 11
-85.50674
 21
76.805095
  0
LINE
  8
型材断面
  6
CONTINUOUS
 10
-85.50674
 20
76.805095
 11
-89.99363
 21
76.805095
  0
LINE
  8
型材断面
  6
CONTINUOUS
 10
-87.750185
 20
11.871585
 11
-89.99363
 21
7.985825
  0
LINE
  8
型材断面
  6
CONTINUOUS
 10
-87.750185
 20
11.871585
 11
-85.50674
 21
7.985825
  0
LINE
  8
型材断面
  6
CONTINUOUS
 10
-85.50674
 20
7.985825
 11
-89.99363
 21
7.985825
  0
LINE
  8
型材断面
  6
CONTINUOUS
 10
-57.22631
 20
42.39546
 11
-53.34055
 21
44.638905
  0
LINE
  8
型材断面
  6
CONTINUOUS
 10
-57.22631
 20
42.39546
 11
-53.34055
 21
40.152015
  0
LINE
  8
型材断面
  6
CONTINUOUS
 10
-53.34055
 20
40.152015
 11
-53.34055
 21
44.638905
  0
LINE
  8
型材断面
  6
CONTINUOUS
 10
-118.27406
 20
42.39546
 11
-122.15982
 21
44.638905
  0
LINE
  8
型材断面
  6
CONTINUOUS
 10
-118.27406
 20
42.39546
 11
-122.15982
 21
40.152015
  0
LINE
  8
型材断面
  6
CONTINUOUS
 10
-122.15982
 20
40.152015
 11
-122.15982
 21
44.638905
  0
LINE
  8
型材断面
  6
DOT
 10
-68.489525
 20
19.89546
 11
-68.489525
 21
64.89546
  0
LINE
  8
型材断面
  6
DOT
 10
-70.489525
 20
19.89546
 11
-70.489525
 21
64.89546
  0
POLYLINE
  8
型材断面
  6
CONTINUOUS
 66
     1
 70
     1
  0
VERTEX
  8
型材断面
 10
-78.596267
 20
6.680023
  0
VERTEX
  8
型材断面
 10
-97.15148
 20
6.680023
  0
VERTEX
  8
型材断面
 10
-97.15148
 20
1.887988
  0
VERTEX
  8
型材断面
 10
-78.596267
 20
1.887988
  0
SEQEND
  0
POLYLINE
  8
型材断面
  6
CONTINUOUS
 66
     1
 70
     1
  0
VERTEX
  8
型材断面
 10
-78.596267
 20
82.295648
  0
VERTEX
  8
型材断面
 10
-97.15148
 20
82.295648
  0
VERTEX
  8
型材断面
 10
-97.15148
 20
77.503613
  0
VERTEX
  8
型材断面
 10
-78.596267
 20
77.503613
  0
SEQEND
  0
LINE
  8
型材断面
  6
CONTINUOUS
 62
    47
 10
9.115135
 20
-94.399892
 11
9.115415
 21
-94.399892
  0
ARC
  8
型材断面
  6
CONTINUOUS
 62
    47
 10
9.105635
 20
-94.484892
 40
0.015
 50
180.0
 51
270.0
  0
LINE
  8
型材断面
  6
CONTINUOUS
 62
    47
 10
6.240432
 20
-90.599892
 11
6.240438
 21
-90.849892
  0
LINE
  8
型材断面
  6
CONTINUOUS
 62
    47
 10
6.597485
 20
-90.24284
 11
6.240432
 21
-90.599892
  0
LINE
  8
型材断面
  6
CONTINUOUS
 62
    47
 10
9.090635
 20
-94.484893
 11
9.090635
 21
-94.424892
  0
ARC
  8
型材断面
  6
CONTINUOUS
 62
    47
 10
9.115635
 20
-94.424892
 40
0.025
 50
89.999657
 51
180.0
  0
LINE
  8
型材断面
  6
CONTINUOUS
 62
    47
 10
9.865635
 20
-100.474968
 11
9.865635
 21
-99.724968
  0
LINE
  8
型材断面
  6
CONTINUOUS
 62
    47
 10
9.115635
 20
-99.724968
 11
9.115635
 21
-94.749967
  0
LINE
  8
型材断面
  6
CONTINUOUS
 62
    47
 10
10.265855
 20
-94.614967
 11
10.265855
 21
-94.499892
  0
LINE
  8
型材断面
  6
CONTINUOUS
 62
    47
 10
10.515855
 20
-94.749967
 11
10.515855
 21
-94.614967
  0
LINE
  8
型材断面
  6
CONTINUOUS
 62
    47
 10
9.115635
 20
-94.399898
 11
9.115635
 21
-92.989893
  0
LINE
  8
型材断面
  6
CONTINUOUS
 62
    47
 10
7.740635
 20
-92.989893
 11
7.740635
 21
-91.527412
  0
LINE
  8
型材断面
  6
CONTINUOUS
 62
    47
 10
7.740635
 20
-91.527412
 11
7.063118
 21
-90.849892
  0
LINE
  8
型材断面
  6
CONTINUOUS
 62
    47
 10
6.597485
 20
-90.24284
 11
7.658152
 21
-89.182175
  0
LINE
  8
型材断面
  6
CONTINUOUS
 10
12.039497
 20
-89.182175
 11
10.978832
 21
-90.24284
  0
LINE
  8
型材断面
  6
CONTINUOUS
 10
10.77173
 20
-89.74284
 11
7.097485
 21
-89.74284
  0
LINE
  8
型材断面
  6
CONTINUOUS
 10
10.978832
 20
-90.24284
 11
6.597485
 21
-90.24284
  0
LINE
  8
型材断面
  6
CONTINUOUS
 10
29.465635
 20
-67.197902
 11
34.590635
 21
-67.197902
  0
LINE
  8
型材断面
  6
CONTINUOUS
 10
29.465635
 20
-67.197902
 11
29.536345
 21
-67.268613
  0
LINE
  8
型材断面
  6
CONTINUOUS
 10
34.590635
 20
-67.268613
 11
29.536345
 21
-67.268613
  0
LINE
  8
型材断面
  6
CONTINUOUS
 10
29.465635
 20
-67.197902
 11
34.590635
 21
-62.0729
  0
LINE
  8
型材断面
  6
CONTINUOUS
 10
39.715635
 20
-67.197902
 11
34.590635
 21
-67.197902
  0
LINE
  8
型材断面
  6
CONTINUOUS
 10
39.715635
 20
-67.197902
 11
39.644925
 21
-67.268613
  0
LINE
  8
型材断面
  6
CONTINUOUS
 10
34.590635
 20
-67.268613
 11
39.644925
 21
-67.268613
  0
LINE
  8
型材断面
  6
CONTINUOUS
 10
39.715635
 20
-67.197902
 11
34.590635
 21
-62.0729
  0
LINE
  8
型材断面
  6
CONTINUOUS
 10
10.77173
 20
-89.74284
 11
33.245942
 21
-67.268613
  0
LINE
  8
型材断面
  6
CONTINUOUS
 10
7.65815
 20
-89.182175
 11
29.5717
 21
-67.268613
  0
LINE
  8
型材断面
  6
CONTINUOUS
 62
    47
 10
9.115635
 20
-99.724968
 11
34.590635
 21
-99.724968
  0
LINE
  8
型材断面
  6
CONTINUOUS
 62
    47
 10
9.865635
 20
-100.474968
 11
34.590635
 21
-100.474968
  0
LINE
  8
型材断面
  6
CONTINUOUS
 62
    47
 10
9.105635
 20
-94.499892
 11
34.590635
 21
-94.499892
  0
LINE
  8
型材断面
  6
CONTINUOUS
 62
    47
 10
6.240438
 20
-90.849892
 11
34.590635
 21
-90.849892
  0
LINE
  8
型材断面
  6
CONTINUOUS
 10
6.240432
 20
-90.599892
 11
34.590635
 21
-90.599892
  0
LINE
  8
型材断面
  6
CONTINUOUS
 10
11.332395
 20
-89.182175
 11
34.590635
 21
-89.182175
  0
LINE
  8
型材断面
  6
CONTINUOUS
 62
    47
 10
7.740635
 20
-92.989893
 11
34.590635
 21
-92.989893
  0
LINE
  8
型材断面
  6
CONTINUOUS
 10
7.740635
 20
-91.527412
 11
34.590635
 21
-91.527412
  0
LINE
  8
型材断面
  6
CONTINUOUS
 62
    47
 10
10.265855
 20
-94.614967
 11
34.590635
 21
-94.614967
  0
LINE
  8
型材断面
  6
CONTINUOUS
 62
    47
 10
9.115635
 20
-94.749967
 11
34.590635
 21
-94.749967
  0
LINE
  8
型材断面
  6
CONTINUOUS
 62
    47
 10
60.066135
 20
-94.399892
 11
60.065855
 21
-94.399892
  0
ARC
  8
型材断面
  6
CONTINUOUS
 62
    47
 10
60.075635
 20
-94.484892
 40
0.015
 50
270.0
 51
360.0
  0
LINE
  8
型材断面
  6
CONTINUOUS
 62
    47
 10
62.940838
 20
-90.599892
 11
62.940833
 21
-90.849892
  0
LINE
  8
型材断面
  6
CONTINUOUS
 62
    47
 10
62.583785
 20
-90.24284
 11
62.940838
 21
-90.599892
  0
LINE
  8
型材断面
  6
CONTINUOUS
 62
    47
 10
60.090635
 20
-94.484893
 11
60.090635
 21
-94.424892
  0
ARC
  8
型材断面
  6
CONTINUOUS
 62
    47
 10
60.065635
 20
-94.424892
 40
0.025
 50
0.0
 51
90.000343
  0
LINE
  8
型材断面
  6
CONTINUOUS
 62
    47
 10
59.315635
 20
-100.474968
 11
59.315635
 21
-99.724968
  0
LINE
  8
型材断面
  6
CONTINUOUS
 62
    47
 10
60.065635
 20
-99.724968
 11
60.065635
 21
-94.749967
  0
LINE
  8
型材断面
  6
CONTINUOUS
 62
    47
 10
58.915415
 20
-94.614967
 11
58.915415
 21
-94.499892
  0
LINE
  8
型材断面
  6
CONTINUOUS
 62
    47
 10
58.665415
 20
-94.749967
 11
58.665415
 21
-94.614967
  0
LINE
  8
型材断面
  6
CONTINUOUS
 62
    47
 10
60.065635
 20
-94.399898
 11
60.065635
 21
-92.989893
  0
LINE
  8
型材断面
  6
CONTINUOUS
 62
    47
 10
61.440635
 20
-92.989893
 11
61.440635
 21
-91.527412
  0
LINE
  8
型材断面
  6
CONTINUOUS
 62
    47
 10
61.440635
 20
-91.527412
 11
62.118152
 21
-90.849892
  0
LINE
  8
型材断面
  6
CONTINUOUS
 62
    47
 10
62.583785
 20
-90.24284
 11
61.523118
 21
-89.182175
  0
LINE
  8
型材断面
  6
CONTINUOUS
 10
57.141772
 20
-89.182175
 11
58.202438
 21
-90.24284
  0
LINE
  8
型材断面
  6
CONTINUOUS
 10
58.40954
 20
-89.74284
 11
62.083785
 21
-89.74284
  0
LINE
  8
型材断面
  6
CONTINUOUS
 10
58.202438
 20
-90.24284
 11
62.583785
 21
-90.24284
  0
LINE
  8
型材断面
  6
CONTINUOUS
 10
58.40954
 20
-89.74284
 11
35.935327
 21
-67.268613
  0
LINE
  8
型材断面
  6
CONTINUOUS
 10
61.52312
 20
-89.182175
 11
39.60957
 21
-67.268613
  0
LINE
  8
型材断面
  6
CONTINUOUS
 62
    47
 10
60.065635
 20
-99.724968
 11
34.590635
 21
-99.724968
  0
LINE
  8
型材断面
  6
CONTINUOUS
 62
    47
 10
59.315635
 20
-100.474968
 11
34.590635
 21
-100.474968
  0
LINE
  8
型材断面
  6
CONTINUOUS
 62
    47
 10
60.075635
 20
-94.499892
 11
34.590635
 21
-94.499892
  0
LINE
  8
型材断面
  6
CONTINUOUS
 62
    47
 10
62.940833
 20
-90.849892
 11
34.590635
 21
-90.849892
  0
LINE
  8
型材断面
  6
CONTINUOUS
 10
62.940838
 20
-90.599892
 11
34.590635
 21
-90.599892
  0
LINE
  8
型材断面
  6
CONTINUOUS
 10
57.848875
 20
-89.182175
 11
34.590635
 21
-89.182175
  0
LINE
  8
型材断面
  6
CONTINUOUS
 62
    47
 10
61.440635
 20
-92.989893
 11
34.590635
 21
-92.989893
  0
LINE
  8
型材断面
  6
CONTINUOUS
 10
61.440635
 20
-91.527412
 11
34.590635
 21
-91.527412
  0
LINE
  8
型材断面
  6
CONTINUOUS
 62
    47
 10
58.915415
 20
-94.614967
 11
34.590635
 21
-94.614967
  0
LINE
  8
型材断面
  6
CONTINUOUS
 62
    47
 10
60.065635
 20
-94.749967
 11
34.590635
 21
-94.749967
  0
LINE
  8
型材断面
  6
DOT
 62
    47
 10
9.115135
 20
-83.399892
 11
9.115415
 21
-83.399892
  0
ARC
  8
型材断面
  6
DOT
 62
    47
 10
9.105635
 20
-83.484892
 40
0.015
 50
180.0
 51
270.0
  0
LINE
  8
型材断面
  6
DOT
 62
    47
 10
6.240432
 20
-79.599892
 11
6.240438
 21
-79.849892
  0
LINE
  8
型材断面
  6
DOT
 62
    47
 10
6.597485
 20
-79.24284
 11
6.240432
 21
-79.599892
  0
LINE
  8
型材断面
  6
DOT
 62
    47
 10
9.090635
 20
-83.484893
 11
9.090635
 21
-83.424892
  0
ARC
  8
型材断面
  6
DOT
 62
    47
 10
9.115635
 20
-83.424892
 40
0.025
 50
89.999657
 51
180.0
  0
LINE
  8
型材断面
  6
DOT
 62
    47
 10
10.265855
 20
-83.614967
 11
10.265855
 21
-83.499892
  0
LINE
  8
型材断面
  6
DOT
 62
    47
 10
9.115635
 20
-83.399898
 11
9.115635
 21
-81.989893
  0
LINE
  8
型材断面
  6
DOT
 62
    47
 10
7.740635
 20
-81.989893
 11
7.740635
 21
-80.527412
  0
LINE
  8
型材断面
  6
DOT
 62
    47
 10
7.740635
 20
-80.527412
 11
7.063118
 21
-79.849892
  0
LINE
  8
型材断面
  6
DOT
 62
    47
 10
6.597485
 20
-79.24284
 11
7.658152
 21
-78.182175
  0
LINE
  8
型材断面
  6
DOT
 10
12.039497
 20
-78.182175
 11
10.978832
 21
-79.24284
  0
LINE
  8
型材断面
  6
DOT
 10
10.77173
 20
-78.74284
 11
7.097485
 21
-78.74284
  0
LINE
  8
型材断面
  6
DOT
 10
10.978832
 20
-79.24284
 11
6.597485
 21
-79.24284
  0
LINE
  8
型材断面
  6
DOT
 10
29.465635
 20
-56.197902
 11
34.590635
 21
-56.197902
  0
LINE
  8
型材断面
  6
DOT
 10
29.465635
 20
-56.197902
 11
29.536345
 21
-56.268613
  0
LINE
  8
型材断面
  6
DOT
 10
34.590635
 20
-56.268613
 11
29.536345
 21
-56.268613
  0
LINE
  8
型材断面
  6
DOT
 10
29.465635
 20
-56.197902
 11
34.590635
 21
-51.0729
  0
LINE
  8
型材断面
  6
DOT
 10
39.715635
 20
-56.197902
 11
34.590635
 21
-56.197902
  0
LINE
  8
型材断面
  6
DOT
 10
39.715635
 20
-56.197902
 11
39.644925
 21
-56.268613
  0
LINE
  8
型材断面
  6
DOT
 10
34.590635
 20
-56.268613
 11
39.644925
 21
-56.268613
  0
LINE
  8
型材断面
  6
DOT
 10
39.715635
 20
-56.197902
 11
34.590635
 21
-51.0729
  0
LINE
  8
型材断面
  6
DOT
 10
10.77173
 20
-78.74284
 11
33.245942
 21
-56.268613
  0
LINE
  8
型材断面
  6
DOT
 10
7.65815
 20
-78.182175
 11
29.5717
 21
-56.268613
  0
LINE
  8
型材断面
  6
DOT
 62
    47
 10
9.105635
 20
-83.499892
 11
34.590635
 21
-83.499892
  0
LINE
  8
型材断面
  6
DOT
 62
    47
 10
6.240438
 20
-79.849892
 11
34.590635
 21
-79.849892
  0
LINE
  8
型材断面
  6
DOT
 10
6.240432
 20
-79.599892
 11
34.590635
 21
-79.599892
  0
LINE
  8
型材断面
  6
DOT
 10
11.332395
 20
-78.182175
 11
34.590635
 21
-78.182175
  0
LINE
  8
型材断面
  6
DOT
 62
    47
 10
7.740635
 20
-81.989893
 11
34.590635
 21
-81.989893
  0
LINE
  8
型材断面
  6
DOT
 10
7.740635
 20
-80.527412
 11
34.590635
 21
-80.527412
  0
LINE
  8
型材断面
  6
DOT
 62
    47
 10
10.265855
 20
-83.614967
 11
34.590635
 21
-83.614967
  0
LINE
  8
型材断面
  6
DOT
 62
    47
 10
60.066135
 20
-83.399892
 11
60.065855
 21
-83.399892
  0
ARC
  8
型材断面
  6
DOT
 62
    47
 10
60.075635
 20
-83.484892
 40
0.015
 50
270.0
 51
360.0
  0
LINE
  8
型材断面
  6
DOT
 62
    47
 10
62.940838
 20
-79.599892
 11
62.940833
 21
-79.849892
  0
LINE
  8
型材断面
  6
DOT
 62
    47
 10
62.583785
 20
-79.24284
 11
62.940838
 21
-79.599892
  0
LINE
  8
型材断面
  6
DOT
 62
    47
 10
60.090635
 20
-83.484893
 11
60.090635
 21
-83.424892
  0
ARC
  8
型材断面
  6
DOT
 62
    47
 10
60.065635
 20
-83.424892
 40
0.025
 50
0.0
 51
90.000343
  0
LINE
  8
型材断面
  6
DOT
 62
    47
 10
58.915415
 20
-83.614967
 11
58.915415
 21
-83.499892
  0
LINE
  8
型材断面
  6
DOT
 62
    47
 10
60.065635
 20
-83.399898
 11
60.065635
 21
-81.989893
  0
LINE
  8
型材断面
  6
DOT
 62
    47
 10
61.440635
 20
-81.989893
 11
61.440635
 21
-80.527412
  0
LINE
  8
型材断面
  6
DOT
 62
    47
 10
61.440635
 20
-80.527412
 11
62.118152
 21
-79.849892
  0
LINE
  8
型材断面
  6
DOT
 62
    47
 10
62.583785
 20
-79.24284
 11
61.523118
 21
-78.182175
  0
LINE
  8
型材断面
  6
DOT
 10
57.141772
 20
-78.182175
 11
58.202438
 21
-79.24284
  0
LINE
  8
型材断面
  6
DOT
 10
58.40954
 20
-78.74284
 11
62.083785
 21
-78.74284
  0
LINE
  8
型材断面
  6
DOT
 10
58.202438
 20
-79.24284
 11
62.583785
 21
-79.24284
  0
LINE
  8
型材断面
  6
DOT
 10
58.40954
 20
-78.74284
 11
35.935327
 21
-56.268613
  0
LINE
  8
型材断面
  6
DOT
 10
61.52312
 20
-78.182175
 11
39.60957
 21
-56.268613
  0
LINE
  8
型材断面
  6
DOT
 62
    47
 10
60.075635
 20
-83.499892
 11
34.590635
 21
-83.499892
  0
LINE
  8
型材断面
  6
DOT
 62
    47
 10
62.940833
 20
-79.849892
 11
34.590635
 21
-79.849892
  0
LINE
  8
型材断面
  6
DOT
 10
62.940838
 20
-79.599892
 11
34.590635
 21
-79.599892
  0
LINE
  8
型材断面
  6
DOT
 10
57.848875
 20
-78.182175
 11
34.590635
 21
-78.182175
  0
LINE
  8
型材断面
  6
DOT
 62
    47
 10
61.440635
 20
-81.989893
 11
34.590635
 21
-81.989893
  0
LINE
  8
型材断面
  6
DOT
 10
61.440635
 20
-80.527412
 11
34.590635
 21
-80.527412
  0
LINE
  8
型材断面
  6
DOT
 62
    47
 10
58.915415
 20
-83.614967
 11
34.590635
 21
-83.614967
  0
INSERT
  2
*GRP_0015
  8
型材断面
  6
DOT
 10
0.0
 20
0.0
  0
INSERT
  2
*GRP_0016
  8
型材断面
  6
DOT
 10
0.0
 20
0.0
  0
LINE
  8
型材断面
  6
CONTINUOUS
 10
108.01038
 20
-56.083095
 11
131.942002
 21
-56.083095
  0
LINE
  8
型材断面
  6
CONTINUOUS
 10
1.482467
 20
-22.009117
 11
54.139148
 21
-22.009117
  0
LINE
  8
ガラス
  6
CONTINUOUS
 10
-85.664408
 20
58.99133
 11
-89.537043
 21
55.118695
  0
LINE
  8
ガラス
  6
CONTINUOUS
 10
-87.262765
 20
58.111008
 11
-88.65672
 21
56.717052
  0
LINE
  8
ガラス
  6
CONTINUOUS
 10
-86.54473
 20
57.392972
 11
-87.938685
 21
55.999018
  0
LINE
  8
ガラス
  6
CONTINUOUS
 10
-85.664408
 20
29.58316
 11
-89.537043
 21
25.710525
  0
LINE
  8
ガラス
  6
CONTINUOUS
 10
-87.262765
 20
28.702837
 11
-88.65672
 21
27.308883
  0
LINE
  8
ガラス
  6
CONTINUOUS
 10
-86.54473
 20
27.984802
 11
-87.938685
 21
26.590848
  0
LINE
  8
ガラス
  6
CONTINUOUS
 10
-69.88237
 20
44.430088
 11
-73.755005
 21
40.557452
  0
LINE
  8
ガラス
  6
CONTINUOUS
 10
-71.480728
 20
43.549765
 11
-72.874683
 21
42.15581
  0
LINE
  8
ガラス
  6
CONTINUOUS
 10
-70.762692
 20
42.83173
 11
-72.156647
 21
41.437775
  0
LINE
  8
ガラス
  6
CONTINUOUS
 10
-101.164898
 20
44.430088
 11
-105.037533
 21
40.557452
  0
LINE
  8
ガラス
  6
CONTINUOUS
 10
-102.763255
 20
43.549765
 11
-104.15721
 21
42.15581
  0
LINE
  8
ガラス
  6
CONTINUOUS
 10
-102.04522
 20
42.83173
 11
-103.439175
 21
41.437775
  0
LINE
  8
ガラス
  6
CONTINUOUS
 10
-85.655945
 20
-77.30153
 11
-89.52858
 21
-81.174165
  0
LINE
  8
ガラス
  6
CONTINUOUS
 10
-86.536268
 20
-78.899888
 11
-87.930223
 21
-80.293843
  0
LINE
  8
ガラス
  6
CONTINUOUS
 10
-87.254302
 20
-78.181852
 11
-88.648258
 21
-79.575807
  0
TEXT
  7
TextStyle03
  8
文字
  6
CONTINUOUS
 10
14.825
 20
4.65
  1
は排水穴位置を示す
 40
3.0
 72
     5
 11
44.825
 21
4.65
  0
TEXT
  7
TextStyle03
  8
文字
  6
CONTINUOUS
 10
14.825
 20
-3.2
  1
はケーシング位置を示す
 40
3.0
 72
     5
 11
51.575
 21
-3.2
  0
TEXT
  7
TextStyle03
  8
文字
  6
CONTINUOUS
 10
14.825
 20
-6.575
  1
４ヶ所中1ヶ所に設定
 40
3.0
 72
     5
 11
46.5125
 21
-6.575
  0
TEXT
  7
TextStyle03
  8
文字
  6
CONTINUOUS
 10
-40.05
 20
27.275
  1
ﾊﾞﾗﾝｽｽﾃｰ
 40
3.0
 72
     5
 11
-26.7375
 21
27.275
  0
TEXT
  7
TextStyle03
  8
文字
  6
CONTINUOUS
 10
-116.625
 20
88.1
  1
アンカーピッチ
 40
3.0
 72
     5
 11
-93.375
 21
88.1
  0
TEXT
  7
TextStyle03
  8
文字
  6
CONTINUOUS
 10
-140.275
 20
10.0
  1
アンカーピッチ
 40
3.0
 50
90.0
 72
     5
 11
-140.275
 21
33.25
  0
TEXT
  7
TextStyle03
  8
文字
  6
CONTINUOUS
 10
-96.15
 20
2.875
  1
可動装置側
 40
3.0
 72
     5
 11
-79.65
 21
2.875
  0
TEXT
  7
TextStyle03
  8
文字
  6
CONTINUOUS
 10
-96.15
 20
78.475
  1
可動装置側
 40
3.0
 72
     5
 11
-79.65
 21
78.475
  0
TEXT
  7
TextStyle03
  8
文字
  6
CONTINUOUS
 10
9.225
 20
-13.725
  1
アンカー数量　６ヶ所
 40
3.0
 72
     5
 11
42.6
 21
-13.725
  0
TEXT
  7
TextStyle03
  8
文字
  6
CONTINUOUS
 10
66.325
 20
95.525
  1
ＮＳコード：ＮＳ４ＣＺ
 40
5.0
 72
     5
 11
127.575
 21
95.525
  0
TEXT
  7
TextStyle03
  8
文字
  6
CONTINUOUS
 10
153.15
 20
-82.8
  1
×４枚
 40
3.0
 72
     5
 11
162.9
 21
-82.8
  0
TEXT
  7
TextStyle03
  8
文字
  6
CONTINUOUS
 10
111.575
 20
-54.85
  1
ガラス寸法
 40
3.0
 72
     5
 11
128.075
 21
-54.85
  0
TEXT
  7
TextStyle03
  8
文字
  6
CONTINUOUS
 10
9.15
 20
-20.575
  1
アームユニット数　２ヶ所
 40
3.0
 72
     5
 11
49.275
 21
-20.575
  0
TEXT
  7
TextStyle03
  8
文字
  6
CONTINUOUS
 10
66.625
 20
117.825
  1
シリーズ：ＴＦ２４
 40
5.0
 72
     5
 11
116.625
 21
117.825
  0
TEXT
  7
TextStyle03
  8
文字
  6
CONTINUOUS
 10
66.625
 20
112.2
  1
　　　　　四角錘（上下可動）900×900タイプ
 40
5.0
 72
     5
 11
184.125
 21
112.2
  0
TEXT
  7
TextStyle03
  8
文字
  6
CONTINUOUS
 10
66.625
 20
106.575
  1
図面名　：外観姿図
 40
5.0
 72
     5
 11
116.625
 21
106.575
  0
TEXT
  7
TextStyle03
  8
文字
  6
CONTINUOUS
 10
66.625
 20
100.95
  1
　　　　　　
 40
5.0
 72
     5
 11
99.75
 21
100.95
  0
INSERT
  2
*DIM_0002
  8
寸法
  6
CONTINUOUS
 10
0.0
 20
0.0
  0
INSERT
  2
*DIM_0003
  8
寸法
  6
CONTINUOUS
 10
0.0
 20
0.0
  0
INSERT
  2
*DIM_0004
  8
寸法
  6
CONTINUOUS
 10
0.0
 20
0.0
  0
INSERT
  2
*DIM_0005
  8
寸法
  6
CONTINUOUS
 10
0.0
 20
0.0
  0
INSERT
  2
*DIM_0006
  8
寸法
  6
CONTINUOUS
 10
0.0
 20
0.0
  0
INSERT
  2
*DIM_0007
  8
寸法
  6
CONTINUOUS
 10
0.0
 20
0.0
  0
INSERT
  2
*DIM_0008
  8
寸法
  6
CONTINUOUS
 10
0.0
 20
0.0
  0
INSERT
  2
*GRP_0009
  8
寸法
  6
CONTINUOUS
 10
0.0
 20
0.0
  0
INSERT
  2
*DIM_0010
  8
寸法
  6
CONTINUOUS
 10
0.0
 20
0.0
  0
INSERT
  2
*DIM_0011
  8
寸法
  6
CONTINUOUS
 10
0.0
 20
0.0
  0
INSERT
  2
*DIM_0012
  8
寸法
  6
CONTINUOUS
 10
0.0
 20
0.0
  0
INSERT
  2
*DIM_0013
  8
寸法
  6
CONTINUOUS
 10
0.0
 20
0.0
  0
INSERT
  2
*DIM_0014
  8
寸法
  6
CONTINUOUS
 10
0.0
 20
0.0
  0
CIRCLE
  8
寸法
  6
CONTINUOUS
 10
-129.268542
 20
42.39546
 40
1.73792
  0
INSERT
  2
*DIM_0017
  8
寸法
  6
CONTINUOUS
 10
0.0
 20
0.0
  0
INSERT
  2
*DIM_0018
  8
寸法
  6
CONTINUOUS
 10
0.0
 20
0.0
  0
INSERT
  2
*DIM_0019
  8
寸法
  6
CONTINUOUS
 10
0.0
 20
0.0
  0
LINE
  8
曲げ物
  6
CONTINUOUS
 10
170.315662
 20
-85.202017
 11
120.53566
 21
-85.202017
  0
LINE
  8
曲げ物
  6
CONTINUOUS
 10
120.53566
 20
-85.202017
 11
145.425662
 21
-50.00239
  0
LINE
  8
曲げ物
  6
CONTINUOUS
 10
170.315662
 20
-85.202017
 11
145.425662
 21
-50.00239
  0
ENDSEC
  0
EOF
