  0
SECTION
  2
HEADER
  9
$EXTMIN
 10
-210.0
 20
-148.5
  9
$EXTMAX
 10
210.0
 20
148.5
  9
$PDMODE
 70
    32
  9
$PDSIZE
 40
1.5
  9
$LTSCALE
 40
10.0
  0
ENDSEC
  0
SECTION
  2
TABLES
  0
TABLE
  2
LTYPE
 70
    15
  0
LTYPE
  2
CONTINUOUS
 70
    64
  3
実線
 72
    65
 73
     0
 40
0.0
  0
LTYPE
  2
DASHED
 70
    64
  3
破線A
 72
    65
 73
     2
 40
0.6
 49
0.4
 49
-0.2
  0
LTYPE
  2
DASHEDX2
 70
    64
  3
破線B
 72
    65
 73
     2
 40
1.3
 49
0.9
 49
-0.4
  0
LTYPE
  2
DASHDOT
 70
    64
  3
１点鎖線A
 72
    65
 73
     4
 40
0.5375
 49
0.375
 49
-0.05
 49
0.0625
 49
-0.05
  0
LTYPE
  2
DASHDOTX2
 70
    64
  3
１点鎖線B
 72
    65
 73
     4
 40
1.075
 49
0.75
 49
-0.1
 49
0.125
 49
-0.1
  0
LTYPE
  2
DIVIDE2
 70
    64
  3
２点鎖線A
 72
    65
 73
     6
 40
0.5125
 49
0.3
 49
-0.0375
 49
0.05
 49
-0.0375
 49
0.05
 49
-0.0375
  0
LTYPE
  2
DIVIDE
 70
    64
  3
２点鎖線B
 72
    65
 73
     6
 40
1.05
 49
0.55
 49
-0.1
 49
0.1
 49
-0.1
 49
0.1
 49
-0.1
  0
LTYPE
  2
DOT
 70
    64
  3
点線A
 72
    65
 73
     2
 40
0.1125
 49
0.0625
 49
-0.05
  0
LTYPE
  2
DOTX2
 70
    64
  3
点線B
 72
    65
 73
     2
 40
0.275
 49
0.15
 49
-0.125
  0
LTYPE
  2
CONTINUOUS
 70
    64
  3
実線
 72
    65
 73
     0
 40
0.0
  0
LTYPE
  2
CONTINUOUS
 70
    64
  3
実線
 72
    65
 73
     0
 40
0.0
  0
LTYPE
  2
CONTINUOUS
 70
    64
  3
実線
 72
    65
 73
     0
 40
0.0
  0
LTYPE
  2
CONTINUOUS
 70
    64
  3
実線
 72
    65
 73
     0
 40
0.0
  0
LTYPE
  2
CONTINUOUS
 70
    64
  3
実線
 72
    65
 73
     0
 40
0.0
  0
LTYPE
  2
CONTINUOUS
 70
    64
  3
実線
 72
    65
 73
     0
 40
0.0
  0
ENDTAB
  0
TABLE
  2
LAYER
 70
    34
  0
LAYER
  2
通り芯
 70
     0
 62
    15
  6
CONTINUOUS
  0
LAYER
  2
補助線
 70
     0
 62
    16
  6
DOT
  0
LAYER
  2
躯体
 70
     0
 62
    31
  6
CONTINUOUS
  0
LAYER
  2
型材
 70
     0
 62
    32
  6
CONTINUOUS
  0
LAYER
  2
型材断面
 70
     0
 62
    47
  6
CONTINUOUS
  0
LAYER
  2
ガラス
 70
     0
 62
    48
  6
CONTINUOUS
  0
LAYER
  2
ゴム等
 70
     0
 62
    63
  6
CONTINUOUS
  0
LAYER
  2
ボルト／ビス
 70
     0
 62
    64
  6
CONTINUOUS
  0
LAYER
  2
文字
 70
     0
 62
    79
  6
CONTINUOUS
  0
LAYER
  2
寸法
 70
     0
 62
    80
  6
CONTINUOUS
  0
LAYER
  2
ﾊｯﾁﾝｸﾞ
 70
     0
 62
    95
  6
CONTINUOUS
  0
LAYER
  2
別途部材
 70
     0
 62
    96
  6
CONTINUOUS
  0
LAYER
  2
曲げ物
 70
     0
 62
   111
  6
CONTINUOUS
  0
LAYER
  2
鉄骨等
 70
     0
 62
   112
  6
CONTINUOUS
  0
LAYER
  2
St
 70
     0
 62
   127
  6
CONTINUOUS
  0
LAYER
  2
その他部品等
 70
     0
 62
   128
  6
CONTINUOUS
  0
LAYER
  2
ｶﾞｽｹｯﾄ
 70
     0
 62
   143
  6
CONTINUOUS
  0
LAYER
  2
ｽｹｯﾁ
 70
     0
 62
    14
  6
CONTINUOUS
  0
LAYER
  2
0
 70
     0
 62
    17
  6
CONTINUOUS
  0
LAYER
  2
1
 70
     0
 62
    30
  6
CONTINUOUS
  0
LAYER
  2
4
 70
     0
 62
    33
  6
CONTINUOUS
  0
LAYER
  2
ﾚｲﾔ3
 70
     0
 62
    46
  6
CONTINUOUS
  0
LAYER
  2
外形線
 70
     0
 62
    49
  6
CONTINUOUS
  0
LAYER
  2
部品
 70
     0
 62
    14
  6
CONTINUOUS
  0
LAYER
  2
サッシ芯
 70
     0
 62
    17
  6
DASHDOTX2
  0
LAYER
  2
寸法線
 70
     0
 62
    62
  6
CONTINUOUS
  0
LAYER
  2
姿図外形線
 70
     0
 62
    65
  6
CONTINUOUS
  0
LAYER
  2
姿補助線
 70
     0
 62
    30
  6
CONTINUOUS
  0
LAYER
  2
透視線
 70
     0
 62
    78
  6
DOT
  0
LAYER
  2
用紙
 70
     0
 62
    81
  6
CONTINUOUS
  0
LAYER
  2
実線図枠
 70
     0
 62
    94
  6
CONTINUOUS
  0
LAYER
  2
補助図枠
 70
     0
 62
    97
  6
CONTINUOUS
  0
LAYER
  2
建具記号
 70
     0
 62
   110
  6
CONTINUOUS
  0
LAYER
  2
補助文字
 70
     0
 62
   113
  6
CONTINUOUS
  0
ENDTAB
  0
TABLE
  2
STYLE
 70
    10
  0
STYLE
  2
STANDARD
 70
     0
 40
1.0
 41
1.0
 42
1.0
 50
0.0
 71
     0
  3
TXT
  4
BIGFONT
  0
STYLE
  2
TATE
 70
     4
 40
1.0
 41
1.0
 42
1.0
 50
0.0
 71
     0
  3
TXT
  4
BIGFONT
  0
STYLE
  2
TextStyle03
 70
     0
 40
1.0
 41
1.0
 42
1.0
 50
0.0
 71
     0
  3
MONOTXT
  4
BIGFONT
  0
STYLE
  2
TextStyle04
 70
     0
 40
1.0
 41
1.0
 42
1.0
 50
0.0
 71
     0
  3
MONOTXT
  4
BIGFONT
  0
STYLE
  2
TextStyle05
 70
     0
 40
1.0
 41
1.0
 42
1.0
 50
0.0
 71
     0
  3
MONOTXT
  4
BIGFONT
  0
STYLE
  2
TextStyle06
 70
     0
 40
1.0
 41
1.0
 42
1.0
 50
0.0
 71
     0
  3
MONOTXT
  4
BIGFONT
  0
STYLE
  2
TextStyle07
 70
     0
 40
1.0
 41
1.0
 42
1.0
 50
0.0
 71
     0
  3
MONOTXT
  4
BIGFONT
  0
STYLE
  2
TextStyle08
 70
     0
 40
1.0
 41
1.0
 42
1.0
 50
0.0
 71
     0
  3
MONOTXT
  4
BIGFONT
  0
STYLE
  2
TextStyle09
 70
     0
 40
1.0
 41
1.0
 42
1.0
 50
0.0
 71
     0
  3
MONOTXT
  4
BIGFONT
  0
STYLE
  2
TextStyle10
 70
     0
 40
1.0
 41
1.0
 42
1.0
 50
0.0
 71
     0
  3
MONOTXT
  4
BIGFONT
  0
ENDTAB
  0
ENDSEC
  0
SECTION
  2
BLOCKS
  0
BLOCK
  2
*HAT_0001
 70
    65
 10
0.0
 20
0.0
  0
LINE
  8
ゴム等
 10
-24.75
 20
13.45
 11
-24.275
 21
13.975
  0
LINE
  8
ゴム等
 10
-23.25
 20
14.95
 11
-23.25
 21
14.95
  0
LINE
  8
ゴム等
 10
-27.45
 20
11.675
 11
-26.775
 21
12.4
  0
LINE
  8
ゴム等
 10
-25.725
 20
13.45
 11
-24.275
 21
14.875
  0
LINE
  8
ゴム等
 10
-24.225
 20
14.95
 11
-23.25
 21
15.875
  0
LINE
  8
ゴム等
 10
-28.425
 20
11.675
 11
-27.275
 21
12.85
  0
LINE
  8
ゴム等
 10
-26.675
 20
13.45
 11
-23.925
 21
16.175
  0
LINE
  8
ゴム等
 10
-29.325
 20
11.675
 11
-24.825
 21
16.175
  0
LINE
  8
ゴム等
 10
-30.0
 20
11.975
 11
-25.8
 21
16.225
  0
LINE
  8
ゴム等
 10
-29.775
 20
13.15
 11
-26.4
 21
16.475
  0
LINE
  8
ゴム等
 10
-30.425
 20
13.45
 11
-27.15
 21
16.75
  0
LINE
  8
ゴム等
 10
-31.35
 20
13.45
 11
-27.9
 21
16.9
  0
LINE
  8
ゴム等
 10
-31.775
 20
13.975
 11
-28.8
 21
16.925
  0
LINE
  8
ゴム等
 10
-31.775
 20
14.95
 11
-29.85
 21
16.825
  0
LINE
  8
ゴム等
 10
-31.775
 20
15.875
 11
-31.175
 21
16.45
  0
ENDBLK
  0
BLOCK
  2
*HAT_0002
 70
    65
 10
0.0
 20
0.0
  0
LINE
  8
St
  6
DOT
 10
132.025
 20
-26.325
 11
131.725
 21
-26.075
  0
LINE
  8
St
  6
DOT
 10
132.025
 20
-27.05
 11
131.025
 21
-26.075
  0
LINE
  8
St
  6
DOT
 10
132.025
 20
-27.75
 11
130.35
 21
-26.075
  0
LINE
  8
St
  6
DOT
 10
132.025
 20
-28.475
 11
129.625
 21
-26.075
  0
LINE
  8
St
  6
DOT
 10
132.025
 20
-29.175
 11
128.925
 21
-26.075
  0
LINE
  8
St
  6
DOT
 10
132.025
 20
-29.9
 11
128.2
 21
-26.075
  0
LINE
  8
St
  6
DOT
 10
132.025
 20
-30.575
 11
127.5
 21
-26.075
  0
LINE
  8
St
  6
DOT
 10
132.025
 20
-31.275
 11
126.775
 21
-26.075
  0
LINE
  8
St
  6
DOT
 10
132.025
 20
-32.0
 11
126.1
 21
-26.075
  0
LINE
  8
St
  6
DOT
 10
131.4
 20
-32.075
 11
125.4
 21
-26.075
  0
LINE
  8
St
  6
DOT
 10
130.675
 20
-32.075
 11
124.675
 21
-26.075
  0
LINE
  8
St
  6
DOT
 10
129.975
 20
-32.075
 11
123.975
 21
-26.075
  0
LINE
  8
St
  6
DOT
 10
129.25
 20
-32.075
 11
123.25
 21
-26.075
  0
LINE
  8
St
  6
DOT
 10
128.55
 20
-32.075
 11
122.55
 21
-26.075
  0
LINE
  8
St
  6
DOT
 10
127.875
 20
-32.075
 11
121.875
 21
-26.075
  0
LINE
  8
St
  6
DOT
 10
127.15
 20
-32.075
 11
121.15
 21
-26.075
  0
LINE
  8
St
  6
DOT
 10
126.45
 20
-32.075
 11
120.45
 21
-26.075
  0
LINE
  8
St
  6
DOT
 10
125.725
 20
-32.075
 11
119.725
 21
-26.075
  0
LINE
  8
St
  6
DOT
 10
125.025
 20
-32.075
 11
119.025
 21
-26.075
  0
LINE
  8
St
  6
DOT
 10
124.3
 20
-32.075
 11
118.35
 21
-26.075
  0
LINE
  8
St
  6
DOT
 10
123.625
 20
-32.075
 11
118.075
 21
-26.55
  0
LINE
  8
St
  6
DOT
 10
122.925
 20
-32.075
 11
117.925
 21
-27.075
  0
LINE
  8
St
  6
DOT
 10
122.2
 20
-32.075
 11
117.825
 21
-27.675
  0
LINE
  8
St
  6
DOT
 10
121.5
 20
-32.075
 11
117.75
 21
-28.325
  0
LINE
  8
St
  6
DOT
 10
120.775
 20
-32.075
 11
117.675
 21
-28.925
  0
LINE
  8
St
  6
DOT
 10
120.1
 20
-32.075
 11
117.7
 21
-29.675
  0
LINE
  8
St
  6
DOT
 10
119.4
 20
-32.075
 11
117.775
 21
-30.45
  0
LINE
  8
St
  6
DOT
 10
118.675
 20
-32.075
 11
118.075
 21
-31.475
  0
ENDBLK
  0
BLOCK
  2
*HAT_0003
 70
    65
 10
0.0
 20
0.0
  0
LINE
  8
St
  6
DOT
 10
146.1
 20
-25.875
 11
145.2
 21
-24.975
  0
LINE
  8
St
  6
DOT
 10
146.1
 20
-27.3
 11
144.6
 21
-25.8
  0
LINE
  8
St
  6
DOT
 10
146.1
 20
-28.7
 11
143.425
 21
-26.025
  0
LINE
  8
St
  6
DOT
 10
146.1
 20
-30.125
 11
142.0
 21
-26.025
  0
LINE
  8
St
  6
DOT
 10
146.1
 20
-31.55
 11
140.575
 21
-26.025
  0
LINE
  8
St
  6
DOT
 10
146.1
 20
-32.975
 11
139.2
 21
-26.025
  0
LINE
  8
St
  6
DOT
 10
144.825
 20
-33.075
 11
144.6
 21
-32.85
  0
LINE
  8
St
  6
DOT
 10
143.775
 20
-32.025
 11
137.775
 21
-26.025
  0
LINE
  8
St
  6
DOT
 10
142.35
 20
-32.025
 11
136.35
 21
-26.025
  0
LINE
  8
St
  6
DOT
 10
140.925
 20
-32.025
 11
134.925
 21
-26.025
  0
LINE
  8
St
  6
DOT
 10
139.525
 20
-32.025
 11
133.525
 21
-26.025
  0
LINE
  8
St
  6
DOT
 10
138.1
 20
-32.025
 11
132.175
 21
-26.1
  0
LINE
  8
St
  6
DOT
 10
136.675
 20
-32.025
 11
132.175
 21
-27.525
  0
LINE
  8
St
  6
DOT
 10
135.3
 20
-32.025
 11
132.175
 21
-28.95
  0
LINE
  8
St
  6
DOT
 10
133.875
 20
-32.025
 11
132.175
 21
-30.375
  0
LINE
  8
St
  6
DOT
 10
132.45
 20
-32.025
 11
132.175
 21
-31.775
  0
ENDBLK
  0
BLOCK
  2
*HAT_0004
 70
    65
 10
0.0
 20
0.0
  0
LINE
  8
型材断面
  6
DOT
 10
-37.7
 20
-39.675
 11
-36.875
 21
-38.85
  0
LINE
  8
型材断面
  6
DOT
 10
-39.125
 20
-39.675
 11
-36.875
 21
-37.45
  0
LINE
  8
型材断面
  6
DOT
 10
-40.525
 20
-39.675
 11
-36.875
 21
-36.025
  0
LINE
  8
型材断面
  6
DOT
 10
-41.875
 20
-39.625
 11
-36.95
 21
-34.675
  0
LINE
  8
型材断面
  6
DOT
 10
-41.875
 20
-38.2
 11
-38.35
 21
-34.675
  0
LINE
  8
型材断面
  6
DOT
 10
-41.875
 20
-36.8
 11
-39.775
 21
-34.675
  0
LINE
  8
型材断面
  6
DOT
 10
-41.875
 20
-35.375
 11
-41.175
 21
-34.675
  0
ENDBLK
  0
BLOCK
  2
*HAT_0005
 70
    65
 10
0.0
 20
0.0
  0
LINE
  8
型材断面
  6
DOT
 10
-51.7
 20
28.675
 11
-50.875
 21
29.5
  0
LINE
  8
型材断面
  6
DOT
 10
-53.125
 20
28.675
 11
-50.875
 21
30.9
  0
LINE
  8
型材断面
  6
DOT
 10
-54.525
 20
28.675
 11
-50.875
 21
32.325
  0
LINE
  8
型材断面
  6
DOT
 10
-55.875
 20
28.725
 11
-50.95
 21
33.675
  0
LINE
  8
型材断面
  6
DOT
 10
-55.875
 20
30.15
 11
-52.35
 21
33.675
  0
LINE
  8
型材断面
  6
DOT
 10
-55.875
 20
31.55
 11
-53.775
 21
33.675
  0
LINE
  8
型材断面
  6
DOT
 10
-55.875
 20
32.975
 11
-55.175
 21
33.675
  0
ENDBLK
  0
BLOCK
  2
*HAT_0006
 70
    65
 10
0.0
 20
0.0
  0
LINE
  8
型材断面
  6
DOT
 10
104.45
 20
-28.725
 11
105.275
 21
-27.9
  0
LINE
  8
型材断面
  6
DOT
 10
103.025
 20
-28.725
 11
105.275
 21
-26.5
  0
LINE
  8
型材断面
  6
DOT
 10
101.625
 20
-28.725
 11
105.275
 21
-25.075
  0
LINE
  8
型材断面
  6
DOT
 10
100.275
 20
-28.675
 11
105.2
 21
-23.725
  0
LINE
  8
型材断面
  6
DOT
 10
100.275
 20
-27.25
 11
103.8
 21
-23.725
  0
LINE
  8
型材断面
  6
DOT
 10
100.275
 20
-25.85
 11
102.375
 21
-23.725
  0
LINE
  8
型材断面
  6
DOT
 10
100.275
 20
-24.425
 11
100.975
 21
-23.725
  0
ENDBLK
  0
BLOCK
  2
*HAT_0007
 70
    65
 10
0.0
 20
0.0
  0
LINE
  8
ﾊｯﾁﾝｸﾞ
 10
99.175
 20
1.475
 11
100.025
 21
1.475
  0
LINE
  8
ﾊｯﾁﾝｸﾞ
 10
98.675
 20
1.975
 11
100.525
 21
1.975
  0
LINE
  8
ﾊｯﾁﾝｸﾞ
 10
98.175
 20
2.475
 11
101.025
 21
2.475
  0
LINE
  8
ﾊｯﾁﾝｸﾞ
 10
97.675
 20
2.975
 11
101.525
 21
2.975
  0
LINE
  8
ﾊｯﾁﾝｸﾞ
 10
97.425
 20
3.475
 11
102.025
 21
3.475
  0
LINE
  8
ﾊｯﾁﾝｸﾞ
 10
97.925
 20
3.975
 11
102.525
 21
3.975
  0
LINE
  8
ﾊｯﾁﾝｸﾞ
 10
98.425
 20
4.475
 11
103.0
 21
4.475
  0
LINE
  8
ﾊｯﾁﾝｸﾞ
 10
98.925
 20
4.975
 11
103.5
 21
4.975
  0
LINE
  8
ﾊｯﾁﾝｸﾞ
 10
99.425
 20
5.475
 11
104.0
 21
5.475
  0
LINE
  8
ﾊｯﾁﾝｸﾞ
 10
99.9
 20
5.975
 11
104.5
 21
5.975
  0
LINE
  8
ﾊｯﾁﾝｸﾞ
 10
99.825
 20
6.475
 11
105.0
 21
6.475
  0
LINE
  8
ﾊｯﾁﾝｸﾞ
 10
99.3
 20
6.975
 11
105.5
 21
6.975
  0
LINE
  8
ﾊｯﾁﾝｸﾞ
 10
99.2
 20
7.475
 11
106.0
 21
7.475
  0
LINE
  8
ﾊｯﾁﾝｸﾞ
 10
102.4
 20
7.975
 11
106.5
 21
7.975
  0
LINE
  8
ﾊｯﾁﾝｸﾞ
 10
105.575
 20
8.475
 11
107.0
 21
8.475
  0
LINE
  8
ﾊｯﾁﾝｸﾞ
 10
106.825
 20
8.275
 11
106.825
 21
8.675
  0
LINE
  8
ﾊｯﾁﾝｸﾞ
 10
106.325
 20
7.775
 11
106.325
 21
8.6
  0
LINE
  8
ﾊｯﾁﾝｸﾞ
 10
105.825
 20
7.275
 11
105.825
 21
8.5
  0
LINE
  8
ﾊｯﾁﾝｸﾞ
 10
105.325
 20
6.775
 11
105.325
 21
8.425
  0
LINE
  8
ﾊｯﾁﾝｸﾞ
 10
104.825
 20
6.275
 11
104.825
 21
8.35
  0
LINE
  8
ﾊｯﾁﾝｸﾞ
 10
104.325
 20
5.775
 11
104.325
 21
8.275
  0
LINE
  8
ﾊｯﾁﾝｸﾞ
 10
103.825
 20
5.275
 11
103.825
 21
8.2
  0
LINE
  8
ﾊｯﾁﾝｸﾞ
 10
103.325
 20
4.8
 11
103.325
 21
8.125
  0
LINE
  8
ﾊｯﾁﾝｸﾞ
 10
102.825
 20
4.3
 11
102.825
 21
8.05
  0
LINE
  8
ﾊｯﾁﾝｸﾞ
 10
102.325
 20
3.8
 11
102.325
 21
7.975
  0
LINE
  8
ﾊｯﾁﾝｸﾞ
 10
101.825
 20
3.3
 11
101.825
 21
7.9
  0
LINE
  8
ﾊｯﾁﾝｸﾞ
 10
101.325
 20
2.8
 11
101.325
 21
7.8
  0
LINE
  8
ﾊｯﾁﾝｸﾞ
 10
100.825
 20
2.3
 11
100.825
 21
7.725
  0
LINE
  8
ﾊｯﾁﾝｸﾞ
 10
100.325
 20
1.8
 11
100.325
 21
7.65
  0
LINE
  8
ﾊｯﾁﾝｸﾞ
 10
99.825
 20
1.3
 11
99.825
 21
5.9
  0
LINE
  8
ﾊｯﾁﾝｸﾞ
 10
99.825
 20
6.475
 11
99.825
 21
7.575
  0
LINE
  8
ﾊｯﾁﾝｸﾞ
 10
99.325
 20
1.325
 11
99.325
 21
5.4
  0
LINE
  8
ﾊｯﾁﾝｸﾞ
 10
99.325
 20
6.975
 11
99.325
 21
7.5
  0
LINE
  8
ﾊｯﾁﾝｸﾞ
 10
98.825
 20
1.825
 11
98.825
 21
4.9
  0
LINE
  8
ﾊｯﾁﾝｸﾞ
 10
98.825
 20
7.375
 11
98.825
 21
7.425
  0
LINE
  8
ﾊｯﾁﾝｸﾞ
 10
98.325
 20
2.325
 11
98.325
 21
4.4
  0
LINE
  8
ﾊｯﾁﾝｸﾞ
 10
97.825
 20
2.825
 11
97.825
 21
3.9
  0
LINE
  8
ﾊｯﾁﾝｸﾞ
 10
97.325
 20
3.325
 11
97.325
 21
3.4
  0
ENDBLK
  0
BLOCK
  2
*HAT_0008
 70
    65
 10
0.0
 20
0.0
  0
LINE
  8
その他部品等
 10
-93.375
 20
-85.75
 11
-92.45
 21
-84.775
  0
LINE
  8
その他部品等
 10
-95.525
 20
-85.75
 11
-92.45
 21
-82.675
  0
LINE
  8
その他部品等
 10
-97.625
 20
-85.7
 11
-93.6
 21
-81.725
  0
LINE
  8
その他部品等
 10
-99.525
 20
-85.525
 11
-95.75
 21
-81.725
  0
LINE
  8
その他部品等
 10
-99.525
 20
-83.425
 11
-97.85
 21
-81.725
  0
LINE
  8
その他部品等
 10
-99.525
 20
-83.975
 11
-97.8
 21
-85.7
  0
LINE
  8
その他部品等
 10
-99.525
 20
-81.875
 11
-95.7
 21
-85.7
  0
LINE
  8
その他部品等
 10
-97.575
 20
-81.725
 11
-93.575
 21
-85.7
  0
LINE
  8
その他部品等
 10
-95.45
 20
-81.725
 11
-92.45
 21
-84.725
  0
LINE
  8
その他部品等
 10
-93.35
 20
-81.725
 11
-92.45
 21
-82.625
  0
ENDBLK
  0
BLOCK
  2
*HAT_0009
 70
    65
 10
0.0
 20
0.0
  0
LINE
  8
その他部品等
 10
-40.4
 20
-47.575
 11
-38.75
 21
-45.875
  0
LINE
  8
その他部品等
 10
-42.825
 20
-47.9
 11
-38.75
 21
-43.775
  0
LINE
  8
その他部品等
 10
-42.95
 20
-45.875
 11
-38.75
 21
-41.675
  0
LINE
  8
その他部品等
 10
-42.95
 20
-43.75
 11
-39.6
 21
-40.4
  0
LINE
  8
その他部品等
 10
-42.95
 20
-41.65
 11
-41.7
 21
-40.4
  0
LINE
  8
その他部品等
 10
-42.95
 20
-47.425
 11
-42.5
 21
-47.825
  0
LINE
  8
その他部品等
 10
-42.95
 20
-45.275
 11
-40.65
 21
-47.575
  0
LINE
  8
その他部品等
 10
-42.95
 20
-43.175
 11
-38.775
 21
-47.35
  0
LINE
  8
その他部品等
 10
-42.95
 20
-41.05
 11
-38.75
 21
-45.25
  0
LINE
  8
その他部品等
 10
-41.475
 20
-40.4
 11
-38.75
 21
-43.15
  0
LINE
  8
その他部品等
 10
-39.35
 20
-40.4
 11
-38.75
 21
-41.0
  0
ENDBLK
  0
BLOCK
  2
*HAT_0010
 70
    65
 10
0.0
 20
0.0
  0
LINE
  8
その他部品等
 10
-56.15
 20
58.85
 11
-56.9
 21
58.85
  0
LINE
  8
その他部品等
 10
-55.25
 20
59.75
 11
-57.8
 21
59.75
  0
LINE
  8
その他部品等
 10
-54.35
 20
60.65
 11
-58.7
 21
60.65
  0
LINE
  8
その他部品等
 10
-53.45
 20
61.55
 11
-58.025
 21
61.55
  0
LINE
  8
その他部品等
 10
-52.55
 20
62.45
 11
-57.125
 21
62.45
  0
LINE
  8
その他部品等
 10
-51.65
 20
63.35
 11
-56.25
 21
63.35
  0
LINE
  8
その他部品等
 10
-50.75
 20
64.25
 11
-56.75
 21
64.25
  0
LINE
  8
その他部品等
 10
-49.85
 20
65.15
 11
-55.325
 21
65.15
  0
LINE
  8
その他部品等
 10
-48.95
 20
66.05
 11
-49.575
 21
66.05
  0
LINE
  8
その他部品等
 10
-58.4
 20
60.4
 11
-58.4
 21
61.225
  0
LINE
  8
その他部品等
 10
-57.5
 20
59.5
 11
-57.5
 21
62.125
  0
LINE
  8
その他部品等
 10
-56.6
 20
58.6
 11
-56.6
 21
62.975
  0
LINE
  8
その他部品等
 10
-56.6
 20
64.15
 11
-56.6
 21
64.975
  0
LINE
  8
その他部品等
 10
-55.7
 20
59.3
 11
-55.7
 21
65.125
  0
LINE
  8
その他部品等
 10
-54.825
 20
60.2
 11
-54.825
 21
65.225
  0
LINE
  8
その他部品等
 10
-53.925
 20
61.1
 11
-53.925
 21
65.375
  0
LINE
  8
その他部品等
 10
-53.025
 20
62.0
 11
-53.025
 21
65.525
  0
LINE
  8
その他部品等
 10
-52.125
 20
62.9
 11
-52.125
 21
65.65
  0
LINE
  8
その他部品等
 10
-51.225
 20
63.8
 11
-51.225
 21
65.8
  0
LINE
  8
その他部品等
 10
-50.325
 20
64.7
 11
-50.325
 21
65.95
  0
LINE
  8
その他部品等
 10
-49.425
 20
65.6
 11
-49.425
 21
66.1
  0
ENDBLK
  0
BLOCK
  2
*HAT_0011
 70
    65
 10
0.0
 20
0.0
  0
LINE
  8
その他部品等
 10
-25.6
 20
-37.825
 11
-24.325
 21
-36.55
  0
LINE
  8
その他部品等
 10
-28.525
 20
-39.35
 11
-25.75
 21
-36.55
  0
LINE
  8
その他部品等
 10
-30.0
 20
-39.4
 11
-27.15
 21
-36.55
  0
LINE
  8
その他部品等
 10
-31.4
 20
-39.4
 11
-28.55
 21
-36.55
  0
LINE
  8
その他部品等
 10
-32.825
 20
-39.4
 11
-29.975
 21
-36.55
  0
LINE
  8
その他部品等
 10
-34.225
 20
-39.4
 11
-31.375
 21
-36.55
  0
LINE
  8
その他部品等
 10
-34.625
 20
-38.375
 11
-32.8
 21
-36.55
  0
LINE
  8
その他部品等
 10
-34.625
 20
-36.975
 11
-34.2
 21
-36.55
  0
LINE
  8
その他部品等
 10
-34.65
 20
-39.15
 11
-34.4
 21
-39.4
  0
LINE
  8
その他部品等
 10
-34.65
 20
-37.75
 11
-33.0
 21
-39.4
  0
LINE
  8
その他部品等
 10
-34.425
 20
-36.55
 11
-31.575
 21
-39.4
  0
LINE
  8
その他部品等
 10
-33.025
 20
-36.55
 11
-30.175
 21
-39.4
  0
LINE
  8
その他部品等
 10
-31.6
 20
-36.55
 11
-28.75
 21
-39.4
  0
LINE
  8
その他部品等
 10
-30.2
 20
-36.55
 11
-27.8
 21
-38.95
  0
LINE
  8
その他部品等
 10
-28.775
 20
-36.55
 11
-26.85
 21
-38.475
  0
LINE
  8
その他部品等
 10
-27.375
 20
-36.55
 11
-25.925
 21
-38.0
  0
LINE
  8
その他部品等
 10
-25.95
 20
-36.55
 11
-25.0
 21
-37.5
  0
LINE
  8
その他部品等
 10
-24.55
 20
-36.55
 11
-24.075
 21
-37.025
  0
ENDBLK
  0
BLOCK
  2
*GRP_0001
 70
    65
 10
0.0
 20
0.0
  0
LINE
  8
型材断面
  6
CONTINUOUS
 10
195.0
 20
133.5
 11
195.0
 21
-133.5
  0
LINE
  8
型材断面
  6
CONTINUOUS
 10
195.0
 20
-133.5
 11
-185.0
 21
-133.5
  0
LINE
  8
型材断面
  6
CONTINUOUS
 10
-185.0
 20
-133.5
 11
-185.0
 21
133.5
  0
LINE
  8
型材断面
  6
CONTINUOUS
 10
195.0
 20
133.5
 11
-185.0
 21
133.5
  0
LINE
  8
型材断面
  6
CONTINUOUS
 10
145.0
 20
-133.5
 11
145.0
 21
-118.5
  0
LINE
  8
型材断面
  6
CONTINUOUS
 10
195.0
 20
-118.5
 11
145.0
 21
-118.5
  0
ENDBLK
  0
BLOCK
  2
*GRP_0002
 70
    65
 10
0.0
 20
0.0
  0
LINE
  8
型材断面
  6
CONTINUOUS
 10
-36.13924
 20
-43.892705
 11
-36.28924
 21
-43.742705
  0
LINE
  8
型材断面
  6
CONTINUOUS
 10
-36.13924
 20
-43.892705
 11
-36.28924
 21
-44.042705
  0
LINE
  8
型材断面
  6
CONTINUOUS
 62
    47
 10
-100.3893
 20
-85.713797
 11
-99.4893
 21
-85.713797
  0
LINE
  8
型材断面
  6
CONTINUOUS
 10
-99.489293
 20
-81.713795
 11
-99.4893
 21
-85.713797
  0
LINE
  8
型材断面
  6
CONTINUOUS
 10
-99.489293
 20
-80.963795
 11
-99.489243
 21
-56.49964
  0
LINE
  8
型材断面
  6
CONTINUOUS
 62
    47
 10
-100.3893
 20
-85.713797
 11
-100.38924
 21
-55.713797
  0
LINE
  8
型材断面
  6
CONTINUOUS
 10
-93.925575
 20
-55.742675
 11
-99.489243
 21
-56.49964
  0
LINE
  8
型材断面
  6
CONTINUOUS
 10
-63.94236
 20
-51.663328
 11
-93.182415
 21
-55.641568
  0
LINE
  8
型材断面
  6
CONTINUOUS
 10
-63.199202
 20
-51.56222
 11
-36.13924
 21
-47.88059
  0
LINE
  8
型材断面
  6
CONTINUOUS
 10
-100.38924
 20
-55.713797
 11
-36.28924
 21
-46.992707
  0
LINE
  8
型材断面
  6
CONTINUOUS
 10
-35.38924
 20
-41.142707
 11
-36.28924
 21
-41.142707
  0
LINE
  8
型材断面
  6
CONTINUOUS
 10
-36.28924
 20
-46.992707
 11
-36.28924
 21
-44.042705
  0
LINE
  8
型材断面
  6
CONTINUOUS
 10
-36.28924
 20
-43.742705
 11
-36.28924
 21
-41.142707
  0
LINE
  8
型材断面
  6
CONTINUOUS
 10
-93.0586
 20
-56.533015
 11
-91.17594
 21
-56.27687
  0
LINE
  8
型材断面
  6
CONTINUOUS
 10
-91.17594
 20
-56.27687
 11
-91.072757
 21
-57.019745
  0
LINE
  8
型材断面
  6
CONTINUOUS
 10
-91.072757
 20
-57.019745
 11
-93.69858
 21
-57.377
  0
LINE
  8
型材断面
  6
CONTINUOUS
 10
-63.824065
 20
-52.555518
 11
-65.706728
 21
-52.81166
  0
LINE
  8
型材断面
  6
CONTINUOUS
 10
-65.706728
 20
-52.81166
 11
-65.60769
 21
-53.555098
  0
LINE
  8
型材断面
  6
CONTINUOUS
 10
-65.60769
 20
-53.555098
 11
-62.981868
 21
-53.197843
  0
LINE
  8
型材断面
  6
CONTINUOUS
 10
-93.057773
 20
-56.532902
 11
-93.18159
 21
-55.641455
  0
LINE
  8
型材断面
  6
CONTINUOUS
 10
-93.69775
 20
-57.376887
 11
-93.924745
 21
-55.742562
  0
LINE
  8
型材断面
  6
CONTINUOUS
 10
-63.824065
 20
-52.555518
 11
-63.94291
 21
-51.663403
  0
LINE
  8
型材断面
  6
CONTINUOUS
 10
-62.981868
 20
-53.197843
 11
-63.199755
 21
-51.562295
  0
LINE
  8
型材断面
  6
CONTINUOUS
 10
-38.028945
 20
-49.8029
 11
-38.130052
 21
-49.059745
  0
LINE
  8
型材断面
  6
CONTINUOUS
 62
    47
 10
-35.38924
 20
-41.142707
 11
-35.38924
 21
-49.443755
  0
LINE
  8
型材断面
  6
CONTINUOUS
 10
-38.028945
 20
-49.8029
 11
-35.38924
 21
-49.443755
  0
LINE
  8
型材断面
  6
CONTINUOUS
 10
-38.130052
 20
-49.059745
 11
-36.13924
 21
-48.788885
  0
LINE
  8
型材断面
  6
CONTINUOUS
 10
-36.13924
 20
-47.88059
 11
-36.13924
 21
-48.788885
  0
LINE
  8
型材断面
  6
CONTINUOUS
 10
-97.839287
 20
-79.713797
 11
-98.589287
 21
-79.713797
  0
LINE
  8
型材断面
  6
CONTINUOUS
 10
-98.589287
 20
-80.963795
 11
-98.589287
 21
-79.713797
  0
LINE
  8
型材断面
  6
CONTINUOUS
 10
-97.839287
 20
-81.213797
 11
-97.839287
 21
-79.713797
  0
ARC
  8
型材断面
  6
CONTINUOUS
 10
-98.339297
 20
-81.213794
 40
0.5
 50
-90.0
 51
0.0
  0
LINE
  8
型材断面
  6
CONTINUOUS
 10
-98.589287
 20
-80.963795
 11
-99.489293
 21
-80.963795
  0
LINE
  8
型材断面
  6
CONTINUOUS
 10
-98.339287
 20
-81.713795
 11
-99.489293
 21
-81.713795
  0
ENDBLK
  0
BLOCK
  2
*GRP_0003
 70
    65
 10
0.0
 20
0.0
  0
LINE
  8
型材断面
  6
CONTINUOUS
 62
    47
 10
-41.88924
 20
28.735075
 11
-39.731295
 21
28.735075
  0
LINE
  8
型材断面
  6
CONTINUOUS
 62
    47
 10
-41.88924
 20
27.985075
 11
-39.731295
 21
27.985075
  0
LINE
  8
型材断面
  6
CONTINUOUS
 62
    47
 10
-42.89424
 20
12.860075
 11
-42.891442
 21
12.860075
  0
ARC
  8
型材断面
  6
CONTINUOUS
 62
    47
 10
-43.39144
 20
30.460083
 40
0.25
 50
90.0
 51
180.0
  0
ARC
  8
型材断面
  6
CONTINUOUS
 62
    47
 10
-43.39144
 20
30.210083
 40
0.25
 50
180.0
 51
270.0
  0
ARC
  8
型材断面
  6
CONTINUOUS
 62
    47
 10
-54.391446
 20
41.31082
 40
0.25
 50
180.0
 51
270.0
  0
ARC
  8
型材断面
  6
CONTINUOUS
 62
    47
 10
-54.141446
 20
41.31082
 40
0.25
 50
270.0
 51
360.0
  0
LINE
  8
型材断面
  6
CONTINUOUS
 62
    47
 10
-42.891442
 20
28.710085
 11
-42.891442
 21
29.960082
  0
LINE
  8
型材断面
  6
CONTINUOUS
 62
    47
 10
-44.45554
 20
50.612225
 11
-51.703413
 21
43.36435
  0
LINE
  8
型材断面
  6
CONTINUOUS
 62
    47
 10
-51.987302
 20
43.648243
 11
-51.703413
 21
43.36435
  0
LINE
  8
型材断面
  6
CONTINUOUS
 62
    47
 10
-55.699585
 20
42.76439
 11
-55.891447
 21
42.57253
  0
LINE
  8
型材断面
  6
CONTINUOUS
 62
    47
 10
-55.699585
 20
42.76439
 11
-54.641445
 21
41.706257
  0
LINE
  8
型材断面
  6
CONTINUOUS
 62
    47
 10
-51.987302
 20
43.648243
 11
-53.891445
 21
41.744097
  0
LINE
  8
型材断面
  6
CONTINUOUS
 62
    47
 10
-42.891442
 20
30.710082
 11
-43.39144
 21
30.710082
  0
LINE
  8
型材断面
  6
CONTINUOUS
 62
    47
 10
-43.641442
 20
30.460082
 11
-43.641442
 21
30.21008
  0
LINE
  8
型材断面
  6
CONTINUOUS
 62
    47
 10
-42.891442
 20
29.960082
 11
-43.39144
 21
29.960082
  0
LINE
  8
型材断面
  6
CONTINUOUS
 62
    47
 10
-54.641445
 20
41.31082
 11
-54.641445
 21
41.706257
  0
LINE
  8
型材断面
  6
CONTINUOUS
 62
    47
 10
-54.391447
 20
41.060817
 11
-54.141445
 21
41.060817
  0
LINE
  8
型材断面
  6
CONTINUOUS
 62
    47
 10
-53.891445
 20
41.31082
 11
-53.891445
 21
41.744097
  0
LINE
  8
型材断面
  6
CONTINUOUS
 62
    47
 10
-55.891447
 20
28.710085
 11
-55.891447
 21
42.57253
  0
LINE
  8
型材断面
  6
CONTINUOUS
 62
    47
 10
-55.891447
 20
28.710085
 11
-42.891442
 21
28.710085
  0
LINE
  8
型材断面
  6
CONTINUOUS
 62
    47
 10
-44.45554
 20
50.612225
 11
-42.891442
 21
49.048128
  0
LINE
  8
型材断面
  6
CONTINUOUS
 62
    47
 10
-42.891442
 20
30.710082
 11
-42.891442
 21
49.048128
  0
LINE
  8
型材断面
  6
CONTINUOUS
 62
    47
 10
-23.141447
 20
32.360073
 11
-23.141447
 21
34.860073
  0
LINE
  8
型材断面
  6
CONTINUOUS
 62
    47
 10
-23.141447
 20
39.360073
 11
-23.141447
 21
44.360075
  0
LINE
  8
型材断面
  6
CONTINUOUS
 62
    47
 10
-23.891447
 20
44.360075
 11
-23.141447
 21
44.360075
  0
LINE
  8
型材断面
  6
CONTINUOUS
 62
    47
 10
-23.141447
 20
34.860073
 11
-21.391447
 21
36.610075
  0
LINE
  8
型材断面
  6
CONTINUOUS
 62
    47
 10
-21.391447
 20
37.360075
 11
-21.391447
 21
36.610075
  0
ARC
  8
型材断面
  6
CONTINUOUS
 62
    47
 10
-42.98924
 20
12.010079
 40
0.15
 50
180.0
 51
270.0
  0
ARC
  8
型材断面
  6
CONTINUOUS
 62
    47
 10
-42.039237
 20
12.010079
 40
0.15
 50
270.0
 51
360.0
  0
LINE
  8
型材断面
  6
CONTINUOUS
 62
    47
 10
-42.989243
 20
11.860078
 11
-42.03924
 21
11.860078
  0
LINE
  8
型材断面
  6
CONTINUOUS
 62
    47
 10
-41.88924
 20
16.360078
 11
-41.88924
 21
12.010078
  0
LINE
  8
型材断面
  6
CONTINUOUS
 62
    47
 10
-23.891447
 20
44.360075
 11
-23.891447
 21
40.36082
  0
LINE
  8
型材断面
  6
CONTINUOUS
 62
    47
 10
-56.052085
 20
63.623005
 11
-58.880515
 21
60.794578
  0
LINE
  8
型材断面
  6
CONTINUOUS
 62
    47
 10
-58.880515
 20
60.794578
 11
-59.587605
 21
61.501705
  0
LINE
  8
型材断面
  6
CONTINUOUS
 62
    47
 10
-59.587605
 20
61.501705
 11
-67.365825
 21
53.7235
  0
LINE
  8
型材断面
  6
CONTINUOUS
 62
    47
 10
-67.365825
 20
53.7235
 11
-56.76027
 21
43.117917
  0
LINE
  8
型材断面
  6
CONTINUOUS
 62
    47
 10
-54.81573
 20
44.708907
 11
-54.81573
 21
45.062457
  0
LINE
  8
型材断面
  6
CONTINUOUS
 62
    47
 10
-54.81573
 20
44.708907
 11
-55.16928
 21
44.708907
  0
LINE
  8
型材断面
  6
CONTINUOUS
 62
    47
 10
-68.249708
 20
53.193175
 11
-70.89346
 21
50.54942
  0
LINE
  8
型材断面
  6
CONTINUOUS
 62
    47
 10
-70.89346
 20
50.54942
 11
-70.893405
 21
48.360073
  0
LINE
  8
型材断面
  6
CONTINUOUS
 62
    47
 10
-70.893405
 20
48.360073
 11
-71.643405
 21
48.360073
  0
LINE
  8
型材断面
  6
CONTINUOUS
 62
    47
 10
-56.76027
 20
43.117917
 11
-55.16928
 21
44.708907
  0
LINE
  8
型材断面
  6
CONTINUOUS
 62
    47
 10
-54.81573
 20
45.062457
 11
-53.57826
 21
46.299928
  0
LINE
  8
型材断面
  6
CONTINUOUS
 62
    47
 10
-42.141442
 20
40.36082
 11
-42.141442
 21
49.358787
  0
LINE
  8
型材断面
  6
CONTINUOUS
 62
    47
 10
-42.141442
 20
40.36082
 11
-23.891447
 21
40.36082
  0
LINE
  8
型材断面
  6
CONTINUOUS
 62
    47
 10
-56.641447
 20
26.960082
 11
-55.891447
 21
26.960082
  0
LINE
  8
型材断面
  6
CONTINUOUS
 62
    47
 10
-55.891447
 20
26.960082
 11
-55.891447
 21
27.960085
  0
LINE
  8
型材断面
  6
CONTINUOUS
 62
    47
 10
-55.891447
 20
27.960085
 11
-42.891442
 21
27.960085
  0
LINE
  8
型材断面
  6
CONTINUOUS
 62
    47
 10
-42.891442
 20
27.960085
 11
-42.891442
 21
18.260075
  0
LINE
  8
型材断面
  6
CONTINUOUS
 62
    47
 10
-42.741442
 20
18.110075
 11
-42.891442
 21
18.260075
  0
LINE
  8
型材断面
  6
CONTINUOUS
 62
    47
 10
-42.741442
 20
18.110075
 11
-42.891442
 21
17.960075
  0
LINE
  8
型材断面
  6
CONTINUOUS
 62
    47
 10
-51.70338
 20
44.42504
 11
-53.57826
 21
46.299928
  0
LINE
  8
型材断面
  6
CONTINUOUS
 62
    47
 10
-48.521395
 20
47.607028
 11
-49.758832
 21
48.844465
  0
LINE
  8
型材断面
  6
CONTINUOUS
 62
    47
 10
-48.521395
 20
47.607028
 11
-44.98587
 21
51.142555
  0
LINE
  8
型材断面
  6
CONTINUOUS
 62
    47
 10
-49.051725
 20
47.0767
 11
-50.819492
 21
48.844465
  0
LINE
  8
型材断面
  6
CONTINUOUS
 62
    47
 10
-51.70338
 20
44.42504
 11
-49.051725
 21
47.0767
  0
LINE
  8
型材断面
  6
CONTINUOUS
 62
    47
 10
-46.223305
 20
53.440653
 11
-42.141442
 21
49.358787
  0
LINE
  8
型材断面
  6
CONTINUOUS
 62
    47
 10
-44.98587
 20
51.142555
 11
-46.223303
 21
52.37999
  0
LINE
  8
型材断面
  6
CONTINUOUS
 62
    47
 10
-48.874945
 20
49.72835
 11
-49.758832
 21
48.844465
  0
LINE
  8
型材断面
  6
CONTINUOUS
 62
    47
 10
-46.223303
 20
52.37999
 11
-47.107178
 21
51.496115
  0
LINE
  8
型材断面
  6
CONTINUOUS
 62
    47
 10
-49.617407
 20
50.04655
 11
-50.819492
 21
48.844465
  0
LINE
  8
型材断面
  6
CONTINUOUS
 62
    47
 10
-49.193145
 20
50.04655
 11
-48.874945
 21
49.72835
  0
LINE
  8
型材断面
  6
CONTINUOUS
 62
    47
 10
-49.617407
 20
50.04655
 11
-49.193145
 21
50.04655
  0
LINE
  8
型材断面
  6
CONTINUOUS
 62
    47
 10
-46.223305
 20
53.440653
 11
-47.42538
 21
52.238578
  0
LINE
  8
型材断面
  6
CONTINUOUS
 62
    47
 10
-47.42538
 20
51.814315
 11
-47.107178
 21
51.496115
  0
LINE
  8
型材断面
  6
CONTINUOUS
 62
    47
 10
-47.42538
 20
52.238578
 11
-47.42538
 21
51.814315
  0
LINE
  8
型材断面
  6
CONTINUOUS
 62
    47
 10
-71.643473
 20
50.860075
 11
-71.643405
 21
48.360073
  0
LINE
  8
型材断面
  6
CONTINUOUS
 62
    47
 10
-71.643473
 20
50.860075
 11
-57.819825
 21
64.683688
  0
LINE
  8
型材断面
  6
CONTINUOUS
 62
    47
 10
-57.11271
 20
64.68368
 11
-56.052085
 21
63.623005
  0
ARC
  8
型材断面
  6
CONTINUOUS
 62
    47
 10
-57.466271
 20
64.330137
 40
0.5
 50
44.998586
 51
134.999937
  0
LINE
  8
型材断面
  6
CONTINUOUS
 62
    47
 10
-42.891442
 20
17.960075
 11
-42.891442
 21
12.860067
  0
ARC
  8
型材断面
  6
CONTINUOUS
 62
    47
 10
-42.889241
 20
12.610078
 40
0.25
 50
90.504095
 51
180.0
  0
LINE
  8
型材断面
  6
CONTINUOUS
 62
    47
 10
-43.139243
 20
12.010078
 11
-43.139243
 21
12.610078
  0
LINE
  8
型材断面
  6
CONTINUOUS
 62
    47
 10
-23.141447
 20
16.360078
 11
-41.88924
 21
16.360078
  0
LINE
  8
型材断面
  6
CONTINUOUS
 62
    47
 10
-23.141447
 20
16.360078
 11
-23.141447
 21
17.360073
  0
ARC
  8
型材断面
  6
CONTINUOUS
 62
    47
 10
-40.89144
 20
18.110078
 40
0.875
 50
92.457593
 51
357.542385
  0
ARC
  8
型材断面
  6
CONTINUOUS
 62
    47
 10
-39.64259
 20
18.056478
 40
0.375
 50
357.542768
 51
537.542424
  0
ARC
  8
型材断面
  6
CONTINUOUS
 62
    47
 10
-40.945041
 20
19.358928
 40
0.375
 50
272.457603
 51
452.457636
  0
ARC
  8
型材断面
  6
CONTINUOUS
 62
    47
 10
-39.64259
 20
38.664421
 40
0.375
 50
182.457576
 51
362.457232
  0
ARC
  8
型材断面
  6
CONTINUOUS
 62
    47
 10
-40.89144
 20
38.61082
 40
0.875
 50
2.457615
 51
267.542407
  0
ARC
  8
型材断面
  6
CONTINUOUS
 62
    47
 10
-40.945041
 20
37.36197
 40
0.375
 50
267.542364
 51
447.542397
  0
LINE
  8
型材断面
  6
CONTINUOUS
 62
    47
 10
-56.491447
 20
38.61082
 11
-56.641447
 21
38.46082
  0
LINE
  8
型材断面
  6
CONTINUOUS
 62
    47
 10
-56.491447
 20
38.61082
 11
-56.641447
 21
38.76082
  0
LINE
  8
型材断面
  6
CONTINUOUS
 62
    47
 10
-56.641447
 20
41.584878
 11
-56.641447
 21
38.76082
  0
LINE
  8
型材断面
  6
CONTINUOUS
 62
    47
 10
-56.641447
 20
26.960082
 11
-56.641447
 21
38.46082
  0
ARC
  8
型材断面
  6
CONTINUOUS
 62
    47
 10
-40.89144
 20
38.61082
 40
1.625
 50
256.452118
 51
267.542389
  0
LINE
  8
型材断面
  6
CONTINUOUS
 62
    47
 10
-41.88924
 20
28.735075
 11
-41.88924
 21
36.544947
  0
ARC
  8
型材断面
  6
CONTINUOUS
 62
    47
 10
-41.389238
 20
36.54495
 40
0.5
 50
76.452118
 51
180.0
  0
ARC
  8
型材断面
  6
CONTINUOUS
 62
    47
 10
-40.89144
 20
38.61082
 40
1.625
 50
2.457518
 51
13.608975
  0
ARC
  8
型材断面
  6
CONTINUOUS
 62
    47
 10
-38.826102
 20
39.110821
 40
0.5
 50
90.0
 51
193.608974
  0
ARC
  8
型材断面
  6
CONTINUOUS
 62
    47
 10
-40.89144
 20
18.110078
 40
1.625
 50
92.457611
 51
103.547882
  0
LINE
  8
型材断面
  6
CONTINUOUS
 62
    47
 10
-41.88924
 20
27.985075
 11
-41.88924
 21
20.175948
  0
ARC
  8
型材断面
  6
CONTINUOUS
 62
    47
 10
-41.389238
 20
20.175949
 40
0.5
 50
180.0
 51
283.547882
  0
ARC
  8
型材断面
  6
CONTINUOUS
 62
    47
 10
-40.89144
 20
18.110078
 40
1.625
 50
346.391039
 51
357.542482
  0
ARC
  8
型材断面
  6
CONTINUOUS
 62
    47
 10
-38.826102
 20
17.610078
 40
0.5
 50
166.391039
 51
270.0
  0
LINE
  8
型材断面
  6
CONTINUOUS
 62
    47
 10
-24.1348
 20
32.360073
 11
-23.141447
 21
32.360073
  0
LINE
  8
型材断面
  6
CONTINUOUS
 62
    47
 10
-62.310025
 20
47.465597
 11
-62.522148
 21
47.465597
  0
LINE
  8
型材断面
  6
CONTINUOUS
 62
    47
 10
-62.310025
 20
47.465597
 11
-62.310025
 21
47.25347
  0
LINE
  8
型材断面
  6
CONTINUOUS
 62
    47
 10
-62.310025
 20
47.25347
 11
-56.641447
 21
41.584878
  0
LINE
  8
型材断面
  6
CONTINUOUS
 62
    47
 10
-68.249708
 20
53.193175
 11
-62.522148
 21
47.465597
  0
LINE
  8
型材断面
  6
CONTINUOUS
 62
    47
 10
-23.141447
 20
17.360073
 11
-19.29145
 21
17.360073
  0
LINE
  8
型材断面
  6
CONTINUOUS
 62
    47
 10
-19.141447
 20
17.510075
 11
-19.29145
 21
17.360073
  0
LINE
  8
型材断面
  6
CONTINUOUS
 62
    47
 10
-19.141447
 20
17.510075
 11
-18.991442
 21
17.360073
  0
LINE
  8
型材断面
  6
CONTINUOUS
 62
    47
 10
-18.991442
 20
17.360073
 11
-17.041442
 21
17.360073
  0
ARC
  8
型材断面
  6
CONTINUOUS
 62
    47
 10
-17.041445
 20
17.510077
 40
0.150005
 50
270.0
 51
359.487538
  0
LINE
  8
型材断面
  6
CONTINUOUS
 62
    47
 10
-16.891447
 20
17.508733
 11
-16.891447
 21
17.610078
  0
LINE
  8
型材断面
  6
CONTINUOUS
 62
    47
 10
-16.391447
 20
17.610078
 11
-16.891447
 21
17.610078
  0
LINE
  8
型材断面
  6
CONTINUOUS
 62
    47
 10
-16.391447
 20
17.610078
 11
-16.391447
 21
17.510075
  0
ARC
  8
型材断面
  6
CONTINUOUS
 62
    47
 10
-16.241446
 20
17.510077
 40
0.150001
 50
180.0
 51
270.0
  0
LINE
  8
型材断面
  6
CONTINUOUS
 62
    47
 10
-13.291447
 20
17.360073
 11
-16.241445
 21
17.360073
  0
ARC
  8
型材断面
  6
CONTINUOUS
 62
    47
 10
-13.291446
 20
17.510072
 40
0.15
 50
270.0
 51
360.0
  0
LINE
  8
型材断面
  6
CONTINUOUS
 62
    47
 10
-13.141447
 20
17.510073
 11
-13.141447
 21
18.360073
  0
LINE
  8
型材断面
  6
CONTINUOUS
 62
    47
 10
-13.141447
 20
18.360073
 11
-14.391445
 21
18.360073
  0
LINE
  8
型材断面
  6
CONTINUOUS
 62
    47
 10
-14.391445
 20
18.360073
 11
-14.391445
 21
19.360075
  0
LINE
  8
型材断面
  6
CONTINUOUS
 62
    47
 10
-15.791445
 20
19.360075
 11
-14.391445
 21
19.360075
  0
ARC
  8
型材断面
  6
CONTINUOUS
 62
    47
 10
-16.891445
 20
19.360076
 40
1.1
 50
359.999922
 51
540.000078
  0
LINE
  8
型材断面
  6
CONTINUOUS
 62
    47
 10
-17.991445
 20
19.360075
 11
-21.391447
 21
19.360075
  0
LINE
  8
型材断面
  6
CONTINUOUS
 62
    47
 10
-21.391447
 20
19.360075
 11
-21.391447
 21
20.110075
  0
LINE
  8
型材断面
  6
CONTINUOUS
 62
    47
 10
-23.141447
 20
21.860075
 11
-21.391447
 21
20.110075
  0
LINE
  8
型材断面
  6
CONTINUOUS
 62
    47
 10
-23.141447
 20
21.860075
 11
-23.141447
 21
24.360073
  0
LINE
  8
型材断面
  6
CONTINUOUS
 62
    47
 10
-24.1348
 20
24.360073
 11
-23.141447
 21
24.360073
  0
LINE
  8
型材断面
  6
CONTINUOUS
 62
    47
 10
-23.141447
 20
39.360073
 11
-19.291447
 21
39.360073
  0
LINE
  8
型材断面
  6
CONTINUOUS
 62
    47
 10
-19.141447
 20
39.210073
 11
-19.291447
 21
39.360073
  0
LINE
  8
型材断面
  6
CONTINUOUS
 62
    47
 10
-19.141447
 20
39.210073
 11
-18.991447
 21
39.360073
  0
LINE
  8
型材断面
  6
CONTINUOUS
 62
    47
 10
-17.963995
 20
37.360075
 11
-21.391447
 21
37.360075
  0
LINE
  8
型材断面
  6
CONTINUOUS
 62
    47
 10
-17.963995
 20
36.721788
 11
-17.963995
 21
37.360075
  0
ARC
  8
型材断面
  6
CONTINUOUS
 62
    47
 10
-16.889241
 20
37.360072
 40
1.25
 50
210.705596
 51
329.293192
  0
LINE
  8
型材断面
  6
CONTINUOUS
 62
    47
 10
-15.814502
 20
36.721765
 11
-15.814502
 21
37.360075
  0
LINE
  8
型材断面
  6
CONTINUOUS
 62
    47
 10
-15.814502
 20
37.360075
 11
-14.391445
 21
37.360075
  0
LINE
  8
型材断面
  6
CONTINUOUS
 62
    47
 10
-14.391445
 20
38.360075
 11
-14.391445
 21
37.360075
  0
LINE
  8
型材断面
  6
CONTINUOUS
 62
    47
 10
-14.391445
 20
38.360075
 11
-13.141447
 21
38.360075
  0
LINE
  8
型材断面
  6
CONTINUOUS
 62
    47
 10
-13.141447
 20
39.210073
 11
-13.141447
 21
38.360075
  0
ARC
  8
型材断面
  6
CONTINUOUS
 62
    47
 10
-13.291446
 20
39.210073
 40
0.15
 50
0.0
 51
90.0
  0
LINE
  8
型材断面
  6
CONTINUOUS
 62
    47
 10
-13.291447
 20
39.360073
 11
-16.242115
 21
39.360073
  0
ARC
  8
型材断面
  6
CONTINUOUS
 62
    47
 10
-16.241446
 20
39.210074
 40
0.15
 50
90.256235
 51
180.0
  0
LINE
  8
型材断面
  6
CONTINUOUS
 62
    47
 10
-16.391447
 20
39.110073
 11
-16.391447
 21
39.210073
  0
LINE
  8
型材断面
  6
CONTINUOUS
 62
    47
 10
-16.391447
 20
39.110073
 11
-16.891447
 21
39.110073
  0
LINE
  8
型材断面
  6
CONTINUOUS
 62
    47
 10
-16.891447
 20
39.21062
 11
-16.891447
 21
39.110073
  0
ARC
  8
型材断面
  6
CONTINUOUS
 62
    47
 10
-17.041445
 20
39.210074
 40
0.15
 50
0.209215
 51
89.743765
  0
LINE
  8
型材断面
  6
CONTINUOUS
 62
    47
 10
-18.991447
 20
39.360073
 11
-17.040775
 21
39.360073
  0
LINE
  8
型材断面
  6
CONTINUOUS
 62
    47
 10
-27.456787
 20
39.61082
 11
-38.8261
 21
39.61082
  0
ARC
  8
型材断面
  6
CONTINUOUS
 62
    47
 10
-27.456786
 20
39.110821
 40
0.5
 50
346.391
 51
450.0
  0
ARC
  8
型材断面
  6
CONTINUOUS
 62
    47
 10
-25.391447
 20
38.61082
 40
1.625
 50
166.391026
 51
177.54319
  0
ARC
  8
型材断面
  6
CONTINUOUS
 62
    47
 10
-26.640298
 20
38.664421
 40
0.375
 50
177.545828
 51
357.55425
  0
ARC
  8
型材断面
  6
CONTINUOUS
 62
    47
 10
-25.391447
 20
38.61082
 40
0.875
 50
272.45427
 51
537.537319
  0
ARC
  8
型材断面
  6
CONTINUOUS
 62
    47
 10
-25.337847
 20
37.36197
 40
0.375
 50
92.465375
 51
170.969301
  0
ARC
  8
型材断面
  6
CONTINUOUS
 62
    47
 10
-25.337847
 20
19.358928
 40
0.375
 50
189.100648
 51
267.530547
  0
ARC
  8
型材断面
  6
CONTINUOUS
 62
    47
 10
-25.391447
 20
18.110078
 40
0.875
 50
182.454252
 51
447.547478
  0
ARC
  8
型材断面
  6
CONTINUOUS
 62
    47
 10
-26.640298
 20
18.056478
 40
0.375
 50
2.465417
 51
182.457602
  0
ARC
  8
型材断面
  6
CONTINUOUS
 62
    47
 10
-25.391447
 20
18.110078
 40
1.625
 50
182.457602
 51
193.608961
  0
ARC
  8
型材断面
  6
CONTINUOUS
 62
    47
 10
-27.456786
 20
17.610078
 40
0.5
 50
270.0
 51
373.608961
  0
LINE
  8
型材断面
  6
CONTINUOUS
 62
    47
 10
-27.456787
 20
17.110078
 11
-38.8261
 21
17.110078
  0
ARC
  8
型材断面
  6
CONTINUOUS
 62
    47
 10
-30.889243
 20
28.360072
 40
8.85
 50
90.0
 51
177.571473
  0
ARC
  8
型材断面
  6
CONTINUOUS
 62
    47
 10
-30.889243
 20
28.360072
 40
8.85
 50
182.428501
 51
270.0
  0
ARC
  8
型材断面
  6
CONTINUOUS
 62
    47
 10
-30.889243
 20
28.360072
 40
7.85
 50
30.634132
 51
329.365868
  0
ARC
  8
型材断面
  6
CONTINUOUS
 62
    47
 10
-25.9551
 20
37.460072
 40
0.25
 50
270.0
 51
350.969301
  0
LINE
  8
型材断面
  6
CONTINUOUS
 62
    47
 10
-30.889245
 20
37.21007
 11
-25.9551
 21
37.21007
  0
LINE
  8
型材断面
  6
CONTINUOUS
 62
    47
 10
-30.889245
 20
19.51007
 11
-25.95498
 21
19.51007
  0
ARC
  8
型材断面
  6
CONTINUOUS
 62
    47
 10
-25.95498
 20
19.260072
 40
0.25
 50
9.100578
 51
90.0
  0
LINE
  8
型材断面
  6
CONTINUOUS
 62
    47
 10
-48.874945
 20
47.253475
 11
-48.69817
 21
47.43025
  0
ENDBLK
  0
BLOCK
  2
*GRP_0004
 70
    65
 10
0.0
 20
0.0
  0
LINE
  8
型材断面
  6
CONTINUOUS
 62
    47
 10
-23.889247
 20
-0.140665
 11
-24.889245
 21
-0.640668
  0
ARC
  8
型材断面
  6
CONTINUOUS
 62
    47
 10
-38.044075
 20
2.780307
 40
0.375
 50
227.457576
 51
407.457232
  0
ARC
  8
型材断面
  6
CONTINUOUS
 62
    47
 10
-38.044075
 20
0.938364
 40
0.375
 50
312.542364
 51
492.542397
  0
ARC
  8
型材断面
  6
CONTINUOUS
 62
    47
 10
-38.889245
 20
1.859336
 40
0.875
 50
47.457615
 51
312.542407
  0
ARC
  8
型材断面
  6
CONTINUOUS
 62
    47
 10
-38.044075
 20
-27.969691
 40
0.375
 50
227.457576
 51
407.457232
  0
ARC
  8
型材断面
  6
CONTINUOUS
 62
    47
 10
-38.044075
 20
-29.811634
 40
0.375
 50
312.542364
 51
492.542397
  0
ARC
  8
型材断面
  6
CONTINUOUS
 62
    47
 10
-38.889245
 20
-28.890663
 40
0.875
 50
47.457615
 51
312.542407
  0
ARC
  8
型材断面
  6
CONTINUOUS
 62
    47
 10
-41.639242
 20
2.484337
 40
0.25
 50
180.0
 51
270.0
  0
LINE
  8
型材断面
  6
CONTINUOUS
 62
    47
 10
-40.657013
 20
2.234335
 11
-41.639243
 21
2.234335
  0
ARC
  8
型材断面
  6
CONTINUOUS
 62
    47
 10
-38.889245
 20
1.859336
 40
1.625
 50
47.457518
 51
160.528747
  0
ARC
  8
型材断面
  6
CONTINUOUS
 62
    47
 10
-40.657012
 20
2.484337
 40
0.25
 50
270.0
 51
340.528747
  0
ARC
  8
型材断面
  6
CONTINUOUS
 62
    47
 10
-38.889245
 20
1.859336
 40
1.625
 50
199.471188
 51
312.542389
  0
ARC
  8
型材断面
  6
CONTINUOUS
 62
    47
 10
-40.657012
 20
1.234337
 40
0.25
 50
19.471188
 51
90.0
  0
LINE
  8
型材断面
  6
CONTINUOUS
 62
    47
 10
-40.657013
 20
1.484335
 11
-41.639243
 21
1.484335
  0
LINE
  8
型材断面
  6
CONTINUOUS
 62
    47
 10
-41.88924
 20
-10.765668
 11
-41.88924
 21
1.234338
  0
ARC
  8
型材断面
  6
CONTINUOUS
 62
    47
 10
-41.639242
 20
1.234337
 40
0.25
 50
90.0
 51
180.0
  0
LINE
  8
型材断面
  6
CONTINUOUS
 62
    47
 10
-41.88924
 20
-11.515668
 11
-41.88924
 21
-28.265665
  0
ARC
  8
型材断面
  6
CONTINUOUS
 62
    47
 10
-41.639242
 20
-28.265663
 40
0.25
 50
180.0
 51
270.0
  0
LINE
  8
型材断面
  6
CONTINUOUS
 62
    47
 10
-40.657013
 20
-28.515665
 11
-41.639243
 21
-28.515665
  0
ARC
  8
型材断面
  6
CONTINUOUS
 62
    47
 10
-38.889245
 20
-28.890663
 40
1.625
 50
47.457518
 51
160.528796
  0
ARC
  8
型材断面
  6
CONTINUOUS
 62
    47
 10
-40.657012
 20
-28.265663
 40
0.25
 50
270.0
 51
340.528796
  0
ARC
  8
型材断面
  6
CONTINUOUS
 62
    47
 10
-38.889245
 20
-28.890663
 40
1.625
 50
199.471237
 51
312.542389
  0
ARC
  8
型材断面
  6
CONTINUOUS
 62
    47
 10
-40.657012
 20
-29.515663
 40
0.25
 50
19.471237
 51
90.0
  0
LINE
  8
型材断面
  6
CONTINUOUS
 62
    47
 10
-40.657013
 20
-29.265665
 11
-41.639243
 21
-29.265665
  0
ARC
  8
型材断面
  6
CONTINUOUS
 62
    47
 10
-41.639242
 20
-29.515663
 40
0.25
 50
90.0
 51
180.0
  0
ARC
  8
型材断面
  6
CONTINUOUS
 62
    47
 10
-36.139243
 20
-35.790663
 40
0.25
 50
90.0
 51
180.0
  0
LINE
  8
型材断面
  6
CONTINUOUS
 62
    47
 10
-36.389243
 20
-35.790665
 11
-36.389243
 21
-36.040662
  0
ARC
  8
型材断面
  6
CONTINUOUS
 62
    47
 10
-36.139243
 20
-36.040663
 40
0.25
 50
180.0
 51
270.0
  0
LINE
  8
型材断面
  6
CONTINUOUS
 62
    47
 10
-35.389245
 20
-42.99067
 11
-35.389245
 21
-40.390668
  0
LINE
  8
型材断面
  6
CONTINUOUS
 62
    47
 10
-35.239245
 20
-43.14067
 11
-35.389245
 21
-42.99067
  0
LINE
  8
型材断面
  6
CONTINUOUS
 62
    47
 10
-35.239245
 20
-43.14067
 11
-35.389245
 21
-43.29067
  0
LINE
  8
型材断面
  6
CONTINUOUS
 62
    47
 10
-35.389245
 20
-47.890668
 11
-35.389245
 21
-43.29067
  0
LINE
  8
型材断面
  6
CONTINUOUS
 62
    47
 10
-35.389245
 20
-47.890668
 11
-34.639245
 21
-47.890668
  0
LINE
  8
型材断面
  6
CONTINUOUS
 62
    47
 10
-34.639245
 20
-47.890668
 11
-34.639245
 21
-40.390668
  0
LINE
  8
型材断面
  6
CONTINUOUS
 62
    47
 10
-34.639245
 20
-40.390668
 11
-28.639245
 21
-40.390668
  0
LINE
  8
型材断面
  6
CONTINUOUS
 62
    47
 10
-28.639245
 20
-40.390668
 11
-28.639245
 21
-39.390665
  0
LINE
  8
型材断面
  6
CONTINUOUS
 62
    47
 10
-34.639245
 20
-39.390665
 11
-28.639245
 21
-39.390665
  0
LINE
  8
型材断面
  6
CONTINUOUS
 62
    47
 10
-34.639245
 20
-36.540665
 11
-34.639245
 21
-39.390665
  0
LINE
  8
型材断面
  6
CONTINUOUS
 62
    47
 10
-36.139245
 20
-36.290665
 11
-35.389245
 21
-36.290665
  0
LINE
  8
型材断面
  6
CONTINUOUS
 62
    47
 10
-35.389245
 20
-39.640668
 11
-35.389245
 21
-36.290665
  0
LINE
  8
型材断面
  6
CONTINUOUS
 62
    47
 10
-24.139245
 20
-34.140665
 11
-23.889247
 21
-34.140665
  0
LINE
  8
型材断面
  6
CONTINUOUS
 62
    47
 10
-24.139245
 20
-34.140665
 11
-24.139245
 21
-35.540665
  0
LINE
  8
型材断面
  6
CONTINUOUS
 62
    47
 10
-36.139245
 20
-35.540665
 11
-24.139245
 21
-35.540665
  0
LINE
  8
型材断面
  6
CONTINUOUS
 62
    47
 10
-23.289247
 20
-32.140662
 11
-23.139247
 21
-31.990662
  0
LINE
  8
型材断面
  6
CONTINUOUS
 62
    47
 10
-23.289247
 20
-32.140662
 11
-23.139247
 21
-32.290662
  0
LINE
  8
型材断面
  6
CONTINUOUS
 62
    47
 10
-23.139247
 20
-32.290662
 11
-23.139247
 21
-34.140665
  0
LINE
  8
型材断面
  6
CONTINUOUS
 62
    47
 10
-23.889247
 20
-27.390665
 11
-23.889247
 21
-34.140665
  0
LINE
  8
型材断面
  6
CONTINUOUS
 62
    47
 10
-24.889245
 20
-26.890668
 11
-23.889247
 21
-27.390665
  0
LINE
  8
型材断面
  6
CONTINUOUS
 62
    47
 10
-24.889245
 20
-23.890668
 11
-24.889245
 21
-26.890668
  0
LINE
  8
型材断面
  6
CONTINUOUS
 62
    47
 10
-24.889245
 20
-23.890668
 11
-24.139245
 21
-23.515668
  0
LINE
  8
型材断面
  6
CONTINUOUS
 62
    47
 10
-2.639245
 20
-35.140668
 11
-2.639245
 21
-39.390665
  0
LINE
  8
型材断面
  6
CONTINUOUS
 62
    47
 10
-1.639245
 20
-40.390668
 11
-6.63924
 21
-40.390668
  0
LINE
  8
型材断面
  6
CONTINUOUS
 62
    47
 10
-23.139247
 20
-17.64067
 11
-23.139247
 21
-15.140668
  0
LINE
  8
型材断面
  6
CONTINUOUS
 62
    47
 10
-23.139247
 20
-17.64067
 11
-21.38925
 21
-19.390668
  0
LINE
  8
型材断面
  6
CONTINUOUS
 62
    47
 10
-21.38925
 20
-20.140668
 11
-21.38925
 21
-19.390668
  0
LINE
  8
型材断面
  6
CONTINUOUS
 62
    47
 10
-17.963995
 20
-20.140668
 11
-21.38925
 21
-20.140668
  0
LINE
  8
型材断面
  6
CONTINUOUS
 62
    47
 10
-17.963995
 20
-19.502383
 11
-17.963995
 21
-20.140668
  0
ARC
  8
型材断面
  6
CONTINUOUS
 62
    47
 10
-16.889245
 20
-20.14067
 40
1.25
 50
30.706853
 51
149.294134
  0
LINE
  8
型材断面
  6
CONTINUOUS
 62
    47
 10
-15.814508
 20
-19.502365
 11
-15.814508
 21
-20.140668
  0
LINE
  8
型材断面
  6
CONTINUOUS
 62
    47
 10
-15.814508
 20
-20.140668
 11
-14.389245
 21
-20.140668
  0
LINE
  8
型材断面
  6
CONTINUOUS
 62
    47
 10
-14.389245
 20
-21.140668
 11
-14.389245
 21
-20.140668
  0
LINE
  8
型材断面
  6
CONTINUOUS
 62
    47
 10
-14.389245
 20
-21.140668
 11
-13.13925
 21
-21.140668
  0
LINE
  8
型材断面
  6
CONTINUOUS
 62
    47
 10
-13.13925
 20
-21.991765
 11
-13.13925
 21
-21.140668
  0
ARC
  8
型材断面
  6
CONTINUOUS
 62
    47
 10
-13.289244
 20
-21.990668
 40
0.15
 50
270.0
 51
359.58157
  0
LINE
  8
型材断面
  6
CONTINUOUS
 62
    47
 10
-13.289243
 20
-22.14067
 11
-16.241453
 21
-22.14067
  0
ARC
  8
型材断面
  6
CONTINUOUS
 62
    47
 10
-16.241452
 20
-21.990664
 40
0.15
 50
180.256235
 51
270.0
  0
LINE
  8
型材断面
  6
CONTINUOUS
 62
    47
 10
-16.391453
 20
-21.890665
 11
-16.391453
 21
-21.991338
  0
LINE
  8
型材断面
  6
CONTINUOUS
 62
    47
 10
-16.391453
 20
-21.890665
 11
-16.89145
 21
-21.890665
  0
LINE
  8
型材断面
  6
CONTINUOUS
 62
    47
 10
-16.89145
 20
-21.990665
 11
-16.89145
 21
-21.890665
  0
ARC
  8
型材断面
  6
CONTINUOUS
 62
    47
 10
-17.041451
 20
-21.990664
 40
0.150004
 50
270.0
 51
360.0
  0
LINE
  8
型材断面
  6
CONTINUOUS
 62
    47
 10
-18.991442
 20
-22.14067
 11
-17.04145
 21
-22.14067
  0
LINE
  8
型材断面
  6
CONTINUOUS
 62
    47
 10
-19.14145
 20
-21.990665
 11
-18.991442
 21
-22.14067
  0
LINE
  8
型材断面
  6
CONTINUOUS
 62
    47
 10
-19.14145
 20
-21.990665
 11
-19.291455
 21
-22.14067
  0
LINE
  8
型材断面
  6
CONTINUOUS
 62
    47
 10
-23.139247
 20
-22.14067
 11
-19.291455
 21
-22.14067
  0
LINE
  8
型材断面
  6
CONTINUOUS
 62
    47
 10
-23.139247
 20
-22.14067
 11
-23.139247
 21
-31.990662
  0
LINE
  8
型材断面
  6
CONTINUOUS
 62
    47
 10
14.860755
 20
-35.140668
 11
14.860755
 21
-36.540665
  0
LINE
  8
型材断面
  6
CONTINUOUS
 62
    47
 10
14.860755
 20
-36.540665
 11
15.610755
 21
-36.540665
  0
LINE
  8
型材断面
  6
CONTINUOUS
 62
    47
 10
15.610755
 20
-36.540665
 11
15.610755
 21
-28.140665
  0
LINE
  8
型材断面
  6
CONTINUOUS
 62
    47
 10
15.610755
 20
-28.140665
 11
13.11075
 21
-28.140665
  0
LINE
  8
型材断面
  6
CONTINUOUS
 62
    47
 10
13.11075
 20
-28.140665
 11
13.11075
 21
-28.890665
  0
LINE
  8
型材断面
  6
CONTINUOUS
 62
    47
 10
14.860755
 20
-28.890665
 11
13.11075
 21
-28.890665
  0
LINE
  8
型材断面
  6
CONTINUOUS
 62
    47
 10
14.860755
 20
-34.140665
 11
14.860755
 21
-28.890665
  0
LINE
  8
型材断面
  6
CONTINUOUS
 62
    47
 10
-23.139247
 20
-34.140665
 11
14.860755
 21
-34.140665
  0
LINE
  8
型材断面
  6
CONTINUOUS
 62
    47
 10
-1.639245
 20
-35.140668
 11
14.860755
 21
-35.140668
  0
LINE
  8
型材断面
  6
CONTINUOUS
 62
    47
 10
-1.639245
 20
-40.390668
 11
-1.639245
 21
-35.140668
  0
LINE
  8
型材断面
  6
CONTINUOUS
 62
    47
 10
-23.139247
 20
-4.640668
 11
-23.139247
 21
-7.14067
  0
LINE
  8
型材断面
  6
CONTINUOUS
 62
    47
 10
-23.139247
 20
-4.640668
 11
-21.38925
 21
-2.890668
  0
LINE
  8
型材断面
  6
CONTINUOUS
 62
    47
 10
-21.38925
 20
-2.140668
 11
-21.38925
 21
-2.890668
  0
LINE
  8
型材断面
  6
CONTINUOUS
 62
    47
 10
-17.989245
 20
-2.140668
 11
-21.38925
 21
-2.140668
  0
LINE
  8
型材断面
  6
CONTINUOUS
 62
    47
 10
-15.789243
 20
-2.140668
 11
-14.389245
 21
-2.140668
  0
LINE
  8
型材断面
  6
CONTINUOUS
 62
    47
 10
-14.389245
 20
-1.140665
 11
-14.389245
 21
-2.140668
  0
LINE
  8
型材断面
  6
CONTINUOUS
 62
    47
 10
-14.389245
 20
-1.140665
 11
-13.13925
 21
-1.140665
  0
LINE
  8
型材断面
  6
CONTINUOUS
 62
    47
 10
-13.13925
 20
-0.289573
 11
-13.13925
 21
-1.140665
  0
ARC
  8
型材断面
  6
CONTINUOUS
 62
    47
 10
-13.289244
 20
-0.290668
 40
0.15
 50
0.41843
 51
90.0
  0
LINE
  8
型材断面
  6
CONTINUOUS
 62
    47
 10
-13.289243
 20
-0.140668
 11
-16.241453
 21
-0.140668
  0
ARC
  8
型材断面
  6
CONTINUOUS
 62
    47
 10
-16.241452
 20
-0.290667
 40
0.15
 50
90.0
 51
179.743765
  0
LINE
  8
型材断面
  6
CONTINUOUS
 62
    47
 10
-16.391453
 20
-0.39067
 11
-16.391453
 21
-0.289998
  0
LINE
  8
型材断面
  6
CONTINUOUS
 62
    47
 10
-16.391453
 20
-0.39067
 11
-16.89145
 21
-0.39067
  0
LINE
  8
型材断面
  6
CONTINUOUS
 62
    47
 10
-16.89145
 20
-0.290668
 11
-16.89145
 21
-0.39067
  0
ARC
  8
型材断面
  6
CONTINUOUS
 62
    47
 10
-17.041451
 20
-0.290667
 40
0.150001
 50
0.0
 51
89.852063
  0
LINE
  8
型材断面
  6
CONTINUOUS
 62
    47
 10
-18.99145
 20
-0.140668
 11
-17.041065
 21
-0.140668
  0
LINE
  8
型材断面
  6
CONTINUOUS
 62
    47
 10
-19.14145
 20
-0.290668
 11
-18.99145
 21
-0.140668
  0
LINE
  8
型材断面
  6
CONTINUOUS
 62
    47
 10
-19.14145
 20
-0.290668
 11
-19.29145
 21
-0.140668
  0
LINE
  8
型材断面
  6
CONTINUOUS
 62
    47
 10
-23.139247
 20
-0.140668
 11
-19.29145
 21
-0.140668
  0
LINE
  8
型材断面
  6
CONTINUOUS
 62
    47
 10
-23.139247
 20
-0.140668
 11
-23.139247
 21
14.860078
  0
LINE
  8
型材断面
  6
CONTINUOUS
 62
    47
 10
-23.139247
 20
14.860078
 11
-23.889247
 21
14.860078
  0
LINE
  8
型材断面
  6
CONTINUOUS
 62
    47
 10
-23.889247
 20
14.860078
 11
-23.889247
 21
13.459338
  0
LINE
  8
型材断面
  6
CONTINUOUS
 62
    47
 10
-23.889247
 20
9.359335
 11
-23.889247
 21
12.859338
  0
LINE
  8
型材断面
  6
CONTINUOUS
 62
    47
 10
-30.637043
 20
12.859338
 11
-30.637043
 21
11.459335
  0
LINE
  8
型材断面
  6
CONTINUOUS
 62
    47
 10
-30.637043
 20
12.859338
 11
-29.637045
 21
12.859338
  0
LINE
  8
型材断面
  6
CONTINUOUS
 62
    47
 10
-29.637045
 20
13.459338
 11
-29.637045
 21
12.859338
  0
LINE
  8
型材断面
  6
CONTINUOUS
 62
    47
 10
-31.387043
 20
13.459338
 11
-29.637045
 21
13.459338
  0
LINE
  8
型材断面
  6
CONTINUOUS
 62
    47
 10
-31.387043
 20
13.459338
 11
-31.387043
 21
10.709335
  0
ARC
  8
型材断面
  6
CONTINUOUS
 62
    47
 10
-42.389243
 20
8.859337
 40
0.5
 50
90.0
 51
180.0
  0
LINE
  8
型材断面
  6
CONTINUOUS
 62
    47
 10
-41.88924
 20
8.609335
 11
-41.88924
 21
2.484335
  0
LINE
  8
型材断面
  6
CONTINUOUS
 62
    47
 10
-23.889247
 20
8.609335
 11
-41.88924
 21
8.609335
  0
LINE
  8
型材断面
  6
CONTINUOUS
 62
    47
 10
-23.889247
 20
-0.140665
 11
-23.889247
 21
8.609335
  0
LINE
  8
型材断面
  6
CONTINUOUS
 62
    47
 10
-42.889245
 20
8.859335
 11
-42.889245
 21
2.009335
  0
LINE
  8
型材断面
  6
CONTINUOUS
 62
    47
 10
-42.739245
 20
1.859335
 11
-42.889245
 21
2.009335
  0
LINE
  8
型材断面
  6
CONTINUOUS
 62
    47
 10
-42.739245
 20
1.859335
 11
-42.889245
 21
1.709335
  0
LINE
  8
型材断面
  6
CONTINUOUS
 62
    47
 10
-42.889245
 20
-28.740665
 11
-42.889245
 21
1.709335
  0
LINE
  8
型材断面
  6
CONTINUOUS
 62
    47
 10
-42.739245
 20
-28.890665
 11
-42.889245
 21
-28.740665
  0
LINE
  8
型材断面
  6
CONTINUOUS
 62
    47
 10
-42.739245
 20
-28.890665
 11
-42.889245
 21
-29.040665
  0
LINE
  8
型材断面
  6
CONTINUOUS
 62
    47
 10
-42.889245
 20
-29.040665
 11
-42.889245
 21
-37.490668
  0
LINE
  8
型材断面
  6
CONTINUOUS
 62
    47
 10
-42.739245
 20
-37.640668
 11
-42.889245
 21
-37.490668
  0
LINE
  8
型材断面
  6
CONTINUOUS
 62
    47
 10
-42.889245
 20
-37.790668
 11
-42.739245
 21
-37.640668
  0
LINE
  8
型材断面
  6
CONTINUOUS
 62
    47
 10
-42.889245
 20
-37.790668
 11
-42.889245
 21
-40.390668
  0
LINE
  8
型材断面
  6
CONTINUOUS
 62
    47
 10
-42.889245
 20
-40.390668
 11
-35.389245
 21
-40.390668
  0
LINE
  8
型材断面
  6
CONTINUOUS
 62
    47
 10
-41.88924
 20
-39.640668
 11
-41.88924
 21
-29.515662
  0
LINE
  8
型材断面
  6
CONTINUOUS
 62
    47
 10
-35.389245
 20
-39.640668
 11
-41.88924
 21
-39.640668
  0
ARC
  8
型材断面
  6
CONTINUOUS
 62
    47
 10
-16.889244
 20
-2.140668
 40
1.1
 50
179.999896
 51
360.000104
  0
LINE
  8
型材断面
  6
CONTINUOUS
 62
    47
 10
-23.889247
 20
13.459338
 11
-27.087045
 21
13.459338
  0
LINE
  8
型材断面
  6
CONTINUOUS
 62
    47
 10
-27.087045
 20
13.459338
 11
-27.087045
 21
12.859338
  0
LINE
  8
型材断面
  6
CONTINUOUS
 62
    47
 10
-23.889247
 20
12.859338
 11
-27.087045
 21
12.859338
  0
LINE
  8
型材断面
  6
CONTINUOUS
 62
    47
 10
-23.889247
 20
9.359335
 11
-28.88704
 21
9.359335
  0
LINE
  8
型材断面
  6
CONTINUOUS
 62
    47
 10
-28.88704
 20
9.359335
 11
-28.88704
 21
11.459335
  0
LINE
  8
型材断面
  6
CONTINUOUS
 62
    47
 10
-28.88704
 20
11.459335
 11
-30.637043
 21
11.459335
  0
LINE
  8
型材断面
  6
CONTINUOUS
 62
    47
 10
-31.387043
 20
10.709335
 11
-29.63704
 21
10.709335
  0
LINE
  8
型材断面
  6
CONTINUOUS
 62
    47
 10
-29.63704
 20
9.359335
 11
-29.63704
 21
10.709335
  0
LINE
  8
型材断面
  6
CONTINUOUS
 62
    47
 10
-42.389243
 20
9.359335
 11
-29.63704
 21
9.359335
  0
LINE
  8
型材断面
  6
CONTINUOUS
 62
    47
 10
-24.049832
 20
-7.14067
 11
-23.139247
 21
-7.14067
  0
ARC
  8
型材断面
  6
CONTINUOUS
 62
    47
 10
-24.049835
 20
-6.990669
 40
0.15
 50
211.24842
 51
270.0
  0
LINE
  8
型材断面
  6
CONTINUOUS
 62
    47
 10
-24.049838
 20
-15.140668
 11
-23.139247
 21
-15.140668
  0
ARC
  8
型材断面
  6
CONTINUOUS
 62
    47
 10
-24.049837
 20
-15.290666
 40
0.15
 50
90.0
 51
148.751559
  0
LINE
  8
型材断面
  6
CONTINUOUS
 62
    47
 10
-39.731295
 20
-10.765668
 11
-41.88924
 21
-10.765668
  0
LINE
  8
型材断面
  6
CONTINUOUS
 62
    47
 10
-39.731295
 20
-11.515668
 11
-41.88924
 21
-11.515668
  0
ARC
  8
型材断面
  6
CONTINUOUS
 62
    47
 10
-30.889244
 20
-11.140666
 40
8.85
 50
182.428514
 51
270.0
  0
LINE
  8
型材断面
  6
CONTINUOUS
 62
    47
 10
-30.889245
 20
-19.990668
 11
-24.139245
 21
-19.990668
  0
LINE
  8
型材断面
  6
CONTINUOUS
 62
    47
 10
-24.139245
 20
-23.515668
 11
-24.139245
 21
-19.990668
  0
ARC
  8
型材断面
  6
CONTINUOUS
 62
    47
 10
-30.889244
 20
-11.140666
 40
8.85
 50
90.0
 51
177.571486
  0
LINE
  8
型材断面
  6
CONTINUOUS
 62
    47
 10
-30.889245
 20
-2.290668
 11
-24.889245
 21
-2.290668
  0
LINE
  8
型材断面
  6
CONTINUOUS
 62
    47
 10
-24.889245
 20
-2.290668
 11
-24.889245
 21
-0.640668
  0
LINE
  8
型材断面
  6
CONTINUOUS
 62
    47
 10
-23.139247
 20
-35.140668
 11
-6.63924
 21
-35.140668
  0
LINE
  8
型材断面
  6
CONTINUOUS
 62
    47
 10
-6.63924
 20
-40.390668
 11
-6.63924
 21
-39.390665
  0
LINE
  8
型材断面
  6
CONTINUOUS
 62
    47
 10
-6.63924
 20
-39.390665
 11
-2.639245
 21
-39.390665
  0
LINE
  8
型材断面
  6
CONTINUOUS
 62
    47
 10
-5.88924
 20
-35.140668
 11
-2.639245
 21
-35.140668
  0
LINE
  8
型材断面
  6
CONTINUOUS
 62
    47
 10
-5.88924
 20
-36.540665
 11
-5.88924
 21
-35.140668
  0
LINE
  8
型材断面
  6
CONTINUOUS
 62
    47
 10
-6.63924
 20
-36.540665
 11
-6.63924
 21
-35.140668
  0
LINE
  8
型材断面
  6
CONTINUOUS
 62
    47
 10
-6.63924
 20
-36.540665
 11
-5.88924
 21
-36.540665
  0
LINE
  8
型材断面
  6
CONTINUOUS
 62
    47
 10
-23.139247
 20
-36.540665
 11
-23.139247
 21
-35.140668
  0
LINE
  8
型材断面
  6
CONTINUOUS
 62
    47
 10
-34.639245
 20
-36.540665
 11
-23.139247
 21
-36.540665
  0
ARC
  8
型材断面
  6
CONTINUOUS
 62
    47
 10
-30.889244
 20
-11.140666
 40
7.85
 50
31.248418
 51
328.751561
  0
LINE
  8
型材断面
  6
CONTINUOUS
 62
    47
 10
-23.889247
 20
13.209335
 11
-23.889247
 21
13.109338
  0
ENDBLK
  0
BLOCK
  2
*GRP_0005
 70
    65
 10
0.0
 20
0.0
  0
ARC
  8
型材断面
  6
CONTINUOUS
 62
    47
 10
-21.112043
 20
-22.41566
 40
0.15
 50
90.0
 51
180.0
  0
LINE
  8
型材断面
  6
CONTINUOUS
 62
    47
 10
-21.262045
 20
-22.41566
 11
-21.262045
 21
-23.115662
  0
LINE
  8
型材断面
  6
CONTINUOUS
 62
    47
 10
-21.112045
 20
-23.265662
 11
-12.512043
 21
-23.265662
  0
ARC
  8
型材断面
  6
CONTINUOUS
 62
    47
 10
-21.112043
 20
-23.11566
 40
0.15
 50
180.0
 51
270.0
  0
ARC
  8
型材断面
  6
CONTINUOUS
 62
    47
 10
-12.512043
 20
0.48434
 40
0.5
 50
0.0
 51
90.0
  0
ARC
  8
型材断面
  6
CONTINUOUS
 62
    47
 10
-21.112043
 20
0.13434
 40
0.15
 50
180.0
 51
270.0
  0
LINE
  8
型材断面
  6
CONTINUOUS
 62
    47
 10
-21.262045
 20
0.134338
 11
-21.262045
 21
0.83434
  0
LINE
  8
型材断面
  6
CONTINUOUS
 62
    47
 10
-21.112045
 20
0.98434
 11
-12.512043
 21
0.98434
  0
ARC
  8
型材断面
  6
CONTINUOUS
 62
    47
 10
-21.112043
 20
0.83434
 40
0.15
 50
90.0
 51
180.0
  0
LINE
  8
型材断面
  6
CONTINUOUS
 62
    47
 10
-13.012045
 20
-22.26566
 11
-13.012045
 21
-0.015662
  0
LINE
  8
型材断面
  6
CONTINUOUS
 62
    47
 10
-12.012045
 20
-22.765662
 11
-12.012045
 21
0.484338
  0
ARC
  8
型材断面
  6
CONTINUOUS
 62
    47
 10
-12.512043
 20
-22.76566
 40
0.5
 50
270.0
 51
360.0
  0
LINE
  8
型材断面
  6
CONTINUOUS
 62
    47
 10
-16.512045
 20
-22.26566
 11
-13.012045
 21
-22.26566
  0
LINE
  8
型材断面
  6
CONTINUOUS
 62
    47
 10
-16.512045
 20
-21.915662
 11
-16.512045
 21
-22.26566
  0
ARC
  8
型材断面
  6
CONTINUOUS
 62
    47
 10
-16.612043
 20
-21.91566
 40
0.1
 50
0.0
 51
126.085808
  0
LINE
  8
型材断面
  6
CONTINUOUS
 62
    47
 10
-16.670943
 20
-21.83485
 11
-17.262045
 21
-22.26566
  0
LINE
  8
型材断面
  6
CONTINUOUS
 62
    47
 10
-21.112045
 20
-22.26566
 11
-17.262045
 21
-22.26566
  0
ARC
  8
型材断面
  6
CONTINUOUS
 62
    47
 10
-16.612043
 20
-0.36566
 40
0.1
 50
233.914192
 51
360.0
  0
LINE
  8
型材断面
  6
CONTINUOUS
 62
    47
 10
-16.512045
 20
-0.015662
 11
-13.012045
 21
-0.015662
  0
LINE
  8
型材断面
  6
CONTINUOUS
 62
    47
 10
-16.512045
 20
-0.36566
 11
-16.512045
 21
-0.015662
  0
LINE
  8
型材断面
  6
CONTINUOUS
 62
    47
 10
-16.670943
 20
-0.446478
 11
-17.262045
 21
-0.015662
  0
LINE
  8
型材断面
  6
CONTINUOUS
 62
    47
 10
-21.112045
 20
-0.015662
 11
-17.262045
 21
-0.015662
  0
ENDBLK
  0
BLOCK
  2
*GRP_0006
 70
    65
 10
0.0
 20
0.0
  0
ARC
  8
型材断面
  6
CONTINUOUS
 62
    47
 10
-21.112043
 20
17.085066
 40
0.15
 50
90.0
 51
180.0
  0
LINE
  8
型材断面
  6
CONTINUOUS
 62
    47
 10
-21.262045
 20
17.085065
 11
-21.262045
 21
16.385065
  0
LINE
  8
型材断面
  6
CONTINUOUS
 62
    47
 10
-21.112045
 20
16.235065
 11
-12.512043
 21
16.235065
  0
ARC
  8
型材断面
  6
CONTINUOUS
 62
    47
 10
-21.112043
 20
16.385066
 40
0.15
 50
180.0
 51
270.0
  0
ARC
  8
型材断面
  6
CONTINUOUS
 62
    47
 10
-12.512043
 20
39.985066
 40
0.5
 50
0.0
 51
90.0
  0
ARC
  8
型材断面
  6
CONTINUOUS
 62
    47
 10
-21.112043
 20
39.635066
 40
0.15
 50
180.0
 51
270.0
  0
LINE
  8
型材断面
  6
CONTINUOUS
 62
    47
 10
-21.262045
 20
39.635065
 11
-21.262045
 21
40.335065
  0
LINE
  8
型材断面
  6
CONTINUOUS
 62
    47
 10
-21.112045
 20
40.485065
 11
-12.512043
 21
40.485065
  0
ARC
  8
型材断面
  6
CONTINUOUS
 62
    47
 10
-21.112043
 20
40.335066
 40
0.15
 50
90.0
 51
180.0
  0
LINE
  8
型材断面
  6
CONTINUOUS
 62
    47
 10
-13.012045
 20
17.235065
 11
-13.012045
 21
39.485065
  0
LINE
  8
型材断面
  6
CONTINUOUS
 62
    47
 10
-12.012045
 20
16.735062
 11
-12.012045
 21
39.985062
  0
ARC
  8
型材断面
  6
CONTINUOUS
 62
    47
 10
-12.512043
 20
16.735066
 40
0.5
 50
270.0
 51
360.0
  0
LINE
  8
型材断面
  6
CONTINUOUS
 62
    47
 10
-16.512045
 20
17.235065
 11
-13.012045
 21
17.235065
  0
LINE
  8
型材断面
  6
CONTINUOUS
 62
    47
 10
-16.512045
 20
17.585065
 11
-16.512045
 21
17.235065
  0
ARC
  8
型材断面
  6
CONTINUOUS
 62
    47
 10
-16.612043
 20
17.585066
 40
0.1
 50
0.0
 51
126.085808
  0
LINE
  8
型材断面
  6
CONTINUOUS
 62
    47
 10
-16.670943
 20
17.665877
 11
-17.262045
 21
17.235065
  0
LINE
  8
型材断面
  6
CONTINUOUS
 62
    47
 10
-21.112045
 20
17.235065
 11
-17.262045
 21
17.235065
  0
ARC
  8
型材断面
  6
CONTINUOUS
 62
    47
 10
-16.612043
 20
39.135066
 40
0.1
 50
233.914192
 51
360.0
  0
LINE
  8
型材断面
  6
CONTINUOUS
 62
    47
 10
-16.512045
 20
39.485065
 11
-13.012045
 21
39.485065
  0
LINE
  8
型材断面
  6
CONTINUOUS
 62
    47
 10
-16.512045
 20
39.135065
 11
-16.512045
 21
39.485065
  0
LINE
  8
型材断面
  6
CONTINUOUS
 62
    47
 10
-16.670943
 20
39.05425
 11
-17.262045
 21
39.485065
  0
LINE
  8
型材断面
  6
CONTINUOUS
 62
    47
 10
-21.112045
 20
39.485065
 11
-17.262045
 21
39.485065
  0
ENDBLK
  0
BLOCK
  2
*GRP_0007
 70
    65
 10
0.0
 20
0.0
  0
POLYLINE
  8
ガラス
  6
CONTINUOUS
 66
     1
 70
     4
  0
VERTEX
  8
ガラス
 10
-22.2
 20
-32.9
 70
     8
  0
VERTEX
  8
ガラス
 10
-22.15
 20
-32.9
 70
     8
  0
VERTEX
  8
ガラス
 10
-22.125
 20
-32.875
 70
     8
  0
VERTEX
  8
ガラス
 10
-22.075
 20
-32.875
 70
     8
  0
VERTEX
  8
ガラス
 10
-22.025
 20
-32.85
 70
     8
  0
VERTEX
  8
ガラス
 10
-21.975
 20
-32.85
 70
     8
  0
VERTEX
  8
ガラス
 10
-21.925
 20
-32.825
 70
     8
  0
VERTEX
  8
ガラス
 10
-21.9
 20
-32.825
 70
     8
  0
VERTEX
  8
ガラス
 10
-21.85
 20
-32.825
 70
     8
  0
VERTEX
  8
ガラス
 10
-21.8
 20
-32.8
 70
     8
  0
VERTEX
  8
ガラス
 10
-21.75
 20
-32.8
 70
     8
  0
VERTEX
  8
ガラス
 10
-21.725
 20
-32.8
 70
     8
  0
VERTEX
  8
ガラス
 10
-21.675
 20
-32.8
 70
     8
  0
VERTEX
  8
ガラス
 10
-21.625
 20
-32.775
 70
     8
  0
VERTEX
  8
ガラス
 10
-21.575
 20
-32.775
 70
     8
  0
VERTEX
  8
ガラス
 10
-21.55
 20
-32.775
 70
     8
  0
VERTEX
  8
ガラス
 10
-21.5
 20
-32.775
 70
     8
  0
VERTEX
  8
ガラス
 10
-21.45
 20
-32.775
 70
     8
  0
VERTEX
  8
ガラス
 10
-21.425
 20
-32.8
 70
     8
  0
VERTEX
  8
ガラス
 10
-21.375
 20
-32.8
 70
     8
  0
VERTEX
  8
ガラス
 10
-21.325
 20
-32.8
 70
     8
  0
VERTEX
  8
ガラス
 10
-21.3
 20
-32.8
 70
     8
  0
VERTEX
  8
ガラス
 10
-21.25
 20
-32.825
 70
     8
  0
VERTEX
  8
ガラス
 10
-21.225
 20
-32.825
 70
     8
  0
VERTEX
  8
ガラス
 10
-21.175
 20
-32.85
 70
     8
  0
VERTEX
  8
ガラス
 10
-21.125
 20
-32.875
 70
     8
  0
VERTEX
  8
ガラス
 10
-21.1
 20
-32.875
 70
     8
  0
VERTEX
  8
ガラス
 10
-21.05
 20
-32.9
 70
     8
  0
VERTEX
  8
ガラス
 10
-21.025
 20
-32.925
 70
     8
  0
VERTEX
  8
ガラス
 10
-20.975
 20
-32.95
 70
     8
  0
VERTEX
  8
ガラス
 10
-20.95
 20
-32.975
 70
     8
  0
VERTEX
  8
ガラス
 10
-20.925
 20
-33.0
 70
     8
  0
VERTEX
  8
ガラス
 10
-20.875
 20
-33.025
 70
     8
  0
VERTEX
  8
ガラス
 10
-20.85
 20
-33.05
 70
     8
  0
VERTEX
  8
ガラス
 10
-20.8
 20
-33.075
 70
     8
  0
VERTEX
  8
ガラス
 10
-20.775
 20
-33.1
 70
     8
  0
VERTEX
  8
ガラス
 10
-20.725
 20
-33.15
 70
     8
  0
VERTEX
  8
ガラス
 10
-20.7
 20
-33.175
 70
     8
  0
VERTEX
  8
ガラス
 10
-20.675
 20
-33.2
 70
     8
  0
VERTEX
  8
ガラス
 10
-20.625
 20
-33.225
 70
     8
  0
VERTEX
  8
ガラス
 10
-20.6
 20
-33.25
 70
     8
  0
SEQEND
  0
POLYLINE
  8
ガラス
  6
CONTINUOUS
 66
     1
 70
     4
  0
VERTEX
  8
ガラス
 10
-20.6
 20
-33.25
 70
     8
  0
VERTEX
  8
ガラス
 10
-20.625
 20
-33.275
 70
     8
  0
VERTEX
  8
ガラス
 10
-20.65
 20
-33.275
 70
     8
  0
VERTEX
  8
ガラス
 10
-20.675
 20
-33.275
 70
     8
  0
VERTEX
  8
ガラス
 10
-20.725
 20
-33.3
 70
     8
  0
VERTEX
  8
ガラス
 10
-20.75
 20
-33.3
 70
     8
  0
VERTEX
  8
ガラス
 10
-20.775
 20
-33.3
 70
     8
  0
VERTEX
  8
ガラス
 10
-20.8
 20
-33.325
 70
     8
  0
VERTEX
  8
ガラス
 10
-20.825
 20
-33.325
 70
     8
  0
VERTEX
  8
ガラス
 10
-20.85
 20
-33.325
 70
     8
  0
VERTEX
  8
ガラス
 10
-20.9
 20
-33.35
 70
     8
  0
VERTEX
  8
ガラス
 10
-20.925
 20
-33.35
 70
     8
  0
VERTEX
  8
ガラス
 10
-20.95
 20
-33.35
 70
     8
  0
VERTEX
  8
ガラス
 10
-20.975
 20
-33.375
 70
     8
  0
VERTEX
  8
ガラス
 10
-21.0
 20
-33.375
 70
     8
  0
VERTEX
  8
ガラス
 10
-21.025
 20
-33.375
 70
     8
  0
VERTEX
  8
ガラス
 10
-21.075
 20
-33.4
 70
     8
  0
VERTEX
  8
ガラス
 10
-21.1
 20
-33.4
 70
     8
  0
VERTEX
  8
ガラス
 10
-21.125
 20
-33.425
 70
     8
  0
VERTEX
  8
ガラス
 10
-21.15
 20
-33.425
 70
     8
  0
VERTEX
  8
ガラス
 10
-21.175
 20
-33.45
 70
     8
  0
VERTEX
  8
ガラス
 10
-21.2
 20
-33.45
 70
     8
  0
VERTEX
  8
ガラス
 10
-21.225
 20
-33.475
 70
     8
  0
VERTEX
  8
ガラス
 10
-21.275
 20
-33.475
 70
     8
  0
VERTEX
  8
ガラス
 10
-21.3
 20
-33.5
 70
     8
  0
VERTEX
  8
ガラス
 10
-21.325
 20
-33.5
 70
     8
  0
VERTEX
  8
ガラス
 10
-21.35
 20
-33.525
 70
     8
  0
VERTEX
  8
ガラス
 10
-21.375
 20
-33.525
 70
     8
  0
VERTEX
  8
ガラス
 10
-21.4
 20
-33.55
 70
     8
  0
VERTEX
  8
ガラス
 10
-21.425
 20
-33.55
 70
     8
  0
VERTEX
  8
ガラス
 10
-21.45
 20
-33.575
 70
     8
  0
VERTEX
  8
ガラス
 10
-21.475
 20
-33.575
 70
     8
  0
VERTEX
  8
ガラス
 10
-21.5
 20
-33.6
 70
     8
  0
VERTEX
  8
ガラス
 10
-21.525
 20
-33.625
 70
     8
  0
VERTEX
  8
ガラス
 10
-21.55
 20
-33.625
 70
     8
  0
VERTEX
  8
ガラス
 10
-21.6
 20
-33.65
 70
     8
  0
VERTEX
  8
ガラス
 10
-21.625
 20
-33.675
 70
     8
  0
VERTEX
  8
ガラス
 10
-21.65
 20
-33.675
 70
     8
  0
VERTEX
  8
ガラス
 10
-21.675
 20
-33.7
 70
     8
  0
VERTEX
  8
ガラス
 10
-21.7
 20
-33.7
 70
     8
  0
VERTEX
  8
ガラス
 10
-21.725
 20
-33.725
 70
     8
  0
SEQEND
  0
ARC
  8
ガラス
  6
CONTINUOUS
 10
-21.951132
 20
-33.303447
 40
0.477567
 50
120.563758
 51
300.563758
  0
ENDBLK
  0
BLOCK
  2
*GRP_0008
 70
    65
 10
0.0
 20
0.0
  0
POLYLINE
  8
ガラス
  6
CONTINUOUS
 66
     1
 70
     4
  0
VERTEX
  8
ガラス
 10
-13.775
 20
-32.9
 70
     8
  0
VERTEX
  8
ガラス
 10
-13.725
 20
-32.9
 70
     8
  0
VERTEX
  8
ガラス
 10
-13.675
 20
-32.875
 70
     8
  0
VERTEX
  8
ガラス
 10
-13.625
 20
-32.875
 70
     8
  0
VERTEX
  8
ガラス
 10
-13.575
 20
-32.85
 70
     8
  0
VERTEX
  8
ガラス
 10
-13.55
 20
-32.85
 70
     8
  0
VERTEX
  8
ガラス
 10
-13.5
 20
-32.85
 70
     8
  0
VERTEX
  8
ガラス
 10
-13.45
 20
-32.825
 70
     8
  0
VERTEX
  8
ガラス
 10
-13.4
 20
-32.825
 70
     8
  0
VERTEX
  8
ガラス
 10
-13.375
 20
-32.8
 70
     8
  0
VERTEX
  8
ガラス
 10
-13.325
 20
-32.8
 70
     8
  0
VERTEX
  8
ガラス
 10
-13.275
 20
-32.8
 70
     8
  0
VERTEX
  8
ガラス
 10
-13.225
 20
-32.8
 70
     8
  0
VERTEX
  8
ガラス
 10
-13.2
 20
-32.775
 70
     8
  0
VERTEX
  8
ガラス
 10
-13.15
 20
-32.775
 70
     8
  0
VERTEX
  8
ガラス
 10
-13.1
 20
-32.775
 70
     8
  0
VERTEX
  8
ガラス
 10
-13.05
 20
-32.775
 70
     8
  0
VERTEX
  8
ガラス
 10
-13.025
 20
-32.775
 70
     8
  0
VERTEX
  8
ガラス
 10
-12.975
 20
-32.8
 70
     8
  0
VERTEX
  8
ガラス
 10
-12.925
 20
-32.8
 70
     8
  0
VERTEX
  8
ガラス
 10
-12.9
 20
-32.8
 70
     8
  0
VERTEX
  8
ガラス
 10
-12.85
 20
-32.8
 70
     8
  0
VERTEX
  8
ガラス
 10
-12.825
 20
-32.825
 70
     8
  0
VERTEX
  8
ガラス
 10
-12.775
 20
-32.825
 70
     8
  0
VERTEX
  8
ガラス
 10
-12.725
 20
-32.85
 70
     8
  0
VERTEX
  8
ガラス
 10
-12.7
 20
-32.875
 70
     8
  0
VERTEX
  8
ガラス
 10
-12.65
 20
-32.875
 70
     8
  0
VERTEX
  8
ガラス
 10
-12.625
 20
-32.9
 70
     8
  0
VERTEX
  8
ガラス
 10
-12.575
 20
-32.925
 70
     8
  0
VERTEX
  8
ガラス
 10
-12.55
 20
-32.95
 70
     8
  0
VERTEX
  8
ガラス
 10
-12.5
 20
-32.975
 70
     8
  0
VERTEX
  8
ガラス
 10
-12.475
 20
-33.0
 70
     8
  0
VERTEX
  8
ガラス
 10
-12.45
 20
-33.025
 70
     8
  0
VERTEX
  8
ガラス
 10
-12.4
 20
-33.05
 70
     8
  0
VERTEX
  8
ガラス
 10
-12.375
 20
-33.075
 70
     8
  0
VERTEX
  8
ガラス
 10
-12.325
 20
-33.1
 70
     8
  0
VERTEX
  8
ガラス
 10
-12.3
 20
-33.15
 70
     8
  0
VERTEX
  8
ガラス
 10
-12.25
 20
-33.175
 70
     8
  0
VERTEX
  8
ガラス
 10
-12.225
 20
-33.2
 70
     8
  0
VERTEX
  8
ガラス
 10
-12.2
 20
-33.225
 70
     8
  0
VERTEX
  8
ガラス
 10
-12.15
 20
-33.25
 70
     8
  0
SEQEND
  0
POLYLINE
  8
ガラス
  6
CONTINUOUS
 66
     1
 70
     4
  0
VERTEX
  8
ガラス
 10
-12.15
 20
-33.25
 70
     8
  0
VERTEX
  8
ガラス
 10
-12.175
 20
-33.275
 70
     8
  0
VERTEX
  8
ガラス
 10
-12.225
 20
-33.275
 70
     8
  0
VERTEX
  8
ガラス
 10
-12.25
 20
-33.275
 70
     8
  0
VERTEX
  8
ガラス
 10
-12.275
 20
-33.3
 70
     8
  0
VERTEX
  8
ガラス
 10
-12.3
 20
-33.3
 70
     8
  0
VERTEX
  8
ガラス
 10
-12.325
 20
-33.3
 70
     8
  0
VERTEX
  8
ガラス
 10
-12.375
 20
-33.325
 70
     8
  0
VERTEX
  8
ガラス
 10
-12.4
 20
-33.325
 70
     8
  0
VERTEX
  8
ガラス
 10
-12.425
 20
-33.325
 70
     8
  0
VERTEX
  8
ガラス
 10
-12.45
 20
-33.35
 70
     8
  0
VERTEX
  8
ガラス
 10
-12.475
 20
-33.35
 70
     8
  0
VERTEX
  8
ガラス
 10
-12.5
 20
-33.35
 70
     8
  0
VERTEX
  8
ガラス
 10
-12.55
 20
-33.375
 70
     8
  0
VERTEX
  8
ガラス
 10
-12.575
 20
-33.375
 70
     8
  0
VERTEX
  8
ガラス
 10
-12.6
 20
-33.375
 70
     8
  0
VERTEX
  8
ガラス
 10
-12.625
 20
-33.4
 70
     8
  0
VERTEX
  8
ガラス
 10
-12.65
 20
-33.4
 70
     8
  0
VERTEX
  8
ガラス
 10
-12.675
 20
-33.425
 70
     8
  0
VERTEX
  8
ガラス
 10
-12.725
 20
-33.425
 70
     8
  0
VERTEX
  8
ガラス
 10
-12.75
 20
-33.45
 70
     8
  0
VERTEX
  8
ガラス
 10
-12.775
 20
-33.45
 70
     8
  0
VERTEX
  8
ガラス
 10
-12.8
 20
-33.475
 70
     8
  0
VERTEX
  8
ガラス
 10
-12.825
 20
-33.475
 70
     8
  0
VERTEX
  8
ガラス
 10
-12.85
 20
-33.5
 70
     8
  0
VERTEX
  8
ガラス
 10
-12.875
 20
-33.5
 70
     8
  0
VERTEX
  8
ガラス
 10
-12.9
 20
-33.525
 70
     8
  0
VERTEX
  8
ガラス
 10
-12.925
 20
-33.525
 70
     8
  0
VERTEX
  8
ガラス
 10
-12.95
 20
-33.55
 70
     8
  0
VERTEX
  8
ガラス
 10
-13.0
 20
-33.55
 70
     8
  0
VERTEX
  8
ガラス
 10
-13.025
 20
-33.575
 70
     8
  0
VERTEX
  8
ガラス
 10
-13.05
 20
-33.6
 70
     8
  0
VERTEX
  8
ガラス
 10
-13.075
 20
-33.6
 70
     8
  0
VERTEX
  8
ガラス
 10
-13.1
 20
-33.625
 70
     8
  0
VERTEX
  8
ガラス
 10
-13.125
 20
-33.625
 70
     8
  0
VERTEX
  8
ガラス
 10
-13.15
 20
-33.65
 70
     8
  0
VERTEX
  8
ガラス
 10
-13.175
 20
-33.675
 70
     8
  0
VERTEX
  8
ガラス
 10
-13.2
 20
-33.675
 70
     8
  0
VERTEX
  8
ガラス
 10
-13.225
 20
-33.7
 70
     8
  0
VERTEX
  8
ガラス
 10
-13.25
 20
-33.7
 70
     8
  0
VERTEX
  8
ガラス
 10
-13.275
 20
-33.725
 70
     8
  0
SEQEND
  0
ARC
  8
ガラス
  6
CONTINUOUS
 10
-13.512047
 20
-33.304466
 40
0.477567
 50
120.563758
 51
300.563758
  0
ENDBLK
  0
BLOCK
  2
*GRP_0009
 70
    65
 10
0.0
 20
0.0
  0
POLYLINE
  8
ガラス
  6
CONTINUOUS
 66
     1
 70
     4
  0
VERTEX
  8
ガラス
 10
-5.425
 20
-32.95
 70
     8
  0
VERTEX
  8
ガラス
 10
-5.4
 20
-32.95
 70
     8
  0
VERTEX
  8
ガラス
 10
-5.35
 20
-32.925
 70
     8
  0
VERTEX
  8
ガラス
 10
-5.3
 20
-32.925
 70
     8
  0
VERTEX
  8
ガラス
 10
-5.25
 20
-32.925
 70
     8
  0
VERTEX
  8
ガラス
 10
-5.2
 20
-32.9
 70
     8
  0
VERTEX
  8
ガラス
 10
-5.175
 20
-32.9
 70
     8
  0
VERTEX
  8
ガラス
 10
-5.125
 20
-32.875
 70
     8
  0
VERTEX
  8
ガラス
 10
-5.075
 20
-32.875
 70
     8
  0
VERTEX
  8
ガラス
 10
-5.025
 20
-32.875
 70
     8
  0
VERTEX
  8
ガラス
 10
-4.975
 20
-32.85
 70
     8
  0
VERTEX
  8
ガラス
 10
-4.95
 20
-32.85
 70
     8
  0
VERTEX
  8
ガラス
 10
-4.9
 20
-32.85
 70
     8
  0
VERTEX
  8
ガラス
 10
-4.85
 20
-32.85
 70
     8
  0
VERTEX
  8
ガラス
 10
-4.8
 20
-32.85
 70
     8
  0
VERTEX
  8
ガラス
 10
-4.775
 20
-32.85
 70
     8
  0
VERTEX
  8
ガラス
 10
-4.725
 20
-32.85
 70
     8
  0
VERTEX
  8
ガラス
 10
-4.675
 20
-32.85
 70
     8
  0
VERTEX
  8
ガラス
 10
-4.65
 20
-32.85
 70
     8
  0
VERTEX
  8
ガラス
 10
-4.6
 20
-32.85
 70
     8
  0
VERTEX
  8
ガラス
 10
-4.55
 20
-32.85
 70
     8
  0
VERTEX
  8
ガラス
 10
-4.525
 20
-32.875
 70
     8
  0
VERTEX
  8
ガラス
 10
-4.475
 20
-32.875
 70
     8
  0
VERTEX
  8
ガラス
 10
-4.45
 20
-32.9
 70
     8
  0
VERTEX
  8
ガラス
 10
-4.4
 20
-32.9
 70
     8
  0
VERTEX
  8
ガラス
 10
-4.375
 20
-32.925
 70
     8
  0
VERTEX
  8
ガラス
 10
-4.325
 20
-32.95
 70
     8
  0
VERTEX
  8
ガラス
 10
-4.3
 20
-32.975
 70
     8
  0
VERTEX
  8
ガラス
 10
-4.25
 20
-32.975
 70
     8
  0
VERTEX
  8
ガラス
 10
-4.225
 20
-33.0
 70
     8
  0
VERTEX
  8
ガラス
 10
-4.175
 20
-33.025
 70
     8
  0
VERTEX
  8
ガラス
 10
-4.15
 20
-33.05
 70
     8
  0
VERTEX
  8
ガラス
 10
-4.1
 20
-33.075
 70
     8
  0
VERTEX
  8
ガラス
 10
-4.075
 20
-33.1
 70
     8
  0
VERTEX
  8
ガラス
 10
-4.025
 20
-33.15
 70
     8
  0
VERTEX
  8
ガラス
 10
-4.0
 20
-33.175
 70
     8
  0
VERTEX
  8
ガラス
 10
-3.975
 20
-33.2
 70
     8
  0
VERTEX
  8
ガラス
 10
-3.925
 20
-33.225
 70
     8
  0
VERTEX
  8
ガラス
 10
-3.9
 20
-33.25
 70
     8
  0
VERTEX
  8
ガラス
 10
-3.85
 20
-33.275
 70
     8
  0
VERTEX
  8
ガラス
 10
-3.825
 20
-33.325
 70
     8
  0
SEQEND
  0
POLYLINE
  8
ガラス
  6
CONTINUOUS
 66
     1
 70
     4
  0
VERTEX
  8
ガラス
 10
-3.825
 20
-33.325
 70
     8
  0
VERTEX
  8
ガラス
 10
-3.85
 20
-33.325
 70
     8
  0
VERTEX
  8
ガラス
 10
-3.875
 20
-33.325
 70
     8
  0
VERTEX
  8
ガラス
 10
-3.9
 20
-33.35
 70
     8
  0
VERTEX
  8
ガラス
 10
-3.95
 20
-33.35
 70
     8
  0
VERTEX
  8
ガラス
 10
-3.975
 20
-33.35
 70
     8
  0
VERTEX
  8
ガラス
 10
-4.0
 20
-33.375
 70
     8
  0
VERTEX
  8
ガラス
 10
-4.025
 20
-33.375
 70
     8
  0
VERTEX
  8
ガラス
 10
-4.05
 20
-33.375
 70
     8
  0
VERTEX
  8
ガラス
 10
-4.1
 20
-33.4
 70
     8
  0
VERTEX
  8
ガラス
 10
-4.125
 20
-33.4
 70
     8
  0
VERTEX
  8
ガラス
 10
-4.15
 20
-33.4
 70
     8
  0
VERTEX
  8
ガラス
 10
-4.175
 20
-33.425
 70
     8
  0
VERTEX
  8
ガラス
 10
-4.2
 20
-33.425
 70
     8
  0
VERTEX
  8
ガラス
 10
-4.225
 20
-33.425
 70
     8
  0
VERTEX
  8
ガラス
 10
-4.275
 20
-33.45
 70
     8
  0
VERTEX
  8
ガラス
 10
-4.3
 20
-33.45
 70
     8
  0
VERTEX
  8
ガラス
 10
-4.325
 20
-33.475
 70
     8
  0
VERTEX
  8
ガラス
 10
-4.35
 20
-33.475
 70
     8
  0
VERTEX
  8
ガラス
 10
-4.375
 20
-33.475
 70
     8
  0
VERTEX
  8
ガラス
 10
-4.4
 20
-33.5
 70
     8
  0
VERTEX
  8
ガラス
 10
-4.425
 20
-33.5
 70
     8
  0
VERTEX
  8
ガラス
 10
-4.475
 20
-33.525
 70
     8
  0
VERTEX
  8
ガラス
 10
-4.5
 20
-33.525
 70
     8
  0
VERTEX
  8
ガラス
 10
-4.525
 20
-33.55
 70
     8
  0
VERTEX
  8
ガラス
 10
-4.55
 20
-33.55
 70
     8
  0
VERTEX
  8
ガラス
 10
-4.575
 20
-33.575
 70
     8
  0
VERTEX
  8
ガラス
 10
-4.6
 20
-33.575
 70
     8
  0
VERTEX
  8
ガラス
 10
-4.625
 20
-33.6
 70
     8
  0
VERTEX
  8
ガラス
 10
-4.65
 20
-33.625
 70
     8
  0
VERTEX
  8
ガラス
 10
-4.675
 20
-33.625
 70
     8
  0
VERTEX
  8
ガラス
 10
-4.7
 20
-33.65
 70
     8
  0
VERTEX
  8
ガラス
 10
-4.725
 20
-33.65
 70
     8
  0
VERTEX
  8
ガラス
 10
-4.775
 20
-33.675
 70
     8
  0
VERTEX
  8
ガラス
 10
-4.8
 20
-33.7
 70
     8
  0
VERTEX
  8
ガラス
 10
-4.825
 20
-33.7
 70
     8
  0
VERTEX
  8
ガラス
 10
-4.85
 20
-33.725
 70
     8
  0
VERTEX
  8
ガラス
 10
-4.875
 20
-33.725
 70
     8
  0
VERTEX
  8
ガラス
 10
-4.9
 20
-33.75
 70
     8
  0
VERTEX
  8
ガラス
 10
-4.925
 20
-33.775
 70
     8
  0
VERTEX
  8
ガラス
 10
-4.95
 20
-33.775
 70
     8
  0
SEQEND
  0
ARC
  8
ガラス
  6
CONTINUOUS
 10
-5.179272
 20
-33.35965
 40
0.477567
 50
120.563758
 51
300.563758
  0
ENDBLK
  0
BLOCK
  2
*GRP_0010
 70
    65
 10
0.0
 20
0.0
  0
POLYLINE
  8
ガラス
  6
CONTINUOUS
 66
     1
 70
     4
  0
VERTEX
  8
ガラス
 10
-25.85
 20
-33.4
 70
     8
  0
VERTEX
  8
ガラス
 10
-25.8
 20
-33.4
 70
     8
  0
VERTEX
  8
ガラス
 10
-25.75
 20
-33.375
 70
     8
  0
VERTEX
  8
ガラス
 10
-25.725
 20
-33.375
 70
     8
  0
VERTEX
  8
ガラス
 10
-25.675
 20
-33.35
 70
     8
  0
VERTEX
  8
ガラス
 10
-25.625
 20
-33.35
 70
     8
  0
VERTEX
  8
ガラス
 10
-25.575
 20
-33.325
 70
     8
  0
VERTEX
  8
ガラス
 10
-25.525
 20
-33.325
 70
     8
  0
VERTEX
  8
ガラス
 10
-25.5
 20
-33.325
 70
     8
  0
VERTEX
  8
ガラス
 10
-25.45
 20
-33.3
 70
     8
  0
VERTEX
  8
ガラス
 10
-25.4
 20
-33.3
 70
     8
  0
VERTEX
  8
ガラス
 10
-25.35
 20
-33.3
 70
     8
  0
VERTEX
  8
ガラス
 10
-25.325
 20
-33.3
 70
     8
  0
VERTEX
  8
ガラス
 10
-25.275
 20
-33.275
 70
     8
  0
VERTEX
  8
ガラス
 10
-25.225
 20
-33.275
 70
     8
  0
VERTEX
  8
ガラス
 10
-25.2
 20
-33.275
 70
     8
  0
VERTEX
  8
ガラス
 10
-25.15
 20
-33.275
 70
     8
  0
VERTEX
  8
ガラス
 10
-25.1
 20
-33.275
 70
     8
  0
VERTEX
  8
ガラス
 10
-25.05
 20
-33.275
 70
     8
  0
VERTEX
  8
ガラス
 10
-25.025
 20
-33.3
 70
     8
  0
VERTEX
  8
ガラス
 10
-24.975
 20
-33.3
 70
     8
  0
VERTEX
  8
ガラス
 10
-24.95
 20
-33.3
 70
     8
  0
VERTEX
  8
ガラス
 10
-24.9
 20
-33.325
 70
     8
  0
VERTEX
  8
ガラス
 10
-24.85
 20
-33.325
 70
     8
  0
VERTEX
  8
ガラス
 10
-24.825
 20
-33.35
 70
     8
  0
VERTEX
  8
ガラス
 10
-24.775
 20
-33.375
 70
     8
  0
VERTEX
  8
ガラス
 10
-24.75
 20
-33.375
 70
     8
  0
VERTEX
  8
ガラス
 10
-24.7
 20
-33.4
 70
     8
  0
VERTEX
  8
ガラス
 10
-24.675
 20
-33.425
 70
     8
  0
VERTEX
  8
ガラス
 10
-24.625
 20
-33.45
 70
     8
  0
VERTEX
  8
ガラス
 10
-24.6
 20
-33.475
 70
     8
  0
VERTEX
  8
ガラス
 10
-24.55
 20
-33.5
 70
     8
  0
VERTEX
  8
ガラス
 10
-24.525
 20
-33.525
 70
     8
  0
VERTEX
  8
ガラス
 10
-24.5
 20
-33.55
 70
     8
  0
VERTEX
  8
ガラス
 10
-24.45
 20
-33.575
 70
     8
  0
VERTEX
  8
ガラス
 10
-24.425
 20
-33.6
 70
     8
  0
VERTEX
  8
ガラス
 10
-24.375
 20
-33.65
 70
     8
  0
VERTEX
  8
ガラス
 10
-24.35
 20
-33.675
 70
     8
  0
VERTEX
  8
ガラス
 10
-24.3
 20
-33.7
 70
     8
  0
VERTEX
  8
ガラス
 10
-24.275
 20
-33.725
 70
     8
  0
VERTEX
  8
ガラス
 10
-24.25
 20
-33.75
 70
     8
  0
SEQEND
  0
POLYLINE
  8
ガラス
  6
CONTINUOUS
 66
     1
 70
     4
  0
VERTEX
  8
ガラス
 10
-24.25
 20
-33.75
 70
     8
  0
VERTEX
  8
ガラス
 10
-24.275
 20
-33.775
 70
     8
  0
VERTEX
  8
ガラス
 10
-24.3
 20
-33.775
 70
     8
  0
VERTEX
  8
ガラス
 10
-24.325
 20
-33.775
 70
     8
  0
VERTEX
  8
ガラス
 10
-24.35
 20
-33.8
 70
     8
  0
VERTEX
  8
ガラス
 10
-24.4
 20
-33.8
 70
     8
  0
VERTEX
  8
ガラス
 10
-24.425
 20
-33.8
 70
     8
  0
VERTEX
  8
ガラス
 10
-24.45
 20
-33.825
 70
     8
  0
VERTEX
  8
ガラス
 10
-24.475
 20
-33.825
 70
     8
  0
VERTEX
  8
ガラス
 10
-24.5
 20
-33.825
 70
     8
  0
VERTEX
  8
ガラス
 10
-24.525
 20
-33.85
 70
     8
  0
VERTEX
  8
ガラス
 10
-24.575
 20
-33.85
 70
     8
  0
VERTEX
  8
ガラス
 10
-24.6
 20
-33.85
 70
     8
  0
VERTEX
  8
ガラス
 10
-24.625
 20
-33.875
 70
     8
  0
VERTEX
  8
ガラス
 10
-24.65
 20
-33.875
 70
     8
  0
VERTEX
  8
ガラス
 10
-24.675
 20
-33.875
 70
     8
  0
VERTEX
  8
ガラス
 10
-24.7
 20
-33.9
 70
     8
  0
VERTEX
  8
ガラス
 10
-24.75
 20
-33.9
 70
     8
  0
VERTEX
  8
ガラス
 10
-24.775
 20
-33.925
 70
     8
  0
VERTEX
  8
ガラス
 10
-24.8
 20
-33.925
 70
     8
  0
VERTEX
  8
ガラス
 10
-24.825
 20
-33.925
 70
     8
  0
VERTEX
  8
ガラス
 10
-24.85
 20
-33.95
 70
     8
  0
VERTEX
  8
ガラス
 10
-24.875
 20
-33.95
 70
     8
  0
VERTEX
  8
ガラス
 10
-24.9
 20
-33.975
 70
     8
  0
VERTEX
  8
ガラス
 10
-24.95
 20
-33.975
 70
     8
  0
VERTEX
  8
ガラス
 10
-24.975
 20
-34.0
 70
     8
  0
VERTEX
  8
ガラス
 10
-25.0
 20
-34.025
 70
     8
  0
VERTEX
  8
ガラス
 10
-25.025
 20
-34.025
 70
     8
  0
VERTEX
  8
ガラス
 10
-25.05
 20
-34.05
 70
     8
  0
VERTEX
  8
ガラス
 10
-25.075
 20
-34.05
 70
     8
  0
VERTEX
  8
ガラス
 10
-25.1
 20
-34.075
 70
     8
  0
VERTEX
  8
ガラス
 10
-25.125
 20
-34.075
 70
     8
  0
VERTEX
  8
ガラス
 10
-25.15
 20
-34.1
 70
     8
  0
VERTEX
  8
ガラス
 10
-25.175
 20
-34.125
 70
     8
  0
VERTEX
  8
ガラス
 10
-25.2
 20
-34.125
 70
     8
  0
VERTEX
  8
ガラス
 10
-25.225
 20
-34.15
 70
     8
  0
VERTEX
  8
ガラス
 10
-25.25
 20
-34.15
 70
     8
  0
VERTEX
  8
ガラス
 10
-25.3
 20
-34.175
 70
     8
  0
VERTEX
  8
ガラス
 10
-25.325
 20
-34.2
 70
     8
  0
VERTEX
  8
ガラス
 10
-25.35
 20
-34.2
 70
     8
  0
VERTEX
  8
ガラス
 10
-25.375
 20
-34.225
 70
     8
  0
SEQEND
  0
ARC
  8
ガラス
  6
CONTINUOUS
 10
-25.597332
 20
-33.801122
 40
0.477567
 50
120.563758
 51
300.563758
  0
ENDBLK
  0
BLOCK
  2
*GRP_0011
 70
    65
 10
0.0
 20
0.0
  0
POLYLINE
  8
ガラス
  6
CONTINUOUS
 66
     1
 70
     4
  0
VERTEX
  8
ガラス
 10
-32.2
 20
-34.35
 70
     8
  0
VERTEX
  8
ガラス
 10
-32.15
 20
-34.325
 70
     8
  0
VERTEX
  8
ガラス
 10
-32.1
 20
-34.325
 70
     8
  0
VERTEX
  8
ガラス
 10
-32.075
 20
-34.3
 70
     8
  0
VERTEX
  8
ガラス
 10
-32.025
 20
-34.3
 70
     8
  0
VERTEX
  8
ガラス
 10
-31.975
 20
-34.275
 70
     8
  0
VERTEX
  8
ガラス
 10
-31.925
 20
-34.275
 70
     8
  0
VERTEX
  8
ガラス
 10
-31.875
 20
-34.275
 70
     8
  0
VERTEX
  8
ガラス
 10
-31.85
 20
-34.25
 70
     8
  0
VERTEX
  8
ガラス
 10
-31.8
 20
-34.25
 70
     8
  0
VERTEX
  8
ガラス
 10
-31.75
 20
-34.25
 70
     8
  0
VERTEX
  8
ガラス
 10
-31.7
 20
-34.225
 70
     8
  0
VERTEX
  8
ガラス
 10
-31.675
 20
-34.225
 70
     8
  0
VERTEX
  8
ガラス
 10
-31.625
 20
-34.225
 70
     8
  0
VERTEX
  8
ガラス
 10
-31.575
 20
-34.225
 70
     8
  0
VERTEX
  8
ガラス
 10
-31.525
 20
-34.225
 70
     8
  0
VERTEX
  8
ガラス
 10
-31.5
 20
-34.225
 70
     8
  0
VERTEX
  8
ガラス
 10
-31.45
 20
-34.225
 70
     8
  0
VERTEX
  8
ガラス
 10
-31.4
 20
-34.225
 70
     8
  0
VERTEX
  8
ガラス
 10
-31.375
 20
-34.225
 70
     8
  0
VERTEX
  8
ガラス
 10
-31.325
 20
-34.225
 70
     8
  0
VERTEX
  8
ガラス
 10
-31.275
 20
-34.25
 70
     8
  0
VERTEX
  8
ガラス
 10
-31.25
 20
-34.25
 70
     8
  0
VERTEX
  8
ガラス
 10
-31.2
 20
-34.275
 70
     8
  0
VERTEX
  8
ガラス
 10
-31.175
 20
-34.275
 70
     8
  0
VERTEX
  8
ガラス
 10
-31.125
 20
-34.3
 70
     8
  0
VERTEX
  8
ガラス
 10
-31.1
 20
-34.325
 70
     8
  0
VERTEX
  8
ガラス
 10
-31.05
 20
-34.35
 70
     8
  0
VERTEX
  8
ガラス
 10
-31.025
 20
-34.375
 70
     8
  0
VERTEX
  8
ガラス
 10
-30.975
 20
-34.375
 70
     8
  0
VERTEX
  8
ガラス
 10
-30.95
 20
-34.4
 70
     8
  0
VERTEX
  8
ガラス
 10
-30.9
 20
-34.425
 70
     8
  0
VERTEX
  8
ガラス
 10
-30.875
 20
-34.475
 70
     8
  0
VERTEX
  8
ガラス
 10
-30.825
 20
-34.5
 70
     8
  0
VERTEX
  8
ガラス
 10
-30.8
 20
-34.525
 70
     8
  0
VERTEX
  8
ガラス
 10
-30.775
 20
-34.55
 70
     8
  0
VERTEX
  8
ガラス
 10
-30.725
 20
-34.575
 70
     8
  0
VERTEX
  8
ガラス
 10
-30.7
 20
-34.6
 70
     8
  0
VERTEX
  8
ガラス
 10
-30.65
 20
-34.625
 70
     8
  0
VERTEX
  8
ガラス
 10
-30.625
 20
-34.675
 70
     8
  0
VERTEX
  8
ガラス
 10
-30.575
 20
-34.7
 70
     8
  0
SEQEND
  0
POLYLINE
  8
ガラス
  6
CONTINUOUS
 66
     1
 70
     4
  0
VERTEX
  8
ガラス
 10
-30.575
 20
-34.7
 70
     8
  0
VERTEX
  8
ガラス
 10
-30.625
 20
-34.7
 70
     8
  0
VERTEX
  8
ガラス
 10
-30.65
 20
-34.7
 70
     8
  0
VERTEX
  8
ガラス
 10
-30.675
 20
-34.725
 70
     8
  0
VERTEX
  8
ガラス
 10
-30.7
 20
-34.725
 70
     8
  0
VERTEX
  8
ガラス
 10
-30.725
 20
-34.725
 70
     8
  0
VERTEX
  8
ガラス
 10
-30.775
 20
-34.75
 70
     8
  0
VERTEX
  8
ガラス
 10
-30.8
 20
-34.75
 70
     8
  0
VERTEX
  8
ガラス
 10
-30.825
 20
-34.75
 70
     8
  0
VERTEX
  8
ガラス
 10
-30.85
 20
-34.775
 70
     8
  0
VERTEX
  8
ガラス
 10
-30.875
 20
-34.775
 70
     8
  0
VERTEX
  8
ガラス
 10
-30.9
 20
-34.775
 70
     8
  0
VERTEX
  8
ガラス
 10
-30.95
 20
-34.8
 70
     8
  0
VERTEX
  8
ガラス
 10
-30.975
 20
-34.8
 70
     8
  0
VERTEX
  8
ガラス
 10
-31.0
 20
-34.825
 70
     8
  0
VERTEX
  8
ガラス
 10
-31.025
 20
-34.825
 70
     8
  0
VERTEX
  8
ガラス
 10
-31.05
 20
-34.825
 70
     8
  0
VERTEX
  8
ガラス
 10
-31.075
 20
-34.85
 70
     8
  0
VERTEX
  8
ガラス
 10
-31.125
 20
-34.85
 70
     8
  0
VERTEX
  8
ガラス
 10
-31.15
 20
-34.875
 70
     8
  0
VERTEX
  8
ガラス
 10
-31.175
 20
-34.875
 70
     8
  0
VERTEX
  8
ガラス
 10
-31.2
 20
-34.875
 70
     8
  0
VERTEX
  8
ガラス
 10
-31.225
 20
-34.9
 70
     8
  0
VERTEX
  8
ガラス
 10
-31.25
 20
-34.9
 70
     8
  0
VERTEX
  8
ガラス
 10
-31.275
 20
-34.925
 70
     8
  0
VERTEX
  8
ガラス
 10
-31.3
 20
-34.95
 70
     8
  0
VERTEX
  8
ガラス
 10
-31.35
 20
-34.95
 70
     8
  0
VERTEX
  8
ガラス
 10
-31.375
 20
-34.975
 70
     8
  0
VERTEX
  8
ガラス
 10
-31.4
 20
-34.975
 70
     8
  0
VERTEX
  8
ガラス
 10
-31.425
 20
-35.0
 70
     8
  0
VERTEX
  8
ガラス
 10
-31.45
 20
-35.0
 70
     8
  0
VERTEX
  8
ガラス
 10
-31.475
 20
-35.025
 70
     8
  0
VERTEX
  8
ガラス
 10
-31.5
 20
-35.05
 70
     8
  0
VERTEX
  8
ガラス
 10
-31.525
 20
-35.05
 70
     8
  0
VERTEX
  8
ガラス
 10
-31.55
 20
-35.075
 70
     8
  0
VERTEX
  8
ガラス
 10
-31.575
 20
-35.075
 70
     8
  0
VERTEX
  8
ガラス
 10
-31.6
 20
-35.1
 70
     8
  0
VERTEX
  8
ガラス
 10
-31.625
 20
-35.125
 70
     8
  0
VERTEX
  8
ガラス
 10
-31.65
 20
-35.125
 70
     8
  0
VERTEX
  8
ガラス
 10
-31.675
 20
-35.15
 70
     8
  0
VERTEX
  8
ガラス
 10
-31.725
 20
-35.175
 70
     8
  0
SEQEND
  0
ARC
  8
ガラス
  6
CONTINUOUS
 10
-31.943486
 20
-34.739248
 40
0.477567
 50
120.563758
 51
300.563758
  0
ENDBLK
  0
BLOCK
  2
*GRP_0012
 70
    65
 10
0.0
 20
0.0
  0
POLYLINE
  8
ガラス
  6
CONTINUOUS
 66
     1
 70
     4
  0
VERTEX
  8
ガラス
 10
-39.1
 20
-38.375
 70
     8
  0
VERTEX
  8
ガラス
 10
-39.05
 20
-38.375
 70
     8
  0
VERTEX
  8
ガラス
 10
-39.0
 20
-38.35
 70
     8
  0
VERTEX
  8
ガラス
 10
-38.975
 20
-38.35
 70
     8
  0
VERTEX
  8
ガラス
 10
-38.925
 20
-38.35
 70
     8
  0
VERTEX
  8
ガラス
 10
-38.875
 20
-38.325
 70
     8
  0
VERTEX
  8
ガラス
 10
-38.825
 20
-38.325
 70
     8
  0
VERTEX
  8
ガラス
 10
-38.775
 20
-38.3
 70
     8
  0
VERTEX
  8
ガラス
 10
-38.75
 20
-38.3
 70
     8
  0
VERTEX
  8
ガラス
 10
-38.7
 20
-38.3
 70
     8
  0
VERTEX
  8
ガラス
 10
-38.65
 20
-38.275
 70
     8
  0
VERTEX
  8
ガラス
 10
-38.6
 20
-38.275
 70
     8
  0
VERTEX
  8
ガラス
 10
-38.575
 20
-38.275
 70
     8
  0
VERTEX
  8
ガラス
 10
-38.525
 20
-38.275
 70
     8
  0
VERTEX
  8
ガラス
 10
-38.475
 20
-38.275
 70
     8
  0
VERTEX
  8
ガラス
 10
-38.425
 20
-38.25
 70
     8
  0
VERTEX
  8
ガラス
 10
-38.4
 20
-38.275
 70
     8
  0
VERTEX
  8
ガラス
 10
-38.35
 20
-38.275
 70
     8
  0
VERTEX
  8
ガラス
 10
-38.3
 20
-38.275
 70
     8
  0
VERTEX
  8
ガラス
 10
-38.275
 20
-38.275
 70
     8
  0
VERTEX
  8
ガラス
 10
-38.225
 20
-38.275
 70
     8
  0
VERTEX
  8
ガラス
 10
-38.2
 20
-38.3
 70
     8
  0
VERTEX
  8
ガラス
 10
-38.15
 20
-38.3
 70
     8
  0
VERTEX
  8
ガラス
 10
-38.1
 20
-38.325
 70
     8
  0
VERTEX
  8
ガラス
 10
-38.075
 20
-38.325
 70
     8
  0
VERTEX
  8
ガラス
 10
-38.025
 20
-38.35
 70
     8
  0
VERTEX
  8
ガラス
 10
-38.0
 20
-38.375
 70
     8
  0
VERTEX
  8
ガラス
 10
-37.95
 20
-38.375
 70
     8
  0
VERTEX
  8
ガラス
 10
-37.925
 20
-38.4
 70
     8
  0
VERTEX
  8
ガラス
 10
-37.875
 20
-38.425
 70
     8
  0
VERTEX
  8
ガラス
 10
-37.85
 20
-38.45
 70
     8
  0
VERTEX
  8
ガラス
 10
-37.8
 20
-38.475
 70
     8
  0
VERTEX
  8
ガラス
 10
-37.775
 20
-38.5
 70
     8
  0
VERTEX
  8
ガラス
 10
-37.725
 20
-38.525
 70
     8
  0
VERTEX
  8
ガラス
 10
-37.7
 20
-38.55
 70
     8
  0
VERTEX
  8
ガラス
 10
-37.675
 20
-38.6
 70
     8
  0
VERTEX
  8
ガラス
 10
-37.625
 20
-38.625
 70
     8
  0
VERTEX
  8
ガラス
 10
-37.6
 20
-38.65
 70
     8
  0
VERTEX
  8
ガラス
 10
-37.55
 20
-38.675
 70
     8
  0
VERTEX
  8
ガラス
 10
-37.525
 20
-38.7
 70
     8
  0
VERTEX
  8
ガラス
 10
-37.5
 20
-38.75
 70
     8
  0
SEQEND
  0
POLYLINE
  8
ガラス
  6
CONTINUOUS
 66
     1
 70
     4
  0
VERTEX
  8
ガラス
 10
-37.5
 20
-38.75
 70
     8
  0
VERTEX
  8
ガラス
 10
-37.525
 20
-38.75
 70
     8
  0
VERTEX
  8
ガラス
 10
-37.55
 20
-38.75
 70
     8
  0
VERTEX
  8
ガラス
 10
-37.575
 20
-38.775
 70
     8
  0
VERTEX
  8
ガラス
 10
-37.6
 20
-38.775
 70
     8
  0
VERTEX
  8
ガラス
 10
-37.625
 20
-38.775
 70
     8
  0
VERTEX
  8
ガラス
 10
-37.675
 20
-38.775
 70
     8
  0
VERTEX
  8
ガラス
 10
-37.7
 20
-38.8
 70
     8
  0
VERTEX
  8
ガラス
 10
-37.725
 20
-38.8
 70
     8
  0
VERTEX
  8
ガラス
 10
-37.75
 20
-38.8
 70
     8
  0
VERTEX
  8
ガラス
 10
-37.775
 20
-38.825
 70
     8
  0
VERTEX
  8
ガラス
 10
-37.825
 20
-38.825
 70
     8
  0
VERTEX
  8
ガラス
 10
-37.85
 20
-38.85
 70
     8
  0
VERTEX
  8
ガラス
 10
-37.875
 20
-38.85
 70
     8
  0
VERTEX
  8
ガラス
 10
-37.9
 20
-38.85
 70
     8
  0
VERTEX
  8
ガラス
 10
-37.925
 20
-38.875
 70
     8
  0
VERTEX
  8
ガラス
 10
-37.95
 20
-38.875
 70
     8
  0
VERTEX
  8
ガラス
 10
-38.0
 20
-38.875
 70
     8
  0
VERTEX
  8
ガラス
 10
-38.025
 20
-38.9
 70
     8
  0
VERTEX
  8
ガラス
 10
-38.05
 20
-38.9
 70
     8
  0
VERTEX
  8
ガラス
 10
-38.075
 20
-38.925
 70
     8
  0
VERTEX
  8
ガラス
 10
-38.1
 20
-38.925
 70
     8
  0
VERTEX
  8
ガラス
 10
-38.125
 20
-38.95
 70
     8
  0
VERTEX
  8
ガラス
 10
-38.15
 20
-38.95
 70
     8
  0
VERTEX
  8
ガラス
 10
-38.175
 20
-38.975
 70
     8
  0
VERTEX
  8
ガラス
 10
-38.225
 20
-38.975
 70
     8
  0
VERTEX
  8
ガラス
 10
-38.25
 20
-39.0
 70
     8
  0
VERTEX
  8
ガラス
 10
-38.275
 20
-39.0
 70
     8
  0
VERTEX
  8
ガラス
 10
-38.3
 20
-39.025
 70
     8
  0
VERTEX
  8
ガラス
 10
-38.325
 20
-39.05
 70
     8
  0
VERTEX
  8
ガラス
 10
-38.35
 20
-39.05
 70
     8
  0
VERTEX
  8
ガラス
 10
-38.375
 20
-39.075
 70
     8
  0
VERTEX
  8
ガラス
 10
-38.4
 20
-39.075
 70
     8
  0
VERTEX
  8
ガラス
 10
-38.425
 20
-39.1
 70
     8
  0
VERTEX
  8
ガラス
 10
-38.45
 20
-39.125
 70
     8
  0
VERTEX
  8
ガラス
 10
-38.475
 20
-39.125
 70
     8
  0
VERTEX
  8
ガラス
 10
-38.5
 20
-39.15
 70
     8
  0
VERTEX
  8
ガラス
 10
-38.525
 20
-39.15
 70
     8
  0
VERTEX
  8
ガラス
 10
-38.55
 20
-39.175
 70
     8
  0
VERTEX
  8
ガラス
 10
-38.6
 20
-39.2
 70
     8
  0
VERTEX
  8
ガラス
 10
-38.625
 20
-39.2
 70
     8
  0
SEQEND
  0
ARC
  8
ガラス
  6
CONTINUOUS
 10
-38.845241
 20
-38.783479
 40
0.477567
 50
120.563758
 51
300.563758
  0
ENDBLK
  0
BLOCK
  2
*GRP_0013
 70
    65
 10
0.0
 20
0.0
  0
POLYLINE
  8
ガラス
  6
CONTINUOUS
 66
     1
 70
     4
  0
VERTEX
  8
ガラス
 10
-45.125
 20
-38.925
 70
     8
  0
VERTEX
  8
ガラス
 10
-45.075
 20
-38.925
 70
     8
  0
VERTEX
  8
ガラス
 10
-45.025
 20
-38.925
 70
     8
  0
VERTEX
  8
ガラス
 10
-44.975
 20
-38.9
 70
     8
  0
VERTEX
  8
ガラス
 10
-44.925
 20
-38.9
 70
     8
  0
VERTEX
  8
ガラス
 10
-44.9
 20
-38.875
 70
     8
  0
VERTEX
  8
ガラス
 10
-44.85
 20
-38.875
 70
     8
  0
VERTEX
  8
ガラス
 10
-44.8
 20
-38.85
 70
     8
  0
VERTEX
  8
ガラス
 10
-44.75
 20
-38.85
 70
     8
  0
VERTEX
  8
ガラス
 10
-44.7
 20
-38.85
 70
     8
  0
VERTEX
  8
ガラス
 10
-44.675
 20
-38.825
 70
     8
  0
VERTEX
  8
ガラス
 10
-44.625
 20
-38.825
 70
     8
  0
VERTEX
  8
ガラス
 10
-44.575
 20
-38.825
 70
     8
  0
VERTEX
  8
ガラス
 10
-44.525
 20
-38.825
 70
     8
  0
VERTEX
  8
ガラス
 10
-44.5
 20
-38.825
 70
     8
  0
VERTEX
  8
ガラス
 10
-44.45
 20
-38.825
 70
     8
  0
VERTEX
  8
ガラス
 10
-44.4
 20
-38.825
 70
     8
  0
VERTEX
  8
ガラス
 10
-44.375
 20
-38.825
 70
     8
  0
VERTEX
  8
ガラス
 10
-44.325
 20
-38.825
 70
     8
  0
VERTEX
  8
ガラス
 10
-44.275
 20
-38.825
 70
     8
  0
VERTEX
  8
ガラス
 10
-44.25
 20
-38.825
 70
     8
  0
VERTEX
  8
ガラス
 10
-44.2
 20
-38.85
 70
     8
  0
VERTEX
  8
ガラス
 10
-44.175
 20
-38.85
 70
     8
  0
VERTEX
  8
ガラス
 10
-44.125
 20
-38.875
 70
     8
  0
VERTEX
  8
ガラス
 10
-44.075
 20
-38.875
 70
     8
  0
VERTEX
  8
ガラス
 10
-44.05
 20
-38.9
 70
     8
  0
VERTEX
  8
ガラス
 10
-44.0
 20
-38.925
 70
     8
  0
VERTEX
  8
ガラス
 10
-43.975
 20
-38.95
 70
     8
  0
VERTEX
  8
ガラス
 10
-43.925
 20
-38.95
 70
     8
  0
VERTEX
  8
ガラス
 10
-43.9
 20
-38.975
 70
     8
  0
VERTEX
  8
ガラス
 10
-43.85
 20
-39.0
 70
     8
  0
VERTEX
  8
ガラス
 10
-43.825
 20
-39.025
 70
     8
  0
VERTEX
  8
ガラス
 10
-43.775
 20
-39.05
 70
     8
  0
VERTEX
  8
ガラス
 10
-43.75
 20
-39.075
 70
     8
  0
VERTEX
  8
ガラス
 10
-43.725
 20
-39.125
 70
     8
  0
VERTEX
  8
ガラス
 10
-43.675
 20
-39.15
 70
     8
  0
VERTEX
  8
ガラス
 10
-43.65
 20
-39.175
 70
     8
  0
VERTEX
  8
ガラス
 10
-43.6
 20
-39.2
 70
     8
  0
VERTEX
  8
ガラス
 10
-43.575
 20
-39.225
 70
     8
  0
VERTEX
  8
ガラス
 10
-43.55
 20
-39.25
 70
     8
  0
VERTEX
  8
ガラス
 10
-43.5
 20
-39.3
 70
     8
  0
SEQEND
  0
POLYLINE
  8
ガラス
  6
CONTINUOUS
 66
     1
 70
     4
  0
VERTEX
  8
ガラス
 10
-43.5
 20
-39.3
 70
     8
  0
VERTEX
  8
ガラス
 10
-43.525
 20
-39.3
 70
     8
  0
VERTEX
  8
ガラス
 10
-43.55
 20
-39.3
 70
     8
  0
VERTEX
  8
ガラス
 10
-43.6
 20
-39.325
 70
     8
  0
VERTEX
  8
ガラス
 10
-43.625
 20
-39.325
 70
     8
  0
VERTEX
  8
ガラス
 10
-43.65
 20
-39.325
 70
     8
  0
VERTEX
  8
ガラス
 10
-43.675
 20
-39.35
 70
     8
  0
VERTEX
  8
ガラス
 10
-43.7
 20
-39.35
 70
     8
  0
VERTEX
  8
ガラス
 10
-43.75
 20
-39.35
 70
     8
  0
VERTEX
  8
ガラス
 10
-43.775
 20
-39.375
 70
     8
  0
VERTEX
  8
ガラス
 10
-43.8
 20
-39.375
 70
     8
  0
VERTEX
  8
ガラス
 10
-43.825
 20
-39.375
 70
     8
  0
VERTEX
  8
ガラス
 10
-43.85
 20
-39.4
 70
     8
  0
VERTEX
  8
ガラス
 10
-43.9
 20
-39.4
 70
     8
  0
VERTEX
  8
ガラス
 10
-43.925
 20
-39.4
 70
     8
  0
VERTEX
  8
ガラス
 10
-43.95
 20
-39.425
 70
     8
  0
VERTEX
  8
ガラス
 10
-43.975
 20
-39.425
 70
     8
  0
VERTEX
  8
ガラス
 10
-44.0
 20
-39.45
 70
     8
  0
VERTEX
  8
ガラス
 10
-44.025
 20
-39.45
 70
     8
  0
VERTEX
  8
ガラス
 10
-44.05
 20
-39.45
 70
     8
  0
VERTEX
  8
ガラス
 10
-44.1
 20
-39.475
 70
     8
  0
VERTEX
  8
ガラス
 10
-44.125
 20
-39.475
 70
     8
  0
VERTEX
  8
ガラス
 10
-44.15
 20
-39.5
 70
     8
  0
VERTEX
  8
ガラス
 10
-44.175
 20
-39.5
 70
     8
  0
VERTEX
  8
ガラス
 10
-44.2
 20
-39.525
 70
     8
  0
VERTEX
  8
ガラス
 10
-44.225
 20
-39.525
 70
     8
  0
VERTEX
  8
ガラス
 10
-44.25
 20
-39.55
 70
     8
  0
VERTEX
  8
ガラス
 10
-44.275
 20
-39.55
 70
     8
  0
VERTEX
  8
ガラス
 10
-44.3
 20
-39.575
 70
     8
  0
VERTEX
  8
ガラス
 10
-44.325
 20
-39.6
 70
     8
  0
VERTEX
  8
ガラス
 10
-44.375
 20
-39.6
 70
     8
  0
VERTEX
  8
ガラス
 10
-44.4
 20
-39.625
 70
     8
  0
VERTEX
  8
ガラス
 10
-44.425
 20
-39.625
 70
     8
  0
VERTEX
  8
ガラス
 10
-44.45
 20
-39.65
 70
     8
  0
VERTEX
  8
ガラス
 10
-44.475
 20
-39.675
 70
     8
  0
VERTEX
  8
ガラス
 10
-44.5
 20
-39.675
 70
     8
  0
VERTEX
  8
ガラス
 10
-44.525
 20
-39.7
 70
     8
  0
VERTEX
  8
ガラス
 10
-44.55
 20
-39.7
 70
     8
  0
VERTEX
  8
ガラス
 10
-44.575
 20
-39.725
 70
     8
  0
VERTEX
  8
ガラス
 10
-44.6
 20
-39.75
 70
     8
  0
VERTEX
  8
ガラス
 10
-44.625
 20
-39.75
 70
     8
  0
SEQEND
  0
ARC
  8
ガラス
  6
CONTINUOUS
 10
-44.860291
 20
-39.335318
 40
0.477567
 50
120.563758
 51
300.563758
  0
ENDBLK
  0
BLOCK
  2
*GRP_0014
 70
    65
 10
0.0
 20
0.0
  0
POLYLINE
  8
ガラス
  6
CONTINUOUS
 66
     1
 70
     4
  0
VERTEX
  8
ガラス
 10
-48.775
 20
-42.925
 70
     8
  0
VERTEX
  8
ガラス
 10
-48.775
 20
-42.875
 70
     8
  0
VERTEX
  8
ガラス
 10
-48.75
 20
-42.85
 70
     8
  0
VERTEX
  8
ガラス
 10
-48.75
 20
-42.8
 70
     8
  0
VERTEX
  8
ガラス
 10
-48.725
 20
-42.75
 70
     8
  0
VERTEX
  8
ガラス
 10
-48.7
 20
-42.7
 70
     8
  0
VERTEX
  8
ガラス
 10
-48.7
 20
-42.675
 70
     8
  0
VERTEX
  8
ガラス
 10
-48.675
 20
-42.625
 70
     8
  0
VERTEX
  8
ガラス
 10
-48.65
 20
-42.575
 70
     8
  0
VERTEX
  8
ガラス
 10
-48.625
 20
-42.55
 70
     8
  0
VERTEX
  8
ガラス
 10
-48.625
 20
-42.5
 70
     8
  0
VERTEX
  8
ガラス
 10
-48.6
 20
-42.45
 70
     8
  0
VERTEX
  8
ガラス
 10
-48.575
 20
-42.425
 70
     8
  0
VERTEX
  8
ガラス
 10
-48.55
 20
-42.375
 70
     8
  0
VERTEX
  8
ガラス
 10
-48.525
 20
-42.35
 70
     8
  0
VERTEX
  8
ガラス
 10
-48.5
 20
-42.3
 70
     8
  0
VERTEX
  8
ガラス
 10
-48.475
 20
-42.275
 70
     8
  0
VERTEX
  8
ガラス
 10
-48.45
 20
-42.25
 70
     8
  0
VERTEX
  8
ガラス
 10
-48.425
 20
-42.2
 70
     8
  0
VERTEX
  8
ガラス
 10
-48.4
 20
-42.175
 70
     8
  0
VERTEX
  8
ガラス
 10
-48.375
 20
-42.15
 70
     8
  0
VERTEX
  8
ガラス
 10
-48.35
 20
-42.125
 70
     8
  0
VERTEX
  8
ガラス
 10
-48.325
 20
-42.1
 70
     8
  0
VERTEX
  8
ガラス
 10
-48.275
 20
-42.075
 70
     8
  0
VERTEX
  8
ガラス
 10
-48.25
 20
-42.05
 70
     8
  0
VERTEX
  8
ガラス
 10
-48.2
 20
-42.025
 70
     8
  0
VERTEX
  8
ガラス
 10
-48.175
 20
-42.0
 70
     8
  0
VERTEX
  8
ガラス
 10
-48.125
 20
-41.975
 70
     8
  0
VERTEX
  8
ガラス
 10
-48.1
 20
-41.975
 70
     8
  0
VERTEX
  8
ガラス
 10
-48.05
 20
-41.95
 70
     8
  0
VERTEX
  8
ガラス
 10
-48.025
 20
-41.925
 70
     8
  0
VERTEX
  8
ガラス
 10
-47.975
 20
-41.925
 70
     8
  0
VERTEX
  8
ガラス
 10
-47.925
 20
-41.9
 70
     8
  0
VERTEX
  8
ガラス
 10
-47.9
 20
-41.9
 70
     8
  0
VERTEX
  8
ガラス
 10
-47.85
 20
-41.875
 70
     8
  0
VERTEX
  8
ガラス
 10
-47.8
 20
-41.85
 70
     8
  0
VERTEX
  8
ガラス
 10
-47.75
 20
-41.85
 70
     8
  0
VERTEX
  8
ガラス
 10
-47.7
 20
-41.825
 70
     8
  0
VERTEX
  8
ガラス
 10
-47.675
 20
-41.825
 70
     8
  0
VERTEX
  8
ガラス
 10
-47.625
 20
-41.8
 70
     8
  0
VERTEX
  8
ガラス
 10
-47.575
 20
-41.8
 70
     8
  0
SEQEND
  0
POLYLINE
  8
ガラス
  6
CONTINUOUS
 66
     1
 70
     4
  0
VERTEX
  8
ガラス
 10
-47.575
 20
-41.8
 70
     8
  0
VERTEX
  8
ガラス
 10
-47.6
 20
-41.825
 70
     8
  0
VERTEX
  8
ガラス
 10
-47.6
 20
-41.85
 70
     8
  0
VERTEX
  8
ガラス
 10
-47.6
 20
-41.875
 70
     8
  0
VERTEX
  8
ガラス
 10
-47.625
 20
-41.925
 70
     8
  0
VERTEX
  8
ガラス
 10
-47.625
 20
-41.95
 70
     8
  0
VERTEX
  8
ガラス
 10
-47.65
 20
-41.975
 70
     8
  0
VERTEX
  8
ガラス
 10
-47.65
 20
-42.0
 70
     8
  0
VERTEX
  8
ガラス
 10
-47.65
 20
-42.025
 70
     8
  0
VERTEX
  8
ガラス
 10
-47.675
 20
-42.05
 70
     8
  0
VERTEX
  8
ガラス
 10
-47.675
 20
-42.1
 70
     8
  0
VERTEX
  8
ガラス
 10
-47.7
 20
-42.125
 70
     8
  0
VERTEX
  8
ガラス
 10
-47.7
 20
-42.15
 70
     8
  0
VERTEX
  8
ガラス
 10
-47.7
 20
-42.175
 70
     8
  0
VERTEX
  8
ガラス
 10
-47.725
 20
-42.2
 70
     8
  0
VERTEX
  8
ガラス
 10
-47.725
 20
-42.225
 70
     8
  0
VERTEX
  8
ガラス
 10
-47.725
 20
-42.275
 70
     8
  0
VERTEX
  8
ガラス
 10
-47.75
 20
-42.3
 70
     8
  0
VERTEX
  8
ガラス
 10
-47.75
 20
-42.325
 70
     8
  0
VERTEX
  8
ガラス
 10
-47.75
 20
-42.35
 70
     8
  0
VERTEX
  8
ガラス
 10
-47.775
 20
-42.375
 70
     8
  0
VERTEX
  8
ガラス
 10
-47.775
 20
-42.425
 70
     8
  0
VERTEX
  8
ガラス
 10
-47.775
 20
-42.45
 70
     8
  0
VERTEX
  8
ガラス
 10
-47.775
 20
-42.475
 70
     8
  0
VERTEX
  8
ガラス
 10
-47.775
 20
-42.5
 70
     8
  0
VERTEX
  8
ガラス
 10
-47.8
 20
-42.525
 70
     8
  0
VERTEX
  8
ガラス
 10
-47.8
 20
-42.575
 70
     8
  0
VERTEX
  8
ガラス
 10
-47.8
 20
-42.6
 70
     8
  0
VERTEX
  8
ガラス
 10
-47.8
 20
-42.625
 70
     8
  0
VERTEX
  8
ガラス
 10
-47.8
 20
-42.65
 70
     8
  0
VERTEX
  8
ガラス
 10
-47.8
 20
-42.675
 70
     8
  0
VERTEX
  8
ガラス
 10
-47.8
 20
-42.725
 70
     8
  0
VERTEX
  8
ガラス
 10
-47.825
 20
-42.75
 70
     8
  0
VERTEX
  8
ガラス
 10
-47.825
 20
-42.775
 70
     8
  0
VERTEX
  8
ガラス
 10
-47.825
 20
-42.8
 70
     8
  0
VERTEX
  8
ガラス
 10
-47.825
 20
-42.85
 70
     8
  0
VERTEX
  8
ガラス
 10
-47.825
 20
-42.875
 70
     8
  0
VERTEX
  8
ガラス
 10
-47.825
 20
-42.9
 70
     8
  0
VERTEX
  8
ガラス
 10
-47.825
 20
-42.925
 70
     8
  0
VERTEX
  8
ガラス
 10
-47.825
 20
-42.95
 70
     8
  0
VERTEX
  8
ガラス
 10
-47.825
 20
-43.0
 70
     8
  0
SEQEND
  0
ARC
  8
ガラス
  6
CONTINUOUS
 10
-48.296611
 20
-42.947307
 40
0.477567
 50
176.001233
 51
356.001233
  0
ENDBLK
  0
BLOCK
  2
*GRP_0015
 70
    65
 10
0.0
 20
0.0
  0
POLYLINE
  8
ガラス
  6
CONTINUOUS
 66
     1
 70
     4
  0
VERTEX
  8
ガラス
 10
-58.875
 20
29.425
 70
     8
  0
VERTEX
  8
ガラス
 10
-58.825
 20
29.425
 70
     8
  0
VERTEX
  8
ガラス
 10
-58.775
 20
29.45
 70
     8
  0
VERTEX
  8
ガラス
 10
-58.725
 20
29.45
 70
     8
  0
VERTEX
  8
ガラス
 10
-58.675
 20
29.45
 70
     8
  0
VERTEX
  8
ガラス
 10
-58.65
 20
29.475
 70
     8
  0
VERTEX
  8
ガラス
 10
-58.6
 20
29.475
 70
     8
  0
VERTEX
  8
ガラス
 10
-58.55
 20
29.5
 70
     8
  0
VERTEX
  8
ガラス
 10
-58.5
 20
29.5
 70
     8
  0
VERTEX
  8
ガラス
 10
-58.475
 20
29.5
 70
     8
  0
VERTEX
  8
ガラス
 10
-58.425
 20
29.525
 70
     8
  0
VERTEX
  8
ガラス
 10
-58.375
 20
29.525
 70
     8
  0
VERTEX
  8
ガラス
 10
-58.325
 20
29.525
 70
     8
  0
VERTEX
  8
ガラス
 10
-58.3
 20
29.525
 70
     8
  0
VERTEX
  8
ガラス
 10
-58.25
 20
29.525
 70
     8
  0
VERTEX
  8
ガラス
 10
-58.2
 20
29.525
 70
     8
  0
VERTEX
  8
ガラス
 10
-58.15
 20
29.525
 70
     8
  0
VERTEX
  8
ガラス
 10
-58.125
 20
29.525
 70
     8
  0
VERTEX
  8
ガラス
 10
-58.075
 20
29.525
 70
     8
  0
VERTEX
  8
ガラス
 10
-58.025
 20
29.525
 70
     8
  0
VERTEX
  8
ガラス
 10
-58.0
 20
29.525
 70
     8
  0
VERTEX
  8
ガラス
 10
-57.95
 20
29.5
 70
     8
  0
VERTEX
  8
ガラス
 10
-57.925
 20
29.5
 70
     8
  0
VERTEX
  8
ガラス
 10
-57.875
 20
29.475
 70
     8
  0
VERTEX
  8
ガラス
 10
-57.825
 20
29.475
 70
     8
  0
VERTEX
  8
ガラス
 10
-57.8
 20
29.45
 70
     8
  0
VERTEX
  8
ガラス
 10
-57.75
 20
29.425
 70
     8
  0
VERTEX
  8
ガラス
 10
-57.725
 20
29.425
 70
     8
  0
VERTEX
  8
ガラス
 10
-57.675
 20
29.4
 70
     8
  0
VERTEX
  8
ガラス
 10
-57.65
 20
29.375
 70
     8
  0
VERTEX
  8
ガラス
 10
-57.6
 20
29.35
 70
     8
  0
VERTEX
  8
ガラス
 10
-57.575
 20
29.325
 70
     8
  0
VERTEX
  8
ガラス
 10
-57.55
 20
29.3
 70
     8
  0
VERTEX
  8
ガラス
 10
-57.5
 20
29.275
 70
     8
  0
VERTEX
  8
ガラス
 10
-57.475
 20
29.225
 70
     8
  0
VERTEX
  8
ガラス
 10
-57.425
 20
29.2
 70
     8
  0
VERTEX
  8
ガラス
 10
-57.4
 20
29.175
 70
     8
  0
VERTEX
  8
ガラス
 10
-57.35
 20
29.15
 70
     8
  0
VERTEX
  8
ガラス
 10
-57.325
 20
29.125
 70
     8
  0
VERTEX
  8
ガラス
 10
-57.3
 20
29.1
 70
     8
  0
VERTEX
  8
ガラス
 10
-57.25
 20
29.05
 70
     8
  0
SEQEND
  0
POLYLINE
  8
ガラス
  6
CONTINUOUS
 66
     1
 70
     4
  0
VERTEX
  8
ガラス
 10
-57.25
 20
29.05
 70
     8
  0
VERTEX
  8
ガラス
 10
-57.275
 20
29.05
 70
     8
  0
VERTEX
  8
ガラス
 10
-57.325
 20
29.05
 70
     8
  0
VERTEX
  8
ガラス
 10
-57.35
 20
29.025
 70
     8
  0
VERTEX
  8
ガラス
 10
-57.375
 20
29.025
 70
     8
  0
VERTEX
  8
ガラス
 10
-57.4
 20
29.025
 70
     8
  0
VERTEX
  8
ガラス
 10
-57.425
 20
29.0
 70
     8
  0
VERTEX
  8
ガラス
 10
-57.475
 20
29.0
 70
     8
  0
VERTEX
  8
ガラス
 10
-57.5
 20
29.0
 70
     8
  0
VERTEX
  8
ガラス
 10
-57.525
 20
28.975
 70
     8
  0
VERTEX
  8
ガラス
 10
-57.55
 20
28.975
 70
     8
  0
VERTEX
  8
ガラス
 10
-57.575
 20
28.975
 70
     8
  0
VERTEX
  8
ガラス
 10
-57.6
 20
28.95
 70
     8
  0
VERTEX
  8
ガラス
 10
-57.65
 20
28.95
 70
     8
  0
VERTEX
  8
ガラス
 10
-57.675
 20
28.95
 70
     8
  0
VERTEX
  8
ガラス
 10
-57.7
 20
28.925
 70
     8
  0
VERTEX
  8
ガラス
 10
-57.725
 20
28.925
 70
     8
  0
VERTEX
  8
ガラス
 10
-57.75
 20
28.9
 70
     8
  0
VERTEX
  8
ガラス
 10
-57.775
 20
28.9
 70
     8
  0
VERTEX
  8
ガラス
 10
-57.825
 20
28.9
 70
     8
  0
VERTEX
  8
ガラス
 10
-57.85
 20
28.875
 70
     8
  0
VERTEX
  8
ガラス
 10
-57.875
 20
28.875
 70
     8
  0
VERTEX
  8
ガラス
 10
-57.9
 20
28.85
 70
     8
  0
VERTEX
  8
ガラス
 10
-57.925
 20
28.85
 70
     8
  0
VERTEX
  8
ガラス
 10
-57.95
 20
28.825
 70
     8
  0
VERTEX
  8
ガラス
 10
-57.975
 20
28.825
 70
     8
  0
VERTEX
  8
ガラス
 10
-58.0
 20
28.8
 70
     8
  0
VERTEX
  8
ガラス
 10
-58.025
 20
28.8
 70
     8
  0
VERTEX
  8
ガラス
 10
-58.05
 20
28.775
 70
     8
  0
VERTEX
  8
ガラス
 10
-58.1
 20
28.75
 70
     8
  0
VERTEX
  8
ガラス
 10
-58.125
 20
28.75
 70
     8
  0
VERTEX
  8
ガラス
 10
-58.15
 20
28.725
 70
     8
  0
VERTEX
  8
ガラス
 10
-58.175
 20
28.725
 70
     8
  0
VERTEX
  8
ガラス
 10
-58.2
 20
28.7
 70
     8
  0
VERTEX
  8
ガラス
 10
-58.225
 20
28.675
 70
     8
  0
VERTEX
  8
ガラス
 10
-58.25
 20
28.675
 70
     8
  0
VERTEX
  8
ガラス
 10
-58.275
 20
28.65
 70
     8
  0
VERTEX
  8
ガラス
 10
-58.3
 20
28.65
 70
     8
  0
VERTEX
  8
ガラス
 10
-58.325
 20
28.625
 70
     8
  0
VERTEX
  8
ガラス
 10
-58.35
 20
28.6
 70
     8
  0
VERTEX
  8
ガラス
 10
-58.375
 20
28.6
 70
     8
  0
SEQEND
  0
ARC
  8
ガラス
  6
CONTINUOUS
 10
-58.612494
 20
29.015434
 40
0.477567
 50
120.563758
 51
300.563758
  0
ENDBLK
  0
BLOCK
  2
*GRP_0016
 70
    65
 10
0.0
 20
0.0
  0
POLYLINE
  8
ガラス
  6
CONTINUOUS
 66
     1
 70
     4
  0
VERTEX
  8
ガラス
 10
-62.55
 20
25.425
 70
     8
  0
VERTEX
  8
ガラス
 10
-62.525
 20
25.475
 70
     8
  0
VERTEX
  8
ガラス
 10
-62.5
 20
25.5
 70
     8
  0
VERTEX
  8
ガラス
 10
-62.5
 20
25.55
 70
     8
  0
VERTEX
  8
ガラス
 10
-62.475
 20
25.6
 70
     8
  0
VERTEX
  8
ガラス
 10
-62.45
 20
25.65
 70
     8
  0
VERTEX
  8
ガラス
 10
-62.45
 20
25.675
 70
     8
  0
VERTEX
  8
ガラス
 10
-62.425
 20
25.725
 70
     8
  0
VERTEX
  8
ガラス
 10
-62.4
 20
25.775
 70
     8
  0
VERTEX
  8
ガラス
 10
-62.375
 20
25.8
 70
     8
  0
VERTEX
  8
ガラス
 10
-62.375
 20
25.85
 70
     8
  0
VERTEX
  8
ガラス
 10
-62.35
 20
25.9
 70
     8
  0
VERTEX
  8
ガラス
 10
-62.325
 20
25.925
 70
     8
  0
VERTEX
  8
ガラス
 10
-62.3
 20
25.975
 70
     8
  0
VERTEX
  8
ガラス
 10
-62.275
 20
26.0
 70
     8
  0
VERTEX
  8
ガラス
 10
-62.25
 20
26.05
 70
     8
  0
VERTEX
  8
ガラス
 10
-62.225
 20
26.075
 70
     8
  0
VERTEX
  8
ガラス
 10
-62.2
 20
26.1
 70
     8
  0
VERTEX
  8
ガラス
 10
-62.175
 20
26.15
 70
     8
  0
VERTEX
  8
ガラス
 10
-62.15
 20
26.175
 70
     8
  0
VERTEX
  8
ガラス
 10
-62.125
 20
26.2
 70
     8
  0
VERTEX
  8
ガラス
 10
-62.1
 20
26.225
 70
     8
  0
VERTEX
  8
ガラス
 10
-62.075
 20
26.25
 70
     8
  0
VERTEX
  8
ガラス
 10
-62.025
 20
26.275
 70
     8
  0
VERTEX
  8
ガラス
 10
-62.0
 20
26.3
 70
     8
  0
VERTEX
  8
ガラス
 10
-61.95
 20
26.325
 70
     8
  0
VERTEX
  8
ガラス
 10
-61.925
 20
26.35
 70
     8
  0
VERTEX
  8
ガラス
 10
-61.875
 20
26.375
 70
     8
  0
VERTEX
  8
ガラス
 10
-61.85
 20
26.375
 70
     8
  0
VERTEX
  8
ガラス
 10
-61.8
 20
26.4
 70
     8
  0
VERTEX
  8
ガラス
 10
-61.775
 20
26.425
 70
     8
  0
VERTEX
  8
ガラス
 10
-61.725
 20
26.425
 70
     8
  0
VERTEX
  8
ガラス
 10
-61.675
 20
26.45
 70
     8
  0
VERTEX
  8
ガラス
 10
-61.65
 20
26.475
 70
     8
  0
VERTEX
  8
ガラス
 10
-61.6
 20
26.475
 70
     8
  0
VERTEX
  8
ガラス
 10
-61.55
 20
26.5
 70
     8
  0
VERTEX
  8
ガラス
 10
-61.5
 20
26.5
 70
     8
  0
VERTEX
  8
ガラス
 10
-61.475
 20
26.525
 70
     8
  0
VERTEX
  8
ガラス
 10
-61.425
 20
26.525
 70
     8
  0
VERTEX
  8
ガラス
 10
-61.375
 20
26.55
 70
     8
  0
VERTEX
  8
ガラス
 10
-61.325
 20
26.55
 70
     8
  0
SEQEND
  0
POLYLINE
  8
ガラス
  6
CONTINUOUS
 66
     1
 70
     4
  0
VERTEX
  8
ガラス
 10
-61.325
 20
26.55
 70
     8
  0
VERTEX
  8
ガラス
 10
-61.35
 20
26.525
 70
     8
  0
VERTEX
  8
ガラス
 10
-61.35
 20
26.5
 70
     8
  0
VERTEX
  8
ガラス
 10
-61.35
 20
26.475
 70
     8
  0
VERTEX
  8
ガラス
 10
-61.375
 20
26.425
 70
     8
  0
VERTEX
  8
ガラス
 10
-61.375
 20
26.4
 70
     8
  0
VERTEX
  8
ガラス
 10
-61.4
 20
26.375
 70
     8
  0
VERTEX
  8
ガラス
 10
-61.4
 20
26.35
 70
     8
  0
VERTEX
  8
ガラス
 10
-61.425
 20
26.325
 70
     8
  0
VERTEX
  8
ガラス
 10
-61.425
 20
26.3
 70
     8
  0
VERTEX
  8
ガラス
 10
-61.425
 20
26.25
 70
     8
  0
VERTEX
  8
ガラス
 10
-61.45
 20
26.225
 70
     8
  0
VERTEX
  8
ガラス
 10
-61.45
 20
26.2
 70
     8
  0
VERTEX
  8
ガラス
 10
-61.45
 20
26.175
 70
     8
  0
VERTEX
  8
ガラス
 10
-61.475
 20
26.15
 70
     8
  0
VERTEX
  8
ガラス
 10
-61.475
 20
26.125
 70
     8
  0
VERTEX
  8
ガラス
 10
-61.475
 20
26.075
 70
     8
  0
VERTEX
  8
ガラス
 10
-61.5
 20
26.05
 70
     8
  0
VERTEX
  8
ガラス
 10
-61.5
 20
26.025
 70
     8
  0
VERTEX
  8
ガラス
 10
-61.5
 20
26.0
 70
     8
  0
VERTEX
  8
ガラス
 10
-61.525
 20
25.975
 70
     8
  0
VERTEX
  8
ガラス
 10
-61.525
 20
25.925
 70
     8
  0
VERTEX
  8
ガラス
 10
-61.525
 20
25.9
 70
     8
  0
VERTEX
  8
ガラス
 10
-61.525
 20
25.875
 70
     8
  0
VERTEX
  8
ガラス
 10
-61.55
 20
25.85
 70
     8
  0
VERTEX
  8
ガラス
 10
-61.55
 20
25.825
 70
     8
  0
VERTEX
  8
ガラス
 10
-61.55
 20
25.775
 70
     8
  0
VERTEX
  8
ガラス
 10
-61.55
 20
25.75
 70
     8
  0
VERTEX
  8
ガラス
 10
-61.55
 20
25.725
 70
     8
  0
VERTEX
  8
ガラス
 10
-61.55
 20
25.7
 70
     8
  0
VERTEX
  8
ガラス
 10
-61.55
 20
25.675
 70
     8
  0
VERTEX
  8
ガラス
 10
-61.575
 20
25.625
 70
     8
  0
VERTEX
  8
ガラス
 10
-61.575
 20
25.6
 70
     8
  0
VERTEX
  8
ガラス
 10
-61.575
 20
25.575
 70
     8
  0
VERTEX
  8
ガラス
 10
-61.575
 20
25.55
 70
     8
  0
VERTEX
  8
ガラス
 10
-61.575
 20
25.5
 70
     8
  0
VERTEX
  8
ガラス
 10
-61.575
 20
25.475
 70
     8
  0
VERTEX
  8
ガラス
 10
-61.575
 20
25.45
 70
     8
  0
VERTEX
  8
ガラス
 10
-61.575
 20
25.425
 70
     8
  0
VERTEX
  8
ガラス
 10
-61.575
 20
25.4
 70
     8
  0
VERTEX
  8
ガラス
 10
-61.575
 20
25.35
 70
     8
  0
SEQEND
  0
ARC
  8
ガラス
  6
CONTINUOUS
 10
-62.048813
 20
25.403445
 40
0.477567
 50
176.001233
 51
356.001233
  0
ENDBLK
  0
BLOCK
  2
*GRP_0017
 70
    65
 10
0.0
 20
0.0
  0
POLYLINE
  8
ガラス
  6
CONTINUOUS
 66
     1
 70
     4
  0
VERTEX
  8
ガラス
 10
-53.85
 20
29.675
 70
     8
  0
VERTEX
  8
ガラス
 10
-53.825
 20
29.675
 70
     8
  0
VERTEX
  8
ガラス
 10
-53.775
 20
29.7
 70
     8
  0
VERTEX
  8
ガラス
 10
-53.725
 20
29.7
 70
     8
  0
VERTEX
  8
ガラス
 10
-53.675
 20
29.725
 70
     8
  0
VERTEX
  8
ガラス
 10
-53.625
 20
29.725
 70
     8
  0
VERTEX
  8
ガラス
 10
-53.6
 20
29.725
 70
     8
  0
VERTEX
  8
ガラス
 10
-53.55
 20
29.75
 70
     8
  0
VERTEX
  8
ガラス
 10
-53.5
 20
29.75
 70
     8
  0
VERTEX
  8
ガラス
 10
-53.45
 20
29.75
 70
     8
  0
VERTEX
  8
ガラス
 10
-53.4
 20
29.775
 70
     8
  0
VERTEX
  8
ガラス
 10
-53.375
 20
29.775
 70
     8
  0
VERTEX
  8
ガラス
 10
-53.325
 20
29.775
 70
     8
  0
VERTEX
  8
ガラス
 10
-53.275
 20
29.775
 70
     8
  0
VERTEX
  8
ガラス
 10
-53.25
 20
29.775
 70
     8
  0
VERTEX
  8
ガラス
 10
-53.2
 20
29.8
 70
     8
  0
VERTEX
  8
ガラス
 10
-53.15
 20
29.8
 70
     8
  0
VERTEX
  8
ガラス
 10
-53.1
 20
29.775
 70
     8
  0
VERTEX
  8
ガラス
 10
-53.075
 20
29.775
 70
     8
  0
VERTEX
  8
ガラス
 10
-53.025
 20
29.775
 70
     8
  0
VERTEX
  8
ガラス
 10
-53.0
 20
29.775
 70
     8
  0
VERTEX
  8
ガラス
 10
-52.95
 20
29.75
 70
     8
  0
VERTEX
  8
ガラス
 10
-52.9
 20
29.75
 70
     8
  0
VERTEX
  8
ガラス
 10
-52.875
 20
29.725
 70
     8
  0
VERTEX
  8
ガラス
 10
-52.825
 20
29.725
 70
     8
  0
VERTEX
  8
ガラス
 10
-52.8
 20
29.7
 70
     8
  0
VERTEX
  8
ガラス
 10
-52.75
 20
29.675
 70
     8
  0
VERTEX
  8
ガラス
 10
-52.725
 20
29.675
 70
     8
  0
VERTEX
  8
ガラス
 10
-52.675
 20
29.65
 70
     8
  0
VERTEX
  8
ガラス
 10
-52.65
 20
29.625
 70
     8
  0
VERTEX
  8
ガラス
 10
-52.6
 20
29.6
 70
     8
  0
VERTEX
  8
ガラス
 10
-52.575
 20
29.575
 70
     8
  0
VERTEX
  8
ガラス
 10
-52.525
 20
29.55
 70
     8
  0
VERTEX
  8
ガラス
 10
-52.5
 20
29.525
 70
     8
  0
VERTEX
  8
ガラス
 10
-52.45
 20
29.5
 70
     8
  0
VERTEX
  8
ガラス
 10
-52.425
 20
29.45
 70
     8
  0
VERTEX
  8
ガラス
 10
-52.4
 20
29.425
 70
     8
  0
VERTEX
  8
ガラス
 10
-52.35
 20
29.4
 70
     8
  0
VERTEX
  8
ガラス
 10
-52.325
 20
29.375
 70
     8
  0
VERTEX
  8
ガラス
 10
-52.275
 20
29.35
 70
     8
  0
VERTEX
  8
ガラス
 10
-52.25
 20
29.3
 70
     8
  0
SEQEND
  0
POLYLINE
  8
ガラス
  6
CONTINUOUS
 66
     1
 70
     4
  0
VERTEX
  8
ガラス
 10
-52.25
 20
29.3
 70
     8
  0
VERTEX
  8
ガラス
 10
-52.275
 20
29.3
 70
     8
  0
VERTEX
  8
ガラス
 10
-52.3
 20
29.3
 70
     8
  0
VERTEX
  8
ガラス
 10
-52.325
 20
29.3
 70
     8
  0
VERTEX
  8
ガラス
 10
-52.375
 20
29.275
 70
     8
  0
VERTEX
  8
ガラス
 10
-52.4
 20
29.275
 70
     8
  0
VERTEX
  8
ガラス
 10
-52.425
 20
29.275
 70
     8
  0
VERTEX
  8
ガラス
 10
-52.45
 20
29.25
 70
     8
  0
VERTEX
  8
ガラス
 10
-52.475
 20
29.25
 70
     8
  0
VERTEX
  8
ガラス
 10
-52.525
 20
29.25
 70
     8
  0
VERTEX
  8
ガラス
 10
-52.55
 20
29.225
 70
     8
  0
VERTEX
  8
ガラス
 10
-52.575
 20
29.225
 70
     8
  0
VERTEX
  8
ガラス
 10
-52.6
 20
29.225
 70
     8
  0
VERTEX
  8
ガラス
 10
-52.625
 20
29.2
 70
     8
  0
VERTEX
  8
ガラス
 10
-52.65
 20
29.2
 70
     8
  0
VERTEX
  8
ガラス
 10
-52.7
 20
29.175
 70
     8
  0
VERTEX
  8
ガラス
 10
-52.725
 20
29.175
 70
     8
  0
VERTEX
  8
ガラス
 10
-52.75
 20
29.175
 70
     8
  0
VERTEX
  8
ガラス
 10
-52.775
 20
29.15
 70
     8
  0
VERTEX
  8
ガラス
 10
-52.8
 20
29.15
 70
     8
  0
VERTEX
  8
ガラス
 10
-52.825
 20
29.125
 70
     8
  0
VERTEX
  8
ガラス
 10
-52.85
 20
29.125
 70
     8
  0
VERTEX
  8
ガラス
 10
-52.9
 20
29.1
 70
     8
  0
VERTEX
  8
ガラス
 10
-52.925
 20
29.1
 70
     8
  0
VERTEX
  8
ガラス
 10
-52.95
 20
29.075
 70
     8
  0
VERTEX
  8
ガラス
 10
-52.975
 20
29.075
 70
     8
  0
VERTEX
  8
ガラス
 10
-53.0
 20
29.05
 70
     8
  0
VERTEX
  8
ガラス
 10
-53.025
 20
29.05
 70
     8
  0
VERTEX
  8
ガラス
 10
-53.05
 20
29.025
 70
     8
  0
VERTEX
  8
ガラス
 10
-53.075
 20
29.025
 70
     8
  0
VERTEX
  8
ガラス
 10
-53.1
 20
29.0
 70
     8
  0
VERTEX
  8
ガラス
 10
-53.125
 20
28.975
 70
     8
  0
VERTEX
  8
ガラス
 10
-53.15
 20
28.975
 70
     8
  0
VERTEX
  8
ガラス
 10
-53.2
 20
28.95
 70
     8
  0
VERTEX
  8
ガラス
 10
-53.225
 20
28.95
 70
     8
  0
VERTEX
  8
ガラス
 10
-53.25
 20
28.925
 70
     8
  0
VERTEX
  8
ガラス
 10
-53.275
 20
28.9
 70
     8
  0
VERTEX
  8
ガラス
 10
-53.3
 20
28.9
 70
     8
  0
VERTEX
  8
ガラス
 10
-53.325
 20
28.875
 70
     8
  0
VERTEX
  8
ガラス
 10
-53.35
 20
28.85
 70
     8
  0
VERTEX
  8
ガラス
 10
-53.375
 20
28.85
 70
     8
  0
SEQEND
  0
ARC
  8
ガラス
  6
CONTINUOUS
 10
-53.604988
 20
29.267399
 40
0.477567
 50
120.563758
 51
300.563758
  0
ENDBLK
  0
BLOCK
  2
*GRP_0018
 70
    65
 10
0.0
 20
0.0
  0
POLYLINE
  8
ガラス
  6
CONTINUOUS
 66
     1
 70
     4
  0
VERTEX
  8
ガラス
 10
-48.475
 20
29.675
 70
     8
  0
VERTEX
  8
ガラス
 10
-48.425
 20
29.675
 70
     8
  0
VERTEX
  8
ガラス
 10
-48.4
 20
29.7
 70
     8
  0
VERTEX
  8
ガラス
 10
-48.35
 20
29.7
 70
     8
  0
VERTEX
  8
ガラス
 10
-48.3
 20
29.725
 70
     8
  0
VERTEX
  8
ガラス
 10
-48.25
 20
29.725
 70
     8
  0
VERTEX
  8
ガラス
 10
-48.2
 20
29.725
 70
     8
  0
VERTEX
  8
ガラス
 10
-48.175
 20
29.75
 70
     8
  0
VERTEX
  8
ガラス
 10
-48.125
 20
29.75
 70
     8
  0
VERTEX
  8
ガラス
 10
-48.075
 20
29.75
 70
     8
  0
VERTEX
  8
ガラス
 10
-48.025
 20
29.775
 70
     8
  0
VERTEX
  8
ガラス
 10
-48.0
 20
29.775
 70
     8
  0
VERTEX
  8
ガラス
 10
-47.95
 20
29.775
 70
     8
  0
VERTEX
  8
ガラス
 10
-47.9
 20
29.775
 70
     8
  0
VERTEX
  8
ガラス
 10
-47.85
 20
29.775
 70
     8
  0
VERTEX
  8
ガラス
 10
-47.825
 20
29.8
 70
     8
  0
VERTEX
  8
ガラス
 10
-47.775
 20
29.8
 70
     8
  0
VERTEX
  8
ガラス
 10
-47.725
 20
29.775
 70
     8
  0
VERTEX
  8
ガラス
 10
-47.7
 20
29.775
 70
     8
  0
VERTEX
  8
ガラス
 10
-47.65
 20
29.775
 70
     8
  0
VERTEX
  8
ガラス
 10
-47.6
 20
29.775
 70
     8
  0
VERTEX
  8
ガラス
 10
-47.575
 20
29.75
 70
     8
  0
VERTEX
  8
ガラス
 10
-47.525
 20
29.75
 70
     8
  0
VERTEX
  8
ガラス
 10
-47.5
 20
29.725
 70
     8
  0
VERTEX
  8
ガラス
 10
-47.45
 20
29.725
 70
     8
  0
VERTEX
  8
ガラス
 10
-47.4
 20
29.7
 70
     8
  0
VERTEX
  8
ガラス
 10
-47.375
 20
29.675
 70
     8
  0
VERTEX
  8
ガラス
 10
-47.325
 20
29.675
 70
     8
  0
VERTEX
  8
ガラス
 10
-47.3
 20
29.65
 70
     8
  0
VERTEX
  8
ガラス
 10
-47.25
 20
29.625
 70
     8
  0
VERTEX
  8
ガラス
 10
-47.225
 20
29.6
 70
     8
  0
VERTEX
  8
ガラス
 10
-47.2
 20
29.575
 70
     8
  0
VERTEX
  8
ガラス
 10
-47.15
 20
29.55
 70
     8
  0
VERTEX
  8
ガラス
 10
-47.125
 20
29.525
 70
     8
  0
VERTEX
  8
ガラス
 10
-47.075
 20
29.5
 70
     8
  0
VERTEX
  8
ガラス
 10
-47.05
 20
29.45
 70
     8
  0
VERTEX
  8
ガラス
 10
-47.0
 20
29.425
 70
     8
  0
VERTEX
  8
ガラス
 10
-46.975
 20
29.4
 70
     8
  0
VERTEX
  8
ガラス
 10
-46.95
 20
29.375
 70
     8
  0
VERTEX
  8
ガラス
 10
-46.9
 20
29.35
 70
     8
  0
VERTEX
  8
ガラス
 10
-46.875
 20
29.3
 70
     8
  0
SEQEND
  0
POLYLINE
  8
ガラス
  6
CONTINUOUS
 66
     1
 70
     4
  0
VERTEX
  8
ガラス
 10
-46.875
 20
29.3
 70
     8
  0
VERTEX
  8
ガラス
 10
-46.9
 20
29.3
 70
     8
  0
VERTEX
  8
ガラス
 10
-46.925
 20
29.3
 70
     8
  0
VERTEX
  8
ガラス
 10
-46.95
 20
29.3
 70
     8
  0
VERTEX
  8
ガラス
 10
-46.975
 20
29.275
 70
     8
  0
VERTEX
  8
ガラス
 10
-47.025
 20
29.275
 70
     8
  0
VERTEX
  8
ガラス
 10
-47.05
 20
29.275
 70
     8
  0
VERTEX
  8
ガラス
 10
-47.075
 20
29.25
 70
     8
  0
VERTEX
  8
ガラス
 10
-47.1
 20
29.25
 70
     8
  0
VERTEX
  8
ガラス
 10
-47.125
 20
29.25
 70
     8
  0
VERTEX
  8
ガラス
 10
-47.175
 20
29.225
 70
     8
  0
VERTEX
  8
ガラス
 10
-47.2
 20
29.225
 70
     8
  0
VERTEX
  8
ガラス
 10
-47.225
 20
29.225
 70
     8
  0
VERTEX
  8
ガラス
 10
-47.25
 20
29.2
 70
     8
  0
VERTEX
  8
ガラス
 10
-47.275
 20
29.2
 70
     8
  0
VERTEX
  8
ガラス
 10
-47.3
 20
29.175
 70
     8
  0
VERTEX
  8
ガラス
 10
-47.35
 20
29.175
 70
     8
  0
VERTEX
  8
ガラス
 10
-47.375
 20
29.175
 70
     8
  0
VERTEX
  8
ガラス
 10
-47.4
 20
29.15
 70
     8
  0
VERTEX
  8
ガラス
 10
-47.425
 20
29.15
 70
     8
  0
VERTEX
  8
ガラス
 10
-47.45
 20
29.125
 70
     8
  0
VERTEX
  8
ガラス
 10
-47.475
 20
29.125
 70
     8
  0
VERTEX
  8
ガラス
 10
-47.5
 20
29.1
 70
     8
  0
VERTEX
  8
ガラス
 10
-47.55
 20
29.1
 70
     8
  0
VERTEX
  8
ガラス
 10
-47.575
 20
29.075
 70
     8
  0
VERTEX
  8
ガラス
 10
-47.6
 20
29.075
 70
     8
  0
VERTEX
  8
ガラス
 10
-47.625
 20
29.05
 70
     8
  0
VERTEX
  8
ガラス
 10
-47.65
 20
29.05
 70
     8
  0
VERTEX
  8
ガラス
 10
-47.675
 20
29.025
 70
     8
  0
VERTEX
  8
ガラス
 10
-47.7
 20
29.025
 70
     8
  0
VERTEX
  8
ガラス
 10
-47.725
 20
29.0
 70
     8
  0
VERTEX
  8
ガラス
 10
-47.75
 20
28.975
 70
     8
  0
VERTEX
  8
ガラス
 10
-47.775
 20
28.975
 70
     8
  0
VERTEX
  8
ガラス
 10
-47.8
 20
28.95
 70
     8
  0
VERTEX
  8
ガラス
 10
-47.825
 20
28.95
 70
     8
  0
VERTEX
  8
ガラス
 10
-47.85
 20
28.925
 70
     8
  0
VERTEX
  8
ガラス
 10
-47.9
 20
28.9
 70
     8
  0
VERTEX
  8
ガラス
 10
-47.925
 20
28.9
 70
     8
  0
VERTEX
  8
ガラス
 10
-47.95
 20
28.875
 70
     8
  0
VERTEX
  8
ガラス
 10
-47.975
 20
28.85
 70
     8
  0
VERTEX
  8
ガラス
 10
-48.0
 20
28.85
 70
     8
  0
SEQEND
  0
ARC
  8
ガラス
  6
CONTINUOUS
 10
-48.224871
 20
29.267399
 40
0.477567
 50
120.563758
 51
300.563758
  0
ENDBLK
  0
BLOCK
  2
*GRP_0019
 70
    65
 10
0.0
 20
0.0
  0
POLYLINE
  8
ガラス
  6
CONTINUOUS
 66
     1
 70
     4
  0
VERTEX
  8
ガラス
 10
-41.275
 20
41.375
 70
     8
  0
VERTEX
  8
ガラス
 10
-41.225
 20
41.375
 70
     8
  0
VERTEX
  8
ガラス
 10
-41.175
 20
41.4
 70
     8
  0
VERTEX
  8
ガラス
 10
-41.125
 20
41.4
 70
     8
  0
VERTEX
  8
ガラス
 10
-41.075
 20
41.425
 70
     8
  0
VERTEX
  8
ガラス
 10
-41.05
 20
41.425
 70
     8
  0
VERTEX
  8
ガラス
 10
-41.0
 20
41.425
 70
     8
  0
VERTEX
  8
ガラス
 10
-40.95
 20
41.45
 70
     8
  0
VERTEX
  8
ガラス
 10
-40.9
 20
41.45
 70
     8
  0
VERTEX
  8
ガラス
 10
-40.875
 20
41.45
 70
     8
  0
VERTEX
  8
ガラス
 10
-40.825
 20
41.475
 70
     8
  0
VERTEX
  8
ガラス
 10
-40.775
 20
41.475
 70
     8
  0
VERTEX
  8
ガラス
 10
-40.725
 20
41.475
 70
     8
  0
VERTEX
  8
ガラス
 10
-40.7
 20
41.475
 70
     8
  0
VERTEX
  8
ガラス
 10
-40.65
 20
41.475
 70
     8
  0
VERTEX
  8
ガラス
 10
-40.6
 20
41.5
 70
     8
  0
VERTEX
  8
ガラス
 10
-40.55
 20
41.5
 70
     8
  0
VERTEX
  8
ガラス
 10
-40.525
 20
41.475
 70
     8
  0
VERTEX
  8
ガラス
 10
-40.475
 20
41.475
 70
     8
  0
VERTEX
  8
ガラス
 10
-40.425
 20
41.475
 70
     8
  0
VERTEX
  8
ガラス
 10
-40.4
 20
41.475
 70
     8
  0
VERTEX
  8
ガラス
 10
-40.35
 20
41.45
 70
     8
  0
VERTEX
  8
ガラス
 10
-40.325
 20
41.45
 70
     8
  0
VERTEX
  8
ガラス
 10
-40.275
 20
41.425
 70
     8
  0
VERTEX
  8
ガラス
 10
-40.225
 20
41.425
 70
     8
  0
VERTEX
  8
ガラス
 10
-40.2
 20
41.4
 70
     8
  0
VERTEX
  8
ガラス
 10
-40.15
 20
41.375
 70
     8
  0
VERTEX
  8
ガラス
 10
-40.125
 20
41.375
 70
     8
  0
VERTEX
  8
ガラス
 10
-40.075
 20
41.35
 70
     8
  0
VERTEX
  8
ガラス
 10
-40.05
 20
41.325
 70
     8
  0
VERTEX
  8
ガラス
 10
-40.0
 20
41.3
 70
     8
  0
VERTEX
  8
ガラス
 10
-39.975
 20
41.275
 70
     8
  0
VERTEX
  8
ガラス
 10
-39.95
 20
41.25
 70
     8
  0
VERTEX
  8
ガラス
 10
-39.9
 20
41.225
 70
     8
  0
VERTEX
  8
ガラス
 10
-39.875
 20
41.2
 70
     8
  0
VERTEX
  8
ガラス
 10
-39.825
 20
41.15
 70
     8
  0
VERTEX
  8
ガラス
 10
-39.8
 20
41.125
 70
     8
  0
VERTEX
  8
ガラス
 10
-39.75
 20
41.1
 70
     8
  0
VERTEX
  8
ガラス
 10
-39.725
 20
41.075
 70
     8
  0
VERTEX
  8
ガラス
 10
-39.7
 20
41.05
 70
     8
  0
VERTEX
  8
ガラス
 10
-39.65
 20
41.0
 70
     8
  0
SEQEND
  0
POLYLINE
  8
ガラス
  6
CONTINUOUS
 66
     1
 70
     4
  0
VERTEX
  8
ガラス
 10
-39.65
 20
41.0
 70
     8
  0
VERTEX
  8
ガラス
 10
-39.675
 20
41.0
 70
     8
  0
VERTEX
  8
ガラス
 10
-39.725
 20
41.0
 70
     8
  0
VERTEX
  8
ガラス
 10
-39.75
 20
41.0
 70
     8
  0
VERTEX
  8
ガラス
 10
-39.775
 20
40.975
 70
     8
  0
VERTEX
  8
ガラス
 10
-39.8
 20
40.975
 70
     8
  0
VERTEX
  8
ガラス
 10
-39.825
 20
40.975
 70
     8
  0
VERTEX
  8
ガラス
 10
-39.85
 20
40.95
 70
     8
  0
VERTEX
  8
ガラス
 10
-39.9
 20
40.95
 70
     8
  0
VERTEX
  8
ガラス
 10
-39.925
 20
40.95
 70
     8
  0
VERTEX
  8
ガラス
 10
-39.95
 20
40.925
 70
     8
  0
VERTEX
  8
ガラス
 10
-39.975
 20
40.925
 70
     8
  0
VERTEX
  8
ガラス
 10
-40.0
 20
40.925
 70
     8
  0
VERTEX
  8
ガラス
 10
-40.05
 20
40.9
 70
     8
  0
VERTEX
  8
ガラス
 10
-40.075
 20
40.9
 70
     8
  0
VERTEX
  8
ガラス
 10
-40.1
 20
40.875
 70
     8
  0
VERTEX
  8
ガラス
 10
-40.125
 20
40.875
 70
     8
  0
VERTEX
  8
ガラス
 10
-40.15
 20
40.875
 70
     8
  0
VERTEX
  8
ガラス
 10
-40.175
 20
40.85
 70
     8
  0
VERTEX
  8
ガラス
 10
-40.2
 20
40.85
 70
     8
  0
VERTEX
  8
ガラス
 10
-40.25
 20
40.825
 70
     8
  0
VERTEX
  8
ガラス
 10
-40.275
 20
40.825
 70
     8
  0
VERTEX
  8
ガラス
 10
-40.3
 20
40.8
 70
     8
  0
VERTEX
  8
ガラス
 10
-40.325
 20
40.8
 70
     8
  0
VERTEX
  8
ガラス
 10
-40.35
 20
40.775
 70
     8
  0
VERTEX
  8
ガラス
 10
-40.375
 20
40.775
 70
     8
  0
VERTEX
  8
ガラス
 10
-40.4
 20
40.75
 70
     8
  0
VERTEX
  8
ガラス
 10
-40.425
 20
40.75
 70
     8
  0
VERTEX
  8
ガラス
 10
-40.45
 20
40.725
 70
     8
  0
VERTEX
  8
ガラス
 10
-40.5
 20
40.725
 70
     8
  0
VERTEX
  8
ガラス
 10
-40.525
 20
40.7
 70
     8
  0
VERTEX
  8
ガラス
 10
-40.55
 20
40.675
 70
     8
  0
VERTEX
  8
ガラス
 10
-40.575
 20
40.675
 70
     8
  0
VERTEX
  8
ガラス
 10
-40.6
 20
40.65
 70
     8
  0
VERTEX
  8
ガラス
 10
-40.625
 20
40.65
 70
     8
  0
VERTEX
  8
ガラス
 10
-40.65
 20
40.625
 70
     8
  0
VERTEX
  8
ガラス
 10
-40.675
 20
40.6
 70
     8
  0
VERTEX
  8
ガラス
 10
-40.7
 20
40.6
 70
     8
  0
VERTEX
  8
ガラス
 10
-40.725
 20
40.575
 70
     8
  0
VERTEX
  8
ガラス
 10
-40.75
 20
40.55
 70
     8
  0
VERTEX
  8
ガラス
 10
-40.775
 20
40.55
 70
     8
  0
SEQEND
  0
ARC
  8
ガラス
  6
CONTINUOUS
 10
-41.011567
 20
40.967545
 40
0.477567
 50
120.563758
 51
300.563758
  0
ENDBLK
  0
BLOCK
  2
*GRP_0020
 70
    65
 10
0.0
 20
0.0
  0
POLYLINE
  8
ガラス
  6
CONTINUOUS
 66
     1
 70
     4
  0
VERTEX
  8
ガラス
 10
-46.025
 20
36.075
 70
     8
  0
VERTEX
  8
ガラス
 10
-46.025
 20
36.125
 70
     8
  0
VERTEX
  8
ガラス
 10
-46.0
 20
36.175
 70
     8
  0
VERTEX
  8
ガラス
 10
-46.0
 20
36.225
 70
     8
  0
VERTEX
  8
ガラス
 10
-46.0
 20
36.25
 70
     8
  0
VERTEX
  8
ガラス
 10
-46.0
 20
36.3
 70
     8
  0
VERTEX
  8
ガラス
 10
-46.0
 20
36.35
 70
     8
  0
VERTEX
  8
ガラス
 10
-45.975
 20
36.4
 70
     8
  0
VERTEX
  8
ガラス
 10
-45.975
 20
36.45
 70
     8
  0
VERTEX
  8
ガラス
 10
-45.975
 20
36.475
 70
     8
  0
VERTEX
  8
ガラス
 10
-45.95
 20
36.525
 70
     8
  0
VERTEX
  8
ガラス
 10
-45.95
 20
36.575
 70
     8
  0
VERTEX
  8
ガラス
 10
-45.95
 20
36.625
 70
     8
  0
VERTEX
  8
ガラス
 10
-45.925
 20
36.65
 70
     8
  0
VERTEX
  8
ガラス
 10
-45.925
 20
36.7
 70
     8
  0
VERTEX
  8
ガラス
 10
-45.9
 20
36.75
 70
     8
  0
VERTEX
  8
ガラス
 10
-45.9
 20
36.775
 70
     8
  0
VERTEX
  8
ガラス
 10
-45.875
 20
36.825
 70
     8
  0
VERTEX
  8
ガラス
 10
-45.85
 20
36.85
 70
     8
  0
VERTEX
  8
ガラス
 10
-45.825
 20
36.9
 70
     8
  0
VERTEX
  8
ガラス
 10
-45.825
 20
36.925
 70
     8
  0
VERTEX
  8
ガラス
 10
-45.8
 20
36.975
 70
     8
  0
VERTEX
  8
ガラス
 10
-45.775
 20
37.0
 70
     8
  0
VERTEX
  8
ガラス
 10
-45.75
 20
37.025
 70
     8
  0
VERTEX
  8
ガラス
 10
-45.725
 20
37.05
 70
     8
  0
VERTEX
  8
ガラス
 10
-45.675
 20
37.1
 70
     8
  0
VERTEX
  8
ガラス
 10
-45.65
 20
37.125
 70
     8
  0
VERTEX
  8
ガラス
 10
-45.625
 20
37.15
 70
     8
  0
VERTEX
  8
ガラス
 10
-45.575
 20
37.175
 70
     8
  0
VERTEX
  8
ガラス
 10
-45.55
 20
37.2
 70
     8
  0
VERTEX
  8
ガラス
 10
-45.525
 20
37.225
 70
     8
  0
VERTEX
  8
ガラス
 10
-45.475
 20
37.25
 70
     8
  0
VERTEX
  8
ガラス
 10
-45.45
 20
37.275
 70
     8
  0
VERTEX
  8
ガラス
 10
-45.4
 20
37.3
 70
     8
  0
VERTEX
  8
ガラス
 10
-45.375
 20
37.325
 70
     8
  0
VERTEX
  8
ガラス
 10
-45.325
 20
37.35
 70
     8
  0
VERTEX
  8
ガラス
 10
-45.3
 20
37.375
 70
     8
  0
VERTEX
  8
ガラス
 10
-45.25
 20
37.4
 70
     8
  0
VERTEX
  8
ガラス
 10
-45.2
 20
37.425
 70
     8
  0
VERTEX
  8
ガラス
 10
-45.175
 20
37.45
 70
     8
  0
VERTEX
  8
ガラス
 10
-45.125
 20
37.475
 70
     8
  0
SEQEND
  0
POLYLINE
  8
ガラス
  6
CONTINUOUS
 66
     1
 70
     4
  0
VERTEX
  8
ガラス
 10
-45.125
 20
37.475
 70
     8
  0
VERTEX
  8
ガラス
 10
-45.125
 20
37.425
 70
     8
  0
VERTEX
  8
ガラス
 10
-45.125
 20
37.4
 70
     8
  0
VERTEX
  8
ガラス
 10
-45.125
 20
37.375
 70
     8
  0
VERTEX
  8
ガラス
 10
-45.15
 20
37.35
 70
     8
  0
VERTEX
  8
ガラス
 10
-45.15
 20
37.3
 70
     8
  0
VERTEX
  8
ガラス
 10
-45.15
 20
37.275
 70
     8
  0
VERTEX
  8
ガラス
 10
-45.15
 20
37.25
 70
     8
  0
VERTEX
  8
ガラス
 10
-45.15
 20
37.225
 70
     8
  0
VERTEX
  8
ガラス
 10
-45.15
 20
37.2
 70
     8
  0
VERTEX
  8
ガラス
 10
-45.15
 20
37.15
 70
     8
  0
VERTEX
  8
ガラス
 10
-45.15
 20
37.125
 70
     8
  0
VERTEX
  8
ガラス
 10
-45.15
 20
37.1
 70
     8
  0
VERTEX
  8
ガラス
 10
-45.15
 20
37.075
 70
     8
  0
VERTEX
  8
ガラス
 10
-45.15
 20
37.025
 70
     8
  0
VERTEX
  8
ガラス
 10
-45.15
 20
37.0
 70
     8
  0
VERTEX
  8
ガラス
 10
-45.15
 20
36.975
 70
     8
  0
VERTEX
  8
ガラス
 10
-45.175
 20
36.95
 70
     8
  0
VERTEX
  8
ガラス
 10
-45.175
 20
36.925
 70
     8
  0
VERTEX
  8
ガラス
 10
-45.15
 20
36.875
 70
     8
  0
VERTEX
  8
ガラス
 10
-45.15
 20
36.85
 70
     8
  0
VERTEX
  8
ガラス
 10
-45.15
 20
36.825
 70
     8
  0
VERTEX
  8
ガラス
 10
-45.15
 20
36.8
 70
     8
  0
VERTEX
  8
ガラス
 10
-45.15
 20
36.75
 70
     8
  0
VERTEX
  8
ガラス
 10
-45.15
 20
36.725
 70
     8
  0
VERTEX
  8
ガラス
 10
-45.15
 20
36.7
 70
     8
  0
VERTEX
  8
ガラス
 10
-45.15
 20
36.675
 70
     8
  0
VERTEX
  8
ガラス
 10
-45.15
 20
36.65
 70
     8
  0
VERTEX
  8
ガラス
 10
-45.15
 20
36.6
 70
     8
  0
VERTEX
  8
ガラス
 10
-45.125
 20
36.575
 70
     8
  0
VERTEX
  8
ガラス
 10
-45.125
 20
36.55
 70
     8
  0
VERTEX
  8
ガラス
 10
-45.125
 20
36.525
 70
     8
  0
VERTEX
  8
ガラス
 10
-45.125
 20
36.5
 70
     8
  0
VERTEX
  8
ガラス
 10
-45.125
 20
36.45
 70
     8
  0
VERTEX
  8
ガラス
 10
-45.125
 20
36.425
 70
     8
  0
VERTEX
  8
ガラス
 10
-45.1
 20
36.4
 70
     8
  0
VERTEX
  8
ガラス
 10
-45.1
 20
36.375
 70
     8
  0
VERTEX
  8
ガラス
 10
-45.1
 20
36.325
 70
     8
  0
VERTEX
  8
ガラス
 10
-45.1
 20
36.3
 70
     8
  0
VERTEX
  8
ガラス
 10
-45.075
 20
36.275
 70
     8
  0
VERTEX
  8
ガラス
 10
-45.075
 20
36.25
 70
     8
  0
SEQEND
  0
ARC
  8
ガラス
  6
CONTINUOUS
 10
-45.536885
 20
36.172929
 40
0.477567
 50
190.27122
 51
370.27122
  0
ENDBLK
  0
BLOCK
  2
*GRP_0021
 70
    65
 10
0.0
 20
0.0
  0
LINE
  8
ゴム等
  6
CONTINUOUS
 10
-29.61204
 20
11.709335
 11
-27.112038
 21
11.709335
  0
LINE
  8
ゴム等
  6
CONTINUOUS
 10
-27.112038
 20
12.709338
 11
-27.112038
 21
13.459338
  0
LINE
  8
ゴム等
  6
CONTINUOUS
 10
-29.61204
 20
12.709338
 11
-29.61204
 21
13.459338
  0
LINE
  8
ゴム等
  6
CONTINUOUS
 10
-31.612038
 20
13.459338
 11
-29.61204
 21
13.459338
  0
LINE
  8
ゴム等
  6
CONTINUOUS
 10
-27.112038
 20
13.459338
 11
-24.112038
 21
13.459338
  0
LINE
  8
ゴム等
  6
CONTINUOUS
 10
-24.112038
 20
13.459338
 11
-24.112038
 21
14.959338
  0
LINE
  8
ゴム等
  6
CONTINUOUS
 10
-23.11204
 20
14.959338
 11
-24.112038
 21
14.959338
  0
LINE
  8
ゴム等
  6
CONTINUOUS
 10
-23.11204
 20
14.959338
 11
-23.11204
 21
16.209335
  0
ARC
  8
ゴム等
  6
CONTINUOUS
 10
-28.612037
 20
10.584338
 40
6.375
 50
61.927513
 51
118.072487
  0
LINE
  8
ゴム等
  6
CONTINUOUS
 10
-23.11204
 20
16.209335
 11
-25.612038
 21
16.209335
  0
LINE
  8
ゴム等
  6
CONTINUOUS
 10
-31.612038
 20
13.459338
 11
-31.612038
 21
16.209335
  0
LINE
  8
ゴム等
  6
CONTINUOUS
 10
-27.112038
 20
11.709335
 11
-26.662007
 21
12.307482
  0
ARC
  8
ゴム等
  6
CONTINUOUS
 10
-26.862037
 20
12.459338
 40
0.25
 50
322.618449
 51
450.0
  0
LINE
  8
ゴム等
  6
CONTINUOUS
 10
-27.112038
 20
12.709338
 11
-26.86204
 21
12.709338
  0
LINE
  8
ゴム等
  6
CONTINUOUS
 10
-29.61204
 20
11.709335
 11
-30.06207
 21
12.307482
  0
ARC
  8
ゴム等
  6
CONTINUOUS
 10
-29.862037
 20
12.459338
 40
0.25
 50
90.0
 51
217.381551
  0
LINE
  8
ゴム等
  6
CONTINUOUS
 10
-29.61204
 20
12.709338
 11
-29.86204
 21
12.709338
  0
INSERT
  2
*HAT_0001
  8
ゴム等
 10
0.0
 20
0.0
  0
ENDBLK
  0
BLOCK
  2
*GRP_0022
 70
    65
 10
0.0
 20
0.0
  0
LINE
  8
ゴム等
  6
CONTINUOUS
 10
-50.642723
 20
49.021233
 11
-49.36993
 21
50.294028
  0
LINE
  8
ゴム等
  6
CONTINUOUS
 10
-47.672875
 20
51.991083
 11
-46.400085
 21
53.263877
  0
LINE
  8
ゴム等
  6
CONTINUOUS
 10
-46.682925
 20
51.708243
 11
-47.036478
 21
51.354687
  0
LINE
  8
ゴム等
  6
CONTINUOUS
 10
-48.733537
 20
49.65763
 11
-49.087087
 21
49.30408
  0
LINE
  8
ゴム等
  6
CONTINUOUS
 10
-47.672875
 20
51.991083
 11
-47.036478
 21
51.354687
  0
LINE
  8
ゴム等
  6
CONTINUOUS
 10
-49.36993
 20
50.294028
 11
-48.733537
 21
49.65763
  0
LINE
  8
ゴム等
  6
CONTINUOUS
 10
-46.50615
 20
51.531467
 11
-46.57686
 21
49.905122
  0
LINE
  8
ゴム等
  6
CONTINUOUS
 10
-48.910312
 20
49.127305
 11
-47.283968
 21
49.19801
  0
LINE
  8
ゴム等
  6
CONTINUOUS
 10
-49.087087
 20
49.30408
 11
-48.910312
 21
49.127305
  0
LINE
  8
ゴム等
  6
CONTINUOUS
 10
-46.682925
 20
51.708243
 11
-46.50615
 21
51.531467
  0
LINE
  8
ゴム等
  6
CONTINUOUS
 10
-46.57686
 20
49.905122
 11
-47.283968
 21
49.19801
  0
ARC
  8
ゴム等
  6
CONTINUOUS
 10
-48.167853
 20
50.788999
 40
0.5
 50
45.00002
 51
225.00002
  0
ARC
  8
ゴム等
  6
CONTINUOUS
 10
-47.602168
 20
50.223314
 40
0.5
 50
225.00002
 51
405.00002
  0
LINE
  8
ゴム等
  6
CONTINUOUS
 10
-47.814295
 20
51.142557
 11
-47.248613
 21
50.576875
  0
LINE
  8
ゴム等
  6
CONTINUOUS
 10
-48.521403
 20
50.43545
 11
-47.95572
 21
49.869767
  0
LINE
  8
ゴム等
  6
CONTINUOUS
 10
-51.591618
 20
49.970127
 11
-49.693837
 21
49.970127
  0
LINE
  8
ゴム等
  6
CONTINUOUS
 10
-49.046035
 20
49.970132
 11
-48.056085
 21
49.970132
  0
LINE
  8
ゴム等
  6
CONTINUOUS
 10
-47.17101
 20
49.970132
 11
-46.574035
 21
49.970132
  0
LINE
  8
ゴム等
  6
CONTINUOUS
 10
-47.64187
 20
50.970132
 11
-46.530555
 21
50.97013
  0
LINE
  8
ゴム等
  6
CONTINUOUS
 10
-50.642723
 20
49.021233
 11
-52.05694
 21
50.435448
  0
LINE
  8
ゴム等
  6
CONTINUOUS
 10
-48.521403
 20
53.61743
 11
-50.996275
 21
51.142557
  0
ARC
  8
ゴム等
  6
CONTINUOUS
 10
-48.698184
 20
53.794203
 40
0.25
 50
315.00002
 51
405.00002
  0
ARC
  8
ゴム等
  6
CONTINUOUS
 10
-51.173057
 20
51.319328
 40
0.25
 50
225.00002
 51
315.00002
  0
LINE
  8
ゴム等
  6
CONTINUOUS
 10
-48.521403
 20
53.970985
 11
-47.8143
 21
54.678092
  0
LINE
  8
ゴム等
  6
CONTINUOUS
 10
-51.349832
 20
51.142557
 11
-52.05694
 21
50.435448
  0
LINE
  8
ゴム等
  6
CONTINUOUS
 10
-46.400085
 20
53.263877
 11
-47.8143
 21
54.678092
  0
LINE
  8
ゴム等
  6
CONTINUOUS
 10
-47.106337
 20
53.97013
 11
-48.522257
 21
53.970132
  0
LINE
  8
ゴム等
  6
CONTINUOUS
 10
-46.69384
 20
52.970132
 11
-49.168705
 21
52.970132
  0
LINE
  8
ゴム等
  6
CONTINUOUS
 10
-47.651925
 20
51.97013
 11
-50.168703
 21
51.97013
  0
LINE
  8
ゴム等
  6
CONTINUOUS
 10
-48.633893
 20
50.97013
 11
-51.522257
 21
50.97013
  0
ENDBLK
  0
BLOCK
  2
*GRP_0023
 70
    65
 10
0.0
 20
0.0
  0
LINE
  8
ゴム等
  6
CONTINUOUS
 10
-64.580365
 20
50.938033
 11
-59.277063
 21
56.241335
  0
LINE
  8
ゴム等
  6
CONTINUOUS
 10
-64.580372
 20
50.93804
 11
-56.760272
 21
43.117917
  0
LINE
  8
ゴム等
  6
CONTINUOUS
 10
-59.277063
 20
56.241335
 11
-51.45697
 21
48.42122
  0
LINE
  8
ゴム等
  6
CONTINUOUS
 10
-56.760272
 20
43.117917
 11
-51.45697
 21
48.42122
  0
ENDBLK
  0
BLOCK
  2
*GRP_0024
 70
    65
 10
0.0
 20
0.0
  0
LINE
  8
ボルト／ビス
  6
CONTINUOUS
 62
    64
 10
-36.28924
 20
-42.142705
 11
-36.813325
 21
-42.188555
  0
ARC
  8
ボルト／ビス
  6
CONTINUOUS
 62
    64
 10
-36.739246
 20
-43.035319
 40
0.85
 50
94.999989
 51
180.0
  0
LINE
  8
ボルト／ビス
  6
CONTINUOUS
 62
    64
 10
-37.589242
 20
-43.03532
 11
-37.589242
 21
-43.892705
  0
LINE
  8
ボルト／ビス
  6
CONTINUOUS
 62
    64
 10
-36.28924
 20
-45.642707
 11
-36.813325
 21
-45.596855
  0
ARC
  8
ボルト／ビス
  6
CONTINUOUS
 62
    64
 10
-36.739246
 20
-44.750086
 40
0.85
 50
180.0
 51
265.000011
  0
LINE
  8
ボルト／ビス
  6
CONTINUOUS
 62
    64
 10
-37.589242
 20
-44.75009
 11
-37.589242
 21
-43.892705
  0
LINE
  8
ボルト／ビス
  6
CONTINUOUS
 62
    64
 10
-37.396788
 20
-42.694385
 11
-37.517872
 21
-42.694385
  0
LINE
  8
ボルト／ビス
  6
CONTINUOUS
 62
    64
 10
-37.07175
 20
-43.542707
 11
-37.07175
 21
-43.892705
  0
LINE
  8
ボルト／ビス
  6
CONTINUOUS
 62
    64
 10
-37.396788
 20
-43.342705
 11
-37.396788
 21
-42.694385
  0
LINE
  8
ボルト／ビス
  6
CONTINUOUS
 62
    64
 10
-37.07175
 20
-43.542707
 11
-37.19679
 21
-43.542707
  0
ARC
  8
ボルト／ビス
  6
CONTINUOUS
 62
    64
 10
-37.196793
 20
-43.342703
 40
0.2
 50
180.0
 51
270.0
  0
LINE
  8
ボルト／ビス
  6
CONTINUOUS
 62
    64
 10
-37.396788
 20
-45.091025
 11
-37.517872
 21
-45.091025
  0
LINE
  8
ボルト／ビス
  6
CONTINUOUS
 62
    64
 10
-37.07175
 20
-44.242705
 11
-37.07175
 21
-43.892705
  0
LINE
  8
ボルト／ビス
  6
CONTINUOUS
 62
    64
 10
-37.396788
 20
-44.442707
 11
-37.396788
 21
-45.091025
  0
LINE
  8
ボルト／ビス
  6
CONTINUOUS
 62
    64
 10
-37.07175
 20
-44.242705
 11
-37.19679
 21
-44.242705
  0
ARC
  8
ボルト／ビス
  6
CONTINUOUS
 62
    64
 10
-37.196793
 20
-44.442703
 40
0.2
 50
90.0
 51
180.0
  0
LINE
  8
ボルト／ビス
  6
CONTINUOUS
 62
    64
 10
-36.28924
 20
-42.142705
 11
-36.28924
 21
-45.642707
  0
LINE
  8
ボルト／ビス
  6
CONTINUOUS
 62
    64
 10
-38.574938
 20
-43.892705
 11
-31.163995
 21
-43.892705
  0
LINE
  8
ボルト／ビス
  6
CONTINUOUS
 62
    64
 10
-33.539243
 20
-42.892705
 11
-33.28924
 21
-43.142705
  0
LINE
  8
ボルト／ビス
  6
CONTINUOUS
 62
    64
 10
-33.539243
 20
-44.892707
 11
-33.28924
 21
-44.642705
  0
LINE
  8
ボルト／ビス
  6
CONTINUOUS
 62
    64
 10
-33.539243
 20
-42.892705
 11
-33.539243
 21
-44.892707
  0
LINE
  8
ボルト／ビス
  6
CONTINUOUS
 62
    64
 10
-33.28924
 20
-43.142705
 11
-33.28924
 21
-44.642705
  0
LINE
  8
ボルト／ビス
  6
CONTINUOUS
 62
    64
 10
-36.28924
 20
-43.142705
 11
-33.28924
 21
-43.142705
  0
LINE
  8
ボルト／ビス
  6
CONTINUOUS
 62
    64
 10
-36.28924
 20
-44.642705
 11
-33.28924
 21
-44.642705
  0
LINE
  8
ボルト／ビス
  6
CONTINUOUS
 62
    64
 10
-36.28924
 20
-44.892707
 11
-33.539243
 21
-44.892707
  0
LINE
  8
ボルト／ビス
  6
CONTINUOUS
 62
    64
 10
-36.28924
 20
-42.892705
 11
-33.539243
 21
-42.892705
  0
ENDBLK
  0
BLOCK
  2
*GRP_0025
 70
    65
 10
0.0
 20
0.0
  0
LINE
  8
ボルト／ビス
  6
CONTINUOUS
 62
    64
 10
-32.939253
 20
-61.267977
 11
-32.711603
 21
-61.89344
  0
ARC
  8
ボルト／ビス
  6
CONTINUOUS
 62
    64
 10
-30.89217
 20
-60.955244
 40
2.047085
 50
152.722034
 51
180.0
  0
LINE
  8
ボルト／ビス
  6
CONTINUOUS
 62
    64
 10
-32.939253
 20
-55.01335
 11
-32.711603
 21
-54.387888
  0
ARC
  8
ボルト／ビス
  6
CONTINUOUS
 62
    64
 10
-30.89217
 20
-55.326077
 40
2.047085
 50
180.0
 51
207.277966
  0
ARC
  8
ボルト／ビス
  6
CONTINUOUS
 62
    64
 10
-25.092389
 20
-58.14066
 40
7.846866
 50
166.165046
 51
193.834954
  0
LINE
  8
ボルト／ビス
  6
CONTINUOUS
 62
    64
 10
-30.364253
 20
-61.89344
 11
-32.711603
 21
-61.89344
  0
LINE
  8
ボルト／ビス
  6
CONTINUOUS
 62
    64
 10
-30.364253
 20
-54.387888
 11
-32.711603
 21
-54.387888
  0
LINE
  8
ボルト／ビス
  6
CONTINUOUS
 62
    64
 10
-32.939253
 20
-55.01335
 11
-32.939253
 21
-61.267977
  0
LINE
  8
ボルト／ビス
  6
CONTINUOUS
 62
    64
 10
-32.711603
 20
-56.264275
 11
-30.364253
 21
-56.264275
  0
LINE
  8
ボルト／ビス
  6
CONTINUOUS
 62
    64
 10
-32.711603
 20
-60.017053
 11
-30.364253
 21
-60.017053
  0
LINE
  8
ボルト／ビス
  6
CONTINUOUS
 62
    64
 10
-30.364253
 20
-54.387888
 11
-30.364253
 21
-61.89344
  0
LINE
  8
ボルト／ビス
  6
CONTINUOUS
 62
    64
 10
-29.464253
 20
-62.515662
 11
-28.964253
 21
-62.515662
  0
LINE
  8
ボルト／ビス
  6
CONTINUOUS
 62
    64
 10
-29.464253
 20
-53.765665
 11
-28.964253
 21
-53.765665
  0
LINE
  8
ボルト／ビス
  6
CONTINUOUS
 62
    64
 10
-29.464253
 20
-62.515662
 11
-29.464253
 21
-53.765665
  0
LINE
  8
ボルト／ビス
  6
CONTINUOUS
 62
    64
 10
-28.964253
 20
-62.515662
 11
-28.964253
 21
-53.765665
  0
LINE
  8
ボルト／ビス
  6
CONTINUOUS
 62
    64
 10
-30.364253
 20
-58.140662
 11
-29.464253
 21
-58.140662
  0
LINE
  8
ボルト／ビス
  6
CONTINUOUS
 62
    64
 10
-30.364253
 20
-54.190662
 11
-29.464253
 21
-54.190662
  0
LINE
  8
ボルト／ビス
  6
CONTINUOUS
 62
    64
 10
-30.364253
 20
-62.090665
 11
-29.464253
 21
-62.090665
  0
LINE
  8
ボルト／ビス
  6
CONTINUOUS
 62
    64
 10
-30.364253
 20
-54.190662
 11
-30.364253
 21
-62.090665
  0
LINE
  8
ボルト／ビス
  6
CONTINUOUS
 62
    64
 10
-35.43925
 20
-58.140662
 11
-15.364253
 21
-58.140662
  0
LINE
  8
ボルト／ビス
  6
CONTINUOUS
 62
    64
 10
-17.864253
 20
-56.540665
 11
-17.864253
 21
-59.740662
  0
LINE
  8
ボルト／ビス
  6
CONTINUOUS
 62
    64
 10
-18.464253
 20
-56.140662
 11
-17.864253
 21
-56.540665
  0
LINE
  8
ボルト／ビス
  6
CONTINUOUS
 62
    64
 10
-18.464253
 20
-60.140665
 11
-17.864253
 21
-59.740662
  0
LINE
  8
ボルト／ビス
  6
CONTINUOUS
 62
    64
 10
-17.864253
 20
-56.540665
 11
-17.864253
 21
-59.740662
  0
LINE
  8
ボルト／ビス
  6
CONTINUOUS
 62
    64
 10
-18.464253
 20
-56.140662
 11
-18.464253
 21
-60.140665
  0
LINE
  8
ボルト／ビス
  6
CONTINUOUS
 62
    64
 10
-28.964253
 20
-56.140662
 11
-18.464253
 21
-56.140662
  0
LINE
  8
ボルト／ビス
  6
CONTINUOUS
 62
    64
 10
-28.964253
 20
-60.140665
 11
-18.464253
 21
-60.140665
  0
LINE
  8
ボルト／ビス
  6
CONTINUOUS
 62
    64
 10
-28.964253
 20
-56.540665
 11
-17.864253
 21
-56.540665
  0
LINE
  8
ボルト／ビス
  6
CONTINUOUS
 62
    64
 10
-28.964253
 20
-59.740662
 11
-17.864253
 21
-59.740662
  0
ENDBLK
  0
BLOCK
  2
*GRP_0026
 70
    65
 10
0.0
 20
0.0
  0
LINE
  8
ボルト／ビス
  6
CONTINUOUS
 62
    64
 10
-21.78925
 20
-61.267975
 11
-22.016897
 21
-61.893437
  0
ARC
  8
ボルト／ビス
  6
CONTINUOUS
 62
    64
 10
-23.836336
 20
-60.955242
 40
2.047085
 50
0.0
 51
27.277966
  0
LINE
  8
ボルト／ビス
  6
CONTINUOUS
 62
    64
 10
-21.78925
 20
-55.013345
 11
-22.016897
 21
-54.387882
  0
ARC
  8
ボルト／ビス
  6
CONTINUOUS
 62
    64
 10
-23.836336
 20
-55.326075
 40
2.047085
 50
332.722034
 51
360.0
  0
ARC
  8
ボルト／ビス
  6
CONTINUOUS
 62
    64
 10
-29.636117
 20
-58.140658
 40
7.846866
 50
346.165046
 51
373.834954
  0
LINE
  8
ボルト／ビス
  6
CONTINUOUS
 62
    64
 10
-24.364253
 20
-61.893437
 11
-22.016897
 21
-61.893437
  0
LINE
  8
ボルト／ビス
  6
CONTINUOUS
 62
    64
 10
-24.364253
 20
-54.387882
 11
-22.016897
 21
-54.387882
  0
LINE
  8
ボルト／ビス
  6
CONTINUOUS
 62
    64
 10
-21.78925
 20
-55.013345
 11
-21.78925
 21
-61.267975
  0
LINE
  8
ボルト／ビス
  6
CONTINUOUS
 62
    64
 10
-22.016897
 20
-56.26427
 11
-24.364253
 21
-56.26427
  0
LINE
  8
ボルト／ビス
  6
CONTINUOUS
 62
    64
 10
-22.016897
 20
-60.01705
 11
-24.364253
 21
-60.01705
  0
LINE
  8
ボルト／ビス
  6
CONTINUOUS
 62
    64
 10
-24.364253
 20
-54.387882
 11
-24.364253
 21
-61.893437
  0
LINE
  8
ボルト／ビス
  6
CONTINUOUS
 62
    64
 10
-25.264253
 20
-62.51566
 11
-25.76425
 21
-62.51566
  0
LINE
  8
ボルト／ビス
  6
CONTINUOUS
 62
    64
 10
-25.264253
 20
-53.76566
 11
-25.76425
 21
-53.76566
  0
LINE
  8
ボルト／ビス
  6
CONTINUOUS
 62
    64
 10
-25.264253
 20
-62.51566
 11
-25.264253
 21
-53.76566
  0
LINE
  8
ボルト／ビス
  6
CONTINUOUS
 62
    64
 10
-25.76425
 20
-62.51566
 11
-25.76425
 21
-53.76566
  0
LINE
  8
ボルト／ビス
  6
CONTINUOUS
 62
    64
 10
-24.364253
 20
-58.140657
 11
-25.264253
 21
-58.140657
  0
LINE
  8
ボルト／ビス
  6
CONTINUOUS
 62
    64
 10
-24.364253
 20
-54.19066
 11
-25.264253
 21
-54.19066
  0
LINE
  8
ボルト／ビス
  6
CONTINUOUS
 62
    64
 10
-24.364253
 20
-62.09066
 11
-25.264253
 21
-62.09066
  0
LINE
  8
ボルト／ビス
  6
CONTINUOUS
 62
    64
 10
-24.364253
 20
-54.19066
 11
-24.364253
 21
-62.09066
  0
ENDBLK
  0
BLOCK
  2
*GRP_0027
 70
    65
 10
0.0
 20
0.0
  0
LINE
  8
ボルト／ビス
  6
CONTINUOUS
 62
    64
 10
-28.605805
 20
-42.590668
 11
-28.651657
 21
-43.11475
  0
ARC
  8
ボルト／ビス
  6
CONTINUOUS
 62
    64
 10
-29.498423
 20
-43.040663
 40
0.85
 50
270.0
 51
355.000011
  0
LINE
  8
ボルト／ビス
  6
CONTINUOUS
 62
    64
 10
-29.498423
 20
-43.890665
 11
-30.355807
 21
-43.890665
  0
LINE
  8
ボルト／ビス
  6
CONTINUOUS
 62
    64
 10
-32.105807
 20
-42.590668
 11
-32.059958
 21
-43.11475
  0
ARC
  8
ボルト／ビス
  6
CONTINUOUS
 62
    64
 10
-31.21319
 20
-43.040663
 40
0.85
 50
184.999989
 51
270.0
  0
LINE
  8
ボルト／ビス
  6
CONTINUOUS
 62
    64
 10
-31.213192
 20
-43.890665
 11
-30.355807
 21
-43.890665
  0
LINE
  8
ボルト／ビス
  6
CONTINUOUS
 62
    64
 10
-29.157488
 20
-43.698215
 11
-29.157488
 21
-43.819295
  0
LINE
  8
ボルト／ビス
  6
CONTINUOUS
 62
    64
 10
-30.005807
 20
-43.373172
 11
-30.355807
 21
-43.373172
  0
LINE
  8
ボルト／ビス
  6
CONTINUOUS
 62
    64
 10
-29.805805
 20
-43.698215
 11
-29.157488
 21
-43.698215
  0
LINE
  8
ボルト／ビス
  6
CONTINUOUS
 62
    64
 10
-30.005807
 20
-43.373172
 11
-30.005807
 21
-43.498213
  0
ARC
  8
ボルト／ビス
  6
CONTINUOUS
 62
    64
 10
-29.805807
 20
-43.498211
 40
0.2
 50
180.0
 51
270.0
  0
LINE
  8
ボルト／ビス
  6
CONTINUOUS
 62
    64
 10
-31.554127
 20
-43.698215
 11
-31.554127
 21
-43.819295
  0
LINE
  8
ボルト／ビス
  6
CONTINUOUS
 62
    64
 10
-30.705805
 20
-43.373172
 11
-30.355807
 21
-43.373172
  0
LINE
  8
ボルト／ビス
  6
CONTINUOUS
 62
    64
 10
-30.905807
 20
-43.698215
 11
-31.554127
 21
-43.698215
  0
LINE
  8
ボルト／ビス
  6
CONTINUOUS
 62
    64
 10
-30.705805
 20
-43.373172
 11
-30.705805
 21
-43.498213
  0
ARC
  8
ボルト／ビス
  6
CONTINUOUS
 62
    64
 10
-30.905807
 20
-43.498211
 40
0.2
 50
270.0
 51
360.0
  0
LINE
  8
ボルト／ビス
  6
CONTINUOUS
 62
    64
 10
-28.605805
 20
-42.590668
 11
-32.105807
 21
-42.590668
  0
LINE
  8
ボルト／ビス
  6
CONTINUOUS
 62
    64
 10
-29.355805
 20
-37.840668
 11
-29.605807
 21
-37.590665
  0
LINE
  8
ボルト／ビス
  6
CONTINUOUS
 62
    64
 10
-31.355807
 20
-37.840668
 11
-31.105807
 21
-37.590665
  0
LINE
  8
ボルト／ビス
  6
CONTINUOUS
 62
    64
 10
-29.355805
 20
-37.840668
 11
-31.355807
 21
-37.840668
  0
LINE
  8
ボルト／ビス
  6
CONTINUOUS
 62
    64
 10
-29.605807
 20
-37.590665
 11
-31.105807
 21
-37.590665
  0
LINE
  8
ボルト／ビス
  6
CONTINUOUS
 62
    64
 10
-30.355807
 20
-44.87636
 11
-30.355807
 21
-36.80323
  0
LINE
  8
ボルト／ビス
  6
CONTINUOUS
 62
    64
 10
-29.355805
 20
-42.590668
 11
-29.355805
 21
-37.840668
  0
LINE
  8
ボルト／ビス
  6
CONTINUOUS
 62
    64
 10
-31.355807
 20
-42.590668
 11
-31.355807
 21
-37.840668
  0
LINE
  8
ボルト／ビス
  6
CONTINUOUS
 62
    64
 10
-31.105807
 20
-42.590668
 11
-31.105807
 21
-37.590665
  0
LINE
  8
ボルト／ビス
  6
CONTINUOUS
 62
    64
 10
-29.605807
 20
-42.590668
 11
-29.605807
 21
-37.590665
  0
ENDBLK
  0
BLOCK
  2
*GRP_0028
 70
    65
 10
0.0
 20
0.0
  0
LINE
  8
ボルト／ビス
  6
CONTINUOUS
 62
    64
 10
-2.114243
 20
-41.990668
 11
-2.160092
 21
-42.51475
  0
ARC
  8
ボルト／ビス
  6
CONTINUOUS
 62
    64
 10
-3.00686
 20
-42.440663
 40
0.85
 50
270.0
 51
355.000011
  0
LINE
  8
ボルト／ビス
  6
CONTINUOUS
 62
    64
 10
-3.006858
 20
-43.290665
 11
-3.864243
 21
-43.290665
  0
LINE
  8
ボルト／ビス
  6
CONTINUOUS
 62
    64
 10
-5.614245
 20
-41.990668
 11
-5.568393
 21
-42.51475
  0
ARC
  8
ボルト／ビス
  6
CONTINUOUS
 62
    64
 10
-4.721626
 20
-42.440663
 40
0.85
 50
184.999989
 51
270.0
  0
LINE
  8
ボルト／ビス
  6
CONTINUOUS
 62
    64
 10
-4.721627
 20
-43.290665
 11
-3.864243
 21
-43.290665
  0
LINE
  8
ボルト／ビス
  6
CONTINUOUS
 62
    64
 10
-2.665923
 20
-43.098215
 11
-2.665923
 21
-43.219295
  0
LINE
  8
ボルト／ビス
  6
CONTINUOUS
 62
    64
 10
-3.514245
 20
-42.773172
 11
-3.864243
 21
-42.773172
  0
LINE
  8
ボルト／ビス
  6
CONTINUOUS
 62
    64
 10
-3.314243
 20
-43.098215
 11
-2.665923
 21
-43.098215
  0
LINE
  8
ボルト／ビス
  6
CONTINUOUS
 62
    64
 10
-3.514245
 20
-42.773172
 11
-3.514245
 21
-42.898213
  0
ARC
  8
ボルト／ビス
  6
CONTINUOUS
 62
    64
 10
-3.314243
 20
-42.898211
 40
0.2
 50
180.0
 51
270.0
  0
LINE
  8
ボルト／ビス
  6
CONTINUOUS
 62
    64
 10
-5.062562
 20
-43.098215
 11
-5.062562
 21
-43.219295
  0
LINE
  8
ボルト／ビス
  6
CONTINUOUS
 62
    64
 10
-4.214243
 20
-42.773172
 11
-3.864243
 21
-42.773172
  0
LINE
  8
ボルト／ビス
  6
CONTINUOUS
 62
    64
 10
-4.414245
 20
-43.098215
 11
-5.062562
 21
-43.098215
  0
LINE
  8
ボルト／ビス
  6
CONTINUOUS
 62
    64
 10
-4.214243
 20
-42.773172
 11
-4.214243
 21
-42.898213
  0
ARC
  8
ボルト／ビス
  6
CONTINUOUS
 62
    64
 10
-4.414243
 20
-42.898211
 40
0.2
 50
270.0
 51
360.0
  0
LINE
  8
ボルト／ビス
  6
CONTINUOUS
 62
    64
 10
-2.114243
 20
-41.990668
 11
-5.614245
 21
-41.990668
  0
LINE
  8
ボルト／ビス
  6
CONTINUOUS
 62
    64
 10
-2.864243
 20
-37.240668
 11
-3.114243
 21
-36.990665
  0
LINE
  8
ボルト／ビス
  6
CONTINUOUS
 62
    64
 10
-4.864245
 20
-37.240668
 11
-4.614243
 21
-36.990665
  0
LINE
  8
ボルト／ビス
  6
CONTINUOUS
 62
    64
 10
-2.864243
 20
-37.240668
 11
-4.864245
 21
-37.240668
  0
LINE
  8
ボルト／ビス
  6
CONTINUOUS
 62
    64
 10
-3.114243
 20
-36.990665
 11
-4.614243
 21
-36.990665
  0
LINE
  8
ボルト／ビス
  6
CONTINUOUS
 62
    64
 10
-3.864243
 20
-44.27636
 11
-3.864243
 21
-36.20323
  0
LINE
  8
ボルト／ビス
  6
CONTINUOUS
 62
    64
 10
-2.864243
 20
-41.990668
 11
-2.864243
 21
-37.240668
  0
LINE
  8
ボルト／ビス
  6
CONTINUOUS
 62
    64
 10
-4.864245
 20
-41.990668
 11
-4.864245
 21
-37.240668
  0
LINE
  8
ボルト／ビス
  6
CONTINUOUS
 62
    64
 10
-4.614243
 20
-41.990668
 11
-4.614243
 21
-36.990665
  0
LINE
  8
ボルト／ビス
  6
CONTINUOUS
 62
    64
 10
-3.114243
 20
-41.990668
 11
-3.114243
 21
-36.990665
  0
ENDBLK
  0
BLOCK
  2
*DIM_0029
 70
    65
 10
0.0
 20
0.0
  0
LINE
  8
寸法
  6
BYBLOCK
 62
     0
 10
-71.643473
 20
53.860075
 11
-71.643473
 21
124.37094
  0
LINE
  8
寸法
  6
BYBLOCK
 62
     0
 10
-13.139245
 20
124.37094
 11
-71.643473
 21
124.37094
  0
POINT
  8
寸法
 62
     0
 10
-13.139245
 20
124.37094
  0
POINT
  8
寸法
 62
     0
 10
-71.643473
 20
124.37094
  0
TEXT
  7
TextStyle03
  8
寸法
  6
CONTINUOUS
 62
     0
 10
-44.8125
 20
124.725
  1
117
 40
3.0
 72
     5
 11
-39.9375
 21
124.725
  0
ENDBLK
  0
BLOCK
  2
*DIM_0030
 70
    65
 10
0.0
 20
0.0
  0
LINE
  8
寸法
  6
BYBLOCK
 62
     0
 10
15.610755
 20
-25.140665
 11
15.610755
 21
118.44188
  0
LINE
  8
寸法
  6
BYBLOCK
 62
     0
 10
-71.643473
 20
118.44188
 11
15.610755
 21
118.44188
  0
POINT
  8
寸法
 62
     0
 10
-71.643473
 20
118.44188
  0
POINT
  8
寸法
 62
     0
 10
15.610755
 20
118.44188
  0
TEXT
  7
TextStyle03
  8
寸法
  6
CONTINUOUS
 62
     0
 10
-32.125
 20
118.8
  1
174.5
 40
3.0
 72
     5
 11
-23.875
 21
118.8
  0
ENDBLK
  0
BLOCK
  2
*DIM_0031
 70
    65
 10
0.0
 20
0.0
  0
LINE
  8
寸法
  6
BYBLOCK
 62
     0
 10
-13.139245
 20
113.564495
 11
15.610755
 21
113.564495
  0
POINT
  8
寸法
 62
     0
 10
-13.139245
 20
113.564495
  0
POINT
  8
寸法
 62
     0
 10
15.610755
 20
113.564495
  0
TEXT
  7
TextStyle03
  8
寸法
  6
CONTINUOUS
 62
     0
 10
-2.03125
 20
113.925
  1
57.5
 40
3.0
 72
     5
 11
4.53125
 21
113.925
  0
ENDBLK
  0
BLOCK
  2
*DIM_0032
 70
    65
 10
0.0
 20
0.0
  0
LINE
  8
寸法
  6
BYBLOCK
 62
     0
 10
-45.88924
 20
-47.890668
 11
-139.734495
 21
-47.890668
  0
LINE
  8
寸法
  6
BYBLOCK
 62
     0
 10
-139.734495
 20
-40.390668
 11
-139.734495
 21
-47.890668
  0
POINT
  8
寸法
 62
     0
 10
-139.734495
 20
-47.890668
  0
TEXT
  7
TextStyle03
  8
寸法
  6
CONTINUOUS
 62
     0
 10
-140.1
 20
-45.74375
  1
15
 40
3.0
 50
90.0
 72
     5
 11
-140.1
 21
-42.55625
  0
ENDBLK
  0
BLOCK
  2
*DIM_0033
 70
    65
 10
0.0
 20
0.0
  0
LINE
  8
寸法
  6
BYBLOCK
 62
     0
 10
-45.389243
 20
9.359338
 11
-133.512018
 21
9.359338
  0
LINE
  8
寸法
  6
BYBLOCK
 62
     0
 10
-133.512018
 20
-40.390668
 11
-133.512018
 21
9.359338
  0
POINT
  8
寸法
 62
     0
 10
-133.512018
 20
-40.390668
  0
POINT
  8
寸法
 62
     0
 10
-133.512018
 20
9.359338
  0
TEXT
  7
TextStyle03
  8
寸法
  6
CONTINUOUS
 62
     0
 10
-133.875
 20
-18.80625
  1
99.5
 40
3.0
 50
90.0
 72
     5
 11
-133.875
 21
-12.24375
  0
ENDBLK
  0
BLOCK
  2
*DIM_0034
 70
    65
 10
0.0
 20
0.0
  0
LINE
  8
寸法
  6
BYBLOCK
 62
     0
 10
-45.98924
 20
11.86008
 11
-133.512018
 21
11.86008
  0
LINE
  8
寸法
  6
BYBLOCK
 62
     0
 10
-133.512018
 20
9.359338
 11
-133.512018
 21
11.86008
  0
POINT
  8
寸法
 62
     0
 10
-133.512018
 20
11.86008
  0
TEXT
  7
TextStyle03
  8
寸法
  6
CONTINUOUS
 62
     0
 10
-133.875
 20
9.85
  1
5
 40
3.0
 50
90.0
 72
     5
 11
-133.875
 21
11.35
  0
ENDBLK
  0
BLOCK
  2
*DIM_0035
 70
    65
 10
0.0
 20
0.0
  0
LINE
  8
寸法
  6
BYBLOCK
 62
     0
 10
-59.641447
 20
26.960082
 11
-133.512018
 21
26.960082
  0
LINE
  8
寸法
  6
BYBLOCK
 62
     0
 10
-133.512018
 20
11.86008
 11
-133.512018
 21
26.960082
  0
POINT
  8
寸法
 62
     0
 10
-133.512018
 20
26.960082
  0
TEXT
  7
TextStyle03
  8
寸法
  6
CONTINUOUS
 62
     0
 10
-133.875
 20
16.11875
  1
30.2
 40
3.0
 50
90.0
 72
     5
 11
-133.875
 21
22.68125
  0
ENDBLK
  0
BLOCK
  2
*DIM_0036
 70
    65
 10
0.0
 20
0.0
  0
LINE
  8
寸法
  6
BYBLOCK
 62
     0
 10
-74.643405
 20
48.360073
 11
-133.512018
 21
48.360073
  0
LINE
  8
寸法
  6
BYBLOCK
 62
     0
 10
-133.512018
 20
26.960082
 11
-133.512018
 21
48.360073
  0
POINT
  8
寸法
 62
     0
 10
-133.512018
 20
48.360073
  0
TEXT
  7
TextStyle03
  8
寸法
  6
CONTINUOUS
 62
     0
 10
-133.875
 20
34.36875
  1
42.8
 40
3.0
 50
90.0
 72
     5
 11
-133.875
 21
40.93125
  0
ENDBLK
  0
BLOCK
  2
*DIM_0037
 70
    65
 10
0.0
 20
0.0
  0
LINE
  8
寸法
  6
BYBLOCK
 62
     0
 10
-74.643473
 20
50.860075
 11
-133.512018
 21
50.860075
  0
LINE
  8
寸法
  6
BYBLOCK
 62
     0
 10
-133.512018
 20
48.360073
 11
-133.512018
 21
50.860075
  0
POINT
  8
寸法
 62
     0
 10
-133.512018
 20
50.860075
  0
TEXT
  7
TextStyle03
  8
寸法
  6
CONTINUOUS
 62
     0
 10
-133.875
 20
48.85
  1
5
 40
3.0
 50
90.0
 72
     5
 11
-133.875
 21
50.35
  0
ENDBLK
  0
BLOCK
  2
*DIM_0038
 70
    65
 10
0.0
 20
0.0
  0
LINE
  8
寸法
  6
BYBLOCK
 62
     0
 10
-45.889245
 20
-40.390668
 11
-139.734495
 21
-40.390668
  0
LINE
  8
寸法
  6
BYBLOCK
 62
     0
 10
-74.643473
 20
50.860075
 11
-139.734495
 21
50.860075
  0
LINE
  8
寸法
  6
BYBLOCK
 62
     0
 10
-139.734495
 20
-40.390668
 11
-139.734495
 21
50.860075
  0
POINT
  8
寸法
 62
     0
 10
-139.734495
 20
-40.390668
  0
POINT
  8
寸法
 62
     0
 10
-139.734495
 20
50.860075
  0
TEXT
  7
TextStyle03
  8
寸法
  6
CONTINUOUS
 62
     0
 10
-140.1
 20
1.1
  1
182.5
 40
3.0
 50
90.0
 72
     5
 11
-140.1
 21
9.35
  0
ENDBLK
  0
BLOCK
  2
*DIM_0039
 70
    65
 10
0.0
 20
0.0
  0
LINE
  8
寸法
  6
BYBLOCK
 62
     0
 10
-11.389245
 20
-70.390668
 11
54.162982
 21
-70.390668
  0
LINE
  8
寸法
  6
BYBLOCK
 62
     0
 10
1.360755
 20
-40.390668
 11
54.162982
 21
-40.390668
  0
LINE
  8
寸法
  6
BYBLOCK
 62
     0
 10
54.162982
 20
-70.390668
 11
54.162982
 21
-40.390668
  0
POINT
  8
寸法
 62
     0
 10
54.162982
 20
-70.390668
  0
POINT
  8
寸法
 62
     0
 10
54.162982
 20
-40.390668
  0
TEXT
  7
TextStyle03
  8
寸法
  6
CONTINUOUS
 62
     0
 10
53.8
 20
-56.99375
  1
60
 40
3.0
 50
90.0
 72
     5
 11
53.8
 21
-53.80625
  0
ENDBLK
  0
BLOCK
  2
*DIM_0040
 70
    65
 10
0.0
 20
0.0
  0
LINE
  8
寸法
  6
BYBLOCK
 62
     0
 10
18.610755
 20
-36.540665
 11
54.162982
 21
-36.540665
  0
LINE
  8
寸法
  6
BYBLOCK
 62
     0
 10
54.162982
 20
-40.390668
 11
54.162982
 21
-36.540665
  0
POINT
  8
寸法
 62
     0
 10
54.162982
 20
-36.540665
  0
TEXT
  7
TextStyle03
  8
寸法
  6
CONTINUOUS
 62
     0
 10
57.175
 20
-40.9125
  1
7.7
 40
3.0
 50
90.0
 72
     5
 11
57.175
 21
-36.0375
  0
ENDBLK
  0
BLOCK
  2
*DIM_0041
 70
    65
 10
0.0
 20
0.0
  0
LINE
  8
寸法
  6
BYBLOCK
 62
     0
 10
18.610755
 20
-28.140665
 11
54.162982
 21
-28.140665
  0
LINE
  8
寸法
  6
BYBLOCK
 62
     0
 10
54.162982
 20
-36.540665
 11
54.162982
 21
-28.140665
  0
POINT
  8
寸法
 62
     0
 10
54.162982
 20
-28.140665
  0
TEXT
  7
TextStyle03
  8
寸法
  6
CONTINUOUS
 62
     0
 10
53.8
 20
-35.63125
  1
16.8
 40
3.0
 50
90.0
 72
     5
 11
53.8
 21
-29.06875
  0
ENDBLK
  0
BLOCK
  2
*DIM_0042
 70
    65
 10
0.0
 20
0.0
  0
LINE
  8
寸法
  6
BYBLOCK
 62
     0
 10
11.062955
 20
-11.140662
 11
54.162982
 21
-11.140662
  0
LINE
  8
寸法
  6
BYBLOCK
 62
     0
 10
54.162982
 20
-28.140665
 11
54.162982
 21
-11.140662
  0
POINT
  8
寸法
 62
     0
 10
54.162982
 20
-11.140662
  0
TEXT
  7
TextStyle03
  8
寸法
  6
CONTINUOUS
 62
     0
 10
53.8
 20
-21.24375
  1
34
 40
3.0
 50
90.0
 72
     5
 11
53.8
 21
-18.05625
  0
ENDBLK
  0
BLOCK
  2
*DIM_0043
 70
    65
 10
0.0
 20
0.0
  0
LINE
  8
寸法
  6
BYBLOCK
 62
     0
 10
11.062955
 20
28.360085
 11
54.162982
 21
28.360085
  0
LINE
  8
寸法
  6
BYBLOCK
 62
     0
 10
54.162982
 20
-11.140662
 11
54.162982
 21
28.360085
  0
POINT
  8
寸法
 62
     0
 10
54.162982
 20
28.360085
  0
TEXT
  7
TextStyle03
  8
寸法
  6
CONTINUOUS
 62
     0
 10
53.8
 20
7.00625
  1
79
 40
3.0
 50
90.0
 72
     5
 11
53.8
 21
10.19375
  0
ENDBLK
  0
BLOCK
  2
*GRP_0044
 70
    65
 10
0.0
 20
0.0
  0
POLYLINE
  8
寸法
  6
BYBLOCK
 62
     0
 66
     1
  0
VERTEX
  8
寸法
 10
-32.007965
 20
82.717377
  0
VERTEX
  8
寸法
 10
-42.80613
 20
93.515543
  0
VERTEX
  8
寸法
 10
-77.275828
 20
93.515543
  0
SEQEND
  0
ENDBLK
  0
BLOCK
  2
*GRP_0045
 70
    65
 10
0.0
 20
0.0
  0
POLYLINE
  8
寸法
  6
BYBLOCK
 62
     0
 66
     1
  0
VERTEX
  8
寸法
 10
-56.641447
 20
38.76082
  0
VERTEX
  8
寸法
 10
-61.306563
 20
34.095705
  0
VERTEX
  8
寸法
 10
-65.40858
 20
34.095705
  0
SEQEND
  0
ENDBLK
  0
BLOCK
  2
*GRP_0046
 70
    65
 10
0.0
 20
0.0
  0
POLYLINE
  8
寸法
  6
CONTINUOUS
 62
     0
 66
     1
  0
VERTEX
  8
寸法
 10
-42.889245
 20
-0.72272
  0
VERTEX
  8
寸法
 10
-49.219925
 20
-7.0534
  0
VERTEX
  8
寸法
 10
-53.423347
 20
-7.0534
  0
SEQEND
  0
ENDBLK
  0
BLOCK
  2
*GRP_0047
 70
    65
 10
0.0
 20
0.0
  0
POLYLINE
  8
寸法
  6
BYBLOCK
 62
     0
 66
     1
  0
VERTEX
  8
寸法
 10
-42.889245
 20
-37.490668
  0
VERTEX
  8
寸法
 10
-46.558325
 20
-33.821587
  0
VERTEX
  8
寸法
 10
-52.939657
 20
-33.821587
  0
SEQEND
  0
ENDBLK
  0
BLOCK
  2
*GRP_0048
 70
    65
 10
0.0
 20
0.0
  0
POLYLINE
  8
寸法
  6
BYBLOCK
 62
     0
 66
     1
  0
VERTEX
  8
寸法
 10
-100.38925
 20
-60.668923
  0
VERTEX
  8
寸法
 10
-104.135157
 20
-64.41483
  0
VERTEX
  8
寸法
 10
-109.800555
 20
-64.41483
  0
SEQEND
  0
ENDBLK
  0
BLOCK
  2
*GRP_0049
 70
    65
 10
0.0
 20
0.0
  0
POLYLINE
  8
寸法
  6
BYBLOCK
 62
     0
 66
     1
  0
VERTEX
  8
寸法
 10
-47.106337
 20
53.97013
  0
VERTEX
  8
寸法
 10
-45.1238
 20
55.952667
  0
VERTEX
  8
寸法
 10
-40.129093
 20
55.952667
  0
SEQEND
  0
ENDBLK
  0
BLOCK
  2
*GRP_0050
 70
    65
 10
0.0
 20
0.0
  0
POLYLINE
  8
寸法
  6
BYBLOCK
 62
     0
 66
     1
  0
VERTEX
  8
寸法
 10
-18.271068
 20
40.485065
  0
VERTEX
  8
寸法
 10
-9.292102
 20
49.46403
  0
VERTEX
  8
寸法
 10
-6.571162
 20
49.46403
  0
SEQEND
  0
ENDBLK
  0
BLOCK
  2
*GRP_0051
 70
    65
 10
0.0
 20
0.0
  0
POLYLINE
  8
寸法
  6
BYBLOCK
 62
     0
 66
     1
  0
VERTEX
  8
寸法
 10
-26.116572
 20
14.903427
  0
VERTEX
  8
寸法
 10
-18.259772
 20
7.046625
  0
VERTEX
  8
寸法
 10
-15.023442
 20
7.046625
  0
SEQEND
  0
ENDBLK
  0
BLOCK
  2
*GRP_0052
 70
    65
 10
0.0
 20
0.0
  0
POLYLINE
  8
寸法
  6
BYBLOCK
 62
     0
 66
     1
  0
VERTEX
  8
寸法
 10
-18.57674
 20
-41.990668
  0
VERTEX
  8
寸法
 10
-10.567018
 20
-50.00039
  0
VERTEX
  8
寸法
 10
16.738808
 20
-50.00039
  0
SEQEND
  0
ENDBLK
  0
BLOCK
  2
*GRP_0053
 70
    65
 10
0.0
 20
0.0
  0
POLYLINE
  8
寸法
  6
BYBLOCK
 62
     0
 66
     1
  0
VERTEX
  8
寸法
 10
-26.408965
 20
-38.234975
  0
VERTEX
  8
寸法
 10
-3.428715
 20
-61.215225
  0
VERTEX
  8
寸法
 10
18.16676
 20
-61.215225
  0
SEQEND
  0
ENDBLK
  0
BLOCK
  2
*GRP_0054
 70
    65
 10
0.0
 20
0.0
  0
POLYLINE
  8
寸法
  6
CONTINUOUS
 62
     0
 66
     1
  0
VERTEX
  8
寸法
 10
-60.305527
 20
48.700878
  0
VERTEX
  8
寸法
 10
-65.96342
 20
43.042982
  0
VERTEX
  8
寸法
 10
-68.375702
 20
43.042982
  0
SEQEND
  0
ENDBLK
  0
BLOCK
  2
*GRP_0055
 70
    65
 10
0.0
 20
0.0
  0
LINE
  8
St
  6
CONTINUOUS
 10
-25.76425
 20
-47.037185
 11
-27.364253
 21
-48.63719
  0
LINE
  8
St
  6
CONTINUOUS
 10
-25.76425
 20
-46.683627
 11
-27.364253
 21
-48.283633
  0
ARC
  8
St
  6
CONTINUOUS
 62
   127
 10
-25.76426
 20
-41.99067
 40
1.6
 50
90.0
 51
180.0
  0
LINE
  8
St
  6
CONTINUOUS
 10
-7.147008
 20
-40.390668
 11
-8.747005
 21
-41.990668
  0
LINE
  8
St
  6
CONTINUOUS
 10
-7.500562
 20
-40.390668
 11
-9.10056
 21
-41.990668
  0
LINE
  8
St
  6
CONTINUOUS
 10
-21.467745
 20
-40.390668
 11
-23.067742
 21
-41.990668
  0
LINE
  8
St
  6
CONTINUOUS
 10
-21.821298
 20
-40.390668
 11
-23.421295
 21
-41.990668
  0
LINE
  8
St
  6
CONTINUOUS
 10
-2.51424
 20
-40.390668
 11
-2.51424
 21
-41.990668
  0
LINE
  8
St
  6
CONTINUOUS
 62
   127
 10
-2.51424
 20
-40.390668
 11
-34.63924
 21
-40.390668
  0
LINE
  8
St
  6
CONTINUOUS
 10
-34.63924
 20
-40.390668
 11
-34.63924
 21
-41.990668
  0
LINE
  8
St
  6
CONTINUOUS
 62
   127
 10
-2.51424
 20
-41.990668
 11
-34.63924
 21
-41.990668
  0
LINE
  8
St
  6
CONTINUOUS
 10
-29.46424
 20
-40.390668
 11
-29.46424
 21
-41.990668
  0
LINE
  8
St
  6
CONTINUOUS
 10
-31.214238
 20
-40.390668
 11
-31.214238
 21
-41.990668
  0
LINE
  8
St
  6
CONTINUOUS
 10
-4.739243
 20
-40.390668
 11
-4.739243
 21
-41.990668
  0
LINE
  8
St
  6
CONTINUOUS
 10
-2.989245
 20
-40.390668
 11
-2.989245
 21
-41.990668
  0
LINE
  8
St
  6
CONTINUOUS
 10
-30.33924
 20
-42.904212
 11
-30.33924
 21
-39.575683
  0
LINE
  8
St
  6
CONTINUOUS
 10
-3.864243
 20
-42.904212
 11
-3.864243
 21
-39.575683
  0
LINE
  8
St
  6
CONTINUOUS
 10
-2.989245
 20
-40.790668
 11
-4.739243
 21
-40.790668
  0
LINE
  8
St
  6
CONTINUOUS
 10
-2.989245
 20
-41.190665
 11
-4.739243
 21
-41.190665
  0
LINE
  8
St
  6
CONTINUOUS
 10
-2.989245
 20
-41.590668
 11
-4.739243
 21
-41.590668
  0
LINE
  8
St
  6
CONTINUOUS
 10
-29.46424
 20
-40.790668
 11
-31.214238
 21
-40.790668
  0
LINE
  8
St
  6
CONTINUOUS
 10
-29.46424
 20
-41.190665
 11
-31.214238
 21
-41.190665
  0
LINE
  8
St
  6
CONTINUOUS
 10
-29.46424
 20
-41.590668
 11
-31.214238
 21
-41.590668
  0
LINE
  8
St
  6
CONTINUOUS
 10
-25.76425
 20
-60.64066
 11
-27.364253
 21
-60.64066
  0
LINE
  8
St
  6
CONTINUOUS
 10
-25.76425
 20
-55.640657
 11
-27.364253
 21
-55.640657
  0
LINE
  8
St
  6
CONTINUOUS
 62
   127
 10
-26.164253
 20
-55.640657
 11
-26.164253
 21
-60.64066
  0
LINE
  8
St
  6
CONTINUOUS
 62
   127
 10
-26.56425
 20
-55.640657
 11
-26.56425
 21
-60.64066
  0
LINE
  8
St
  6
CONTINUOUS
 62
   127
 10
-26.96425
 20
-55.640657
 11
-26.96425
 21
-60.64066
  0
LINE
  8
St
  6
CONTINUOUS
 10
-24.20013
 20
-58.140657
 11
-29.074045
 21
-58.140657
  0
LINE
  8
St
  6
CONTINUOUS
 10
-25.76425
 20
-65.790665
 11
-27.364253
 21
-65.790665
  0
LINE
  8
St
  6
CONTINUOUS
 62
   127
 10
-27.364253
 20
-41.990668
 11
-27.364253
 21
-65.790665
  0
LINE
  8
St
  6
CONTINUOUS
 62
   127
 10
-25.76425
 20
-41.990668
 11
-25.76425
 21
-65.790665
  0
ENDBLK
  0
BLOCK
  2
*GRP_0056
 70
    65
 10
0.0
 20
0.0
  0
INSERT
  2
*GRP_0060
  8
型材断面
  6
CONTINUOUS
 10
0.0
 20
0.0
  0
INSERT
  2
*GRP_0061
  8
ボルト／ビス
  6
CONTINUOUS
 10
0.0
 20
0.0
  0
INSERT
  2
*GRP_0062
  8
ボルト／ビス
  6
CONTINUOUS
 10
0.0
 20
0.0
  0
INSERT
  2
*GRP_0063
  8
ボルト／ビス
  6
CONTINUOUS
 10
0.0
 20
0.0
  0
INSERT
  2
*GRP_0064
  8
ボルト／ビス
  6
CONTINUOUS
 10
0.0
 20
0.0
  0
INSERT
  2
*GRP_0065
  8
別途部材
  6
CONTINUOUS
 10
0.0
 20
0.0
  0
INSERT
  2
*GRP_0066
  8
St
  6
CONTINUOUS
 10
0.0
 20
0.0
  0
INSERT
  2
*GRP_0067
  8
St
  6
CONTINUOUS
 10
0.0
 20
0.0
  0
INSERT
  2
*GRP_0068
  8
St
  6
CONTINUOUS
 10
0.0
 20
0.0
  0
LINE
  8
St
  6
CONTINUOUS
 10
134.152873
 20
-29.059918
 11
146.052873
 21
-29.059918
  0
INSERT
  2
*GRP_0069
  8
St
  6
CONTINUOUS
 10
0.0
 20
0.0
  0
INSERT
  2
*GRP_0070
  8
St
  6
CONTINUOUS
 10
0.0
 20
0.0
  0
ENDBLK
  0
BLOCK
  2
*GRP_0057
 70
    65
 10
0.0
 20
0.0
  0
LINE
  8
型材断面
  6
CONTINUOUS
 62
    47
 10
114.29954
 20
-28.684925
 11
116.457485
 21
-28.684925
  0
LINE
  8
型材断面
  6
CONTINUOUS
 62
    47
 10
114.29954
 20
-29.434925
 11
116.457485
 21
-29.434925
  0
LINE
  8
型材断面
  6
CONTINUOUS
 62
    47
 10
113.29454
 20
-44.559925
 11
113.297337
 21
-44.559925
  0
ARC
  8
型材断面
  6
CONTINUOUS
 62
    47
 10
112.797339
 20
-26.959917
 40
0.25
 50
90.0
 51
180.0
  0
ARC
  8
型材断面
  6
CONTINUOUS
 62
    47
 10
112.797339
 20
-27.209917
 40
0.25
 50
180.0
 51
270.0
  0
ARC
  8
型材断面
  6
CONTINUOUS
 62
    47
 10
101.797334
 20
-16.10918
 40
0.25
 50
180.0
 51
270.0
  0
ARC
  8
型材断面
  6
CONTINUOUS
 62
    47
 10
102.047334
 20
-16.10918
 40
0.25
 50
270.0
 51
360.0
  0
LINE
  8
型材断面
  6
CONTINUOUS
 62
    47
 10
113.297337
 20
-28.709915
 11
113.297337
 21
-27.459918
  0
LINE
  8
型材断面
  6
CONTINUOUS
 62
    47
 10
111.73324
 20
-6.807775
 11
104.485368
 21
-14.05565
  0
LINE
  8
型材断面
  6
CONTINUOUS
 62
    47
 10
104.201477
 20
-13.771757
 11
104.485368
 21
-14.05565
  0
LINE
  8
型材断面
  6
CONTINUOUS
 62
    47
 10
100.489195
 20
-14.65561
 11
100.297333
 21
-14.84747
  0
LINE
  8
型材断面
  6
CONTINUOUS
 62
    47
 10
100.489195
 20
-14.65561
 11
101.547335
 21
-15.713742
  0
LINE
  8
型材断面
  6
CONTINUOUS
 62
    47
 10
104.201477
 20
-13.771757
 11
102.297335
 21
-15.675903
  0
LINE
  8
型材断面
  6
CONTINUOUS
 62
    47
 10
113.297337
 20
-26.709918
 11
112.79734
 21
-26.709918
  0
LINE
  8
型材断面
  6
CONTINUOUS
 62
    47
 10
112.547337
 20
-26.959918
 11
112.547337
 21
-27.20992
  0
LINE
  8
型材断面
  6
CONTINUOUS
 62
    47
 10
113.297337
 20
-27.459918
 11
112.79734
 21
-27.459918
  0
LINE
  8
型材断面
  6
CONTINUOUS
 62
    47
 10
101.547335
 20
-16.10918
 11
101.547335
 21
-15.713742
  0
LINE
  8
型材断面
  6
CONTINUOUS
 62
    47
 10
101.797333
 20
-16.359183
 11
102.047335
 21
-16.359183
  0
LINE
  8
型材断面
  6
CONTINUOUS
 62
    47
 10
102.297335
 20
-16.10918
 11
102.297335
 21
-15.675903
  0
LINE
  8
型材断面
  6
CONTINUOUS
 62
    47
 10
100.297333
 20
-28.709915
 11
100.297333
 21
-14.84747
  0
LINE
  8
型材断面
  6
CONTINUOUS
 62
    47
 10
100.297333
 20
-28.709915
 11
113.297337
 21
-28.709915
  0
LINE
  8
型材断面
  6
CONTINUOUS
 62
    47
 10
111.73324
 20
-6.807775
 11
113.297337
 21
-8.371872
  0
LINE
  8
型材断面
  6
CONTINUOUS
 62
    47
 10
113.297337
 20
-26.709918
 11
113.297337
 21
-8.371872
  0
LINE
  8
型材断面
  6
CONTINUOUS
 62
    47
 10
133.047333
 20
-25.059927
 11
133.047333
 21
-22.559927
  0
LINE
  8
型材断面
  6
CONTINUOUS
 62
    47
 10
133.047333
 20
-18.059927
 11
133.047333
 21
-13.059925
  0
LINE
  8
型材断面
  6
CONTINUOUS
 62
    47
 10
132.297333
 20
-13.059925
 11
133.047333
 21
-13.059925
  0
LINE
  8
型材断面
  6
CONTINUOUS
 62
    47
 10
133.047333
 20
-22.559927
 11
134.797333
 21
-20.809925
  0
LINE
  8
型材断面
  6
CONTINUOUS
 62
    47
 10
134.797333
 20
-20.059925
 11
134.797333
 21
-20.809925
  0
ARC
  8
型材断面
  6
CONTINUOUS
 62
    47
 10
113.19954
 20
-45.409921
 40
0.15
 50
180.0
 51
270.0
  0
ARC
  8
型材断面
  6
CONTINUOUS
 62
    47
 10
114.149542
 20
-45.409921
 40
0.15
 50
270.0
 51
360.0
  0
LINE
  8
型材断面
  6
CONTINUOUS
 62
    47
 10
113.199538
 20
-45.559922
 11
114.14954
 21
-45.559922
  0
LINE
  8
型材断面
  6
CONTINUOUS
 62
    47
 10
114.29954
 20
-41.059922
 11
114.29954
 21
-45.409922
  0
LINE
  8
型材断面
  6
CONTINUOUS
 62
    47
 10
132.297333
 20
-13.059925
 11
132.297333
 21
-17.05918
  0
LINE
  8
型材断面
  6
CONTINUOUS
 62
    47
 10
100.136695
 20
6.203005
 11
97.308265
 21
3.374577
  0
LINE
  8
型材断面
  6
CONTINUOUS
 62
    47
 10
97.308265
 20
3.374577
 11
96.601175
 21
4.081705
  0
LINE
  8
型材断面
  6
CONTINUOUS
 62
    47
 10
96.601175
 20
4.081705
 11
88.822955
 21
-3.6965
  0
LINE
  8
型材断面
  6
CONTINUOUS
 62
    47
 10
88.822955
 20
-3.6965
 11
99.42851
 21
-14.302082
  0
LINE
  8
型材断面
  6
CONTINUOUS
 62
    47
 10
101.37305
 20
-12.711092
 11
101.37305
 21
-12.357542
  0
LINE
  8
型材断面
  6
CONTINUOUS
 62
    47
 10
101.37305
 20
-12.711092
 11
101.0195
 21
-12.711092
  0
LINE
  8
型材断面
  6
CONTINUOUS
 62
    47
 10
87.939072
 20
-4.226825
 11
85.29532
 21
-6.87058
  0
LINE
  8
型材断面
  6
CONTINUOUS
 62
    47
 10
85.29532
 20
-6.87058
 11
85.295375
 21
-9.059927
  0
LINE
  8
型材断面
  6
CONTINUOUS
 62
    47
 10
85.295375
 20
-9.059927
 11
84.545375
 21
-9.059927
  0
LINE
  8
型材断面
  6
CONTINUOUS
 62
    47
 10
99.42851
 20
-14.302082
 11
101.0195
 21
-12.711092
  0
LINE
  8
型材断面
  6
CONTINUOUS
 62
    47
 10
101.37305
 20
-12.357542
 11
102.61052
 21
-11.120072
  0
LINE
  8
型材断面
  6
CONTINUOUS
 62
    47
 10
114.047337
 20
-17.05918
 11
114.047337
 21
-8.061212
  0
LINE
  8
型材断面
  6
CONTINUOUS
 62
    47
 10
114.047337
 20
-17.05918
 11
132.297333
 21
-17.05918
  0
LINE
  8
型材断面
  6
CONTINUOUS
 62
    47
 10
99.547333
 20
-30.459918
 11
100.297333
 21
-30.459918
  0
LINE
  8
型材断面
  6
CONTINUOUS
 62
    47
 10
100.297333
 20
-30.459918
 11
100.297333
 21
-29.459915
  0
LINE
  8
型材断面
  6
CONTINUOUS
 62
    47
 10
100.297333
 20
-29.459915
 11
113.297337
 21
-29.459915
  0
LINE
  8
型材断面
  6
CONTINUOUS
 62
    47
 10
113.297337
 20
-29.459915
 11
113.297337
 21
-39.159925
  0
LINE
  8
型材断面
  6
CONTINUOUS
 62
    47
 10
113.447337
 20
-39.309925
 11
113.297337
 21
-39.159925
  0
LINE
  8
型材断面
  6
CONTINUOUS
 62
    47
 10
113.447337
 20
-39.309925
 11
113.297337
 21
-39.459925
  0
LINE
  8
型材断面
  6
CONTINUOUS
 62
    47
 10
104.4854
 20
-12.99496
 11
102.61052
 21
-11.120072
  0
LINE
  8
型材断面
  6
CONTINUOUS
 62
    47
 10
107.667385
 20
-9.812972
 11
106.429947
 21
-8.575535
  0
LINE
  8
型材断面
  6
CONTINUOUS
 62
    47
 10
107.667385
 20
-9.812972
 11
111.20291
 21
-6.277445
  0
LINE
  8
型材断面
  6
CONTINUOUS
 62
    47
 10
107.137055
 20
-10.3433
 11
105.369288
 21
-8.575535
  0
LINE
  8
型材断面
  6
CONTINUOUS
 62
    47
 10
104.4854
 20
-12.99496
 11
107.137055
 21
-10.3433
  0
LINE
  8
型材断面
  6
CONTINUOUS
 62
    47
 10
109.965475
 20
-3.979348
 11
114.047337
 21
-8.061212
  0
LINE
  8
型材断面
  6
CONTINUOUS
 62
    47
 10
111.20291
 20
-6.277445
 11
109.965478
 21
-5.04001
  0
LINE
  8
型材断面
  6
CONTINUOUS
 62
    47
 10
107.313835
 20
-7.69165
 11
106.429947
 21
-8.575535
  0
LINE
  8
型材断面
  6
CONTINUOUS
 62
    47
 10
109.965478
 20
-5.04001
 11
109.081603
 21
-5.923885
  0
LINE
  8
型材断面
  6
CONTINUOUS
 62
    47
 10
106.571372
 20
-7.37345
 11
105.369288
 21
-8.575535
  0
LINE
  8
型材断面
  6
CONTINUOUS
 62
    47
 10
106.995635
 20
-7.37345
 11
107.313835
 21
-7.69165
  0
LINE
  8
型材断面
  6
CONTINUOUS
 62
    47
 10
106.571372
 20
-7.37345
 11
106.995635
 21
-7.37345
  0
LINE
  8
型材断面
  6
CONTINUOUS
 62
    47
 10
109.965475
 20
-3.979348
 11
108.7634
 21
-5.181423
  0
LINE
  8
型材断面
  6
CONTINUOUS
 62
    47
 10
108.7634
 20
-5.605685
 11
109.081603
 21
-5.923885
  0
LINE
  8
型材断面
  6
CONTINUOUS
 62
    47
 10
108.7634
 20
-5.181423
 11
108.7634
 21
-5.605685
  0
LINE
  8
型材断面
  6
CONTINUOUS
 62
    47
 10
84.545307
 20
-6.559925
 11
84.545375
 21
-9.059927
  0
LINE
  8
型材断面
  6
CONTINUOUS
 62
    47
 10
84.545307
 20
-6.559925
 11
98.368955
 21
7.263688
  0
LINE
  8
型材断面
  6
CONTINUOUS
 62
    47
 10
99.07607
 20
7.26368
 11
100.136695
 21
6.203005
  0
ARC
  8
型材断面
  6
CONTINUOUS
 62
    47
 10
98.722508
 20
6.910137
 40
0.5
 50
44.998586
 51
134.999937
  0
LINE
  8
型材断面
  6
CONTINUOUS
 62
    47
 10
113.297337
 20
-39.459925
 11
113.297337
 21
-44.559933
  0
ARC
  8
型材断面
  6
CONTINUOUS
 62
    47
 10
113.299539
 20
-44.809922
 40
0.25
 50
90.504095
 51
180.0
  0
LINE
  8
型材断面
  6
CONTINUOUS
 62
    47
 10
113.049538
 20
-45.409922
 11
113.049538
 21
-44.809922
  0
LINE
  8
型材断面
  6
CONTINUOUS
 62
    47
 10
133.047333
 20
-41.059922
 11
114.29954
 21
-41.059922
  0
LINE
  8
型材断面
  6
CONTINUOUS
 62
    47
 10
133.047333
 20
-41.059922
 11
133.047333
 21
-40.059927
  0
ARC
  8
型材断面
  6
CONTINUOUS
 62
    47
 10
115.297339
 20
-39.309922
 40
0.875
 50
92.457593
 51
357.542385
  0
ARC
  8
型材断面
  6
CONTINUOUS
 62
    47
 10
116.546189
 20
-39.363522
 40
0.375
 50
357.542768
 51
537.542424
  0
ARC
  8
型材断面
  6
CONTINUOUS
 62
    47
 10
115.243739
 20
-38.061072
 40
0.375
 50
272.457603
 51
452.457636
  0
ARC
  8
型材断面
  6
CONTINUOUS
 62
    47
 10
116.546189
 20
-18.755579
 40
0.375
 50
182.457576
 51
362.457232
  0
ARC
  8
型材断面
  6
CONTINUOUS
 62
    47
 10
115.297339
 20
-18.80918
 40
0.875
 50
2.457615
 51
267.542407
  0
ARC
  8
型材断面
  6
CONTINUOUS
 62
    47
 10
115.243739
 20
-20.05803
 40
0.375
 50
267.542364
 51
447.542397
  0
LINE
  8
型材断面
  6
CONTINUOUS
 62
    47
 10
99.697333
 20
-18.80918
 11
99.547333
 21
-18.95918
  0
LINE
  8
型材断面
  6
CONTINUOUS
 62
    47
 10
99.697333
 20
-18.80918
 11
99.547333
 21
-18.65918
  0
LINE
  8
型材断面
  6
CONTINUOUS
 62
    47
 10
99.547333
 20
-15.835123
 11
99.547333
 21
-18.65918
  0
LINE
  8
型材断面
  6
CONTINUOUS
 62
    47
 10
99.547333
 20
-30.459918
 11
99.547333
 21
-18.95918
  0
ARC
  8
型材断面
  6
CONTINUOUS
 62
    47
 10
115.297339
 20
-18.80918
 40
1.625
 50
256.452118
 51
267.542389
  0
LINE
  8
型材断面
  6
CONTINUOUS
 62
    47
 10
114.29954
 20
-28.684925
 11
114.29954
 21
-20.875053
  0
ARC
  8
型材断面
  6
CONTINUOUS
 62
    47
 10
114.799541
 20
-20.87505
 40
0.5
 50
76.452118
 51
180.0
  0
ARC
  8
型材断面
  6
CONTINUOUS
 62
    47
 10
115.297339
 20
-18.80918
 40
1.625
 50
2.457518
 51
13.608975
  0
ARC
  8
型材断面
  6
CONTINUOUS
 62
    47
 10
117.362678
 20
-18.309179
 40
0.5
 50
90.0
 51
193.608974
  0
ARC
  8
型材断面
  6
CONTINUOUS
 62
    47
 10
115.297339
 20
-39.309922
 40
1.625
 50
92.457611
 51
103.547882
  0
LINE
  8
型材断面
  6
CONTINUOUS
 62
    47
 10
114.29954
 20
-29.434925
 11
114.29954
 21
-37.244052
  0
ARC
  8
型材断面
  6
CONTINUOUS
 62
    47
 10
114.799541
 20
-37.244051
 40
0.5
 50
180.0
 51
283.547882
  0
ARC
  8
型材断面
  6
CONTINUOUS
 62
    47
 10
115.297339
 20
-39.309922
 40
1.625
 50
346.391039
 51
357.542482
  0
ARC
  8
型材断面
  6
CONTINUOUS
 62
    47
 10
117.362678
 20
-39.809922
 40
0.5
 50
166.391039
 51
270.0
  0
LINE
  8
型材断面
  6
CONTINUOUS
 62
    47
 10
132.05398
 20
-25.059927
 11
133.047333
 21
-25.059927
  0
LINE
  8
型材断面
  6
CONTINUOUS
 62
    47
 10
93.878755
 20
-9.954403
 11
93.666633
 21
-9.954403
  0
LINE
  8
型材断面
  6
CONTINUOUS
 62
    47
 10
93.878755
 20
-9.954403
 11
93.878755
 21
-10.16653
  0
LINE
  8
型材断面
  6
CONTINUOUS
 62
    47
 10
93.878755
 20
-10.16653
 11
99.547333
 21
-15.835123
  0
LINE
  8
型材断面
  6
CONTINUOUS
 62
    47
 10
87.939072
 20
-4.226825
 11
93.666633
 21
-9.954403
  0
LINE
  8
型材断面
  6
CONTINUOUS
 62
    47
 10
133.047333
 20
-40.059927
 11
136.89733
 21
-40.059927
  0
LINE
  8
型材断面
  6
CONTINUOUS
 62
    47
 10
137.047333
 20
-39.909925
 11
136.89733
 21
-40.059927
  0
LINE
  8
型材断面
  6
CONTINUOUS
 62
    47
 10
137.047333
 20
-39.909925
 11
137.197337
 21
-40.059927
  0
LINE
  8
型材断面
  6
CONTINUOUS
 62
    47
 10
137.197337
 20
-40.059927
 11
139.147337
 21
-40.059927
  0
ARC
  8
型材断面
  6
CONTINUOUS
 62
    47
 10
139.147335
 20
-39.909923
 40
0.150005
 50
270.0
 51
359.487538
  0
LINE
  8
型材断面
  6
CONTINUOUS
 62
    47
 10
139.297333
 20
-39.911268
 11
139.297333
 21
-39.809922
  0
LINE
  8
型材断面
  6
CONTINUOUS
 62
    47
 10
139.797333
 20
-39.809922
 11
139.297333
 21
-39.809922
  0
LINE
  8
型材断面
  6
CONTINUOUS
 62
    47
 10
139.797333
 20
-39.809922
 11
139.797333
 21
-39.909925
  0
ARC
  8
型材断面
  6
CONTINUOUS
 62
    47
 10
139.947334
 20
-39.909923
 40
0.150001
 50
180.0
 51
270.0
  0
LINE
  8
型材断面
  6
CONTINUOUS
 62
    47
 10
142.897333
 20
-40.059927
 11
139.947335
 21
-40.059927
  0
ARC
  8
型材断面
  6
CONTINUOUS
 62
    47
 10
142.897334
 20
-39.909928
 40
0.15
 50
270.0
 51
360.0
  0
LINE
  8
型材断面
  6
CONTINUOUS
 62
    47
 10
143.047333
 20
-39.909927
 11
143.047333
 21
-39.059927
  0
LINE
  8
型材断面
  6
CONTINUOUS
 62
    47
 10
143.047333
 20
-39.059927
 11
141.797335
 21
-39.059927
  0
LINE
  8
型材断面
  6
CONTINUOUS
 62
    47
 10
141.797335
 20
-39.059927
 11
141.797335
 21
-38.059925
  0
LINE
  8
型材断面
  6
CONTINUOUS
 62
    47
 10
140.397335
 20
-38.059925
 11
141.797335
 21
-38.059925
  0
ARC
  8
型材断面
  6
CONTINUOUS
 62
    47
 10
139.297334
 20
-38.059924
 40
1.1
 50
359.999922
 51
540.000078
  0
LINE
  8
型材断面
  6
CONTINUOUS
 62
    47
 10
138.197335
 20
-38.059925
 11
134.797333
 21
-38.059925
  0
LINE
  8
型材断面
  6
CONTINUOUS
 62
    47
 10
134.797333
 20
-38.059925
 11
134.797333
 21
-37.309925
  0
LINE
  8
型材断面
  6
CONTINUOUS
 62
    47
 10
133.047333
 20
-35.559925
 11
134.797333
 21
-37.309925
  0
LINE
  8
型材断面
  6
CONTINUOUS
 62
    47
 10
133.047333
 20
-35.559925
 11
133.047333
 21
-33.059927
  0
LINE
  8
型材断面
  6
CONTINUOUS
 62
    47
 10
132.05398
 20
-33.059927
 11
133.047333
 21
-33.059927
  0
LINE
  8
型材断面
  6
CONTINUOUS
 62
    47
 10
133.047333
 20
-18.059927
 11
136.897333
 21
-18.059927
  0
LINE
  8
型材断面
  6
CONTINUOUS
 62
    47
 10
137.047333
 20
-18.209927
 11
136.897333
 21
-18.059927
  0
LINE
  8
型材断面
  6
CONTINUOUS
 62
    47
 10
137.047333
 20
-18.209927
 11
137.197333
 21
-18.059927
  0
LINE
  8
型材断面
  6
CONTINUOUS
 62
    47
 10
138.224785
 20
-20.059925
 11
134.797333
 21
-20.059925
  0
LINE
  8
型材断面
  6
CONTINUOUS
 62
    47
 10
138.224785
 20
-20.698213
 11
138.224785
 21
-20.059925
  0
ARC
  8
型材断面
  6
CONTINUOUS
 62
    47
 10
139.299538
 20
-20.059928
 40
1.25
 50
210.705596
 51
329.293192
  0
LINE
  8
型材断面
  6
CONTINUOUS
 62
    47
 10
140.374278
 20
-20.698235
 11
140.374278
 21
-20.059925
  0
LINE
  8
型材断面
  6
CONTINUOUS
 62
    47
 10
140.374278
 20
-20.059925
 11
141.797335
 21
-20.059925
  0
LINE
  8
型材断面
  6
CONTINUOUS
 62
    47
 10
141.797335
 20
-19.059925
 11
141.797335
 21
-20.059925
  0
LINE
  8
型材断面
  6
CONTINUOUS
 62
    47
 10
141.797335
 20
-19.059925
 11
143.047333
 21
-19.059925
  0
LINE
  8
型材断面
  6
CONTINUOUS
 62
    47
 10
143.047333
 20
-18.209927
 11
143.047333
 21
-19.059925
  0
ARC
  8
型材断面
  6
CONTINUOUS
 62
    47
 10
142.897334
 20
-18.209927
 40
0.15
 50
0.0
 51
90.0
  0
LINE
  8
型材断面
  6
CONTINUOUS
 62
    47
 10
142.897333
 20
-18.059927
 11
139.946665
 21
-18.059927
  0
ARC
  8
型材断面
  6
CONTINUOUS
 62
    47
 10
139.947334
 20
-18.209926
 40
0.15
 50
90.256235
 51
180.0
  0
LINE
  8
型材断面
  6
CONTINUOUS
 62
    47
 10
139.797333
 20
-18.309927
 11
139.797333
 21
-18.209927
  0
LINE
  8
型材断面
  6
CONTINUOUS
 62
    47
 10
139.797333
 20
-18.309927
 11
139.297333
 21
-18.309927
  0
LINE
  8
型材断面
  6
CONTINUOUS
 62
    47
 10
139.297333
 20
-18.20938
 11
139.297333
 21
-18.309927
  0
ARC
  8
型材断面
  6
CONTINUOUS
 62
    47
 10
139.147335
 20
-18.209926
 40
0.15
 50
0.209215
 51
89.743765
  0
LINE
  8
型材断面
  6
CONTINUOUS
 62
    47
 10
137.197333
 20
-18.059927
 11
139.148005
 21
-18.059927
  0
LINE
  8
型材断面
  6
CONTINUOUS
 62
    47
 10
128.731992
 20
-17.80918
 11
117.36268
 21
-17.80918
  0
ARC
  8
型材断面
  6
CONTINUOUS
 62
    47
 10
128.731993
 20
-18.309179
 40
0.5
 50
346.391
 51
450.0
  0
ARC
  8
型材断面
  6
CONTINUOUS
 62
    47
 10
130.797332
 20
-18.80918
 40
1.625
 50
166.391026
 51
177.54319
  0
ARC
  8
型材断面
  6
CONTINUOUS
 62
    47
 10
129.548482
 20
-18.755579
 40
0.375
 50
177.545828
 51
357.55425
  0
ARC
  8
型材断面
  6
CONTINUOUS
 62
    47
 10
130.797332
 20
-18.80918
 40
0.875
 50
272.45427
 51
537.537319
  0
ARC
  8
型材断面
  6
CONTINUOUS
 62
    47
 10
130.850932
 20
-20.05803
 40
0.375
 50
92.465375
 51
170.969301
  0
ARC
  8
型材断面
  6
CONTINUOUS
 62
    47
 10
130.850932
 20
-38.061072
 40
0.375
 50
189.100648
 51
267.530547
  0
ARC
  8
型材断面
  6
CONTINUOUS
 62
    47
 10
130.797332
 20
-39.309922
 40
0.875
 50
182.454252
 51
447.547478
  0
ARC
  8
型材断面
  6
CONTINUOUS
 62
    47
 10
129.548482
 20
-39.363522
 40
0.375
 50
2.465417
 51
182.457602
  0
ARC
  8
型材断面
  6
CONTINUOUS
 62
    47
 10
130.797332
 20
-39.309922
 40
1.625
 50
182.457602
 51
193.608961
  0
ARC
  8
型材断面
  6
CONTINUOUS
 62
    47
 10
128.731993
 20
-39.809922
 40
0.5
 50
270.0
 51
373.608961
  0
LINE
  8
型材断面
  6
CONTINUOUS
 62
    47
 10
128.731992
 20
-40.309922
 11
117.36268
 21
-40.309922
  0
ARC
  8
型材断面
  6
CONTINUOUS
 62
    47
 10
125.299537
 20
-29.059928
 40
8.85
 50
90.0
 51
177.571473
  0
ARC
  8
型材断面
  6
CONTINUOUS
 62
    47
 10
125.299537
 20
-29.059928
 40
8.85
 50
182.428501
 51
270.0
  0
ARC
  8
型材断面
  6
CONTINUOUS
 62
    47
 10
125.299537
 20
-29.059928
 40
7.85
 50
30.634132
 51
329.365868
  0
ARC
  8
型材断面
  6
CONTINUOUS
 62
    47
 10
130.23368
 20
-19.959928
 40
0.25
 50
270.0
 51
350.969301
  0
LINE
  8
型材断面
  6
CONTINUOUS
 62
    47
 10
125.299535
 20
-20.20993
 11
130.23368
 21
-20.20993
  0
LINE
  8
型材断面
  6
CONTINUOUS
 62
    47
 10
125.299535
 20
-37.90993
 11
130.2338
 21
-37.90993
  0
ARC
  8
型材断面
  6
CONTINUOUS
 62
    47
 10
130.2338
 20
-38.159928
 40
0.25
 50
9.100578
 51
90.0
  0
LINE
  8
型材断面
  6
CONTINUOUS
 62
    47
 10
107.313835
 20
-10.166525
 11
107.49061
 21
-9.98975
  0
ENDBLK
  0
BLOCK
  2
*GRP_0058
 70
    65
 10
0.0
 20
0.0
  0
ARC
  8
型材断面
  6
CONTINUOUS
 62
    47
 10
135.076737
 20
-40.334934
 40
0.15
 50
90.0
 51
180.0
  0
LINE
  8
型材断面
  6
CONTINUOUS
 62
    47
 10
134.926735
 20
-40.334935
 11
134.926735
 21
-41.034935
  0
LINE
  8
型材断面
  6
CONTINUOUS
 62
    47
 10
135.076735
 20
-41.184935
 11
143.676737
 21
-41.184935
  0
ARC
  8
型材断面
  6
CONTINUOUS
 62
    47
 10
135.076737
 20
-41.034934
 40
0.15
 50
180.0
 51
270.0
  0
ARC
  8
型材断面
  6
CONTINUOUS
 62
    47
 10
143.676737
 20
-17.434934
 40
0.5
 50
0.0
 51
90.0
  0
ARC
  8
型材断面
  6
CONTINUOUS
 62
    47
 10
135.076737
 20
-17.784934
 40
0.15
 50
180.0
 51
270.0
  0
LINE
  8
型材断面
  6
CONTINUOUS
 62
    47
 10
134.926735
 20
-17.784935
 11
134.926735
 21
-17.084935
  0
LINE
  8
型材断面
  6
CONTINUOUS
 62
    47
 10
135.076735
 20
-16.934935
 11
143.676737
 21
-16.934935
  0
ARC
  8
型材断面
  6
CONTINUOUS
 62
    47
 10
135.076737
 20
-17.084934
 40
0.15
 50
90.0
 51
180.0
  0
LINE
  8
型材断面
  6
CONTINUOUS
 62
    47
 10
143.176735
 20
-40.184935
 11
143.176735
 21
-17.934935
  0
LINE
  8
型材断面
  6
CONTINUOUS
 62
    47
 10
144.176735
 20
-40.684937
 11
144.176735
 21
-17.434937
  0
ARC
  8
型材断面
  6
CONTINUOUS
 62
    47
 10
143.676737
 20
-40.684934
 40
0.5
 50
270.0
 51
360.0
  0
LINE
  8
型材断面
  6
CONTINUOUS
 62
    47
 10
139.676735
 20
-40.184935
 11
143.176735
 21
-40.184935
  0
LINE
  8
型材断面
  6
CONTINUOUS
 62
    47
 10
139.676735
 20
-39.834935
 11
139.676735
 21
-40.184935
  0
ARC
  8
型材断面
  6
CONTINUOUS
 62
    47
 10
139.576737
 20
-39.834934
 40
0.1
 50
0.0
 51
126.085808
  0
LINE
  8
型材断面
  6
CONTINUOUS
 62
    47
 10
139.517837
 20
-39.754122
 11
138.926735
 21
-40.184935
  0
LINE
  8
型材断面
  6
CONTINUOUS
 62
    47
 10
135.076735
 20
-40.184935
 11
138.926735
 21
-40.184935
  0
ARC
  8
型材断面
  6
CONTINUOUS
 62
    47
 10
139.576737
 20
-18.284934
 40
0.1
 50
233.914192
 51
360.0
  0
LINE
  8
型材断面
  6
CONTINUOUS
 62
    47
 10
139.676735
 20
-17.934935
 11
143.176735
 21
-17.934935
  0
LINE
  8
型材断面
  6
CONTINUOUS
 62
    47
 10
139.676735
 20
-18.284935
 11
139.676735
 21
-17.934935
  0
LINE
  8
型材断面
  6
CONTINUOUS
 62
    47
 10
139.517837
 20
-18.36575
 11
138.926735
 21
-17.934935
  0
LINE
  8
型材断面
  6
CONTINUOUS
 62
    47
 10
135.076735
 20
-17.934935
 11
138.926735
 21
-17.934935
  0
ENDBLK
  0
BLOCK
  2
*GRP_0059
 70
    65
 10
0.0
 20
0.0
  0
LINE
  8
ゴム等
  6
CONTINUOUS
 10
91.608415
 20
-6.481967
 11
96.911717
 21
-1.178665
  0
LINE
  8
ゴム等
  6
CONTINUOUS
 10
91.608408
 20
-6.48196
 11
99.428507
 21
-14.302082
  0
LINE
  8
ゴム等
  6
CONTINUOUS
 10
96.911717
 20
-1.178665
 11
104.73181
 21
-8.99878
  0
LINE
  8
ゴム等
  6
CONTINUOUS
 10
99.428507
 20
-14.302082
 11
104.73181
 21
-8.99878
  0
ENDBLK
  0
BLOCK
  2
*GRP_0060
 70
    65
 10
0.0
 20
0.0
  0
LINE
  8
型材断面
  6
CONTINUOUS
 10
155.70287
 20
-29.059918
 11
155.70287
 21
-18.15992
  0
LINE
  8
型材断面
  6
CONTINUOUS
 10
155.70287
 20
-18.15992
 11
148.902873
 21
-18.15992
  0
LINE
  8
型材断面
  6
CONTINUOUS
 10
148.902873
 20
-29.059918
 11
148.902873
 21
-18.15992
  0
LINE
  8
型材断面
  6
CONTINUOUS
 10
155.70287
 20
-29.059918
 11
155.70287
 21
-39.959915
  0
LINE
  8
型材断面
  6
CONTINUOUS
 10
155.70287
 20
-39.959915
 11
148.902873
 21
-39.959915
  0
LINE
  8
型材断面
  6
CONTINUOUS
 10
148.902873
 20
-29.059918
 11
148.902873
 21
-39.959915
  0
ARC
  8
型材断面
  6
CONTINUOUS
 10
154.802863
 20
-19.059909
 40
2.5
 50
0.0
 51
90.0
  0
LINE
  8
型材断面
  6
CONTINUOUS
 10
157.302873
 20
-19.05992
 11
157.302873
 21
-39.059915
  0
ARC
  8
型材断面
  6
CONTINUOUS
 10
154.802863
 20
-39.059906
 40
2.5
 50
-90.0
 51
0.0
  0
LINE
  8
型材断面
  6
CONTINUOUS
 10
149.802873
 20
-41.559918
 11
154.80287
 21
-41.559918
  0
LINE
  8
型材断面
  6
CONTINUOUS
 10
147.30287
 20
-29.059918
 11
147.30287
 21
-39.059915
  0
ARC
  8
型材断面
  6
CONTINUOUS
 10
149.802861
 20
-39.059906
 40
2.5
 50
180.0
 51
270.0
  0
LINE
  8
型材断面
  6
CONTINUOUS
 10
147.30287
 20
-29.059918
 11
147.30287
 21
-19.05992
  0
LINE
  8
型材断面
  6
CONTINUOUS
 10
149.802873
 20
-16.55992
 11
154.80287
 21
-16.55992
  0
ARC
  8
型材断面
  6
CONTINUOUS
 10
149.802861
 20
-19.059909
 40
2.5
 50
90.0
 51
180.0
  0
LINE
  8
型材断面
  6
CONTINUOUS
 10
147.30287
 20
-29.059918
 11
157.302873
 21
-29.059918
  0
ENDBLK
  0
BLOCK
  2
*GRP_0061
 70
    65
 10
0.0
 20
0.0
  0
LINE
  8
ボルト／ビス
  6
CONTINUOUS
 10
132.15287
 20
-25.909918
 11
134.152873
 21
-25.909918
  0
LINE
  8
ボルト／ビス
  6
CONTINUOUS
 10
134.152873
 20
-25.909918
 11
134.152873
 21
-32.209918
  0
LINE
  8
ボルト／ビス
  6
CONTINUOUS
 10
134.152873
 20
-32.209918
 11
132.15287
 21
-32.209918
  0
LINE
  8
ボルト／ビス
  6
CONTINUOUS
 10
132.15287
 20
-25.909918
 11
132.15287
 21
-32.209918
  0
LINE
  8
ボルト／ビス
  6
CONTINUOUS
 10
132.652873
 20
-25.909918
 11
132.652873
 21
-32.209918
  0
LINE
  8
ボルト／ビス
  6
CONTINUOUS
 10
133.152873
 20
-25.909918
 11
133.152873
 21
-32.209918
  0
LINE
  8
ボルト／ビス
  6
CONTINUOUS
 10
133.65287
 20
-25.909918
 11
133.65287
 21
-32.209918
  0
ENDBLK
  0
BLOCK
  2
*GRP_0062
 70
    65
 10
0.0
 20
0.0
  0
LINE
  8
ボルト／ビス
  6
CONTINUOUS
 10
158.55287
 20
-22.05992
 11
157.302873
 21
-22.05992
  0
LINE
  8
ボルト／ビス
  6
CONTINUOUS
 10
157.302873
 20
-22.05992
 11
157.302873
 21
-36.05992
  0
LINE
  8
ボルト／ビス
  6
CONTINUOUS
 10
157.302873
 20
-36.05992
 11
158.55287
 21
-36.05992
  0
LINE
  8
ボルト／ビス
  6
CONTINUOUS
 10
158.55287
 20
-22.05992
 11
158.55287
 21
-36.05992
  0
LINE
  8
ボルト／ビス
  6
CONTINUOUS
 10
158.55287
 20
-29.059918
 11
157.302873
 21
-29.059918
  0
LINE
  8
ボルト／ビス
  6
CONTINUOUS
 10
158.55287
 20
-25.309918
 11
157.302873
 21
-25.309918
  0
LINE
  8
ボルト／ビス
  6
CONTINUOUS
 10
158.55287
 20
-32.809918
 11
157.302873
 21
-32.809918
  0
ENDBLK
  0
BLOCK
  2
*GRP_0063
 70
    65
 10
0.0
 20
0.0
  0
LINE
  8
ボルト／ビス
  6
CONTINUOUS
 10
147.30287
 20
-22.05992
 11
146.052873
 21
-22.05992
  0
LINE
  8
ボルト／ビス
  6
CONTINUOUS
 10
146.052873
 20
-22.05992
 11
146.052873
 21
-36.05992
  0
LINE
  8
ボルト／ビス
  6
CONTINUOUS
 10
146.052873
 20
-36.05992
 11
147.30287
 21
-36.05992
  0
LINE
  8
ボルト／ビス
  6
CONTINUOUS
 10
147.30287
 20
-22.05992
 11
147.30287
 21
-36.05992
  0
LINE
  8
ボルト／ビス
  6
CONTINUOUS
 10
147.30287
 20
-29.059918
 11
146.052873
 21
-29.059918
  0
LINE
  8
ボルト／ビス
  6
CONTINUOUS
 10
147.30287
 20
-25.309918
 11
146.052873
 21
-25.309918
  0
LINE
  8
ボルト／ビス
  6
CONTINUOUS
 10
147.30287
 20
-32.809918
 11
146.052873
 21
-32.809918
  0
ENDBLK
  0
BLOCK
  2
*GRP_0064
 70
    65
 10
0.0
 20
0.0
  0
LINE
  8
ボルト／ビス
  6
CONTINUOUS
 10
159.252873
 20
-24.441118
 11
159.252873
 21
-33.678723
  0
LINE
  8
ボルト／ビス
  6
CONTINUOUS
 10
163.252873
 20
-32.908922
 11
162.972688
 21
-33.678723
  0
ARC
  8
ボルト／ビス
  6
CONTINUOUS
 10
160.733383
 20
-32.524014
 40
2.519484
 50
0.0
 51
27.277991
  0
LINE
  8
ボルト／ビス
  6
CONTINUOUS
 10
163.252873
 20
-25.210917
 11
162.972688
 21
-24.441118
  0
ARC
  8
ボルト／ビス
  6
CONTINUOUS
 10
160.733383
 20
-25.595811
 40
2.519484
 50
332.722009
 51
360.0
  0
ARC
  8
ボルト／ビス
  6
CONTINUOUS
 10
153.595209
 20
-29.059912
 40
9.657657
 50
346.165012
 51
373.834988
  0
LINE
  8
ボルト／ビス
  6
CONTINUOUS
 10
163.252873
 20
-25.210917
 11
163.252873
 21
-32.908922
  0
LINE
  8
ボルト／ビス
  6
CONTINUOUS
 10
159.252873
 20
-24.441118
 11
162.972688
 21
-24.441118
  0
LINE
  8
ボルト／ビス
  6
CONTINUOUS
 10
159.252873
 20
-26.750518
 11
162.972693
 21
-26.750518
  0
LINE
  8
ボルト／ビス
  6
CONTINUOUS
 10
159.252873
 20
-31.369322
 11
162.972688
 21
-31.369322
  0
LINE
  8
ボルト／ビス
  6
CONTINUOUS
 10
159.252873
 20
-33.678723
 11
162.972688
 21
-33.678723
  0
LINE
  8
ボルト／ビス
  6
CONTINUOUS
 10
158.55287
 20
-22.659918
 11
158.55287
 21
-35.45992
  0
LINE
  8
ボルト／ビス
  6
CONTINUOUS
 10
159.252873
 20
-22.659918
 11
159.252873
 21
-35.45992
  0
LINE
  8
ボルト／ビス
  6
CONTINUOUS
 10
158.55287
 20
-35.45992
 11
159.252873
 21
-35.45992
  0
LINE
  8
ボルト／ビス
  6
CONTINUOUS
 10
158.55287
 20
-22.659918
 11
159.252873
 21
-22.659918
  0
ARC
  8
ボルト／ビス
  6
CONTINUOUS
 10
164.627864
 20
-29.059909
 40
3.625001
 50
180.0
 51
180.0
  0
ARC
  8
ボルト／ビス
  6
CONTINUOUS
 10
164.627864
 20
-29.059909
 40
3.625001
 50
270.0
 51
450.0
  0
LINE
  8
ボルト／ビス
  6
CONTINUOUS
 10
164.62787
 20
-25.434918
 11
163.252873
 21
-25.434918
  0
LINE
  8
ボルト／ビス
  6
CONTINUOUS
 10
164.62787
 20
-32.68492
 11
163.252873
 21
-32.68492
  0
LINE
  8
ボルト／ビス
  6
CONTINUOUS
 10
163.252873
 20
-29.059918
 11
158.55287
 21
-29.059918
  0
ENDBLK
  0
BLOCK
  2
*GRP_0065
 70
    65
 10
0.0
 20
0.0
  0
ARC
  8
別途部材
  6
CONTINUOUS
 10
139.302869
 20
-38.059915
 40
1.25
 50
11.536959
 51
168.463041
  0
LINE
  8
別途部材
  6
CONTINUOUS
 10
137.302873
 20
-29.059918
 11
137.302873
 21
-31.434918
  0
LINE
  8
別途部材
  6
CONTINUOUS
 10
137.302873
 20
-31.434918
 11
137.052873
 21
-31.184915
  0
LINE
  8
別途部材
  6
CONTINUOUS
 10
137.052873
 20
-29.059918
 11
137.052873
 21
-31.184915
  0
LINE
  8
別途部材
  6
CONTINUOUS
 10
137.55287
 20
-31.434918
 11
137.302873
 21
-31.434918
  0
LINE
  8
別途部材
  6
CONTINUOUS
 10
140.527618
 20
-37.809918
 11
140.527618
 21
-29.059918
  0
LINE
  8
別途部材
  6
CONTINUOUS
 10
138.078125
 20
-37.809918
 11
138.078125
 21
-29.059918
  0
LINE
  8
別途部材
  6
CONTINUOUS
 10
141.30287
 20
-29.059918
 11
141.30287
 21
-31.434918
  0
LINE
  8
別途部材
  6
CONTINUOUS
 10
141.30287
 20
-31.434918
 11
141.552873
 21
-31.184915
  0
LINE
  8
別途部材
  6
CONTINUOUS
 10
141.552873
 20
-29.059918
 11
141.552873
 21
-31.184915
  0
LINE
  8
別途部材
  6
CONTINUOUS
 10
141.052873
 20
-31.434918
 11
141.30287
 21
-31.434918
  0
LINE
  8
別途部材
  6
CONTINUOUS
 10
138.078125
 20
-37.809918
 11
137.802873
 21
-37.809918
  0
LINE
  8
別途部材
  6
CONTINUOUS
 10
137.55287
 20
-37.559915
 11
137.55287
 21
-29.059918
  0
ARC
  8
別途部材
  6
CONTINUOUS
 10
137.802869
 20
-37.559915
 40
0.25
 50
180.0
 51
270.0
  0
LINE
  8
別途部材
  6
CONTINUOUS
 10
140.527618
 20
-37.809918
 11
140.802873
 21
-37.809918
  0
LINE
  8
別途部材
  6
CONTINUOUS
 10
141.052873
 20
-37.559915
 11
141.052873
 21
-29.059918
  0
ARC
  8
別途部材
  6
CONTINUOUS
 10
140.802869
 20
-37.559915
 40
0.25
 50
270.0
 51
360.0
  0
ARC
  8
別途部材
  6
CONTINUOUS
 10
139.302869
 20
-20.059915
 40
1.25
 50
191.536959
 51
348.463041
  0
LINE
  8
別途部材
  6
CONTINUOUS
 10
137.302873
 20
-29.059918
 11
137.302873
 21
-26.684915
  0
LINE
  8
別途部材
  6
CONTINUOUS
 10
137.302873
 20
-26.684915
 11
137.052873
 21
-26.934918
  0
LINE
  8
別途部材
  6
CONTINUOUS
 10
137.052873
 20
-29.059918
 11
137.052873
 21
-26.934918
  0
LINE
  8
別途部材
  6
CONTINUOUS
 10
137.55287
 20
-26.684915
 11
137.302873
 21
-26.684915
  0
LINE
  8
別途部材
  6
CONTINUOUS
 10
140.527618
 20
-20.309915
 11
140.527618
 21
-29.059918
  0
LINE
  8
別途部材
  6
CONTINUOUS
 10
138.078125
 20
-20.309915
 11
138.078125
 21
-29.059918
  0
LINE
  8
別途部材
  6
CONTINUOUS
 10
141.30287
 20
-29.059918
 11
141.30287
 21
-26.684915
  0
LINE
  8
別途部材
  6
CONTINUOUS
 10
141.30287
 20
-26.684915
 11
141.552873
 21
-26.934918
  0
LINE
  8
別途部材
  6
CONTINUOUS
 10
141.552873
 20
-29.059918
 11
141.552873
 21
-26.934918
  0
LINE
  8
別途部材
  6
CONTINUOUS
 10
141.052873
 20
-26.684915
 11
141.30287
 21
-26.684915
  0
LINE
  8
別途部材
  6
CONTINUOUS
 10
138.078125
 20
-20.309915
 11
137.802873
 21
-20.309915
  0
LINE
  8
別途部材
  6
CONTINUOUS
 10
137.55287
 20
-20.559918
 11
137.55287
 21
-29.059918
  0
ARC
  8
別途部材
  6
CONTINUOUS
 10
137.802869
 20
-20.559915
 40
0.25
 50
90.0
 51
180.0
  0
LINE
  8
別途部材
  6
CONTINUOUS
 10
140.527618
 20
-20.309915
 11
140.802873
 21
-20.309915
  0
LINE
  8
別途部材
  6
CONTINUOUS
 10
141.052873
 20
-20.559918
 11
141.052873
 21
-29.059918
  0
ARC
  8
別途部材
  6
CONTINUOUS
 10
140.802869
 20
-20.559915
 40
0.25
 50
0.0
 51
90.0
  0
ENDBLK
  0
BLOCK
  2
*GRP_0066
 70
    65
 10
0.0
 20
0.0
  0
LINE
  8
ボルト／ビス
  6
CONTINUOUS
 10
141.802873
 20
-32.94667
 11
141.802873
 21
-25.173167
  0
LINE
  8
ボルト／ビス
  6
CONTINUOUS
 10
142.302873
 20
-32.94667
 11
142.302873
 21
-25.173167
  0
LINE
  8
ボルト／ビス
  6
CONTINUOUS
 10
142.302873
 20
-25.173167
 11
141.802873
 21
-25.173167
  0
LINE
  8
ボルト／ビス
  6
CONTINUOUS
 10
142.302873
 20
-32.94667
 11
141.802873
 21
-32.94667
  0
INSERT
  2
*GRP_0071
  8
ボルト／ビス
  6
CONTINUOUS
 10
0.0
 20
0.0
  0
LINE
  8
ボルト／ビス
  6
CONTINUOUS
 10
127.302873
 20
-27.809915
 11
127.552873
 21
-27.559918
  0
LINE
  8
ボルト／ビス
  6
CONTINUOUS
 10
127.302873
 20
-30.309918
 11
127.552873
 21
-30.559918
  0
LINE
  8
ボルト／ビス
  6
CONTINUOUS
 10
127.302873
 20
-30.309918
 11
127.302873
 21
-27.809915
  0
LINE
  8
ボルト／ビス
  6
CONTINUOUS
 10
127.552873
 20
-30.559918
 11
127.552873
 21
-27.559918
  0
LINE
  8
ボルト／ビス
  6
CONTINUOUS
 10
127.302873
 20
-30.309918
 11
141.802873
 21
-30.309918
  0
LINE
  8
ボルト／ビス
  6
CONTINUOUS
 10
127.552873
 20
-30.559918
 11
141.802873
 21
-30.559918
  0
LINE
  8
ボルト／ビス
  6
CONTINUOUS
 10
127.552873
 20
-27.559918
 11
141.802873
 21
-27.559918
  0
LINE
  8
ボルト／ビス
  6
CONTINUOUS
 10
127.302873
 20
-27.809915
 11
141.802873
 21
-27.809915
  0
ENDBLK
  0
BLOCK
  2
*GRP_0067
 70
    65
 10
0.0
 20
0.0
  0
LINE
  8
補助線
  6
BYBLOCK
 62
     0
 10
125.301737
 20
-20.884918
 11
125.301737
 21
-37.234918
  0
LINE
  8
St
  6
DOT
 10
123.801737
 20
-21.532925
 11
123.801737
 21
-36.58691
  0
LINE
  8
St
  6
DOT
 10
126.801737
 20
-21.532925
 11
126.801737
 21
-36.58691
  0
LINE
  8
St
  6
DOT
 10
125.301737
 20
-27.559918
 11
132.00287
 21
-27.559918
  0
LINE
  8
St
  6
DOT
 10
125.301737
 20
-30.559918
 11
132.00287
 21
-30.559918
  0
INSERT
  2
*HAT_0002
  8
St
 10
0.0
 20
0.0
  0
ARC
  8
St
  6
CONTINUOUS
 10
125.301732
 20
-29.059915
 40
7.675
 50
26.791052
 51
333.208948
  0
LINE
  8
St
  6
CONTINUOUS
 10
132.15287
 20
-32.519335
 11
132.15287
 21
-25.600503
  0
LINE
  8
St
  6
DOT
 10
118.237345
 20
-26.059918
 11
132.15287
 21
-26.059918
  0
LINE
  8
St
  6
DOT
 10
118.237345
 20
-32.059918
 11
132.15287
 21
-32.059918
  0
ENDBLK
  0
BLOCK
  2
*GRP_0068
 70
    65
 10
0.0
 20
0.0
  0
LINE
  8
St
  6
CONTINUOUS
 10
137.052873
 20
-35.309915
 11
137.052873
 21
-22.809918
  0
LINE
  8
St
  6
CONTINUOUS
 10
137.052873
 20
-22.809918
 11
134.152873
 21
-22.809918
  0
LINE
  8
St
  6
CONTINUOUS
 10
134.152873
 20
-22.809918
 11
134.152873
 21
-35.309915
  0
LINE
  8
St
  6
CONTINUOUS
 10
137.052873
 20
-35.309915
 11
134.152873
 21
-35.309915
  0
ENDBLK
  0
BLOCK
  2
*GRP_0069
 70
    65
 10
0.0
 20
0.0
  0
LINE
  8
St
  6
CONTINUOUS
 10
132.15287
 20
-32.384915
 11
132.15287
 21
-25.734918
  0
LINE
  8
St
  6
DASHDOT
 10
147.87917
 20
-29.059918
 11
130.326943
 21
-29.059918
  0
LINE
  8
St
  6
CONTINUOUS
 10
137.052873
 20
-33.809915
 11
137.052873
 21
-29.059918
  0
LINE
  8
St
  6
CONTINUOUS
 10
137.052873
 20
-24.309918
 11
137.052873
 21
-29.059918
  0
LINE
  8
St
  6
CONTINUOUS
 10
137.052873
 20
-25.734918
 11
132.15287
 21
-25.734918
  0
LINE
  8
St
  6
CONTINUOUS
 10
137.052873
 20
-32.384915
 11
132.15287
 21
-32.384915
  0
LINE
  8
St
  6
CONTINUOUS
 10
137.052873
 20
-33.809915
 11
146.052873
 21
-33.809915
  0
LINE
  8
St
  6
CONTINUOUS
 10
146.052873
 20
-33.809915
 11
146.052873
 21
-24.309918
  0
LINE
  8
St
  6
CONTINUOUS
 10
137.052873
 20
-24.309918
 11
146.052873
 21
-24.309918
  0
LINE
  8
St
  6
DOT
 10
146.052873
 20
-25.009918
 11
144.552873
 21
-25.009918
  0
LINE
  8
St
  6
DOT
 10
144.552873
 20
-25.009918
 11
144.552873
 21
-33.109918
  0
LINE
  8
St
  6
DOT
 10
146.052873
 20
-33.109918
 11
144.552873
 21
-33.109918
  0
LINE
  8
St
  6
DOT
 10
132.15287
 20
-32.059918
 11
144.552873
 21
-32.059918
  0
LINE
  8
St
  6
DOT
 10
132.15287
 20
-26.059918
 11
144.552873
 21
-26.059918
  0
INSERT
  2
*HAT_0003
  8
St
 10
0.0
 20
0.0
  0
ENDBLK
  0
BLOCK
  2
*GRP_0070
 70
    65
 10
0.0
 20
0.0
  0
LINE
  8
St
  6
CONTINUOUS
 10
120.302875
 20
-26.059915
 11
120.302875
 21
-32.059915
  0
LINE
  8
St
  6
CONTINUOUS
 10
120.71954
 20
-32.059915
 11
120.71954
 21
-26.059915
  0
LINE
  8
St
  6
CONTINUOUS
 10
121.136207
 20
-32.059915
 11
121.136207
 21
-26.059915
  0
LINE
  8
St
  6
CONTINUOUS
 10
121.552873
 20
-32.059915
 11
121.552873
 21
-26.059915
  0
LINE
  8
St
  6
CONTINUOUS
 10
121.96954
 20
-32.059915
 11
121.96954
 21
-26.059915
  0
LINE
  8
St
  6
CONTINUOUS
 10
122.38621
 20
-32.059915
 11
122.38621
 21
-26.059915
  0
LINE
  8
St
  6
CONTINUOUS
 10
122.802875
 20
-32.059915
 11
122.802875
 21
-26.059915
  0
LINE
  8
St
  6
CONTINUOUS
 10
123.219542
 20
-32.059915
 11
123.219542
 21
-26.059915
  0
LINE
  8
St
  6
CONTINUOUS
 10
132.802873
 20
-32.059915
 11
132.802873
 21
-26.059915
  0
LINE
  8
St
  6
CONTINUOUS
 10
131.96954
 20
-32.059915
 11
131.96954
 21
-26.059915
  0
LINE
  8
St
  6
CONTINUOUS
 10
131.552875
 20
-32.059915
 11
131.552875
 21
-26.059915
  0
LINE
  8
St
  6
CONTINUOUS
 10
131.136207
 20
-32.059915
 11
131.136207
 21
-26.059915
  0
LINE
  8
St
  6
CONTINUOUS
 10
130.302875
 20
-32.059915
 11
130.302875
 21
-26.059915
  0
LINE
  8
St
  6
CONTINUOUS
 10
129.46954
 20
-32.059915
 11
129.46954
 21
-26.059915
  0
LINE
  8
St
  6
CONTINUOUS
 10
127.802875
 20
-32.059915
 11
127.802875
 21
-26.059915
  0
LINE
  8
St
  6
CONTINUOUS
 10
123.636207
 20
-32.059915
 11
123.636207
 21
-26.059915
  0
LINE
  8
St
  6
CONTINUOUS
 10
124.46954
 20
-32.059915
 11
124.46954
 21
-26.059915
  0
LINE
  8
St
  6
CONTINUOUS
 10
124.886207
 20
-32.059915
 11
124.886207
 21
-26.059915
  0
LINE
  8
St
  6
CONTINUOUS
 10
125.302873
 20
-32.059915
 11
125.302873
 21
-26.059915
  0
LINE
  8
St
  6
CONTINUOUS
 10
125.71954
 20
-32.059915
 11
125.71954
 21
-26.059915
  0
LINE
  8
St
  6
CONTINUOUS
 10
126.13621
 20
-32.059915
 11
126.13621
 21
-26.059915
  0
LINE
  8
St
  6
CONTINUOUS
 10
126.552875
 20
-32.059915
 11
126.552875
 21
-26.059915
  0
LINE
  8
St
  6
CONTINUOUS
 10
126.969542
 20
-32.059915
 11
126.969542
 21
-26.059915
  0
LINE
  8
St
  6
CONTINUOUS
 10
127.386207
 20
-32.059915
 11
127.386207
 21
-26.059915
  0
LINE
  8
St
  6
CONTINUOUS
 10
124.052875
 20
-32.059915
 11
124.052875
 21
-26.059915
  0
LINE
  8
St
  6
CONTINUOUS
 10
128.21954
 20
-32.059915
 11
128.21954
 21
-26.059915
  0
LINE
  8
St
  6
CONTINUOUS
 10
128.636207
 20
-32.059915
 11
128.636207
 21
-26.059915
  0
LINE
  8
St
  6
CONTINUOUS
 10
129.052873
 20
-32.059915
 11
129.052873
 21
-26.059915
  0
LINE
  8
St
  6
CONTINUOUS
 10
129.88621
 20
-32.059915
 11
129.88621
 21
-26.059915
  0
LINE
  8
St
  6
CONTINUOUS
 10
130.719542
 20
-32.059915
 11
130.719542
 21
-26.059915
  0
LINE
  8
St
  6
CONTINUOUS
 10
132.386207
 20
-32.059915
 11
132.386207
 21
-26.059915
  0
LINE
  8
St
  6
CONTINUOUS
 10
144.552873
 20
-25.059912
 11
146.052873
 21
-25.059912
  0
LINE
  8
St
  6
CONTINUOUS
 10
144.552873
 20
-25.059912
 11
144.552873
 21
-33.059915
  0
LINE
  8
St
  6
CONTINUOUS
 10
144.552873
 20
-33.059915
 11
146.052873
 21
-33.059915
  0
LINE
  8
St
  6
CONTINUOUS
 10
146.052873
 20
-25.059912
 11
146.052873
 21
-33.059915
  0
LINE
  8
St
  6
CONTINUOUS
 10
120.302875
 20
-32.059915
 11
144.552873
 21
-32.059915
  0
LINE
  8
St
  6
CONTINUOUS
 10
120.302875
 20
-26.059915
 11
144.552873
 21
-26.059915
  0
LINE
  8
St
  6
DASHDOT
 10
120.302875
 20
-29.059915
 11
164.251735
 21
-29.059915
  0
LINE
  8
St
  6
CONTINUOUS
 10
146.052873
 20
-25.609915
 11
158.551735
 21
-25.609915
  0
LINE
  8
St
  6
CONTINUOUS
 10
158.551735
 20
-25.609915
 11
158.551735
 21
-32.509915
  0
LINE
  8
St
  6
CONTINUOUS
 10
146.052873
 20
-32.509915
 11
158.551735
 21
-32.509915
  0
LINE
  8
St
  6
CONTINUOUS
 10
164.251735
 20
-27.259915
 11
164.001733
 21
-26.559912
  0
LINE
  8
St
  6
CONTINUOUS
 10
164.001733
 20
-27.059915
 11
158.551735
 21
-27.059915
  0
LINE
  8
St
  6
CONTINUOUS
 10
164.001733
 20
-26.559912
 11
158.551735
 21
-26.559912
  0
LINE
  8
St
  6
CONTINUOUS
 10
164.251735
 20
-27.259915
 11
164.251735
 21
-29.059915
  0
LINE
  8
St
  6
CONTINUOUS
 10
164.001733
 20
-26.559912
 11
164.001733
 21
-29.059915
  0
LINE
  8
St
  6
CONTINUOUS
 10
164.251735
 20
-30.859915
 11
164.001733
 21
-31.559915
  0
LINE
  8
St
  6
CONTINUOUS
 10
164.001733
 20
-31.059912
 11
158.551735
 21
-31.059912
  0
LINE
  8
St
  6
CONTINUOUS
 10
164.001733
 20
-31.559915
 11
158.551735
 21
-31.559915
  0
LINE
  8
St
  6
CONTINUOUS
 10
164.251735
 20
-30.859915
 11
164.251735
 21
-29.059915
  0
LINE
  8
St
  6
CONTINUOUS
 10
164.001733
 20
-31.559915
 11
164.001733
 21
-29.059915
  0
ENDBLK
  0
BLOCK
  2
*GRP_0071
 70
    65
 10
0.0
 20
0.0
  0
LINE
  8
ボルト／ビス
  6
CONTINUOUS
 10
144.30287
 20
-26.65429
 11
144.127758
 21
-26.173165
  0
ARC
  8
ボルト／ビス
  6
CONTINUOUS
 10
142.728192
 20
-26.89485
 40
1.574676
 50
332.721967
 51
360.0
  0
ARC
  8
ボルト／ビス
  6
CONTINUOUS
 10
138.266835
 20
-29.059914
 40
6.036034
 50
346.165002
 51
373.834985
  0
LINE
  8
ボルト／ビス
  6
CONTINUOUS
 10
144.30287
 20
-31.465542
 11
144.127758
 21
-31.946667
  0
ARC
  8
ボルト／ビス
  6
CONTINUOUS
 10
142.728192
 20
-31.224978
 40
1.574676
 50
0.0
 51
27.278033
  0
LINE
  8
ボルト／ビス
  6
CONTINUOUS
 10
144.30287
 20
-26.65429
 11
144.30287
 21
-31.465542
  0
LINE
  8
ボルト／ビス
  6
CONTINUOUS
 10
144.127758
 20
-31.946667
 11
142.302873
 21
-31.946667
  0
LINE
  8
ボルト／ビス
  6
CONTINUOUS
 10
144.127758
 20
-30.503293
 11
142.302873
 21
-30.503293
  0
LINE
  8
ボルト／ビス
  6
CONTINUOUS
 10
144.127758
 20
-26.173165
 11
142.302873
 21
-26.173165
  0
LINE
  8
ボルト／ビス
  6
CONTINUOUS
 10
144.127758
 20
-27.616543
 11
142.302873
 21
-27.616543
  0
LINE
  8
ボルト／ビス
  6
CONTINUOUS
 10
142.302873
 20
-31.946667
 11
142.302873
 21
-26.173165
  0
ENDBLK
  0
BLOCK
  2
*GRP_0072
 70
    65
 10
0.0
 20
0.0
  0
POLYLINE
  8
ガラス
  6
CONTINUOUS
 66
     1
 70
     4
  0
VERTEX
  8
ガラス
 10
-50.025
 20
42.525
 70
     8
  0
VERTEX
  8
ガラス
 10
-50.025
 20
42.575
 70
     8
  0
VERTEX
  8
ガラス
 10
-50.05
 20
42.625
 70
     8
  0
VERTEX
  8
ガラス
 10
-50.05
 20
42.675
 70
     8
  0
VERTEX
  8
ガラス
 10
-50.05
 20
42.7
 70
     8
  0
VERTEX
  8
ガラス
 10
-50.05
 20
42.75
 70
     8
  0
VERTEX
  8
ガラス
 10
-50.05
 20
42.8
 70
     8
  0
VERTEX
  8
ガラス
 10
-50.075
 20
42.85
 70
     8
  0
VERTEX
  8
ガラス
 10
-50.075
 20
42.9
 70
     8
  0
VERTEX
  8
ガラス
 10
-50.075
 20
42.925
 70
     8
  0
VERTEX
  8
ガラス
 10
-50.1
 20
42.975
 70
     8
  0
VERTEX
  8
ガラス
 10
-50.1
 20
43.025
 70
     8
  0
VERTEX
  8
ガラス
 10
-50.1
 20
43.075
 70
     8
  0
VERTEX
  8
ガラス
 10
-50.125
 20
43.1
 70
     8
  0
VERTEX
  8
ガラス
 10
-50.125
 20
43.15
 70
     8
  0
VERTEX
  8
ガラス
 10
-50.15
 20
43.2
 70
     8
  0
VERTEX
  8
ガラス
 10
-50.15
 20
43.225
 70
     8
  0
VERTEX
  8
ガラス
 10
-50.175
 20
43.275
 70
     8
  0
VERTEX
  8
ガラス
 10
-50.2
 20
43.3
 70
     8
  0
VERTEX
  8
ガラス
 10
-50.225
 20
43.35
 70
     8
  0
VERTEX
  8
ガラス
 10
-50.225
 20
43.375
 70
     8
  0
VERTEX
  8
ガラス
 10
-50.25
 20
43.425
 70
     8
  0
VERTEX
  8
ガラス
 10
-50.275
 20
43.45
 70
     8
  0
VERTEX
  8
ガラス
 10
-50.3
 20
43.475
 70
     8
  0
VERTEX
  8
ガラス
 10
-50.325
 20
43.5
 70
     8
  0
VERTEX
  8
ガラス
 10
-50.375
 20
43.55
 70
     8
  0
VERTEX
  8
ガラス
 10
-50.4
 20
43.575
 70
     8
  0
VERTEX
  8
ガラス
 10
-50.425
 20
43.6
 70
     8
  0
VERTEX
  8
ガラス
 10
-50.475
 20
43.625
 70
     8
  0
VERTEX
  8
ガラス
 10
-50.5
 20
43.65
 70
     8
  0
VERTEX
  8
ガラス
 10
-50.525
 20
43.675
 70
     8
  0
VERTEX
  8
ガラス
 10
-50.575
 20
43.7
 70
     8
  0
VERTEX
  8
ガラス
 10
-50.6
 20
43.725
 70
     8
  0
VERTEX
  8
ガラス
 10
-50.65
 20
43.75
 70
     8
  0
VERTEX
  8
ガラス
 10
-50.675
 20
43.775
 70
     8
  0
VERTEX
  8
ガラス
 10
-50.725
 20
43.8
 70
     8
  0
VERTEX
  8
ガラス
 10
-50.75
 20
43.825
 70
     8
  0
VERTEX
  8
ガラス
 10
-50.8
 20
43.85
 70
     8
  0
VERTEX
  8
ガラス
 10
-50.85
 20
43.875
 70
     8
  0
VERTEX
  8
ガラス
 10
-50.875
 20
43.9
 70
     8
  0
VERTEX
  8
ガラス
 10
-50.925
 20
43.925
 70
     8
  0
SEQEND
  0
POLYLINE
  8
ガラス
  6
CONTINUOUS
 66
     1
 70
     4
  0
VERTEX
  8
ガラス
 10
-50.925
 20
43.925
 70
     8
  0
VERTEX
  8
ガラス
 10
-50.925
 20
43.875
 70
     8
  0
VERTEX
  8
ガラス
 10
-50.925
 20
43.85
 70
     8
  0
VERTEX
  8
ガラス
 10
-50.925
 20
43.825
 70
     8
  0
VERTEX
  8
ガラス
 10
-50.9
 20
43.8
 70
     8
  0
VERTEX
  8
ガラス
 10
-50.9
 20
43.75
 70
     8
  0
VERTEX
  8
ガラス
 10
-50.9
 20
43.725
 70
     8
  0
VERTEX
  8
ガラス
 10
-50.9
 20
43.7
 70
     8
  0
VERTEX
  8
ガラス
 10
-50.9
 20
43.675
 70
     8
  0
VERTEX
  8
ガラス
 10
-50.9
 20
43.65
 70
     8
  0
VERTEX
  8
ガラス
 10
-50.9
 20
43.6
 70
     8
  0
VERTEX
  8
ガラス
 10
-50.9
 20
43.575
 70
     8
  0
VERTEX
  8
ガラス
 10
-50.9
 20
43.55
 70
     8
  0
VERTEX
  8
ガラス
 10
-50.9
 20
43.525
 70
     8
  0
VERTEX
  8
ガラス
 10
-50.9
 20
43.475
 70
     8
  0
VERTEX
  8
ガラス
 10
-50.9
 20
43.45
 70
     8
  0
VERTEX
  8
ガラス
 10
-50.9
 20
43.425
 70
     8
  0
VERTEX
  8
ガラス
 10
-50.875
 20
43.4
 70
     8
  0
VERTEX
  8
ガラス
 10
-50.875
 20
43.375
 70
     8
  0
VERTEX
  8
ガラス
 10
-50.9
 20
43.325
 70
     8
  0
VERTEX
  8
ガラス
 10
-50.9
 20
43.3
 70
     8
  0
VERTEX
  8
ガラス
 10
-50.9
 20
43.275
 70
     8
  0
VERTEX
  8
ガラス
 10
-50.9
 20
43.25
 70
     8
  0
VERTEX
  8
ガラス
 10
-50.9
 20
43.2
 70
     8
  0
VERTEX
  8
ガラス
 10
-50.9
 20
43.175
 70
     8
  0
VERTEX
  8
ガラス
 10
-50.9
 20
43.15
 70
     8
  0
VERTEX
  8
ガラス
 10
-50.9
 20
43.125
 70
     8
  0
VERTEX
  8
ガラス
 10
-50.9
 20
43.1
 70
     8
  0
VERTEX
  8
ガラス
 10
-50.9
 20
43.05
 70
     8
  0
VERTEX
  8
ガラス
 10
-50.925
 20
43.025
 70
     8
  0
VERTEX
  8
ガラス
 10
-50.925
 20
43.0
 70
     8
  0
VERTEX
  8
ガラス
 10
-50.925
 20
42.975
 70
     8
  0
VERTEX
  8
ガラス
 10
-50.925
 20
42.925
 70
     8
  0
VERTEX
  8
ガラス
 10
-50.925
 20
42.9
 70
     8
  0
VERTEX
  8
ガラス
 10
-50.925
 20
42.875
 70
     8
  0
VERTEX
  8
ガラス
 10
-50.95
 20
42.85
 70
     8
  0
VERTEX
  8
ガラス
 10
-50.95
 20
42.825
 70
     8
  0
VERTEX
  8
ガラス
 10
-50.95
 20
42.775
 70
     8
  0
VERTEX
  8
ガラス
 10
-50.95
 20
42.75
 70
     8
  0
VERTEX
  8
ガラス
 10
-50.975
 20
42.725
 70
     8
  0
VERTEX
  8
ガラス
 10
-50.975
 20
42.7
 70
     8
  0
SEQEND
  0
ARC
  8
ガラス
  6
CONTINUOUS
 10
-50.488243
 20
42.622115
 40
0.477567
 50
169.72878
 51
349.72878
  0
ENDBLK
  0
BLOCK
  2
*GRP_0073
 70
    65
 10
0.0
 20
0.0
  0
LINE
  8
ボルト／ビス
  6
CONTINUOUS
 62
    64
 10
-47.36425
 20
-59.689902
 11
-47.36425
 21
-94.560253
  0
LINE
  8
ボルト／ビス
  6
CONTINUOUS
 62
    64
 10
-49.114175
 20
-63.64424
 11
-48.760663
 21
-63.290477
  0
LINE
  8
ボルト／ビス
  6
CONTINUOUS
 62
    64
 10
-49.114175
 20
-63.64424
 11
-49.114175
 21
-66.790465
  0
LINE
  8
ボルト／ビス
  6
CONTINUOUS
 62
    64
 10
-49.114175
 20
-63.64424
 11
-49.467688
 21
-63.290477
  0
LINE
  8
ボルト／ビス
  6
CONTINUOUS
 62
    64
 10
-49.010625
 20
-60.79059
 11
-49.010625
 21
-63.290477
  0
LINE
  8
ボルト／ビス
  6
CONTINUOUS
 62
    64
 10
-51.3642
 20
-66.790465
 11
-51.3642
 21
-68.040528
  0
LINE
  8
ボルト／ビス
  6
CONTINUOUS
 62
    64
 10
-49.364287
 20
-78.29054
 11
-49.010625
 21
-77.937028
  0
LINE
  8
ボルト／ビス
  6
CONTINUOUS
 62
    64
 10
-49.010625
 20
-68.790665
 11
-49.010625
 21
-77.937028
  0
LINE
  8
ボルト／ビス
  6
CONTINUOUS
 62
    64
 10
-49.364287
 20
-82.99019
 11
-51.305387
 21
-90.23469
  0
LINE
  8
ボルト／ビス
  6
CONTINUOUS
 62
    64
 10
-49.364287
 20
-68.790665
 11
-49.364287
 21
-82.99019
  0
LINE
  8
ボルト／ビス
  6
CONTINUOUS
 62
    64
 10
-49.114175
 20
-63.64424
 11
-48.760663
 21
-63.290477
  0
LINE
  8
ボルト／ビス
  6
CONTINUOUS
 62
    64
 10
-45.64455
 20
-63.64424
 11
-45.291038
 21
-63.290477
  0
LINE
  8
ボルト／ビス
  6
CONTINUOUS
 62
    64
 10
-45.64455
 20
-63.64424
 11
-45.64455
 21
-66.790465
  0
LINE
  8
ボルト／ビス
  6
CONTINUOUS
 62
    64
 10
-45.64455
 20
-63.64424
 11
-45.998063
 21
-63.290477
  0
LINE
  8
ボルト／ビス
  6
CONTINUOUS
 62
    64
 10
-45.717788
 20
-60.79059
 11
-45.717788
 21
-63.290477
  0
LINE
  8
ボルト／ビス
  6
CONTINUOUS
 62
    64
 10
-43.36415
 20
-66.790465
 11
-43.36415
 21
-68.040528
  0
LINE
  8
ボルト／ビス
  6
CONTINUOUS
 62
    64
 10
-45.364263
 20
-78.29054
 11
-45.717788
 21
-77.937028
  0
LINE
  8
ボルト／ビス
  6
CONTINUOUS
 62
    64
 10
-45.717788
 20
-68.790665
 11
-45.717788
 21
-77.937028
  0
LINE
  8
ボルト／ビス
  6
CONTINUOUS
 62
    64
 10
-45.364263
 20
-82.99019
 11
-43.423113
 21
-90.23469
  0
LINE
  8
ボルト／ビス
  6
CONTINUOUS
 62
    64
 10
-45.364263
 20
-68.790665
 11
-45.364263
 21
-82.99019
  0
LINE
  8
ボルト／ビス
  6
CONTINUOUS
 62
    64
 10
-45.364263
 20
-61.144103
 11
-45.717788
 21
-60.79059
  0
LINE
  8
ボルト／ビス
  6
CONTINUOUS
 62
    64
 10
-45.364263
 20
-63.290477
 11
-45.364263
 21
-61.144103
  0
LINE
  8
ボルト／ビス
  6
CONTINUOUS
 62
    64
 10
-45.717788
 20
-60.79059
 11
-49.010625
 21
-60.79059
  0
LINE
  8
ボルト／ビス
  6
CONTINUOUS
 62
    64
 10
-49.010625
 20
-60.79059
 11
-49.364287
 21
-61.144103
  0
LINE
  8
ボルト／ビス
  6
CONTINUOUS
 62
    64
 10
-45.364263
 20
-61.144103
 11
-49.364287
 21
-61.144103
  0
LINE
  8
ボルト／ビス
  6
CONTINUOUS
 62
    64
 10
-49.364287
 20
-63.290477
 11
-49.364287
 21
-61.144103
  0
LINE
  8
ボルト／ビス
  6
CONTINUOUS
 62
    64
 10
-51.764188
 20
-63.64424
 11
-51.410675
 21
-63.290477
  0
LINE
  8
ボルト／ビス
  6
CONTINUOUS
 62
    64
 10
-51.764188
 20
-63.64424
 11
-51.764188
 21
-66.790465
  0
LINE
  8
ボルト／ビス
  6
CONTINUOUS
 62
    64
 10
-51.410675
 20
-63.290477
 11
-43.317825
 21
-63.290477
  0
LINE
  8
ボルト／ビス
  6
CONTINUOUS
 62
    64
 10
-42.964312
 20
-63.64424
 11
-43.317825
 21
-63.290477
  0
LINE
  8
ボルト／ビス
  6
CONTINUOUS
 62
    64
 10
-42.964312
 20
-63.64424
 11
-42.964312
 21
-66.790465
  0
LINE
  8
ボルト／ビス
  6
CONTINUOUS
 62
    64
 10
-51.764188
 20
-66.790465
 11
-42.964312
 21
-66.790465
  0
LINE
  8
ボルト／ビス
  6
CONTINUOUS
 62
    64
 10
-42.489163
 20
-68.040528
 11
-42.489163
 21
-68.790665
  0
LINE
  8
ボルト／ビス
  6
CONTINUOUS
 62
    64
 10
-42.489163
 20
-68.040528
 11
-52.23925
 21
-68.040528
  0
LINE
  8
ボルト／ビス
  6
CONTINUOUS
 62
    64
 10
-52.23925
 20
-68.040528
 11
-52.23925
 21
-68.790665
  0
LINE
  8
ボルト／ビス
  6
CONTINUOUS
 62
    64
 10
-42.489163
 20
-68.790665
 11
-52.23925
 21
-68.790665
  0
LINE
  8
ボルト／ビス
  6
CONTINUOUS
 62
    64
 10
-47.36425
 20
-83.319427
 11
-45.371288
 21
-90.756765
  0
LINE
  8
ボルト／ビス
  6
CONTINUOUS
 62
    64
 10
-43.423113
 20
-90.23469
 11
-45.371288
 21
-90.756765
  0
LINE
  8
ボルト／ビス
  6
CONTINUOUS
 62
    64
 10
-47.36425
 20
-83.319427
 11
-49.357075
 21
-90.756765
  0
LINE
  8
ボルト／ビス
  6
CONTINUOUS
 62
    64
 10
-51.305387
 20
-90.23469
 11
-49.357075
 21
-90.756765
  0
LINE
  8
ボルト／ビス
  6
CONTINUOUS
 62
    64
 10
-49.364287
 20
-91.790465
 11
-48.719287
 21
-88.132415
  0
LINE
  8
ボルト／ビス
  6
CONTINUOUS
 62
    64
 10
-45.364263
 20
-91.790465
 11
-46.009213
 21
-88.132415
  0
LINE
  8
ボルト／ビス
  6
CONTINUOUS
 62
    64
 10
-49.364287
 20
-91.790465
 11
-45.364263
 21
-91.790465
  0
LINE
  8
ボルト／ビス
  6
CONTINUOUS
 62
    64
 10
-48.719287
 20
-88.132415
 11
-46.009213
 21
-88.132415
  0
ENDBLK
  0
BLOCK
  2
*GRP_0074
 70
    65
 10
0.0
 20
0.0
  0
LINE
  8
曲げ物
  6
CONTINUOUS
 10
-97.389255
 20
-77.07341
 11
-97.38918
 21
-107.07341
  0
LINE
  8
曲げ物
  6
DOT
 10
-96.889268
 20
-77.07341
 11
-96.889192
 21
-107.07341
  0
LINE
  8
曲げ物
  6
CONTINUOUS
 10
-92.389245
 20
-77.07341
 11
-92.389207
 21
-107.07341
  0
LINE
  8
曲げ物
  6
DOT
 10
-92.88927
 20
-77.07341
 11
-92.889195
 21
-107.07341
  0
LINE
  8
曲げ物
  6
CONTINUOUS
 10
-97.38918
 20
-107.07341
 11
-92.389207
 21
-107.07341
  0
LINE
  8
曲げ物
  6
CONTINUOUS
 10
-97.389255
 20
-77.07341
 11
-92.389245
 21
-77.07341
  0
ENDBLK
  0
BLOCK
  2
*GRP_0075
 70
    65
 10
0.0
 20
0.0
  0
POLYLINE
  8
寸法
  6
CONTINUOUS
 66
     1
  0
VERTEX
  8
寸法
 10
-95.5046
 20
-88.210725
  0
VERTEX
  8
寸法
 10
-108.477368
 20
-101.18349
  0
VERTEX
  8
寸法
 10
-116.881312
 20
-101.18349
  0
SEQEND
  0
ENDBLK
  0
BLOCK
  2
*GRP_0076
 70
    65
 10
0.0
 20
0.0
  0
LINE
  8
ゴム等
  6
CONTINUOUS
 62
    63
 10
109.682635
 20
-5.888527
 11
109.505857
 21
-5.71175
  0
LINE
  8
ゴム等
  6
CONTINUOUS
 62
    63
 10
109.505857
 20
-5.71175
 11
109.152307
 21
-6.065308
  0
LINE
  8
ゴム等
  6
CONTINUOUS
 62
    63
 10
109.152307
 20
-6.065308
 11
108.51591
 21
-5.428913
  0
LINE
  8
ゴム等
  6
CONTINUOUS
 62
    63
 10
108.51591
 20
-5.428913
 11
109.7887
 21
-4.156117
  0
LINE
  8
ゴム等
  6
CONTINUOUS
 62
    63
 10
107.27847
 20
-8.29269
 11
107.10169
 21
-8.115913
  0
LINE
  8
ゴム等
  6
CONTINUOUS
 62
    63
 10
107.10169
 20
-8.115913
 11
107.45525
 21
-7.762363
  0
LINE
  8
ゴム等
  6
CONTINUOUS
 62
    63
 10
107.27847
 20
-8.29269
 11
108.834108
 21
-8.292698
  0
LINE
  8
ゴム等
  6
CONTINUOUS
 62
    63
 10
107.45525
 20
-7.762363
 11
106.818845
 21
-7.125972
  0
LINE
  8
ゴム等
  6
CONTINUOUS
 62
    63
 10
106.818845
 20
-7.125972
 11
105.54606
 21
-8.39876
  0
LINE
  8
ゴム等
  6
CONTINUOUS
 62
    63
 10
109.682635
 20
-7.444163
 11
108.834108
 21
-8.292698
  0
ARC
  8
ゴム等
  6
CONTINUOUS
 62
    63
 10
108.020941
 20
-6.63099
 40
0.5
 50
45.000012
 51
135.000012
  0
LINE
  8
ゴム等
  6
CONTINUOUS
 62
    63
 10
107.667385
 20
-6.27744
 11
107.667385
 21
-6.27744
  0
ARC
  8
ゴム等
  6
CONTINUOUS
 62
    63
 10
108.020941
 20
-6.63099
 40
0.5
 50
135.000012
 51
225.000012
  0
LINE
  8
ゴム等
  6
CONTINUOUS
 62
    63
 10
107.667385
 20
-6.98454
 11
108.233065
 21
-7.550233
  0
ARC
  8
ゴム等
  6
CONTINUOUS
 62
    63
 10
108.586627
 20
-7.196675
 40
0.5
 50
225.000012
 51
315.000012
  0
LINE
  8
ゴム等
  6
CONTINUOUS
 62
    63
 10
108.940172
 20
-7.550227
 11
108.940172
 21
-7.550227
  0
LINE
  8
ゴム等
  6
CONTINUOUS
 62
    63
 10
108.374485
 20
-6.27744
 11
108.940172
 21
-6.84312
  0
ARC
  8
ゴム等
  6
CONTINUOUS
 62
    63
 10
108.586627
 20
-7.196675
 40
0.5
 50
315.000012
 51
405.000012
  0
LINE
  8
ゴム等
  6
CONTINUOUS
 62
    63
 10
109.682635
 20
-5.888527
 11
109.682635
 21
-7.444163
  0
LINE
  8
ゴム等
  6
CONTINUOUS
 10
109.605437
 20
-7.52136
 11
109.605443
 21
-5.811335
  0
LINE
  8
ゴム等
  6
CONTINUOUS
 10
108.605435
 20
-5.339375
 11
108.60544
 21
-2.972855
  0
LINE
  8
ゴム等
  6
CONTINUOUS
 10
106.605435
 20
-7.33938
 11
106.605437
 21
-0.97286
  0
LINE
  8
ゴム等
  6
CONTINUOUS
 10
105.605432
 20
-8.339377
 11
105.605432
 21
0.027145
  0
LINE
  8
ゴム等
  6
CONTINUOUS
 10
108.605435
 20
-5.51844
 11
108.605443
 21
-6.50839
  0
LINE
  8
ゴム等
  6
CONTINUOUS
 10
107.605443
 20
-8.292688
 11
107.60544
 21
-6.922605
  0
LINE
  8
ゴム等
  6
CONTINUOUS
 10
107.60544
 20
-1.972865
 11
107.605443
 21
-6.352845
  0
LINE
  8
ゴム等
  6
CONTINUOUS
 10
108.605435
 20
-8.292688
 11
108.605435
 21
-7.696317
  0
LINE
  8
ゴム等
  6
CONTINUOUS
 62
    63
 10
104.485395
 20
1.147185
 11
103.778285
 21
0.440072
  0
LINE
  8
ゴム等
  6
CONTINUOUS
 62
    63
 10
100.242763
 20
-3.09546
 11
100.94987
 21
-2.388353
  0
LINE
  8
ゴム等
  6
CONTINUOUS
 62
    63
 10
100.94987
 20
-2.388353
 11
100.94987
 21
-2.388353
  0
ARC
  8
ゴム等
  6
CONTINUOUS
 62
    63
 10
101.126649
 20
-2.211574
 40
0.25
 50
225.000012
 51
315.000012
  0
LINE
  8
ゴム等
  6
CONTINUOUS
 62
    63
 10
103.778285
 20
0.440072
 11
103.778285
 21
0.440072
  0
LINE
  8
ゴム等
  6
CONTINUOUS
 62
    63
 10
103.77829
 20
0.086522
 11
101.303418
 21
-2.388357
  0
ARC
  8
ゴム等
  6
CONTINUOUS
 62
    63
 10
103.601523
 20
0.2633
 40
0.25
 50
-44.999988
 51
45.000012
  0
LINE
  8
ゴム等
  6
CONTINUOUS
 62
    63
 10
109.7887
 20
-4.156117
 11
104.485395
 21
1.147185
  0
LINE
  8
ゴム等
  6
CONTINUOUS
 62
    63
 10
105.54606
 20
-8.39876
 11
100.242763
 21
-3.09546
  0
LINE
  8
ゴム等
  6
CONTINUOUS
 10
101.60544
 20
-4.458135
 11
101.605443
 21
-2.086327
  0
LINE
  8
ゴム等
  6
CONTINUOUS
 10
102.60544
 20
-5.458137
 11
102.60544
 21
-1.08633
  0
LINE
  8
ゴム等
  6
CONTINUOUS
 10
103.605437
 20
-6.458143
 11
103.605435
 21
-0.086325
  0
LINE
  8
ゴム等
  6
CONTINUOUS
 10
104.605435
 20
-7.458133
 11
104.60544
 21
1.027143
  0
LINE
  8
ゴム等
  6
CONTINUOUS
 10
100.636333
 20
-2.70188
 11
100.63634
 21
-3.489037
  0
ENDBLK
  0
BLOCK
  2
*GRP_0077
 70
    65
 10
0.0
 20
0.0
  0
ARC
  8
St
  6
CONTINUOUS
 62
   127
 10
-28.964265
 20
-68.790667
 40
1.6
 50
-90.0
 51
0.0
  0
LINE
  8
St
  6
CONTINUOUS
 10
-71.185058
 20
-68.790668
 11
-72.785055
 21
-70.390668
  0
LINE
  8
St
  6
CONTINUOUS
 10
-71.538615
 20
-68.790668
 11
-73.138612
 21
-70.390668
  0
LINE
  8
St
  6
CONTINUOUS
 62
   127
 10
-28.964255
 20
-68.790668
 11
-77.364253
 21
-68.790668
  0
LINE
  8
St
  6
CONTINUOUS
 10
-77.364253
 20
-68.790668
 11
-77.364253
 21
-70.390668
  0
LINE
  8
St
  6
CONTINUOUS
 62
   127
 10
-28.964255
 20
-70.390668
 11
-77.364253
 21
-70.390668
  0
LINE
  8
St
  6
CONTINUOUS
 10
-39.56177
 20
-70.390668
 11
-37.961773
 21
-68.790668
  0
LINE
  8
St
  6
CONTINUOUS
 10
-39.915327
 20
-70.390668
 11
-38.31533
 21
-68.790668
  0
LINE
  8
St
  6
CONTINUOUS
 10
-28.964255
 20
-53.266507
 11
-27.364253
 21
-51.666503
  0
LINE
  8
St
  6
CONTINUOUS
 10
-28.964255
 20
-52.91295
 11
-27.364253
 21
-51.312945
  0
LINE
  8
St
  6
CONTINUOUS
 10
-28.964255
 20
-50.390665
 11
-27.364253
 21
-50.390665
  0
LINE
  8
St
  6
CONTINUOUS
 62
   127
 10
-27.364253
 20
-68.790668
 11
-27.364253
 21
-50.390665
  0
LINE
  8
St
  6
CONTINUOUS
 62
   127
 10
-28.964255
 20
-68.790668
 11
-28.964255
 21
-50.390665
  0
LINE
  8
St
  6
DOT
 10
-24.940693
 20
-57.890665
 11
-31.265063
 21
-57.890665
  0
LINE
  8
St
  6
DOT
 62
   127
 10
-53.24685
 20
-71.68836
 11
-53.24685
 21
-71.688355
  0
LINE
  8
St
  6
DOT
 10
-42.364253
 20
-68.790668
 11
-42.364253
 21
-70.390668
  0
LINE
  8
St
  6
DOT
 10
-52.36425
 20
-68.790668
 11
-52.36425
 21
-70.390668
  0
LINE
  8
St
  6
DOT
 10
-59.86425
 20
-68.790668
 11
-59.86425
 21
-70.390668
  0
LINE
  8
St
  6
DOT
 10
-64.864253
 20
-68.790668
 11
-64.864253
 21
-70.390668
  0
LINE
  8
St
  6
DOT
 10
-47.364253
 20
-66.7587
 11
-47.364253
 21
-72.498
  0
LINE
  8
St
  6
DOT
 62
   127
 10
-52.36425
 20
-69.190668
 11
-42.364253
 21
-69.190668
  0
LINE
  8
St
  6
DOT
 62
   127
 10
-52.36425
 20
-69.590665
 11
-42.364253
 21
-69.590665
  0
LINE
  8
St
  6
DOT
 62
   127
 10
-52.36425
 20
-69.990668
 11
-42.364253
 21
-69.990668
  0
LINE
  8
St
  6
DOT
 10
-59.86425
 20
-69.190668
 11
-64.864253
 21
-69.190668
  0
LINE
  8
St
  6
DOT
 10
-59.86425
 20
-69.590665
 11
-64.864253
 21
-69.590665
  0
LINE
  8
St
  6
DOT
 10
-59.86425
 20
-69.990668
 11
-64.864253
 21
-69.990668
  0
LINE
  8
St
  6
DOT
 10
-62.364253
 20
-66.7587
 11
-62.364253
 21
-72.498
  0
LINE
  8
St
  6
DOT
 10
-27.364253
 20
-68.790668
 11
-28.964255
 21
-68.790668
  0
LINE
  8
St
  6
DOT
 10
-27.364253
 20
-52.890662
 11
-28.964255
 21
-52.890662
  0
LINE
  8
St
  6
DOT
 10
-28.964255
 20
-59.390665
 11
-27.364253
 21
-59.390665
  0
LINE
  8
St
  6
DOT
 10
-28.964255
 20
-56.390665
 11
-27.364253
 21
-56.390665
  0
LINE
  8
St
  6
DOT
 62
   127
 10
-28.564253
 20
-68.790668
 11
-28.564253
 21
-52.890662
  0
LINE
  8
St
  6
DOT
 62
   127
 10
-28.164255
 20
-68.790668
 11
-28.164255
 21
-52.890662
  0
LINE
  8
St
  6
DOT
 62
   127
 10
-27.764255
 20
-68.790668
 11
-27.764255
 21
-52.890662
  0
ENDBLK
  0
BLOCK
  2
*GRP_0078
 70
    65
 10
0.0
 20
0.0
  0
INSERT
  2
*GRP_0079
  8
補助線
  6
DOT
 10
0.0
 20
0.0
  0
INSERT
  2
*GRP_0080
  8
補助線
  6
DOT
 10
0.0
 20
0.0
  0
LINE
  8
St
  6
CONTINUOUS
 62
   127
 10
-10.137038
 20
32.98508
 11
-10.137038
 21
23.735085
  0
LINE
  8
St
  6
CONTINUOUS
 62
   127
 10
-19.137045
 20
34.61009
 11
-22.03704
 21
34.61009
  0
LINE
  8
St
  6
CONTINUOUS
 62
   127
 10
-22.03704
 20
34.61009
 11
-22.03704
 21
22.110088
  0
LINE
  8
St
  6
CONTINUOUS
 62
   127
 10
-19.137045
 20
22.110088
 11
-22.03704
 21
22.110088
  0
LINE
  8
St
  6
CONTINUOUS
 62
   127
 10
-19.137045
 20
34.61009
 11
-19.137045
 21
22.110088
  0
LINE
  8
St
  6
CONTINUOUS
 62
   127
 10
-14.38819
 20
24.473375
 11
-14.38819
 21
32.246873
  0
LINE
  8
St
  6
CONTINUOUS
 62
   127
 10
-13.888165
 20
24.473375
 11
-13.888165
 21
32.246873
  0
LINE
  8
St
  6
CONTINUOUS
 62
   127
 10
-13.888165
 20
32.246873
 11
-14.38819
 21
32.246873
  0
LINE
  8
St
  6
CONTINUOUS
 62
   127
 10
-13.888165
 20
24.473375
 11
-14.38819
 21
24.473375
  0
LINE
  8
St
  6
CONTINUOUS
 62
   127
 10
-11.88817
 20
30.76572
 11
-12.063285
 21
31.246815
  0
LINE
  8
St
  6
CONTINUOUS
 62
   127
 10
-11.88817
 20
25.954448
 11
-12.063285
 21
25.473352
  0
LINE
  8
St
  6
CONTINUOUS
 62
   127
 10
-11.88817
 20
30.76572
 11
-11.88817
 21
25.954448
  0
LINE
  8
St
  6
CONTINUOUS
 62
   127
 10
-12.063285
 20
25.473352
 11
-13.888165
 21
25.473352
  0
LINE
  8
St
  6
CONTINUOUS
 62
   127
 10
-12.063285
 20
26.916718
 11
-13.888165
 21
26.916718
  0
LINE
  8
St
  6
CONTINUOUS
 62
   127
 10
-12.063285
 20
31.246815
 11
-13.888165
 21
31.246815
  0
LINE
  8
St
  6
CONTINUOUS
 62
   127
 10
-12.063285
 20
29.803452
 11
-13.888165
 21
29.803452
  0
LINE
  8
St
  6
CONTINUOUS
 62
   127
 10
-13.888165
 20
25.473352
 11
-13.888165
 21
31.246815
  0
LINE
  8
St
  6
CONTINUOUS
 62
   127
 10
-18.888167
 20
28.360085
 11
-18.888167
 21
25.985108
  0
LINE
  8
St
  6
CONTINUOUS
 62
   127
 10
-18.888167
 20
25.985108
 11
-19.138142
 21
26.235045
  0
LINE
  8
St
  6
CONTINUOUS
 62
   127
 10
-19.138142
 20
28.360085
 11
-19.138142
 21
26.235045
  0
LINE
  8
St
  6
CONTINUOUS
 62
   127
 10
-18.638192
 20
25.985108
 11
-18.888167
 21
25.985108
  0
LINE
  8
St
  6
CONTINUOUS
 62
   127
 10
-15.66342
 20
19.610143
 11
-15.66342
 21
28.360085
  0
LINE
  8
St
  6
CONTINUOUS
 62
   127
 10
-18.112928
 20
19.610143
 11
-18.112928
 21
28.360085
  0
LINE
  8
St
  6
CONTINUOUS
 62
   127
 10
-14.888177
 20
28.360085
 11
-14.888177
 21
25.985108
  0
LINE
  8
St
  6
CONTINUOUS
 62
   127
 10
-14.888177
 20
25.985108
 11
-14.638165
 21
26.235045
  0
LINE
  8
St
  6
CONTINUOUS
 62
   127
 10
-14.638165
 20
28.360085
 11
-14.638165
 21
26.235045
  0
LINE
  8
St
  6
CONTINUOUS
 62
   127
 10
-15.138158
 20
25.985108
 11
-14.888177
 21
25.985108
  0
LINE
  8
St
  6
CONTINUOUS
 62
   127
 10
-18.112928
 20
19.610143
 11
-18.38818
 21
19.610143
  0
LINE
  8
St
  6
CONTINUOUS
 62
   127
 10
-18.638192
 20
19.86008
 11
-18.638192
 21
28.360085
  0
LINE
  8
St
  6
CONTINUOUS
 62
   127
 10
-15.66342
 20
19.610143
 11
-15.38817
 21
19.610143
  0
LINE
  8
St
  6
CONTINUOUS
 62
   127
 10
-15.138158
 20
19.86008
 11
-15.138158
 21
28.360085
  0
LINE
  8
St
  6
CONTINUOUS
 62
   127
 10
-18.888167
 20
28.360085
 11
-18.888167
 21
30.73506
  0
LINE
  8
St
  6
CONTINUOUS
 62
   127
 10
-18.888167
 20
30.73506
 11
-19.138142
 21
30.485123
  0
LINE
  8
St
  6
CONTINUOUS
 62
   127
 10
-19.138142
 20
28.360085
 11
-19.138142
 21
30.485123
  0
LINE
  8
St
  6
CONTINUOUS
 62
   127
 10
-18.638192
 20
30.73506
 11
-18.888167
 21
30.73506
  0
LINE
  8
St
  6
CONTINUOUS
 62
   127
 10
-15.66342
 20
37.110102
 11
-15.66342
 21
28.360085
  0
LINE
  8
St
  6
CONTINUOUS
 62
   127
 10
-18.112928
 20
37.110102
 11
-18.112928
 21
28.360085
  0
LINE
  8
St
  6
CONTINUOUS
 62
   127
 10
-14.888177
 20
28.360085
 11
-14.888177
 21
30.73506
  0
LINE
  8
St
  6
CONTINUOUS
 62
   127
 10
-14.888177
 20
30.73506
 11
-14.638165
 21
30.485123
  0
LINE
  8
St
  6
CONTINUOUS
 62
   127
 10
-14.638165
 20
28.360085
 11
-14.638165
 21
30.485123
  0
LINE
  8
St
  6
CONTINUOUS
 62
   127
 10
-15.138158
 20
30.73506
 11
-14.888177
 21
30.73506
  0
LINE
  8
St
  6
CONTINUOUS
 62
   127
 10
-18.112928
 20
37.110102
 11
-18.38818
 21
37.110102
  0
LINE
  8
St
  6
CONTINUOUS
 62
   127
 10
-18.638192
 20
36.860085
 11
-18.638192
 21
28.360085
  0
LINE
  8
St
  6
CONTINUOUS
 62
   127
 10
-15.66342
 20
37.110102
 11
-15.38817
 21
37.110102
  0
LINE
  8
St
  6
CONTINUOUS
 62
   127
 10
-15.138158
 20
36.860085
 11
-15.138158
 21
28.360085
  0
LINE
  8
St
  6
CONTINUOUS
 62
   127
 10
-10.137038
 20
32.98508
 11
-15.138158
 21
32.98508
  0
LINE
  8
St
  6
CONTINUOUS
 62
   127
 10
-18.638192
 20
32.98508
 11
-19.137045
 21
32.98508
  0
LINE
  8
St
  6
CONTINUOUS
 62
   127
 10
-10.137038
 20
23.735085
 11
-15.138158
 21
23.735085
  0
LINE
  8
St
  6
CONTINUOUS
 62
   127
 10
-18.638192
 20
23.735085
 11
-19.137045
 21
23.735085
  0
LINE
  8
St
  6
CONTINUOUS
 62
   127
 10
-24.754397
 20
31.735078
 11
-24.45852
 21
31.735078
  0
LINE
  8
St
  6
CONTINUOUS
 62
   127
 10
-24.754397
 20
24.98508
 11
-24.45852
 21
24.98508
  0
LINE
  8
St
  6
CONTINUOUS
 62
   127
 10
-10.137038
 20
-6.51547
 11
-10.137038
 21
-15.765465
  0
LINE
  8
St
  6
CONTINUOUS
 62
   127
 10
9.065213
 20
-8.640457
 11
3.865215
 21
-8.640457
  0
LINE
  8
St
  6
CONTINUOUS
 62
   127
 10
9.44021
 20
-9.015452
 11
3.865215
 21
-9.015452
  0
LINE
  8
St
  6
CONTINUOUS
 62
   127
 10
9.565228
 20
-13.14046
 11
9.565228
 21
-9.14046
  0
LINE
  8
St
  6
CONTINUOUS
 62
   127
 10
9.065213
 20
-13.640463
 11
9.065213
 21
-8.640457
  0
LINE
  8
St
  6
CONTINUOUS
 62
   127
 10
9.44021
 20
-13.265467
 11
3.865215
 21
-13.265467
  0
LINE
  8
St
  6
CONTINUOUS
 62
   127
 10
9.065213
 20
-13.640463
 11
3.865215
 21
-13.640463
  0
LINE
  8
St
  6
CONTINUOUS
 62
   127
 10
9.065213
 20
-13.640463
 11
9.565228
 21
-13.14046
  0
LINE
  8
St
  6
CONTINUOUS
 62
   127
 10
9.065213
 20
-8.640457
 11
9.565228
 21
-9.14046
  0
LINE
  8
St
  6
CONTINUOUS
 62
   127
 10
-19.137045
 20
-4.890457
 11
-22.03704
 21
-4.890457
  0
LINE
  8
St
  6
CONTINUOUS
 62
   127
 10
-22.03704
 20
-4.890457
 11
-22.03704
 21
-17.390463
  0
LINE
  8
St
  6
CONTINUOUS
 62
   127
 10
-19.137045
 20
-17.390463
 11
-22.03704
 21
-17.390463
  0
LINE
  8
St
  6
CONTINUOUS
 62
   127
 10
-19.137045
 20
-4.890457
 11
-19.137045
 21
-17.390463
  0
LINE
  8
St
  6
CONTINUOUS
 62
   127
 10
-14.38819
 20
-15.027175
 11
-14.38819
 21
-7.25368
  0
LINE
  8
St
  6
CONTINUOUS
 62
   127
 10
-13.888165
 20
-15.027175
 11
-13.888165
 21
-7.25368
  0
LINE
  8
St
  6
CONTINUOUS
 62
   127
 10
-13.888165
 20
-7.25368
 11
-14.38819
 21
-7.25368
  0
LINE
  8
St
  6
CONTINUOUS
 62
   127
 10
-13.888165
 20
-15.027175
 11
-14.38819
 21
-15.027175
  0
LINE
  8
St
  6
CONTINUOUS
 62
   127
 10
-11.88817
 20
-8.734832
 11
-12.063285
 21
-8.253735
  0
LINE
  8
St
  6
CONTINUOUS
 62
   127
 10
-11.88817
 20
-13.546102
 11
-12.063285
 21
-14.0272
  0
LINE
  8
St
  6
CONTINUOUS
 62
   127
 10
-11.88817
 20
-8.734832
 11
-11.88817
 21
-13.546102
  0
LINE
  8
St
  6
CONTINUOUS
 62
   127
 10
-12.063285
 20
-14.0272
 11
-13.888165
 21
-14.0272
  0
LINE
  8
St
  6
CONTINUOUS
 62
   127
 10
-12.063285
 20
-12.583832
 11
-13.888165
 21
-12.583832
  0
LINE
  8
St
  6
CONTINUOUS
 62
   127
 10
-12.063285
 20
-8.253735
 11
-13.888165
 21
-8.253735
  0
LINE
  8
St
  6
CONTINUOUS
 62
   127
 10
-12.063285
 20
-9.697102
 11
-13.888165
 21
-9.697102
  0
LINE
  8
St
  6
CONTINUOUS
 62
   127
 10
-13.888165
 20
-14.0272
 11
-13.888165
 21
-8.253735
  0
LINE
  8
St
  6
CONTINUOUS
 62
   127
 10
-18.888167
 20
-11.140465
 11
-18.888167
 21
-13.515445
  0
LINE
  8
St
  6
CONTINUOUS
 62
   127
 10
-18.888167
 20
-13.515445
 11
-19.138142
 21
-13.265505
  0
LINE
  8
St
  6
CONTINUOUS
 62
   127
 10
-19.138142
 20
-11.140465
 11
-19.138142
 21
-13.265505
  0
LINE
  8
St
  6
CONTINUOUS
 62
   127
 10
-18.638192
 20
-13.515445
 11
-18.888167
 21
-13.515445
  0
LINE
  8
St
  6
CONTINUOUS
 62
   127
 10
-15.66342
 20
-19.890408
 11
-15.66342
 21
-11.140465
  0
LINE
  8
St
  6
CONTINUOUS
 62
   127
 10
-18.112928
 20
-19.890408
 11
-18.112928
 21
-11.140465
  0
LINE
  8
St
  6
CONTINUOUS
 62
   127
 10
-14.888177
 20
-11.140465
 11
-14.888177
 21
-13.515445
  0
LINE
  8
St
  6
CONTINUOUS
 62
   127
 10
-14.888177
 20
-13.515445
 11
-14.638165
 21
-13.265505
  0
LINE
  8
St
  6
CONTINUOUS
 62
   127
 10
-14.638165
 20
-11.140465
 11
-14.638165
 21
-13.265505
  0
LINE
  8
St
  6
CONTINUOUS
 62
   127
 10
-15.138158
 20
-13.515445
 11
-14.888177
 21
-13.515445
  0
LINE
  8
St
  6
CONTINUOUS
 62
   127
 10
-18.112928
 20
-19.890408
 11
-18.38818
 21
-19.890408
  0
LINE
  8
St
  6
CONTINUOUS
 62
   127
 10
-18.638192
 20
-19.64047
 11
-18.638192
 21
-11.140465
  0
LINE
  8
St
  6
CONTINUOUS
 62
   127
 10
-15.66342
 20
-19.890408
 11
-15.38817
 21
-19.890408
  0
LINE
  8
St
  6
CONTINUOUS
 62
   127
 10
-15.138158
 20
-19.64047
 11
-15.138158
 21
-11.140465
  0
LINE
  8
St
  6
CONTINUOUS
 62
   127
 10
-18.888167
 20
-11.140465
 11
-18.888167
 21
-8.76549
  0
LINE
  8
St
  6
CONTINUOUS
 62
   127
 10
-18.888167
 20
-8.76549
 11
-19.138142
 21
-9.01543
  0
LINE
  8
St
  6
CONTINUOUS
 62
   127
 10
-19.138142
 20
-11.140465
 11
-19.138142
 21
-9.01543
  0
LINE
  8
St
  6
CONTINUOUS
 62
   127
 10
-18.638192
 20
-8.76549
 11
-18.888167
 21
-8.76549
  0
LINE
  8
St
  6
CONTINUOUS
 62
   127
 10
-15.66342
 20
-2.390452
 11
-15.66342
 21
-11.140465
  0
LINE
  8
St
  6
CONTINUOUS
 62
   127
 10
-18.112928
 20
-2.390452
 11
-18.112928
 21
-11.140465
  0
LINE
  8
St
  6
CONTINUOUS
 62
   127
 10
-14.888177
 20
-11.140465
 11
-14.888177
 21
-8.76549
  0
LINE
  8
St
  6
CONTINUOUS
 62
   127
 10
-14.888177
 20
-8.76549
 11
-14.638165
 21
-9.01543
  0
LINE
  8
St
  6
CONTINUOUS
 62
   127
 10
-14.638165
 20
-11.140465
 11
-14.638165
 21
-9.01543
  0
LINE
  8
St
  6
CONTINUOUS
 62
   127
 10
-15.138158
 20
-8.76549
 11
-14.888177
 21
-8.76549
  0
LINE
  8
St
  6
CONTINUOUS
 62
   127
 10
-18.112928
 20
-2.390452
 11
-18.38818
 21
-2.390452
  0
LINE
  8
St
  6
CONTINUOUS
 62
   127
 10
-18.638192
 20
-2.640465
 11
-18.638192
 21
-11.140465
  0
LINE
  8
St
  6
CONTINUOUS
 62
   127
 10
-15.66342
 20
-2.390452
 11
-15.38817
 21
-2.390452
  0
LINE
  8
St
  6
CONTINUOUS
 62
   127
 10
-15.138158
 20
-2.640465
 11
-15.138158
 21
-11.140465
  0
LINE
  8
St
  6
CONTINUOUS
 62
   127
 10
-10.137038
 20
-6.51547
 11
-15.138158
 21
-6.51547
  0
LINE
  8
St
  6
CONTINUOUS
 62
   127
 10
-18.638192
 20
-6.51547
 11
-19.137045
 21
-6.51547
  0
LINE
  8
St
  6
CONTINUOUS
 62
   127
 10
-10.137038
 20
-15.765465
 11
-15.138158
 21
-15.765465
  0
LINE
  8
St
  6
CONTINUOUS
 62
   127
 10
-18.638192
 20
-15.765465
 11
-19.137045
 21
-15.765465
  0
LINE
  8
St
  6
CONTINUOUS
 62
   127
 10
-24.754397
 20
-7.765473
 11
-24.45852
 21
-7.765473
  0
LINE
  8
St
  6
CONTINUOUS
 62
   127
 10
-24.754397
 20
-14.515473
 11
-24.45852
 21
-14.515473
  0
LINE
  8
St
  6
CONTINUOUS
 62
   127
 10
-24.727142
 20
31.685082
 11
-22.03704
 21
31.685082
  0
LINE
  8
St
  6
CONTINUOUS
 62
   127
 10
-24.727142
 20
25.035088
 11
-22.03704
 21
25.035088
  0
LINE
  8
St
  6
CONTINUOUS
 62
   127
 10
-24.727142
 20
-7.815467
 11
-22.03704
 21
-7.815467
  0
LINE
  8
St
  6
CONTINUOUS
 62
   127
 10
-24.727142
 20
-14.465463
 11
-22.03704
 21
-14.465463
  0
LINE
  8
St
  6
CONTINUOUS
 62
   127
 10
-7.387043
 20
18.359978
 11
-8.637032
 21
18.359978
  0
LINE
  8
St
  6
CONTINUOUS
 62
   127
 10
-8.637032
 20
38.35997
 11
-8.637032
 21
18.359978
  0
LINE
  8
St
  6
CONTINUOUS
 62
   127
 10
-7.387043
 20
38.35997
 11
-8.637032
 21
38.35997
  0
LINE
  8
St
  6
CONTINUOUS
 62
   127
 10
-7.387043
 20
23.35997
 11
2.612975
 21
23.35997
  0
LINE
  8
St
  6
DOT
 62
   127
 10
-7.387043
 20
24.859973
 11
2.612975
 21
24.859973
  0
LINE
  8
St
  6
CONTINUOUS
 62
   127
 10
-7.387043
 20
33.359978
 11
2.612975
 21
33.359978
  0
LINE
  8
St
  6
DOT
 62
   127
 10
-7.387043
 20
31.859985
 11
2.612975
 21
31.859985
  0
LINE
  8
St
  6
CONTINUOUS
 62
   127
 10
-8.136963
 20
22.109978
 11
-8.136963
 21
19.60998
  0
LINE
  8
St
  6
CONTINUOUS
 62
   127
 10
-8.136963
 20
19.963535
 11
-3.88696
 21
19.963535
  0
LINE
  8
St
  6
CONTINUOUS
 62
   127
 10
-8.136963
 20
21.756405
 11
-3.88696
 21
21.756405
  0
LINE
  8
St
  6
CONTINUOUS
 62
   127
 10
-4.240517
 20
22.109978
 11
-4.240517
 21
19.60998
  0
LINE
  8
St
  6
CONTINUOUS
 62
   127
 10
-4.240517
 20
19.60998
 11
-3.88696
 21
19.963535
  0
LINE
  8
St
  6
CONTINUOUS
 62
   127
 10
-8.136963
 20
19.60998
 11
-4.240517
 21
19.60998
  0
LINE
  8
St
  6
CONTINUOUS
 62
   127
 10
-8.136963
 20
22.109978
 11
-4.240517
 21
22.109978
  0
LINE
  8
St
  6
CONTINUOUS
 62
   127
 10
-4.240517
 20
22.109978
 11
-3.88696
 21
21.756405
  0
LINE
  8
St
  6
CONTINUOUS
 62
   127
 10
-3.88696
 20
21.756405
 11
-3.88696
 21
19.963535
  0
LINE
  8
St
  6
CONTINUOUS
 62
   127
 10
-8.136963
 20
34.60998
 11
-8.136963
 21
37.109978
  0
LINE
  8
St
  6
CONTINUOUS
 62
   127
 10
-8.136963
 20
36.756405
 11
-3.88696
 21
36.756405
  0
LINE
  8
St
  6
CONTINUOUS
 62
   127
 10
-8.136963
 20
34.963535
 11
-3.88696
 21
34.963535
  0
LINE
  8
St
  6
CONTINUOUS
 62
   127
 10
-4.240517
 20
34.60998
 11
-4.240517
 21
37.109978
  0
LINE
  8
St
  6
CONTINUOUS
 62
   127
 10
-4.240517
 20
37.109978
 11
-3.88696
 21
36.756405
  0
LINE
  8
St
  6
CONTINUOUS
 62
   127
 10
-8.136963
 20
37.109978
 11
-4.240517
 21
37.109978
  0
LINE
  8
St
  6
CONTINUOUS
 62
   127
 10
-8.136963
 20
34.60998
 11
-4.240517
 21
34.60998
  0
LINE
  8
St
  6
CONTINUOUS
 62
   127
 10
-4.240517
 20
34.60998
 11
-3.88696
 21
34.963535
  0
LINE
  8
St
  6
CONTINUOUS
 62
   127
 10
-3.88696
 20
34.963535
 11
-3.88696
 21
36.756405
  0
LINE
  8
St
  6
CONTINUOUS
 62
   127
 10
7.259412
 20
-21.140455
 11
7.612965
 21
-20.786902
  0
LINE
  8
St
  6
CONTINUOUS
 62
   127
 10
7.259412
 20
-18.640473
 11
7.612965
 21
-18.994027
  0
LINE
  8
St
  6
CONTINUOUS
 62
   127
 10
-2.387032
 20
-17.89047
 11
-2.387032
 21
-21.89046
  0
LINE
  8
St
  6
CONTINUOUS
 62
   127
 10
-2.387032
 20
-17.89047
 11
0.112965
 21
-17.89047
  0
LINE
  8
St
  6
CONTINUOUS
 62
   127
 10
-2.387032
 20
-21.89046
 11
0.112965
 21
-21.89046
  0
LINE
  8
St
  6
CONTINUOUS
 62
   127
 10
7.259412
 20
-3.640455
 11
7.259412
 21
-1.140473
  0
LINE
  8
St
  6
CONTINUOUS
 62
   127
 10
7.259412
 20
-1.140473
 11
7.612965
 21
-1.494025
  0
LINE
  8
St
  6
CONTINUOUS
 62
   127
 10
7.259412
 20
-3.640455
 11
7.612965
 21
-3.2869
  0
LINE
  8
St
  6
CONTINUOUS
 62
   127
 10
7.612965
 20
-3.2869
 11
7.612965
 21
-1.494025
  0
LINE
  8
St
  6
CONTINUOUS
 62
   127
 10
-2.387032
 20
-4.390457
 11
-2.387032
 21
-0.390467
  0
LINE
  8
St
  6
CONTINUOUS
 62
   127
 10
-2.387032
 20
-4.390457
 11
0.112965
 21
-4.390457
  0
LINE
  8
St
  6
CONTINUOUS
 62
   127
 10
-2.387032
 20
-0.390467
 11
0.112965
 21
-0.390467
  0
LINE
  8
St
  6
DOT
 62
   127
 10
13.76297
 20
-17.390575
 11
15.112965
 21
-17.390575
  0
LINE
  8
St
  6
DOT
 62
   127
 10
13.76297
 20
-4.89058
 11
15.112965
 21
-4.89058
  0
LINE
  8
St
  6
CONTINUOUS
 62
   127
 10
3.862965
 20
-7.69045
 11
3.862965
 21
-14.590457
  0
LINE
  8
St
  6
DOT
 62
   127
 10
5.112968
 20
-16.890585
 11
6.462965
 21
-16.890585
  0
LINE
  8
St
  6
DOT
 62
   127
 10
5.112968
 20
-5.390572
 11
6.462965
 21
-5.390572
  0
LINE
  8
St
  6
DOT
 62
   127
 10
-7.38705
 20
23.35997
 11
-6.037043
 21
23.35997
  0
LINE
  8
St
  6
DOT
 62
   127
 10
1.262968
 20
23.35997
 11
2.61296
 21
23.35997
  0
LINE
  8
St
  6
DOT
 62
   127
 10
-7.38705
 20
33.359978
 11
-6.037043
 21
33.359978
  0
LINE
  8
St
  6
DOT
 62
   127
 10
1.262968
 20
33.359978
 11
2.61296
 21
33.359978
  0
LINE
  8
St
  6
CONTINUOUS
 62
   127
 10
-7.387043
 20
18.359978
 11
-7.387043
 21
38.35997
  0
LINE
  8
St
  6
CONTINUOUS
 62
   127
 10
2.612975
 20
33.359978
 11
2.612975
 21
23.35997
  0
LINE
  8
St
  6
CONTINUOUS
 62
   127
 10
-9.887035
 20
-5.140465
 11
-8.637032
 21
-5.140465
  0
LINE
  8
St
  6
CONTINUOUS
 62
   127
 10
-8.637032
 20
-17.14047
 11
-8.637032
 21
-5.140465
  0
LINE
  8
St
  6
CONTINUOUS
 62
   127
 10
-9.887035
 20
-17.14047
 11
-8.637032
 21
-17.14047
  0
LINE
  8
St
  6
CONTINUOUS
 62
   127
 10
-9.887035
 20
-17.14047
 11
-9.887035
 21
-5.140465
  0
LINE
  8
St
  6
DOT
 62
   127
 10
-9.887035
 20
-14.890465
 11
-8.637032
 21
-14.890465
  0
LINE
  8
St
  6
DOT
 62
   127
 10
-9.887035
 20
-7.390465
 11
-8.637032
 21
-7.390465
  0
LINE
  8
St
  6
CONTINUOUS
 62
   127
 10
-9.887035
 20
34.360085
 11
-8.637032
 21
34.360085
  0
LINE
  8
St
  6
CONTINUOUS
 62
   127
 10
-8.637032
 20
22.360085
 11
-8.637032
 21
34.360085
  0
LINE
  8
St
  6
CONTINUOUS
 62
   127
 10
-9.887035
 20
22.360085
 11
-8.637032
 21
22.360085
  0
LINE
  8
St
  6
CONTINUOUS
 62
   127
 10
-9.887035
 20
22.360085
 11
-9.887035
 21
34.360085
  0
LINE
  8
St
  6
DOT
 62
   127
 10
-9.887035
 20
24.610085
 11
-8.637032
 21
24.610085
  0
LINE
  8
St
  6
DOT
 62
   127
 10
-9.887035
 20
32.110085
 11
-8.637032
 21
32.110085
  0
LINE
  8
St
  6
CONTINUOUS
 62
   127
 10
2.61296
 20
34.360085
 11
3.862965
 21
34.360085
  0
LINE
  8
St
  6
CONTINUOUS
 62
   127
 10
3.862965
 20
22.360085
 11
3.862965
 21
34.360085
  0
LINE
  8
St
  6
CONTINUOUS
 62
   127
 10
2.61296
 20
22.360085
 11
3.862965
 21
22.360085
  0
LINE
  8
St
  6
CONTINUOUS
 62
   127
 10
2.61296
 20
22.360085
 11
2.61296
 21
34.360085
  0
LINE
  8
St
  6
DOT
 62
   127
 10
2.61296
 20
24.610085
 11
3.862965
 21
24.610085
  0
LINE
  8
St
  6
DOT
 62
   127
 10
2.61296
 20
32.110085
 11
3.862965
 21
32.110085
  0
LINE
  8
St
  6
CONTINUOUS
 62
   127
 10
3.865215
 20
33.860082
 11
4.61522
 21
33.860082
  0
LINE
  8
St
  6
CONTINUOUS
 62
   127
 10
4.61522
 20
22.860082
 11
4.61522
 21
33.860082
  0
LINE
  8
St
  6
CONTINUOUS
 62
   127
 10
3.865215
 20
22.860082
 11
4.61522
 21
22.860082
  0
LINE
  8
St
  6
CONTINUOUS
 62
   127
 10
3.865215
 20
22.860082
 11
3.865215
 21
33.860082
  0
LINE
  8
St
  6
DOT
 62
   127
 10
3.865215
 20
30.985085
 11
4.61522
 21
30.985085
  0
LINE
  8
St
  6
DOT
 62
   127
 10
3.865215
 20
25.735088
 11
4.61522
 21
25.735088
  0
LINE
  8
St
  6
DASHDOTX2
 62
   127
 10
-30.887043
 20
28.360085
 11
9.565228
 21
28.360085
  0
LINE
  8
St
  6
DASHDOTX2
 62
   127
 10
-30.887043
 20
-11.140465
 11
9.565228
 21
-11.140465
  0
LINE
  8
St
  6
CONTINUOUS
 62
   127
 10
7.509397
 20
-16.040467
 11
7.862968
 21
-15.686913
  0
LINE
  8
St
  6
CONTINUOUS
 62
   127
 10
7.862968
 20
-6.594017
 11
7.509397
 21
-6.240465
  0
LINE
  8
St
  6
CONTINUOUS
 62
   127
 10
7.509397
 20
-8.920788
 11
7.862968
 21
-8.567245
  0
LINE
  8
St
  6
CONTINUOUS
 62
   127
 10
7.509397
 20
-13.390463
 11
7.862968
 21
-13.036913
  0
LINE
  8
St
  6
CONTINUOUS
 62
   127
 10
7.509397
 20
-8.920788
 11
7.862968
 21
-9.274358
  0
LINE
  8
St
  6
CONTINUOUS
 62
   127
 10
7.509397
 20
-13.390463
 11
7.862968
 21
-13.036913
  0
LINE
  8
St
  6
CONTINUOUS
 62
   127
 10
7.509397
 20
-13.390463
 11
7.862968
 21
-13.744015
  0
LINE
  8
St
  6
CONTINUOUS
 62
   127
 10
8.112968
 20
-7.515467
 11
8.823105
 21
-7.515467
  0
LINE
  8
St
  6
CONTINUOUS
 62
   127
 10
7.862968
 20
-7.265467
 11
7.862968
 21
-6.594017
  0
LINE
  8
St
  6
CONTINUOUS
 62
   127
 10
8.112968
 20
-14.765467
 11
8.823105
 21
-14.765467
  0
LINE
  8
St
  6
CONTINUOUS
 62
   127
 10
7.862968
 20
-15.015467
 11
7.862968
 21
-15.686913
  0
LINE
  8
St
  6
CONTINUOUS
 62
   127
 10
7.862968
 20
-15.015467
 11
7.862968
 21
-7.265467
  0
LINE
  8
St
  6
CONTINUOUS
 62
   127
 10
3.862965
 20
-6.594017
 11
4.21652
 21
-6.240465
  0
LINE
  8
St
  6
CONTINUOUS
 62
   127
 10
7.509397
 20
-6.240465
 11
4.21652
 21
-6.240465
  0
LINE
  8
St
  6
CONTINUOUS
 62
   127
 10
7.509397
 20
-16.040467
 11
4.21652
 21
-16.040467
  0
LINE
  8
St
  6
CONTINUOUS
 62
   127
 10
3.862965
 20
-15.686913
 11
4.21652
 21
-16.040467
  0
LINE
  8
St
  6
CONTINUOUS
 62
   127
 10
3.862965
 20
-6.594017
 11
3.862965
 21
-15.686913
  0
LINE
  8
St
  6
CONTINUOUS
 62
   127
 10
4.21652
 20
-8.920788
 11
3.86295
 21
-8.567245
  0
LINE
  8
St
  6
CONTINUOUS
 62
   127
 10
4.21652
 20
-13.390463
 11
3.86295
 21
-13.036913
  0
LINE
  8
St
  6
CONTINUOUS
 62
   127
 10
4.21652
 20
-8.920788
 11
3.86295
 21
-9.274358
  0
LINE
  8
St
  6
CONTINUOUS
 62
   127
 10
4.21652
 20
-13.390463
 11
3.86295
 21
-13.036913
  0
LINE
  8
St
  6
CONTINUOUS
 62
   127
 10
4.21652
 20
-13.390463
 11
3.86295
 21
-13.744015
  0
LINE
  8
St
  6
CONTINUOUS
 62
   127
 10
7.509397
 20
-8.920788
 11
4.21652
 21
-8.920788
  0
LINE
  8
St
  6
CONTINUOUS
 62
   127
 10
7.509397
 20
-13.390463
 11
4.21652
 21
-13.390463
  0
LINE
  8
St
  6
DASHDOTX2
 62
   127
 10
11.612968
 20
-11.140465
 11
3.862965
 21
-11.140465
  0
LINE
  8
St
  6
CONTINUOUS
 62
   127
 10
8.259403
 20
23.460082
 11
8.612968
 21
23.813638
  0
LINE
  8
St
  6
CONTINUOUS
 62
   127
 10
8.612968
 20
32.906532
 11
8.259403
 21
33.260085
  0
LINE
  8
St
  6
CONTINUOUS
 62
   127
 10
8.259403
 20
30.579762
 11
8.612968
 21
30.933305
  0
LINE
  8
St
  6
CONTINUOUS
 62
   127
 10
8.259403
 20
26.110088
 11
8.612968
 21
26.463638
  0
LINE
  8
St
  6
CONTINUOUS
 62
   127
 10
8.259403
 20
30.579762
 11
8.612968
 21
30.226193
  0
LINE
  8
St
  6
CONTINUOUS
 62
   127
 10
8.259403
 20
26.110088
 11
8.612968
 21
26.463638
  0
LINE
  8
St
  6
CONTINUOUS
 62
   127
 10
8.259403
 20
26.110088
 11
8.612968
 21
25.756535
  0
LINE
  8
St
  6
CONTINUOUS
 62
   127
 10
8.862968
 20
31.985082
 11
9.57311
 21
31.985082
  0
LINE
  8
St
  6
CONTINUOUS
 62
   127
 10
8.612968
 20
32.235082
 11
8.612968
 21
32.906532
  0
LINE
  8
St
  6
CONTINUOUS
 62
   127
 10
8.862968
 20
24.735082
 11
9.57311
 21
24.735082
  0
LINE
  8
St
  6
CONTINUOUS
 62
   127
 10
8.612968
 20
24.485082
 11
8.612968
 21
23.813638
  0
LINE
  8
St
  6
CONTINUOUS
 62
   127
 10
8.612968
 20
24.485082
 11
8.612968
 21
32.235082
  0
LINE
  8
St
  6
CONTINUOUS
 62
   127
 10
4.612965
 20
32.906532
 11
4.966523
 21
33.260085
  0
LINE
  8
St
  6
CONTINUOUS
 62
   127
 10
8.259403
 20
33.260085
 11
4.966523
 21
33.260085
  0
LINE
  8
St
  6
CONTINUOUS
 62
   127
 10
8.259403
 20
23.460082
 11
4.966523
 21
23.460082
  0
LINE
  8
St
  6
CONTINUOUS
 62
   127
 10
4.612965
 20
23.813638
 11
4.966523
 21
23.460082
  0
LINE
  8
St
  6
CONTINUOUS
 62
   127
 10
4.612965
 20
32.906532
 11
4.612965
 21
23.813638
  0
LINE
  8
St
  6
CONTINUOUS
 62
   127
 10
4.966523
 20
30.579762
 11
4.612955
 21
30.933305
  0
LINE
  8
St
  6
CONTINUOUS
 62
   127
 10
4.966523
 20
26.110088
 11
4.612955
 21
26.463638
  0
LINE
  8
St
  6
CONTINUOUS
 62
   127
 10
4.966523
 20
30.579762
 11
4.612955
 21
30.226193
  0
LINE
  8
St
  6
CONTINUOUS
 62
   127
 10
4.966523
 20
26.110088
 11
4.612955
 21
26.463638
  0
LINE
  8
St
  6
CONTINUOUS
 62
   127
 10
4.966523
 20
26.110088
 11
4.612955
 21
25.756535
  0
LINE
  8
St
  6
CONTINUOUS
 62
   127
 10
8.259403
 20
30.579762
 11
4.966523
 21
30.579762
  0
LINE
  8
St
  6
CONTINUOUS
 62
   127
 10
8.259403
 20
26.110088
 11
4.966523
 21
26.110088
  0
LINE
  8
St
  6
DASHDOTX2
 62
   127
 10
12.362968
 20
28.360085
 11
4.612965
 21
28.360085
  0
LINE
  8
St
  6
CONTINUOUS
 62
   127
 10
0.112965
 20
-21.89046
 11
0.112965
 21
-17.89047
  0
LINE
  8
St
  6
CONTINUOUS
 62
   127
 10
0.112965
 20
-4.390457
 11
0.112965
 21
-0.390467
  0
LINE
  8
St
  6
CONTINUOUS
 62
   127
 10
-8.637053
 20
34.10988
 11
-8.136963
 21
34.60998
  0
LINE
  8
St
  6
CONTINUOUS
 62
   127
 10
-8.637053
 20
34.10988
 11
-8.637053
 21
37.610067
  0
LINE
  8
St
  6
CONTINUOUS
 62
   127
 10
-8.637053
 20
37.610067
 11
-8.136963
 21
37.109978
  0
LINE
  8
St
  6
CONTINUOUS
 62
   127
 10
-8.637053
 20
19.109887
 11
-8.136963
 21
19.60998
  0
LINE
  8
St
  6
CONTINUOUS
 62
   127
 10
-8.637053
 20
22.610078
 11
-8.637053
 21
19.109887
  0
LINE
  8
St
  6
CONTINUOUS
 62
   127
 10
-8.637053
 20
22.610078
 11
-8.136963
 21
22.109978
  0
LINE
  8
St
  6
DASHDOT
 62
   127
 10
-8.637053
 20
20.859973
 11
-3.88696
 21
20.859973
  0
LINE
  8
St
  6
DASHDOT
 62
   127
 10
-8.637053
 20
35.85998
 11
-3.88696
 21
35.85998
  0
LINE
  8
St
  6
DOT
 62
   127
 10
3.862977
 20
-5.89047
 11
3.862977
 21
-16.390477
  0
LINE
  8
St
  6
DOT
 62
   127
 10
-8.637032
 20
-14.64046
 11
3.862977
 21
-14.64046
  0
LINE
  8
St
  6
DOT
 62
   127
 10
-8.637032
 20
-7.640448
 11
3.862977
 21
-7.640448
  0
LINE
  8
St
  6
CONTINUOUS
 62
   127
 10
0.112965
 20
-22.390465
 11
5.112968
 21
-22.390465
  0
LINE
  8
St
  6
CONTINUOUS
 62
   127
 10
0.112965
 20
-22.390465
 11
0.112965
 21
0.109535
  0
LINE
  8
St
  6
CONTINUOUS
 62
   127
 10
0.112965
 20
0.109535
 11
5.112968
 21
0.109535
  0
LINE
  8
St
  6
CONTINUOUS
 62
   127
 10
5.112968
 20
-22.390465
 11
5.112968
 21
0.109535
  0
LINE
  8
St
  6
CONTINUOUS
 62
   127
 10
-8.637032
 20
-2.14047
 11
-8.637032
 21
-20.140465
  0
LINE
  8
St
  6
CONTINUOUS
 62
   127
 10
-8.637032
 20
-20.140465
 11
0.112965
 21
-20.140465
  0
LINE
  8
St
  6
CONTINUOUS
 62
   127
 10
-8.637032
 20
-2.14047
 11
0.112965
 21
-2.14047
  0
LINE
  8
St
  6
DOT
 62
   127
 10
0.112965
 20
-1.015465
 11
5.112968
 21
-1.015465
  0
LINE
  8
St
  6
DOT
 62
   127
 10
0.112965
 20
-3.765467
 11
5.112968
 21
-3.765467
  0
LINE
  8
St
  6
DOT
 62
   127
 10
0.112965
 20
-18.515467
 11
5.112968
 21
-18.515467
  0
LINE
  8
St
  6
DOT
 62
   127
 10
0.112965
 20
-21.265463
 11
5.112968
 21
-21.265463
  0
LINE
  8
St
  6
DASHDOTX2
 62
   127
 10
-0.88704
 20
-2.390463
 11
6.112973
 21
-2.390463
  0
LINE
  8
St
  6
DASHDOTX2
 62
   127
 10
-0.88704
 20
-19.890465
 11
6.112973
 21
-19.890465
  0
LINE
  8
St
  6
DOTX2
 62
   127
 10
-8.637032
 20
-4.890465
 11
0.112965
 21
-4.890465
  0
LINE
  8
St
  6
DOTX2
 62
   127
 10
-8.637032
 20
-17.390463
 11
0.112965
 21
-17.390463
  0
LINE
  8
St
  6
CONTINUOUS
 62
   127
 10
0.112965
 20
-1.140473
 11
7.259412
 21
-1.140473
  0
LINE
  8
St
  6
CONTINUOUS
 62
   127
 10
0.112965
 20
-3.2869
 11
7.259412
 21
-3.2869
  0
LINE
  8
St
  6
CONTINUOUS
 62
   127
 10
0.112965
 20
-3.640455
 11
7.259412
 21
-3.640455
  0
LINE
  8
St
  6
CONTINUOUS
 62
   127
 10
0.112965
 20
-1.494025
 11
7.612965
 21
-1.494025
  0
LINE
  8
St
  6
DASHDOT
 62
   127
 10
-2.387032
 20
-2.390463
 11
7.612965
 21
-2.390463
  0
LINE
  8
St
  6
CONTINUOUS
 62
   127
 10
0.112965
 20
-18.640473
 11
7.259412
 21
-18.640473
  0
LINE
  8
St
  6
CONTINUOUS
 62
   127
 10
0.112965
 20
-21.140455
 11
7.259412
 21
-21.140455
  0
LINE
  8
St
  6
CONTINUOUS
 62
   127
 10
7.259412
 20
-18.640473
 11
7.259412
 21
-21.140455
  0
LINE
  8
St
  6
CONTINUOUS
 62
   127
 10
0.112965
 20
-20.786902
 11
7.612965
 21
-20.786902
  0
LINE
  8
St
  6
CONTINUOUS
 62
   127
 10
0.112965
 20
-18.994027
 11
7.612965
 21
-18.994027
  0
LINE
  8
St
  6
CONTINUOUS
 62
   127
 10
7.612965
 20
-18.994027
 11
7.612965
 21
-20.786902
  0
LINE
  8
St
  6
DASHDOT
 62
   127
 10
-2.387032
 20
-19.890465
 11
7.612965
 21
-19.890465
  0
LINE
  8
St
  6
DOT
 62
   127
 10
-11.637038
 20
31.860082
 11
-11.637038
 21
24.860085
  0
LINE
  8
St
  6
DOT
 62
   127
 10
-11.637038
 20
31.860082
 11
-10.137038
 21
31.860082
  0
LINE
  8
St
  6
DOT
 62
   127
 10
-11.637038
 20
24.860085
 11
-10.137038
 21
24.860085
  0
LINE
  8
St
  6
DOT
 62
   127
 10
-11.637038
 20
30.860082
 11
-37.42539
 21
30.860082
  0
LINE
  8
St
  6
DOT
 62
   127
 10
-11.637038
 20
25.860088
 11
-37.42539
 21
25.860088
  0
LINE
  8
St
  6
DOT
 62
   127
 10
-11.637038
 20
-7.640467
 11
-11.637038
 21
-14.640465
  0
LINE
  8
St
  6
DOT
 62
   127
 10
-11.637038
 20
-7.640467
 11
-10.137038
 21
-7.640467
  0
LINE
  8
St
  6
DOT
 62
   127
 10
-11.637038
 20
-14.640465
 11
-10.137038
 21
-14.640465
  0
LINE
  8
St
  6
DOT
 62
   127
 10
-11.637038
 20
-8.640473
 11
-37.42539
 21
-8.640473
  0
LINE
  8
St
  6
DOT
 62
   127
 10
-11.637038
 20
-13.640463
 11
-37.42539
 21
-13.640463
  0
LINE
  8
St
  6
CONTINUOUS
 62
   127
 10
-11.637038
 20
-7.69045
 11
3.862965
 21
-7.69045
  0
LINE
  8
St
  6
CONTINUOUS
 62
   127
 10
3.862965
 20
-14.590457
 11
-11.637038
 21
-14.590457
  0
LINE
  8
St
  6
CONTINUOUS
 62
   127
 10
-11.637038
 20
-7.69045
 11
-11.637038
 21
-14.590457
  0
LINE
  8
St
  6
CONTINUOUS
 62
   127
 10
-35.637038
 20
-13.14046
 11
-35.637038
 21
-9.14046
  0
LINE
  8
St
  6
CONTINUOUS
 62
   127
 10
-35.137022
 20
-13.640463
 11
-35.137022
 21
-8.640457
  0
LINE
  8
St
  6
CONTINUOUS
 62
   127
 10
-35.137022
 20
-13.640463
 11
-35.637038
 21
-13.14046
  0
LINE
  8
St
  6
CONTINUOUS
 62
   127
 10
-35.137022
 20
-8.640457
 11
-35.637038
 21
-9.14046
  0
LINE
  8
St
  6
CONTINUOUS
 62
   127
 10
-23.13703
 20
-13.64047
 11
-23.13703
 21
-8.640465
  0
LINE
  8
St
  6
CONTINUOUS
 62
   127
 10
-35.137022
 20
-8.640457
 11
-11.637038
 21
-8.640457
  0
LINE
  8
St
  6
CONTINUOUS
 62
   127
 10
-35.137022
 20
-13.640463
 11
-11.637038
 21
-13.640463
  0
LINE
  8
St
  6
CONTINUOUS
 62
   127
 10
-35.512015
 20
-13.265467
 11
-23.13703
 21
-13.265467
  0
LINE
  8
St
  6
CONTINUOUS
 62
   127
 10
-35.512015
 20
-9.015452
 11
-23.13703
 21
-9.015452
  0
LINE
  8
St
  6
CONTINUOUS
 62
   127
 10
9.065213
 20
30.860093
 11
3.865215
 21
30.860093
  0
LINE
  8
St
  6
CONTINUOUS
 62
   127
 10
9.44021
 20
30.485097
 11
3.865215
 21
30.485097
  0
LINE
  8
St
  6
CONTINUOUS
 62
   127
 10
9.565228
 20
26.36009
 11
9.565228
 21
30.36009
  0
LINE
  8
St
  6
CONTINUOUS
 62
   127
 10
9.065213
 20
25.860088
 11
9.065213
 21
30.860093
  0
LINE
  8
St
  6
CONTINUOUS
 62
   127
 10
9.44021
 20
26.235082
 11
3.865215
 21
26.235082
  0
LINE
  8
St
  6
CONTINUOUS
 62
   127
 10
9.065213
 20
25.860088
 11
3.865215
 21
25.860088
  0
LINE
  8
St
  6
CONTINUOUS
 62
   127
 10
9.065213
 20
25.860088
 11
9.565228
 21
26.36009
  0
LINE
  8
St
  6
CONTINUOUS
 62
   127
 10
9.065213
 20
30.860093
 11
9.565228
 21
30.36009
  0
LINE
  8
St
  6
CONTINUOUS
 62
   127
 10
3.862965
 20
31.8101
 11
3.862965
 21
24.910093
  0
LINE
  8
St
  6
CONTINUOUS
 62
   127
 10
-11.637038
 20
31.8101
 11
3.862965
 21
31.8101
  0
LINE
  8
St
  6
CONTINUOUS
 62
   127
 10
3.862965
 20
24.910093
 11
-11.637038
 21
24.910093
  0
LINE
  8
St
  6
CONTINUOUS
 62
   127
 10
-11.637038
 20
31.8101
 11
-11.637038
 21
24.910093
  0
LINE
  8
St
  6
CONTINUOUS
 62
   127
 10
-35.637038
 20
26.36009
 11
-35.637038
 21
30.36009
  0
LINE
  8
St
  6
CONTINUOUS
 62
   127
 10
-35.137022
 20
25.860088
 11
-35.137022
 21
30.860093
  0
LINE
  8
St
  6
CONTINUOUS
 62
   127
 10
-35.137022
 20
25.860088
 11
-35.637038
 21
26.36009
  0
LINE
  8
St
  6
CONTINUOUS
 62
   127
 10
-35.137022
 20
30.860093
 11
-35.637038
 21
30.36009
  0
LINE
  8
St
  6
CONTINUOUS
 62
   127
 10
-23.13703
 20
25.860082
 11
-23.13703
 21
30.860085
  0
LINE
  8
St
  6
CONTINUOUS
 62
   127
 10
-35.137022
 20
30.860093
 11
-11.637038
 21
30.860093
  0
LINE
  8
St
  6
CONTINUOUS
 62
   127
 10
-35.137022
 20
25.860088
 11
-11.637038
 21
25.860088
  0
LINE
  8
St
  6
CONTINUOUS
 62
   127
 10
-35.512015
 20
26.235082
 11
-23.13703
 21
26.235082
  0
LINE
  8
St
  6
CONTINUOUS
 62
   127
 10
-35.512015
 20
30.485097
 11
-23.13703
 21
30.485097
  0
LINE
  8
St
  6
CONTINUOUS
 62
   127
 10
5.112968
 20
-17.35297
 11
6.612973
 21
-17.35297
  0
LINE
  8
St
  6
DOT
 62
   127
 10
3.862977
 20
-16.390477
 11
6.612973
 21
-16.390477
  0
LINE
  8
St
  6
CONTINUOUS
 62
   127
 10
5.112968
 20
-4.927973
 11
6.612973
 21
-4.927973
  0
LINE
  8
St
  6
CONTINUOUS
 62
   127
 10
6.612973
 20
-17.35297
 11
6.612973
 21
-4.927973
  0
LINE
  8
St
  6
DOT
 62
   127
 10
3.862977
 20
-5.89047
 11
6.612973
 21
-5.89047
  0
CIRCLE
  8
St
  6
CONTINUOUS
 62
   127
 10
-30.887043
 20
28.360085
 40
6.999998
  0
ARC
  8
St
  6
CONTINUOUS
 62
   127
 10
-13.462845
 20
30.525207
 40
1.574676
 50
332.71606
 51
359.994507
  0
ARC
  8
St
  6
CONTINUOUS
 62
   127
 10
-17.924185
 20
28.360084
 40
6.036034
 50
346.159304
 51
373.829709
  0
ARC
  8
St
  6
CONTINUOUS
 62
   127
 10
-13.462845
 20
26.195035
 40
1.574676
 50
359.994522
 51
387.272969
  0
ARC
  8
St
  6
CONTINUOUS
 62
   127
 10
-16.888167
 20
19.360054
 40
1.25
 50
11.531655
 51
168.460121
  0
ARC
  8
St
  6
CONTINUOUS
 62
   127
 10
-18.388172
 20
19.86008
 40
0.25
 50
179.997253
 51
269.998627
  0
ARC
  8
St
  6
CONTINUOUS
 62
   127
 10
-15.388162
 20
19.86008
 40
0.25
 50
269.998627
 51
359.994507
  0
ARC
  8
St
  6
CONTINUOUS
 62
   127
 10
-16.888167
 20
37.360113
 40
1.25
 50
191.534401
 51
348.457374
  0
ARC
  8
St
  6
CONTINUOUS
 62
   127
 10
-18.388172
 20
36.860087
 40
0.25
 50
89.99588
 51
179.997253
  0
ARC
  8
St
  6
CONTINUOUS
 62
   127
 10
-15.388162
 20
36.860087
 40
0.25
 50
359.994507
 51
449.99588
  0
ARC
  8
St
  6
CONTINUOUS
 62
   127
 10
-30.881124
 20
28.360084
 40
7.625
 50
29.435859
 51
330.558663
  0
ARC
  8
St
  6
CONTINUOUS
 62
   127
 10
-24.458514
 20
24.735078
 40
0.25
 50
330.558663
 51
449.99588
  0
ARC
  8
St
  6
CONTINUOUS
 62
   127
 10
-24.458514
 20
31.98508
 40
0.25
 50
269.998642
 51
389.435874
  0
CIRCLE
  8
St
  6
CONTINUOUS
 62
   127
 10
-30.887043
 20
-11.140465
 40
6.999998
  0
ARC
  8
St
  6
CONTINUOUS
 62
   127
 10
-13.462845
 20
-8.975344
 40
1.574676
 50
332.71606
 51
359.994507
  0
ARC
  8
St
  6
CONTINUOUS
 62
   127
 10
-17.924185
 20
-11.140467
 40
6.036034
 50
346.159304
 51
373.829709
  0
ARC
  8
St
  6
CONTINUOUS
 62
   127
 10
-13.462845
 20
-13.305516
 40
1.574676
 50
359.994522
 51
387.272969
  0
ARC
  8
St
  6
CONTINUOUS
 62
   127
 10
-16.888167
 20
-20.140497
 40
1.25
 50
11.531655
 51
168.460121
  0
ARC
  8
St
  6
CONTINUOUS
 62
   127
 10
-18.388172
 20
-19.64047
 40
0.25
 50
179.997253
 51
269.998627
  0
ARC
  8
St
  6
CONTINUOUS
 62
   127
 10
-15.388162
 20
-19.64047
 40
0.25
 50
269.998627
 51
359.994507
  0
ARC
  8
St
  6
CONTINUOUS
 62
   127
 10
-16.888167
 20
-2.140438
 40
1.25
 50
191.534401
 51
348.457374
  0
ARC
  8
St
  6
CONTINUOUS
 62
   127
 10
-18.388172
 20
-2.640464
 40
0.25
 50
89.99588
 51
179.997253
  0
ARC
  8
St
  6
CONTINUOUS
 62
   127
 10
-15.388162
 20
-2.640464
 40
0.25
 50
359.994507
 51
449.99588
  0
ARC
  8
St
  6
CONTINUOUS
 62
   127
 10
-30.881124
 20
-11.140467
 40
7.625
 50
29.435859
 51
330.558663
  0
ARC
  8
St
  6
CONTINUOUS
 62
   127
 10
-24.458514
 20
-14.765473
 40
0.25
 50
330.558663
 51
449.99588
  0
ARC
  8
St
  6
CONTINUOUS
 62
   127
 10
-24.458514
 20
-7.515474
 40
0.25
 50
269.998642
 51
389.435874
  0
ARC
  8
St
  6
CONTINUOUS
 62
   127
 10
7.862972
 20
-11.140467
 40
3.75
 50
284.833936
 51
435.160571
  0
ARC
  8
St
  6
CONTINUOUS
 62
   127
 10
8.112973
 20
-7.265467
 40
0.25
 50
179.997253
 51
269.998627
  0
ARC
  8
St
  6
CONTINUOUS
 62
   127
 10
8.112973
 20
-15.015468
 40
0.25
 50
89.99588
 51
179.997253
  0
ARC
  8
St
  6
CONTINUOUS
 62
   127
 10
8.612975
 20
28.360084
 40
3.75
 50
284.833936
 51
435.160571
  0
ARC
  8
St
  6
CONTINUOUS
 62
   127
 10
8.862975
 20
32.235084
 40
0.25
 50
179.997253
 51
269.998627
  0
ARC
  8
St
  6
CONTINUOUS
 62
   127
 10
8.862975
 20
24.485083
 40
0.25
 50
89.99588
 51
179.997253
  0
ARC
  8
St
  6
CONTINUOUS
 10
12.612972
 20
-21.140565
 40
2.5
 50
-90.0
 51
0.0
  0
LINE
  8
St
  6
CONTINUOUS
 62
   127
 10
7.61297
 20
-23.640565
 11
12.612965
 21
-23.640565
  0
ARC
  8
St
  6
CONTINUOUS
 10
7.612975
 20
-21.140565
 40
2.5
 50
180.0
 51
270.0
  0
LINE
  8
St
  6
CONTINUOUS
 62
   127
 10
15.112965
 20
-1.140578
 11
15.112965
 21
-21.140565
  0
ARC
  8
St
  6
CONTINUOUS
 10
12.612972
 20
-1.140575
 40
2.5
 50
0.0
 51
90.0
  0
LINE
  8
St
  6
CONTINUOUS
 62
   127
 10
7.61297
 20
1.359425
 11
12.612965
 21
1.359425
  0
LINE
  8
St
  6
CONTINUOUS
 62
   127
 10
5.112968
 20
-1.140578
 11
5.112968
 21
-21.140565
  0
ARC
  8
St
  6
CONTINUOUS
 10
7.612975
 20
-1.140575
 40
2.5
 50
90.0
 51
180.0
  0
ARC
  8
St
  6
CONTINUOUS
 10
7.612971
 20
-1.140567
 40
1.15
 50
90.0
 51
180.0
  0
LINE
  8
St
  6
CONTINUOUS
 62
   127
 10
7.612965
 20
0.009433
 11
12.612968
 21
0.009433
  0
ARC
  8
St
  6
CONTINUOUS
 10
12.612976
 20
-1.140567
 40
1.15
 50
0.0
 51
90.0
  0
LINE
  8
St
  6
CONTINUOUS
 62
   127
 10
13.76297
 20
-1.14057
 11
13.76297
 21
-21.14056
  0
ARC
  8
St
  6
CONTINUOUS
 10
12.612976
 20
-21.140561
 40
1.15
 50
-90.0
 51
0.0
  0
LINE
  8
St
  6
CONTINUOUS
 62
   127
 10
7.612965
 20
-22.290563
 11
12.612968
 21
-22.290563
  0
LINE
  8
St
  6
CONTINUOUS
 62
   127
 10
6.462965
 20
-1.14057
 11
6.462965
 21
-21.14056
  0
ARC
  8
St
  6
CONTINUOUS
 10
7.612971
 20
-21.140561
 40
1.15
 50
180.0
 51
270.0
  0
ARC
  8
St
  6
CONTINUOUS
 10
-4.887043
 20
18.35997
 40
2.5
 50
180.0
 51
270.0
  0
LINE
  8
St
  6
CONTINUOUS
 62
   127
 10
-4.887047
 20
15.85997
 11
0.112958
 21
15.85997
  0
ARC
  8
St
  6
CONTINUOUS
 10
0.112966
 20
18.35997
 40
2.5
 50
-90.0
 51
0.0
  0
LINE
  8
St
  6
CONTINUOUS
 62
   127
 10
2.61296
 20
38.359978
 11
2.61296
 21
18.35997
  0
ARC
  8
St
  6
CONTINUOUS
 10
0.112966
 20
38.359979
 40
2.5
 50
0.0
 51
90.0
  0
LINE
  8
St
  6
CONTINUOUS
 62
   127
 10
-4.887047
 20
40.859978
 11
0.112958
 21
40.859978
  0
LINE
  8
St
  6
CONTINUOUS
 62
   127
 10
-7.38705
 20
38.359978
 11
-7.38705
 21
18.35997
  0
ARC
  8
St
  6
CONTINUOUS
 10
-4.887043
 20
38.359979
 40
2.5
 50
90.0
 51
180.0
  0
ARC
  8
St
  6
CONTINUOUS
 10
-4.887035
 20
38.359983
 40
1.15
 50
90.0
 51
180.0
  0
LINE
  8
St
  6
CONTINUOUS
 62
   127
 10
-4.88704
 20
39.509982
 11
0.112965
 21
39.509982
  0
ARC
  8
St
  6
CONTINUOUS
 10
0.112974
 20
38.359983
 40
1.15
 50
0.0
 51
90.0
  0
LINE
  8
St
  6
CONTINUOUS
 62
   127
 10
-6.037043
 20
38.35998
 11
-6.037043
 21
18.359963
  0
ARC
  8
St
  6
CONTINUOUS
 10
-4.887035
 20
18.359963
 40
1.15
 50
180.0
 51
270.0
  0
LINE
  8
St
  6
CONTINUOUS
 62
   127
 10
-4.88704
 20
17.209963
 11
0.112965
 21
17.209963
  0
LINE
  8
St
  6
CONTINUOUS
 62
   127
 10
1.262968
 20
38.35998
 11
1.262968
 21
18.359963
  0
ARC
  8
St
  6
CONTINUOUS
 10
0.112974
 20
18.359963
 40
1.15
 50
-90.0
 51
0.0
  0
LINE
  8
St
  6
DASHDOT
 10
15.112965
 20
8.609705
 11
-7.387043
 21
8.609705
  0
LINE
  8
St
  6
DOT
 62
   127
 10
-7.387045
 20
-1.14057
 11
-7.387045
 21
-21.14056
  0
ARC
  8
St
  6
DOT
 10
-4.887046
 20
-1.140563
 40
2.5
 50
90.0
 51
180.0
  0
LINE
  8
St
  6
DOT
 62
   127
 10
-4.887053
 20
1.35944
 11
0.112955
 21
1.35944
  0
ARC
  8
St
  6
DOT
 10
0.112962
 20
-1.140563
 40
2.5
 50
0.0
 51
90.0
  0
LINE
  8
St
  6
DOT
 62
   127
 10
2.612955
 20
-21.140567
 11
2.612955
 21
-1.140563
  0
ARC
  8
St
  6
DOT
 10
0.112962
 20
-21.140572
 40
2.5
 50
270.0
 51
360.0
  0
LINE
  8
St
  6
DOT
 62
   127
 10
-4.887053
 20
-23.64057
 11
0.112955
 21
-23.64057
  0
ARC
  8
St
  6
DOT
 10
-4.887046
 20
-21.140572
 40
2.5
 50
180.0
 51
270.0
  0
ARC
  8
St
  6
DOT
 10
-4.887039
 20
-21.140575
 40
1.15
 50
180.0
 51
270.0
  0
LINE
  8
St
  6
DOT
 62
   127
 10
-4.887045
 20
-22.290572
 11
0.112962
 21
-22.290572
  0
ARC
  8
St
  6
DOT
 10
0.11297
 20
-21.140575
 40
1.15
 50
270.0
 51
360.0
  0
LINE
  8
St
  6
DOT
 62
   127
 10
-6.037045
 20
-21.140572
 11
-6.037045
 21
-1.140555
  0
ARC
  8
St
  6
DOT
 10
-4.887039
 20
-1.140555
 40
1.15
 50
90.0
 51
180.0
  0
LINE
  8
St
  6
DOT
 62
   127
 10
-4.887045
 20
0.009447
 11
0.112962
 21
0.009447
  0
LINE
  8
St
  6
DOT
 62
   127
 10
1.262962
 20
-21.140572
 11
1.262962
 21
-1.140555
  0
ARC
  8
St
  6
DOT
 10
0.11297
 20
-1.140555
 40
1.15
 50
0.0
 51
90.0
  0
LINE
  8
St
  6
DOT
 62
   127
 10
5.11296
 20
18.359978
 11
5.11296
 21
38.35997
  0
ARC
  8
St
  6
DOT
 10
7.61296
 20
18.35997
 40
2.5
 50
180.0
 51
270.0
  0
LINE
  8
St
  6
DOT
 62
   127
 10
7.612955
 20
15.85997
 11
12.61296
 21
15.85997
  0
ARC
  8
St
  6
DOT
 10
12.612969
 20
18.35997
 40
2.5
 50
-90.0
 51
0.0
  0
LINE
  8
St
  6
DOT
 62
   127
 10
15.112962
 20
38.359978
 11
15.112962
 21
18.35997
  0
ARC
  8
St
  6
DOT
 10
12.612969
 20
38.359979
 40
2.5
 50
0.0
 51
90.0
  0
LINE
  8
St
  6
DOT
 62
   127
 10
7.612955
 20
40.859978
 11
12.61296
 21
40.859978
  0
ARC
  8
St
  6
DOT
 10
7.61296
 20
38.359979
 40
2.5
 50
90.0
 51
180.0
  0
ARC
  8
St
  6
DOT
 10
7.612967
 20
38.359983
 40
1.15
 50
90.0
 51
180.0
  0
LINE
  8
St
  6
DOT
 62
   127
 10
7.612962
 20
39.509982
 11
12.612968
 21
39.509982
  0
ARC
  8
St
  6
DOT
 10
12.612976
 20
38.359983
 40
1.15
 50
0.0
 51
90.0
  0
LINE
  8
St
  6
DOT
 62
   127
 10
6.46296
 20
38.35998
 11
6.46296
 21
18.359963
  0
ARC
  8
St
  6
DOT
 10
7.612967
 20
18.359963
 40
1.15
 50
180.0
 51
270.0
  0
LINE
  8
St
  6
DOT
 62
   127
 10
7.612962
 20
17.209963
 11
12.612968
 21
17.209963
  0
LINE
  8
St
  6
DOT
 62
   127
 10
13.76297
 20
38.35998
 11
13.76297
 21
18.359963
  0
ARC
  8
St
  6
DOT
 10
12.612976
 20
18.359963
 40
1.15
 50
-90.0
 51
0.0
  0
LINE
  8
St
  6
DOT
 10
15.112965
 20
-1.015465
 11
15.112965
 21
18.35997
  0
LINE
  8
St
  6
DOT
 10
5.112968
 20
-1.015465
 11
5.112968
 21
18.352477
  0
LINE
  8
St
  6
DOT
 10
-7.387043
 20
18.359978
 11
-7.387043
 21
-1.134445
  0
LINE
  8
St
  6
DOT
 10
2.61296
 20
18.359978
 11
2.61296
 21
-1.140563
  0
ENDBLK
  0
BLOCK
  2
*GRP_0079
 70
    65
 10
0.0
 20
0.0
  0
LINE
  8
補助線
  6
BYBLOCK
 62
     0
 10
-30.137043
 20
-11.140465
 11
-31.637043
 21
-11.140465
  0
LINE
  8
補助線
  6
BYBLOCK
 62
     0
 10
-30.887043
 20
-11.890465
 11
-30.887043
 21
-10.390465
  0
ENDBLK
  0
BLOCK
  2
*GRP_0080
 70
    65
 10
0.0
 20
0.0
  0
LINE
  8
補助線
  6
BYBLOCK
 62
     0
 10
-30.137043
 20
28.360085
 11
-31.637043
 21
28.360085
  0
LINE
  8
補助線
  6
BYBLOCK
 62
     0
 10
-30.887043
 20
27.610085
 11
-30.887043
 21
29.110085
  0
ENDBLK
  0
BLOCK
  2
*GRP_0081
 70
    65
 10
0.0
 20
0.0
  0
LINE
  8
寸法
  6
CONTINUOUS
 10
22.293828
 20
3.580857
 11
17.482157
 21
21.717173
  0
ENDBLK
  0
BLOCK
  2
*GRP_0082
 70
    65
 10
0.0
 20
0.0
  0
POLYLINE
  8
寸法
  6
CONTINUOUS
 66
     1
  0
VERTEX
  8
寸法
 10
17.948063
 20
-3.860567
  0
VERTEX
  8
寸法
 10
22.293828
 20
3.580857
  0
VERTEX
  8
寸法
 10
26.545192
 20
3.580857
  0
SEQEND
  0
ENDBLK
  0
ENDSEC
  0
SECTION
  2
ENTITIES
  0
POLYLINE
  8
通り芯
  6
CONTINUOUS
 66
     1
 70
     1
  0
VERTEX
  8
通り芯
 10
-210.0
 20
-148.5
  0
VERTEX
  8
通り芯
 10
210.0
 20
-148.5
  0
VERTEX
  8
通り芯
 10
210.0
 20
148.5
  0
VERTEX
  8
通り芯
 10
-210.0
 20
148.5
  0
SEQEND
  0
INSERT
  2
*GRP_0074
  8
型材
  6
DOT
 10
0.0
 20
0.0
  0
INSERT
  2
*GRP_0001
  8
型材断面
  6
CONTINUOUS
 10
0.0
 20
0.0
  0
INSERT
  2
*GRP_0002
  8
型材断面
  6
CONTINUOUS
 10
0.0
 20
0.0
  0
LINE
  8
型材断面
  6
CONTINUOUS
 10
13.110755
 20
-118.409755
 11
13.110755
 21
-35.140668
  0
LINE
  8
型材断面
  6
CONTINUOUS
 10
12.610755
 20
-118.409755
 11
12.610755
 21
-35.140668
  0
LINE
  8
型材断面
  6
CONTINUOUS
 10
7.110755
 20
-118.409755
 11
7.110755
 21
-35.140668
  0
LINE
  8
型材断面
  6
CONTINUOUS
 10
7.610752
 20
-118.409755
 11
7.610752
 21
-35.140668
  0
LINE
  8
型材断面
  6
CONTINUOUS
 10
-14.389245
 20
-118.409755
 11
-14.389245
 21
-70.390668
  0
LINE
  8
型材断面
  6
CONTINUOUS
 10
-14.389245
 20
-73.390668
 11
-89.389245
 21
-73.390668
  0
LINE
  8
型材断面
  6
CONTINUOUS
 10
-14.389245
 20
-70.390668
 11
-89.389245
 21
-70.390668
  0
ARC
  8
型材断面
  6
CONTINUOUS
 10
-89.389248
 20
-73.390664
 40
3.0
 50
90.0
 51
180.0
  0
LINE
  8
型材断面
  6
CONTINUOUS
 10
-89.389245
 20
-118.409755
 11
-89.389245
 21
-73.390668
  0
LINE
  8
型材断面
  6
CONTINUOUS
 10
-92.389245
 20
-118.409755
 11
-92.389245
 21
-73.390668
  0
LINE
  8
型材断面
  6
CONTINUOUS
 10
-89.389245
 20
-104.727178
 11
-58.052733
 21
-73.390668
  0
LINE
  8
型材断面
  6
CONTINUOUS
 10
-89.389245
 20
-101.191648
 11
-61.588263
 21
-73.390668
  0
LINE
  8
型材断面
  6
CONTINUOUS
 10
-89.389245
 20
-97.65611
 11
-65.1238
 21
-73.390668
  0
LINE
  8
型材断面
  6
CONTINUOUS
 10
-33.849745
 20
-118.409755
 11
-14.389245
 21
-98.949252
  0
LINE
  8
型材断面
  6
CONTINUOUS
 10
-37.385275
 20
-118.409755
 11
-14.389245
 21
-95.413723
  0
LINE
  8
型材断面
  6
CONTINUOUS
 10
-30.314207
 20
-118.409755
 11
-14.389245
 21
-102.48479
  0
LINE
  8
型材断面
  6
CONTINUOUS
 10
-31.69332
 20
40.324877
 11
11.828648
 21
83.846875
  0
LINE
  8
型材断面
  6
CONTINUOUS
 10
-35.582408
 20
44.213965
 11
7.93956
 21
87.735958
  0
LINE
  8
型材断面
  6
CONTINUOUS
 10
-45.516363
 20
54.14792
 11
-1.9944
 21
97.669915
  0
LINE
  8
型材断面
  6
CONTINUOUS
 10
-54.353185
 20
65.321912
 11
-11.999808
 21
107.675315
  0
LINE
  8
型材断面
  6
CONTINUOUS
 10
-57.466267
 20
65.037253
 11
-13.41402
 21
109.089528
  0
LINE
  8
型材断面
  6
CONTINUOUS
 10
-45.516197
 20
54.14776
 11
-31.69332
 21
40.32488
  0
INSERT
  2
*GRP_0003
  8
型材断面
  6
CONTINUOUS
 62
    47
 10
0.0
 20
0.0
  0
INSERT
  2
*GRP_0004
  8
型材断面
  6
CONTINUOUS
 62
    47
 10
0.0
 20
0.0
  0
INSERT
  2
*GRP_0005
  8
型材断面
  6
CONTINUOUS
 62
    47
 10
0.0
 20
0.0
  0
INSERT
  2
*GRP_0006
  8
型材断面
  6
CONTINUOUS
 62
    47
 10
0.0
 20
0.0
  0
LINE
  8
型材断面
  6
DOT
 10
-36.889238
 20
-39.64067
 11
-36.889238
 21
-34.64067
  0
LINE
  8
型材断面
  6
DOT
 10
-36.889238
 20
-34.64067
 11
-41.889238
 21
-34.64067
  0
INSERT
  2
*HAT_0004
  8
型材断面
 10
0.0
 20
0.0
  0
LINE
  8
型材断面
  6
DOT
 10
-23.889247
 20
-34.140665
 11
-23.139247
 21
-34.140665
  0
LINE
  8
型材断面
  6
DOT
 10
-23.889247
 20
-30.140665
 11
-23.139247
 21
-30.140665
  0
LINE
  8
型材断面
  6
DOT
 10
-23.701747
 20
-30.140665
 11
-23.701747
 21
-34.140665
  0
LINE
  8
型材断面
  6
DOT
 10
-23.514247
 20
-30.140665
 11
-23.514247
 21
-34.140665
  0
LINE
  8
型材断面
  6
DOT
 10
-23.326747
 20
-30.140665
 11
-23.326747
 21
-34.140665
  0
LINE
  8
型材断面
  6
DOT
 10
-55.891447
 20
28.710085
 11
-56.641447
 21
28.710085
  0
LINE
  8
型材断面
  6
DOT
 10
-55.891447
 20
32.710085
 11
-56.641447
 21
32.710085
  0
LINE
  8
型材断面
  6
DOT
 10
-56.453947
 20
28.710085
 11
-56.453947
 21
32.710085
  0
LINE
  8
型材断面
  6
DOT
 10
-56.266447
 20
28.710085
 11
-56.266447
 21
32.710085
  0
LINE
  8
型材断面
  6
DOT
 10
-56.078947
 20
28.710085
 11
-56.078947
 21
32.710085
  0
LINE
  8
型材断面
  6
DOT
 10
-50.891445
 20
28.710082
 11
-50.891445
 21
33.710082
  0
LINE
  8
型材断面
  6
DOT
 10
-50.891445
 20
33.710082
 11
-55.891445
 21
33.710082
  0
INSERT
  2
*HAT_0005
  8
型材断面
 10
0.0
 20
0.0
  0
LINE
  8
型材断面
  6
DOT
 10
-42.141442
 20
40.36082
 11
-42.891442
 21
40.36082
  0
LINE
  8
型材断面
  6
DOT
 10
-42.141442
 20
44.36082
 11
-42.891442
 21
44.36082
  0
LINE
  8
型材断面
  6
DOT
 10
-42.703942
 20
40.36082
 11
-42.703942
 21
44.36082
  0
LINE
  8
型材断面
  6
DOT
 10
-42.516442
 20
40.36082
 11
-42.516442
 21
44.36082
  0
LINE
  8
型材断面
  6
DOT
 10
-42.328942
 20
40.36082
 11
-42.328942
 21
44.36082
  0
INSERT
  2
*GRP_0056
  8
型材断面
  6
DOT
 10
0.0
 20
0.0
  0
INSERT
  2
*GRP_0057
  8
型材断面
  6
CONTINUOUS
 62
    47
 10
0.0
 20
0.0
  0
INSERT
  2
*GRP_0058
  8
型材断面
  6
CONTINUOUS
 62
    47
 10
0.0
 20
0.0
  0
LINE
  8
型材断面
  6
DOT
 10
100.297333
 20
-28.709915
 11
99.547333
 21
-28.709915
  0
LINE
  8
型材断面
  6
DOT
 10
100.297333
 20
-24.709915
 11
99.547333
 21
-24.709915
  0
LINE
  8
型材断面
  6
DOT
 10
99.734833
 20
-28.709915
 11
99.734833
 21
-24.709915
  0
LINE
  8
型材断面
  6
DOT
 10
99.922333
 20
-28.709915
 11
99.922333
 21
-24.709915
  0
LINE
  8
型材断面
  6
DOT
 10
100.109833
 20
-28.709915
 11
100.109833
 21
-24.709915
  0
LINE
  8
型材断面
  6
DOT
 10
105.297335
 20
-28.709918
 11
105.297335
 21
-23.709918
  0
LINE
  8
型材断面
  6
DOT
 10
105.297335
 20
-23.709918
 11
100.297335
 21
-23.709918
  0
INSERT
  2
*HAT_0006
  8
型材断面
 10
0.0
 20
0.0
  0
LINE
  8
型材断面
  6
DOT
 10
114.047337
 20
-17.05918
 11
113.297337
 21
-17.05918
  0
LINE
  8
型材断面
  6
DOT
 10
114.047337
 20
-13.05918
 11
113.297337
 21
-13.05918
  0
LINE
  8
型材断面
  6
DOT
 10
113.484837
 20
-17.05918
 11
113.484837
 21
-13.05918
  0
LINE
  8
型材断面
  6
DOT
 10
113.672337
 20
-17.05918
 11
113.672337
 21
-13.05918
  0
LINE
  8
型材断面
  6
DOT
 10
113.859837
 20
-17.05918
 11
113.859837
 21
-13.05918
  0
LINE
  8
型材断面
  6
CONTINUOUS
 10
98.722513
 20
7.617252
 11
131.921498
 21
40.816258
  0
LINE
  8
型材断面
  6
CONTINUOUS
 10
101.835595
 20
7.901913
 11
133.33571
 21
39.402045
  0
LINE
  8
型材断面
  6
CONTINUOUS
 10
110.672417
 20
-3.27208
 11
143.341117
 21
29.396645
  0
POLYLINE
  8
型材断面
  6
CONTINUOUS
 66
     1
 70
     1
  0
VERTEX
  8
型材断面
 10
181.77731
 20
48.651427
  0
VERTEX
  8
型材断面
 10
75.289915
 20
48.651427
  0
VERTEX
  8
型材断面
 10
75.289915
 20
-56.588068
  0
VERTEX
  8
型材断面
 10
181.77731
 20
-56.588068
  0
SEQEND
  0
LINE
  8
型材断面
  6
DOT
 10
-51.70338
 20
44.42504
 11
-51.17305
 21
43.894713
  0
LINE
  8
型材断面
  6
DOT
 10
-49.582065
 20
46.546365
 11
-49.051735
 21
46.016037
  0
LINE
  8
型材断面
  6
DOT
 10
-51.570798
 20
44.292457
 11
-49.449478
 21
46.41378
  0
LINE
  8
型材断面
  6
DOT
 10
-51.438215
 20
44.159875
 11
-49.316895
 21
46.281198
  0
LINE
  8
型材断面
  6
DOT
 10
-51.305635
 20
44.027292
 11
-49.184313
 21
46.148615
  0
LINE
  8
型材断面
  6
DOT
 10
104.4854
 20
-12.99496
 11
105.01573
 21
-13.525288
  0
LINE
  8
型材断面
  6
DOT
 10
106.606715
 20
-10.873635
 11
107.137045
 21
-11.403963
  0
LINE
  8
型材断面
  6
DOT
 10
104.617982
 20
-13.127542
 11
106.739302
 21
-11.00622
  0
LINE
  8
型材断面
  6
DOT
 10
104.750565
 20
-13.260125
 11
106.871885
 21
-11.138803
  0
LINE
  8
型材断面
  6
DOT
 10
104.883145
 20
-13.392707
 11
107.004467
 21
-11.271385
  0
LINE
  8
型材断面
  6
CONTINUOUS
 10
153.275078
 20
19.46269
 11
120.606375
 21
-13.206033
  0
LINE
  8
型材断面
  6
CONTINUOUS
 10
157.164165
 20
15.573605
 11
124.49546
 21
-17.09512
  0
LINE
  8
型材断面
  6
CONTINUOUS
 10
124.49546
 20
-17.09512
 11
110.67242
 21
-3.272077
  0
LINE
  8
ガラス
  6
CONTINUOUS
 10
-55.16823
 20
56.375132
 11
-53.04691
 21
54.253805
  0
LINE
  8
ガラス
  6
CONTINUOUS
 10
-53.04691
 20
54.253805
 11
-57.289548
 21
54.253812
  0
LINE
  8
ガラス
  6
CONTINUOUS
 10
-55.16823
 20
56.375132
 11
-55.16823
 21
52.132488
  0
LINE
  8
ガラス
  6
CONTINUOUS
 10
-57.289548
 20
54.253812
 11
-7.933928
 21
103.609435
  0
LINE
  8
ガラス
  6
CONTINUOUS
 10
-57.466323
 20
54.430588
 11
-8.110703
 21
103.78621
  0
LINE
  8
ガラス
  6
CONTINUOUS
 10
-54.991455
 20
51.955712
 11
-5.635825
 21
101.31134
  0
LINE
  8
ガラス
  6
CONTINUOUS
 10
-58.880537
 20
55.844802
 11
-9.524917
 21
105.200425
  0
LINE
  8
ガラス
  6
CONTINUOUS
 10
-59.057312
 20
56.021578
 11
-9.701692
 21
105.3772
  0
LINE
  8
ガラス
  6
CONTINUOUS
 10
-55.16823
 20
52.132488
 11
-5.8126
 21
101.488115
  0
LINE
  8
ガラス
  6
CONTINUOUS
 10
-52.76407
 20
49.72832
 11
-3.408438
 21
99.083952
  0
LINE
  8
ガラス
  6
CONTINUOUS
 10
-52.940845
 20
49.905095
 11
-3.585213
 21
99.260728
  0
INSERT
  2
*GRP_0007
  8
ガラス
  6
CONTINUOUS
 10
0.0
 20
0.0
  0
INSERT
  2
*GRP_0008
  8
ガラス
  6
CONTINUOUS
 10
0.0
 20
0.0
  0
INSERT
  2
*GRP_0009
  8
ガラス
  6
CONTINUOUS
 10
0.0
 20
0.0
  0
INSERT
  2
*GRP_0010
  8
ガラス
  6
CONTINUOUS
 10
0.0
 20
0.0
  0
INSERT
  2
*GRP_0011
  8
ガラス
  6
CONTINUOUS
 10
0.0
 20
0.0
  0
INSERT
  2
*GRP_0012
  8
ガラス
  6
CONTINUOUS
 10
0.0
 20
0.0
  0
INSERT
  2
*GRP_0013
  8
ガラス
  6
CONTINUOUS
 10
0.0
 20
0.0
  0
INSERT
  2
*GRP_0014
  8
ガラス
  6
CONTINUOUS
 10
0.0
 20
0.0
  0
INSERT
  2
*GRP_0015
  8
ガラス
  6
CONTINUOUS
 10
0.0
 20
0.0
  0
INSERT
  2
*GRP_0016
  8
ガラス
  6
CONTINUOUS
 10
0.0
 20
0.0
  0
INSERT
  2
*GRP_0017
  8
ガラス
  6
CONTINUOUS
 10
0.0
 20
0.0
  0
INSERT
  2
*GRP_0018
  8
ガラス
  6
CONTINUOUS
 10
0.0
 20
0.0
  0
INSERT
  2
*GRP_0019
  8
ガラス
  6
CONTINUOUS
 10
0.0
 20
0.0
  0
INSERT
  2
*GRP_0020
  8
ガラス
  6
CONTINUOUS
 10
0.0
 20
0.0
  0
INSERT
  2
*GRP_0072
  8
ガラス
  6
CONTINUOUS
 10
0.0
 20
0.0
  0
LINE
  8
ガラス
  6
CONTINUOUS
 10
97.13147
 20
-1.398417
 11
99.53563
 21
-3.802585
  0
LINE
  8
ガラス
  6
CONTINUOUS
 10
99.53563
 20
-3.802585
 11
138.037973
 21
34.699785
  0
LINE
  8
ガラス
  6
CONTINUOUS
 10
99.358852
 20
-3.625807
 11
137.861195
 21
34.876562
  0
LINE
  8
ガラス
  6
CONTINUOUS
 10
97.13147
 20
-1.398417
 11
135.633807
 21
37.10395
  0
LINE
  8
ガラス
  6
CONTINUOUS
 10
97.308247
 20
-1.575195
 11
135.810585
 21
36.927173
  0
INSERT
  2
*GRP_0021
  8
ゴム等
  6
CONTINUOUS
 10
0.0
 20
0.0
  0
INSERT
  2
*GRP_0022
  8
ゴム等
  6
CONTINUOUS
 10
0.0
 20
0.0
  0
INSERT
  2
*GRP_0023
  8
ゴム等
  6
CONTINUOUS
 10
0.0
 20
0.0
  0
LINE
  8
ゴム等
  6
CONTINUOUS
 10
-56.76027
 20
43.117917
 11
-59.277063
 21
56.241335
  0
INSERT
  2
*GRP_0059
  8
ゴム等
  6
CONTINUOUS
 10
0.0
 20
0.0
  0
LINE
  8
ゴム等
  6
CONTINUOUS
 10
99.42851
 20
-14.302082
 11
96.911717
 21
-1.178665
  0
INSERT
  2
*GRP_0024
  8
ボルト／ビス
  6
CONTINUOUS
 62
    64
 10
0.0
 20
0.0
  0
INSERT
  2
*GRP_0025
  8
ボルト／ビス
  6
CONTINUOUS
 62
    64
 10
0.0
 20
0.0
  0
INSERT
  2
*GRP_0026
  8
ボルト／ビス
  6
CONTINUOUS
 62
    64
 10
0.0
 20
0.0
  0
INSERT
  2
*GRP_0027
  8
ボルト／ビス
  6
CONTINUOUS
 62
    64
 10
0.0
 20
0.0
  0
INSERT
  2
*GRP_0028
  8
ボルト／ビス
  6
CONTINUOUS
 62
    64
 10
0.0
 20
0.0
  0
TEXT
  7
TextStyle03
  8
文字
  6
CONTINUOUS
 10
-131.575
 20
91.65
  1
ガラスは6＋A6＋6.8mmまでの厚さを
 40
3.0
 72
     5
 11
-77.95
 21
91.65
  0
TEXT
  7
TextStyle03
  8
文字
  6
CONTINUOUS
 10
-131.575
 20
88.275
  1
限界とする。
 40
3.0
 72
     5
 11
-111.7
 21
88.275
  0
TEXT
  7
TextStyle03
  8
文字
  6
CONTINUOUS
 10
-39.1
 20
54.575
  1
ゴム厚3～6（EPDM）
 40
3.0
 72
     5
 11
-9.1
 21
54.575
  0
TEXT
  7
TextStyle03
  8
文字
  6
CONTINUOUS
 10
-83.6
 20
-31.9
  1
φ8穴加工
 40
3.0
 72
     5
 11
-68.7875
 21
-31.9
  0
TEXT
  7
TextStyle03
  8
文字
  6
CONTINUOUS
 10
-83.6
 20
-35.275
  1
裏面バッフル材付き
 40
3.0
 72
     5
 11
-53.6
 21
-35.275
  0
TEXT
  7
TextStyle03
  8
文字
  6
CONTINUOUS
 10
-13.95
 20
5.6
  1
TKR-1301
 40
3.0
 72
     5
 11
-0.6375
 21
5.6
  0
TEXT
  7
TextStyle03
  8
文字
  6
CONTINUOUS
 10
-66.05
 20
-8.475
  1
TK-1154
 40
3.0
 72
     5
 11
-54.425
 21
-8.475
  0
TEXT
  7
TextStyle03
  8
文字
  6
CONTINUOUS
 10
18.925
 20
-62.525
  1
コーナーシール（工場）
 40
3.0
 72
     5
 11
55.675
 21
-62.525
  0
TEXT
  7
TextStyle03
  8
文字
  6
CONTINUOUS
 10
-5.725
 20
47.975
  1
TK-1121
 40
3.0
 72
     5
 11
5.9
 21
47.975
  0
TEXT
  7
TextStyle03
  8
文字
  6
CONTINUOUS
 10
-77.475
 20
32.65
  1
TK-1149
 40
3.0
 72
     5
 11
-65.85
 21
32.65
  0
TEXT
  7
TextStyle03
  8
文字
  6
CONTINUOUS
 10
-82.4
 20
41.85
  1
TKR-1109
 40
3.0
 72
     5
 11
-69.0875
 21
41.85
  0
TEXT
  7
TextStyle03
  8
文字
  6
CONTINUOUS
 10
-134.35
 20
-65.775
  1
TKM-0001～0005
 40
3.0
 72
     5
 11
-110.9125
 21
-65.775
  0
TEXT
  7
TextStyle03
  8
文字
  6
CONTINUOUS
 10
32.175
 20
125.05
  1
呼称寸法
 40
3.0
 72
     5
 11
45.3
 21
125.05
  0
TEXT
  7
TextStyle03
  8
文字
  6
CONTINUOUS
 10
42.1
 20
118.85
  1
有効開口寸法
 40
3.0
 72
     5
 11
61.975
 21
118.85
  0
TEXT
  7
TextStyle03
  8
文字
  6
CONTINUOUS
 10
80.45
 20
41.45
  1
シングルガラスタイプ
 40
3.0
 72
     5
 11
113.825
 21
41.45
  0
TEXT
  7
TextStyle03
  8
文字
  6
CONTINUOUS
 10
70.35
 20
81.125
  1
ＮＳコード：ＮＳ４ＣＺ
 40
5.0
 72
     5
 11
131.6
 21
81.125
  0
TEXT
  7
TextStyle03
  8
文字
  6
CONTINUOUS
 10
18.275
 20
-51.3
  1
アンカー：St-3.2t
 40
3.0
 72
     5
 11
46.775
 21
-51.3
  0
TEXT
  7
TextStyle03
  8
文字
  6
CONTINUOUS
 10
-155.4625
 20
-99.775
  1
排水パイプ(オプション)
 40
3.0
 72
     5
 11
-118.525
 21
-99.775
  0
TEXT
  7
TextStyle03
  8
文字
  6
CONTINUOUS
 10
-145.3375
 20
-103.15
  1
□10×10×1 L=60
 40
3.0
 72
     5
 11
-118.525
 21
-103.15
  0
TEXT
  7
TextStyle03
  8
文字
  6
CONTINUOUS
 10
70.6
 20
105.975
  1
シリーズ：ＴＦ２４
 40
5.0
 72
     5
 11
120.6
 21
105.975
  0
TEXT
  7
TextStyle03
  8
文字
  6
CONTINUOUS
 10
70.6
 20
100.35
  1
　　　　　四角錐（上下可動）
 40
5.0
 72
     5
 11
148.725
 21
100.35
  0
TEXT
  7
TextStyle03
  8
文字
  6
CONTINUOUS
 10
70.6
 20
94.725
  1

 40
5.0
 41
1.125
  0
TEXT
  7
TextStyle03
  8
文字
  6
CONTINUOUS
 10
70.6
 20
89.1
  1
図面名　：下枠断面詳細図（可動装置側）
 40
5.0
 72
     5
 11
176.85
 21
89.1
  0
TEXT
  7
TextStyle03
  8
文字
  6
CONTINUOUS
 10
27.0
 20
2.2
  1
バランスステー
 40
3.0
 72
     5
 11
50.25
 21
2.2
  0
LINE
  8
寸法
  6
DASHDOT
 10
-13.139245
 20
133.5
 11
-13.139245
 21
38.360075
  0
INSERT
  2
*DIM_0029
  8
寸法
  6
CONTINUOUS
 10
0.0
 20
0.0
  0
INSERT
  2
*DIM_0030
  8
寸法
  6
CONTINUOUS
 10
0.0
 20
0.0
  0
INSERT
  2
*DIM_0031
  8
寸法
  6
CONTINUOUS
 10
0.0
 20
0.0
  0
LINE
  8
寸法
  6
CONTINUOUS
 10
-13.139245
 20
124.37094
 11
-5.775137
 21
126.159455
  0
LINE
  8
寸法
  6
CONTINUOUS
 10
-13.139245
 20
124.37094
 11
-5.775137
 21
122.582425
  0
LINE
  8
寸法
  6
CONTINUOUS
 10
-5.775137
 20
126.159455
 11
-5.775137
 21
122.582425
  0
INSERT
  2
*DIM_0032
  8
寸法
  6
CONTINUOUS
 10
0.0
 20
0.0
  0
INSERT
  2
*DIM_0033
  8
寸法
  6
CONTINUOUS
 10
0.0
 20
0.0
  0
INSERT
  2
*DIM_0034
  8
寸法
  6
CONTINUOUS
 10
0.0
 20
0.0
  0
INSERT
  2
*DIM_0035
  8
寸法
  6
CONTINUOUS
 10
0.0
 20
0.0
  0
INSERT
  2
*DIM_0036
  8
寸法
  6
CONTINUOUS
 10
0.0
 20
0.0
  0
INSERT
  2
*DIM_0037
  8
寸法
  6
CONTINUOUS
 10
0.0
 20
0.0
  0
INSERT
  2
*DIM_0038
  8
寸法
  6
CONTINUOUS
 10
0.0
 20
0.0
  0
INSERT
  2
*DIM_0039
  8
寸法
  6
CONTINUOUS
 10
0.0
 20
0.0
  0
INSERT
  2
*DIM_0040
  8
寸法
  6
CONTINUOUS
 10
0.0
 20
0.0
  0
INSERT
  2
*DIM_0041
  8
寸法
  6
CONTINUOUS
 10
0.0
 20
0.0
  0
INSERT
  2
*DIM_0042
  8
寸法
  6
CONTINUOUS
 10
0.0
 20
0.0
  0
INSERT
  2
*DIM_0043
  8
寸法
  6
CONTINUOUS
 10
0.0
 20
0.0
  0
INSERT
  2
*GRP_0044
  8
寸法
  6
CONTINUOUS
 10
0.0
 20
0.0
  0
INSERT
  2
*GRP_0045
  8
寸法
  6
CONTINUOUS
 10
0.0
 20
0.0
  0
LINE
  8
寸法
  6
DOT
 10
-41.88924
 20
-39.640668
 11
-42.889245
 21
-39.640668
  0
LINE
  8
寸法
  6
DOT
 10
-41.88924
 20
-35.640668
 11
-42.889245
 21
-35.640668
  0
LINE
  8
寸法
  6
DOT
 10
-42.639243
 20
-39.640668
 11
-42.639243
 21
-35.640668
  0
LINE
  8
寸法
  6
DOT
 10
-42.389243
 20
-39.640668
 11
-42.389243
 21
-35.640668
  0
LINE
  8
寸法
  6
DOT
 10
-42.13924
 20
-39.640668
 11
-42.13924
 21
-35.640668
  0
INSERT
  2
*GRP_0046
  8
寸法
  6
CONTINUOUS
 10
0.0
 20
0.0
  0
INSERT
  2
*GRP_0047
  8
寸法
  6
CONTINUOUS
 10
0.0
 20
0.0
  0
INSERT
  2
*GRP_0048
  8
寸法
  6
CONTINUOUS
 10
0.0
 20
0.0
  0
INSERT
  2
*GRP_0049
  8
寸法
  6
CONTINUOUS
 10
0.0
 20
0.0
  0
INSERT
  2
*GRP_0050
  8
寸法
  6
CONTINUOUS
 10
0.0
 20
0.0
  0
INSERT
  2
*GRP_0051
  8
寸法
  6
CONTINUOUS
 10
0.0
 20
0.0
  0
INSERT
  2
*GRP_0052
  8
寸法
  6
CONTINUOUS
 10
0.0
 20
0.0
  0
INSERT
  2
*GRP_0053
  8
寸法
  6
CONTINUOUS
 10
0.0
 20
0.0
  0
INSERT
  2
*GRP_0054
  8
寸法
  6
CONTINUOUS
 10
0.0
 20
0.0
  0
LINE
  8
寸法
  6
CONTINUOUS
 10
93.356125
 20
124.37094
 11
85.992017
 21
126.159455
  0
LINE
  8
寸法
  6
CONTINUOUS
 10
93.356125
 20
124.37094
 11
85.992017
 21
122.582425
  0
LINE
  8
寸法
  6
CONTINUOUS
 10
85.992017
 20
126.159455
 11
85.992017
 21
122.582425
  0
LINE
  8
寸法
  6
CONTINUOUS
 10
91.414948
 20
124.37094
 11
84.05084
 21
126.159455
  0
LINE
  8
寸法
  6
CONTINUOUS
 10
91.414948
 20
124.37094
 11
84.05084
 21
122.582425
  0
LINE
  8
寸法
  6
CONTINUOUS
 10
84.05084
 20
126.159455
 11
84.05084
 21
122.582425
  0
LINE
  8
寸法
  6
CONTINUOUS
 10
93.356125
 20
118.44188
 11
85.992017
 21
120.230395
  0
LINE
  8
寸法
  6
CONTINUOUS
 10
91.414948
 20
118.44188
 11
84.05084
 21
120.230395
  0
LINE
  8
寸法
  6
CONTINUOUS
 10
85.992017
 20
120.230395
 11
85.992017
 21
118.44188
  0
LINE
  8
寸法
  6
CONTINUOUS
 10
84.05084
 20
120.230395
 11
84.05084
 21
118.44188
  0
LINE
  8
寸法
  6
CONTINUOUS
 10
-13.139245
 20
124.37094
 11
93.356125
 21
124.37094
  0
LINE
  8
寸法
  6
CONTINUOUS
 10
15.610755
 20
118.44188
 11
93.356125
 21
118.44188
  0
INSERT
  2
*GRP_0075
  8
寸法
  6
CONTINUOUS
 10
0.0
 20
0.0
  0
INSERT
  2
*GRP_0081
  8
寸法
  6
CONTINUOUS
 10
0.0
 20
0.0
  0
INSERT
  2
*GRP_0082
  8
寸法
  6
CONTINUOUS
 10
0.0
 20
0.0
  0
INSERT
  2
*HAT_0007
  8
ﾊｯﾁﾝｸﾞ
 10
0.0
 20
0.0
  0
INSERT
  2
*GRP_0073
  8
別途部材
  6
CONTINUOUS
 10
0.0
 20
0.0
  0
INSERT
  2
*GRP_0055
  8
St
  6
CONTINUOUS
 10
0.0
 20
0.0
  0
INSERT
  2
*GRP_0077
  8
St
  6
DOT
 10
0.0
 20
0.0
  0
INSERT
  2
*GRP_0078
  8
St
  6
CONTINUOUS
 10
0.0
 20
0.0
  0
LINE
  8
St
  6
DOT
 10
2.61296
 20
36.860085
 11
57.740835
 21
36.860085
  0
LINE
  8
St
  6
DOT
 10
2.61296
 20
19.860082
 11
57.740835
 21
19.860082
  0
LINE
  8
St
  6
DOT
 10
15.112965
 20
-2.640465
 11
57.740835
 21
-2.640465
  0
LINE
  8
St
  6
DOT
 10
15.112965
 20
-19.640467
 11
57.740835
 21
-19.640467
  0
LINE
  8
その他部品等
  6
CONTINUOUS
 10
-99.4893
 20
-85.713797
 11
-92.389245
 21
-85.713797
  0
LINE
  8
その他部品等
  6
CONTINUOUS
 10
-99.4893
 20
-81.713795
 11
-92.389245
 21
-81.713795
  0
LINE
  8
その他部品等
  6
CONTINUOUS
 10
-97.839287
 20
-79.713797
 11
-97.839287
 21
-78.57341
  0
LINE
  8
その他部品等
  6
CONTINUOUS
 10
-92.389245
 20
-78.57341
 11
-97.839287
 21
-78.57341
  0
LINE
  8
その他部品等
  6
CONTINUOUS
 10
-97.839287
 20
-78.57341
 11
-92.389245
 21
-81.713795
  0
INSERT
  2
*HAT_0008
  8
その他部品等
 10
0.0
 20
0.0
  0
LINE
  8
その他部品等
  6
CONTINUOUS
 10
-42.88924
 20
-40.390668
 11
-42.88924
 21
-47.890668
  0
LINE
  8
その他部品等
  6
CONTINUOUS
 10
-38.683075
 20
-40.390668
 11
-38.683075
 21
-47.318397
  0
LINE
  8
その他部品等
  6
CONTINUOUS
 10
-36.28924
 20
-40.390668
 11
-36.28924
 21
-46.992707
  0
LINE
  8
その他部品等
  6
CONTINUOUS
 10
-36.28924
 20
-40.390668
 11
-38.683075
 21
-47.318397
  0
INSERT
  2
*HAT_0009
  8
その他部品等
 10
0.0
 20
0.0
  0
LINE
  8
その他部品等
  6
CONTINUOUS
 10
-57.476828
 20
64.833403
 11
-48.904928
 21
66.173965
  0
LINE
  8
その他部品等
  6
CONTINUOUS
 10
-59.587627
 20
61.501685
 11
-56.582417
 21
58.496472
  0
LINE
  8
その他部品等
  6
CONTINUOUS
 10
-62.062522
 20
59.026795
 11
-59.057312
 21
56.021578
  0
LINE
  8
その他部品等
  6
CONTINUOUS
 10
-56.582417
 20
58.496472
 11
-62.062522
 21
59.026795
  0
INSERT
  2
*HAT_0010
  8
その他部品等
 10
0.0
 20
0.0
  0
LINE
  8
その他部品等
  6
CONTINUOUS
 10
-28.639245
 20
-39.390665
 11
-23.139247
 21
-36.540665
  0
INSERT
  2
*HAT_0011
  8
その他部品等
 10
0.0
 20
0.0
  0
LINE
  8
その他部品等
  6
CONTINUOUS
 10
94.126258
 20
1.606795
 11
99.358875
 21
1.32396
  0
INSERT
  2
*GRP_0076
  8
その他部品等
  6
CONTINUOUS
 10
0.0
 20
0.0
  0
LINE
  8
その他部品等
  6
CONTINUOUS
 10
94.126258
 20
1.606795
 11
97.131467
 21
-1.39842
  0
LINE
  8
その他部品等
  6
CONTINUOUS
 10
96.601152
 20
4.081685
 11
99.60636
 21
1.076475
  0
LINE
  8
その他部品等
  6
CONTINUOUS
 10
98.711953
 20
7.413402
 11
107.283842
 21
8.753962
  0
ENDSEC
  0
EOF
