  0
SECTION
  2
HEADER
  9
$EXTMIN
 10
-210.0
 20
-148.5
  9
$EXTMAX
 10
210.0
 20
148.5
  9
$PDMODE
 70
    32
  9
$PDSIZE
 40
1.5
  9
$LTSCALE
 40
10.0
  0
ENDSEC
  0
SECTION
  2
TABLES
  0
TABLE
  2
LTYPE
 70
    15
  0
LTYPE
  2
CONTINUOUS
 70
    64
  3
実線
 72
    65
 73
     0
 40
0.0
  0
LTYPE
  2
DASHED
 70
    64
  3
破線A
 72
    65
 73
     2
 40
0.6
 49
0.4
 49
-0.2
  0
LTYPE
  2
DASHEDX2
 70
    64
  3
破線B
 72
    65
 73
     2
 40
1.3
 49
0.9
 49
-0.4
  0
LTYPE
  2
DASHDOT
 70
    64
  3
１点鎖線A
 72
    65
 73
     4
 40
0.5375
 49
0.375
 49
-0.05
 49
0.0625
 49
-0.05
  0
LTYPE
  2
DASHDOTX2
 70
    64
  3
１点鎖線B
 72
    65
 73
     4
 40
1.075
 49
0.75
 49
-0.1
 49
0.125
 49
-0.1
  0
LTYPE
  2
DIVIDE2
 70
    64
  3
２点鎖線A
 72
    65
 73
     6
 40
0.5125
 49
0.3
 49
-0.0375
 49
0.05
 49
-0.0375
 49
0.05
 49
-0.0375
  0
LTYPE
  2
DIVIDE
 70
    64
  3
２点鎖線B
 72
    65
 73
     6
 40
1.05
 49
0.55
 49
-0.1
 49
0.1
 49
-0.1
 49
0.1
 49
-0.1
  0
LTYPE
  2
DOT
 70
    64
  3
点線A
 72
    65
 73
     2
 40
0.1125
 49
0.0625
 49
-0.05
  0
LTYPE
  2
DOTX2
 70
    64
  3
点線B
 72
    65
 73
     2
 40
0.275
 49
0.15
 49
-0.125
  0
LTYPE
  2
CONTINUOUS
 70
    64
  3
実線
 72
    65
 73
     0
 40
0.0
  0
LTYPE
  2
CONTINUOUS
 70
    64
  3
実線
 72
    65
 73
     0
 40
0.0
  0
LTYPE
  2
CONTINUOUS
 70
    64
  3
実線
 72
    65
 73
     0
 40
0.0
  0
LTYPE
  2
CONTINUOUS
 70
    64
  3
実線
 72
    65
 73
     0
 40
0.0
  0
LTYPE
  2
CONTINUOUS
 70
    64
  3
実線
 72
    65
 73
     0
 40
0.0
  0
LTYPE
  2
CONTINUOUS
 70
    64
  3
実線
 72
    65
 73
     0
 40
0.0
  0
ENDTAB
  0
TABLE
  2
LAYER
 70
    34
  0
LAYER
  2
通り芯
 70
     0
 62
    15
  6
CONTINUOUS
  0
LAYER
  2
補助線
 70
     0
 62
    16
  6
DOT
  0
LAYER
  2
躯体
 70
     0
 62
    31
  6
CONTINUOUS
  0
LAYER
  2
型材
 70
     0
 62
    32
  6
CONTINUOUS
  0
LAYER
  2
型材断面
 70
     0
 62
    47
  6
CONTINUOUS
  0
LAYER
  2
ガラス
 70
     0
 62
    48
  6
CONTINUOUS
  0
LAYER
  2
ゴム等
 70
     0
 62
    63
  6
CONTINUOUS
  0
LAYER
  2
ボルト／ビス
 70
     0
 62
    64
  6
CONTINUOUS
  0
LAYER
  2
文字
 70
     0
 62
    79
  6
CONTINUOUS
  0
LAYER
  2
寸法
 70
     0
 62
    80
  6
CONTINUOUS
  0
LAYER
  2
ﾊｯﾁﾝｸﾞ
 70
     0
 62
    95
  6
CONTINUOUS
  0
LAYER
  2
別途部材
 70
     0
 62
    96
  6
CONTINUOUS
  0
LAYER
  2
曲げ物
 70
     0
 62
   111
  6
CONTINUOUS
  0
LAYER
  2
鉄骨等
 70
     0
 62
   112
  6
CONTINUOUS
  0
LAYER
  2
St
 70
     0
 62
   127
  6
CONTINUOUS
  0
LAYER
  2
その他部品等
 70
     0
 62
   128
  6
CONTINUOUS
  0
LAYER
  2
ｶﾞｽｹｯﾄ
 70
     0
 62
   143
  6
CONTINUOUS
  0
LAYER
  2
ｽｹｯﾁ
 70
     0
 62
    14
  6
CONTINUOUS
  0
LAYER
  2
0
 70
     0
 62
    17
  6
CONTINUOUS
  0
LAYER
  2
1
 70
     0
 62
    30
  6
CONTINUOUS
  0
LAYER
  2
4
 70
     0
 62
    33
  6
CONTINUOUS
  0
LAYER
  2
ﾚｲﾔ3
 70
     0
 62
    46
  6
CONTINUOUS
  0
LAYER
  2
外形線
 70
     0
 62
    49
  6
CONTINUOUS
  0
LAYER
  2
部品
 70
     0
 62
    14
  6
CONTINUOUS
  0
LAYER
  2
サッシ芯
 70
     0
 62
    17
  6
DASHDOTX2
  0
LAYER
  2
寸法線
 70
     0
 62
    62
  6
CONTINUOUS
  0
LAYER
  2
姿図外形線
 70
     0
 62
    65
  6
CONTINUOUS
  0
LAYER
  2
姿補助線
 70
     0
 62
    30
  6
CONTINUOUS
  0
LAYER
  2
透視線
 70
     0
 62
    78
  6
DOT
  0
LAYER
  2
用紙
 70
     0
 62
    81
  6
CONTINUOUS
  0
LAYER
  2
実線図枠
 70
     0
 62
    94
  6
CONTINUOUS
  0
LAYER
  2
補助図枠
 70
     0
 62
    97
  6
CONTINUOUS
  0
LAYER
  2
建具記号
 70
     0
 62
   110
  6
CONTINUOUS
  0
LAYER
  2
補助文字
 70
     0
 62
   113
  6
CONTINUOUS
  0
ENDTAB
  0
TABLE
  2
STYLE
 70
    10
  0
STYLE
  2
STANDARD
 70
     0
 40
1.0
 41
1.0
 42
1.0
 50
0.0
 71
     0
  3
TXT
  4
BIGFONT
  0
STYLE
  2
TATE
 70
     4
 40
1.0
 41
1.0
 42
1.0
 50
0.0
 71
     0
  3
TXT
  4
BIGFONT
  0
STYLE
  2
TextStyle03
 70
     0
 40
1.0
 41
1.0
 42
1.0
 50
0.0
 71
     0
  3
MONOTXT
  4
BIGFONT
  0
STYLE
  2
TextStyle04
 70
     0
 40
1.0
 41
1.0
 42
1.0
 50
0.0
 71
     0
  3
MONOTXT
  4
BIGFONT
  0
STYLE
  2
TextStyle05
 70
     0
 40
1.0
 41
1.0
 42
1.0
 50
0.0
 71
     0
  3
MONOTXT
  4
BIGFONT
  0
STYLE
  2
TextStyle06
 70
     0
 40
1.0
 41
1.0
 42
1.0
 50
0.0
 71
     0
  3
MONOTXT
  4
BIGFONT
  0
STYLE
  2
TextStyle07
 70
     0
 40
1.0
 41
1.0
 42
1.0
 50
0.0
 71
     0
  3
MONOTXT
  4
BIGFONT
  0
STYLE
  2
TextStyle08
 70
     0
 40
1.0
 41
1.0
 42
1.0
 50
0.0
 71
     0
  3
MONOTXT
  4
BIGFONT
  0
STYLE
  2
TextStyle09
 70
     0
 40
1.0
 41
1.0
 42
1.0
 50
0.0
 71
     0
  3
MONOTXT
  4
BIGFONT
  0
STYLE
  2
TextStyle10
 70
     0
 40
1.0
 41
1.0
 42
1.0
 50
0.0
 71
     0
  3
MONOTXT
  4
BIGFONT
  0
ENDTAB
  0
ENDSEC
  0
SECTION
  2
BLOCKS
  0
BLOCK
  2
*HAT_0001
 70
    65
 10
0.0
 20
0.0
  0
LINE
  8
ゴム等
 10
-24.7
 20
13.45
 11
-24.2
 21
13.975
  0
LINE
  8
ゴム等
 10
-23.2
 20
14.95
 11
-23.2
 21
14.95
  0
LINE
  8
ゴム等
 10
-27.4
 20
11.675
 11
-26.725
 21
12.4
  0
LINE
  8
ゴム等
 10
-25.675
 20
13.45
 11
-24.2
 21
14.875
  0
LINE
  8
ゴム等
 10
-24.175
 20
14.95
 11
-23.2
 21
15.875
  0
LINE
  8
ゴム等
 10
-28.375
 20
11.675
 11
-27.2
 21
12.85
  0
LINE
  8
ゴム等
 10
-26.6
 20
13.45
 11
-23.875
 21
16.175
  0
LINE
  8
ゴム等
 10
-29.275
 20
11.675
 11
-24.775
 21
16.175
  0
LINE
  8
ゴム等
 10
-29.95
 20
11.975
 11
-25.75
 21
16.225
  0
LINE
  8
ゴム等
 10
-29.725
 20
13.15
 11
-26.35
 21
16.475
  0
LINE
  8
ゴム等
 10
-30.35
 20
13.45
 11
-27.1
 21
16.75
  0
LINE
  8
ゴム等
 10
-31.3
 20
13.45
 11
-27.85
 21
16.9
  0
LINE
  8
ゴム等
 10
-31.7
 20
13.975
 11
-28.75
 21
16.925
  0
LINE
  8
ゴム等
 10
-31.7
 20
14.95
 11
-29.8
 21
16.825
  0
LINE
  8
ゴム等
 10
-31.7
 20
15.875
 11
-31.1
 21
16.45
  0
ENDBLK
  0
BLOCK
  2
*HAT_0002
 70
    65
 10
0.0
 20
0.0
  0
LINE
  8
型材断面
  6
DOT
 10
104.45
 20
-28.725
 11
105.275
 21
-27.9
  0
LINE
  8
型材断面
  6
DOT
 10
103.025
 20
-28.725
 11
105.275
 21
-26.5
  0
LINE
  8
型材断面
  6
DOT
 10
101.625
 20
-28.725
 11
105.275
 21
-25.075
  0
LINE
  8
型材断面
  6
DOT
 10
100.275
 20
-28.675
 11
105.2
 21
-23.725
  0
LINE
  8
型材断面
  6
DOT
 10
100.275
 20
-27.25
 11
103.8
 21
-23.725
  0
LINE
  8
型材断面
  6
DOT
 10
100.275
 20
-25.85
 11
102.375
 21
-23.725
  0
LINE
  8
型材断面
  6
DOT
 10
100.275
 20
-24.425
 11
100.975
 21
-23.725
  0
ENDBLK
  0
BLOCK
  2
*HAT_0003
 70
    65
 10
0.0
 20
0.0
  0
LINE
  8
型材断面
  6
DOT
 10
-37.7
 20
-39.675
 11
-36.875
 21
-38.85
  0
LINE
  8
型材断面
  6
DOT
 10
-39.125
 20
-39.675
 11
-36.875
 21
-37.45
  0
LINE
  8
型材断面
  6
DOT
 10
-40.525
 20
-39.675
 11
-36.875
 21
-36.025
  0
LINE
  8
型材断面
  6
DOT
 10
-41.875
 20
-39.625
 11
-36.95
 21
-34.675
  0
LINE
  8
型材断面
  6
DOT
 10
-41.875
 20
-38.2
 11
-38.35
 21
-34.675
  0
LINE
  8
型材断面
  6
DOT
 10
-41.875
 20
-36.8
 11
-39.775
 21
-34.675
  0
LINE
  8
型材断面
  6
DOT
 10
-41.875
 20
-35.375
 11
-41.175
 21
-34.675
  0
ENDBLK
  0
BLOCK
  2
*HAT_0004
 70
    65
 10
0.0
 20
0.0
  0
LINE
  8
型材断面
  6
DOT
 10
-51.7
 20
28.675
 11
-50.875
 21
29.5
  0
LINE
  8
型材断面
  6
DOT
 10
-53.125
 20
28.675
 11
-50.875
 21
30.9
  0
LINE
  8
型材断面
  6
DOT
 10
-54.525
 20
28.675
 11
-50.875
 21
32.325
  0
LINE
  8
型材断面
  6
DOT
 10
-55.875
 20
28.725
 11
-50.95
 21
33.675
  0
LINE
  8
型材断面
  6
DOT
 10
-55.875
 20
30.15
 11
-52.35
 21
33.675
  0
LINE
  8
型材断面
  6
DOT
 10
-55.875
 20
31.55
 11
-53.775
 21
33.675
  0
LINE
  8
型材断面
  6
DOT
 10
-55.875
 20
32.975
 11
-55.175
 21
33.675
  0
ENDBLK
  0
BLOCK
  2
*HAT_0005
 70
    65
 10
0.0
 20
0.0
  0
LINE
  8
ﾊｯﾁﾝｸﾞ
 10
99.175
 20
1.475
 11
100.025
 21
1.475
  0
LINE
  8
ﾊｯﾁﾝｸﾞ
 10
98.675
 20
1.975
 11
100.525
 21
1.975
  0
LINE
  8
ﾊｯﾁﾝｸﾞ
 10
98.175
 20
2.475
 11
101.025
 21
2.475
  0
LINE
  8
ﾊｯﾁﾝｸﾞ
 10
97.675
 20
2.975
 11
101.525
 21
2.975
  0
LINE
  8
ﾊｯﾁﾝｸﾞ
 10
97.425
 20
3.475
 11
102.025
 21
3.475
  0
LINE
  8
ﾊｯﾁﾝｸﾞ
 10
97.925
 20
3.975
 11
102.525
 21
3.975
  0
LINE
  8
ﾊｯﾁﾝｸﾞ
 10
98.425
 20
4.475
 11
103.0
 21
4.475
  0
LINE
  8
ﾊｯﾁﾝｸﾞ
 10
98.925
 20
4.975
 11
103.5
 21
4.975
  0
LINE
  8
ﾊｯﾁﾝｸﾞ
 10
99.425
 20
5.475
 11
104.0
 21
5.475
  0
LINE
  8
ﾊｯﾁﾝｸﾞ
 10
99.9
 20
5.975
 11
104.5
 21
5.975
  0
LINE
  8
ﾊｯﾁﾝｸﾞ
 10
99.825
 20
6.475
 11
105.0
 21
6.475
  0
LINE
  8
ﾊｯﾁﾝｸﾞ
 10
99.325
 20
6.975
 11
105.5
 21
6.975
  0
LINE
  8
ﾊｯﾁﾝｸﾞ
 10
99.2
 20
7.475
 11
106.0
 21
7.475
  0
LINE
  8
ﾊｯﾁﾝｸﾞ
 10
102.4
 20
7.975
 11
106.5
 21
7.975
  0
LINE
  8
ﾊｯﾁﾝｸﾞ
 10
105.575
 20
8.475
 11
107.0
 21
8.475
  0
LINE
  8
ﾊｯﾁﾝｸﾞ
 10
106.825
 20
8.275
 11
106.825
 21
8.675
  0
LINE
  8
ﾊｯﾁﾝｸﾞ
 10
106.325
 20
7.775
 11
106.325
 21
8.6
  0
LINE
  8
ﾊｯﾁﾝｸﾞ
 10
105.825
 20
7.275
 11
105.825
 21
8.5
  0
LINE
  8
ﾊｯﾁﾝｸﾞ
 10
105.325
 20
6.775
 11
105.325
 21
8.425
  0
LINE
  8
ﾊｯﾁﾝｸﾞ
 10
104.825
 20
6.275
 11
104.825
 21
8.35
  0
LINE
  8
ﾊｯﾁﾝｸﾞ
 10
104.325
 20
5.775
 11
104.325
 21
8.275
  0
LINE
  8
ﾊｯﾁﾝｸﾞ
 10
103.825
 20
5.275
 11
103.825
 21
8.2
  0
LINE
  8
ﾊｯﾁﾝｸﾞ
 10
103.325
 20
4.8
 11
103.325
 21
8.125
  0
LINE
  8
ﾊｯﾁﾝｸﾞ
 10
102.825
 20
4.3
 11
102.825
 21
8.05
  0
LINE
  8
ﾊｯﾁﾝｸﾞ
 10
102.325
 20
3.8
 11
102.325
 21
7.975
  0
LINE
  8
ﾊｯﾁﾝｸﾞ
 10
101.825
 20
3.3
 11
101.825
 21
7.9
  0
LINE
  8
ﾊｯﾁﾝｸﾞ
 10
101.325
 20
2.8
 11
101.325
 21
7.8
  0
LINE
  8
ﾊｯﾁﾝｸﾞ
 10
100.825
 20
2.3
 11
100.825
 21
7.725
  0
LINE
  8
ﾊｯﾁﾝｸﾞ
 10
100.325
 20
1.8
 11
100.325
 21
7.65
  0
LINE
  8
ﾊｯﾁﾝｸﾞ
 10
99.825
 20
1.3
 11
99.825
 21
5.9
  0
LINE
  8
ﾊｯﾁﾝｸﾞ
 10
99.825
 20
6.5
 11
99.825
 21
7.575
  0
LINE
  8
ﾊｯﾁﾝｸﾞ
 10
99.325
 20
1.325
 11
99.325
 21
5.4
  0
LINE
  8
ﾊｯﾁﾝｸﾞ
 10
99.325
 20
7.0
 11
99.325
 21
7.5
  0
LINE
  8
ﾊｯﾁﾝｸﾞ
 10
98.825
 20
1.825
 11
98.825
 21
4.9
  0
LINE
  8
ﾊｯﾁﾝｸﾞ
 10
98.825
 20
7.325
 11
98.825
 21
7.425
  0
LINE
  8
ﾊｯﾁﾝｸﾞ
 10
98.325
 20
2.325
 11
98.325
 21
4.4
  0
LINE
  8
ﾊｯﾁﾝｸﾞ
 10
97.825
 20
2.825
 11
97.825
 21
3.9
  0
LINE
  8
ﾊｯﾁﾝｸﾞ
 10
97.325
 20
3.325
 11
97.325
 21
3.4
  0
ENDBLK
  0
BLOCK
  2
*HAT_0006
 70
    65
 10
0.0
 20
0.0
  0
LINE
  8
曲げ物
 10
-43.15
 20
12.9
 11
-42.925
 21
13.175
  0
LINE
  8
曲げ物
 10
-43.15
 20
13.325
 11
-42.925
 21
13.575
  0
LINE
  8
曲げ物
 10
-43.15
 20
13.775
 11
-42.925
 21
14.0
  0
LINE
  8
曲げ物
 10
-43.15
 20
14.175
 11
-42.925
 21
14.4
  0
LINE
  8
曲げ物
 10
-43.15
 20
14.6
 11
-42.925
 21
14.85
  0
LINE
  8
曲げ物
 10
-43.15
 20
15.0
 11
-42.925
 21
15.275
  0
LINE
  8
曲げ物
 10
-43.15
 20
15.45
 11
-42.925
 21
15.675
  0
LINE
  8
曲げ物
 10
-43.15
 20
15.875
 11
-42.925
 21
16.125
  0
LINE
  8
曲げ物
 10
-43.15
 20
16.275
 11
-42.925
 21
16.55
  0
LINE
  8
曲げ物
 10
-43.15
 20
16.725
 11
-42.925
 21
16.95
  0
LINE
  8
曲げ物
 10
-43.15
 20
17.15
 11
-42.925
 21
17.4
  0
LINE
  8
曲げ物
 10
-43.15
 20
17.55
 11
-42.925
 21
17.825
  0
LINE
  8
曲げ物
 10
-43.15
 20
17.975
 11
-42.925
 21
18.225
  0
LINE
  8
曲げ物
 10
-43.15
 20
18.425
 11
-42.925
 21
18.65
  0
LINE
  8
曲げ物
 10
-43.15
 20
18.825
 11
-42.925
 21
19.1
  0
LINE
  8
曲げ物
 10
-43.15
 20
19.25
 11
-42.925
 21
19.5
  0
LINE
  8
曲げ物
 10
-43.15
 20
19.7
 11
-42.925
 21
19.925
  0
LINE
  8
曲げ物
 10
-43.15
 20
20.1
 11
-42.925
 21
20.375
  0
LINE
  8
曲げ物
 10
-43.15
 20
20.525
 11
-42.925
 21
20.775
  0
LINE
  8
曲げ物
 10
-43.15
 20
20.975
 11
-42.925
 21
21.2
  0
LINE
  8
曲げ物
 10
-43.15
 20
21.375
 11
-42.925
 21
21.6
  0
LINE
  8
曲げ物
 10
-43.15
 20
21.8
 11
-42.925
 21
22.05
  0
LINE
  8
曲げ物
 10
-43.15
 20
22.2
 11
-42.925
 21
22.475
  0
LINE
  8
曲げ物
 10
-43.15
 20
22.65
 11
-42.925
 21
22.875
  0
LINE
  8
曲げ物
 10
-43.15
 20
23.075
 11
-42.925
 21
23.325
  0
LINE
  8
曲げ物
 10
-43.15
 20
23.475
 11
-42.925
 21
23.75
  0
LINE
  8
曲げ物
 10
-43.15
 20
23.925
 11
-42.925
 21
24.15
  0
LINE
  8
曲げ物
 10
-43.15
 20
24.35
 11
-42.925
 21
24.6
  0
LINE
  8
曲げ物
 10
-43.15
 20
24.75
 11
-42.925
 21
25.025
  0
LINE
  8
曲げ物
 10
-43.15
 20
25.2
 11
-42.925
 21
25.425
  0
LINE
  8
曲げ物
 10
-43.15
 20
25.625
 11
-42.925
 21
25.85
  0
LINE
  8
曲げ物
 10
-43.15
 20
26.025
 11
-42.925
 21
26.3
  0
LINE
  8
曲げ物
 10
-43.15
 20
26.45
 11
-42.925
 21
26.7
  0
LINE
  8
曲げ物
 10
-43.15
 20
26.9
 11
-42.925
 21
27.125
  0
LINE
  8
曲げ物
 10
-43.15
 20
27.3
 11
-42.925
 21
27.575
  0
LINE
  8
曲げ物
 10
-43.15
 20
27.725
 11
-43.025
 21
27.875
  0
ENDBLK
  0
BLOCK
  2
*HAT_0007
 70
    65
 10
0.0
 20
0.0
  0
LINE
  8
曲げ物
 10
-43.15
 20
-9.1
 11
-42.925
 21
-8.875
  0
LINE
  8
曲げ物
 10
-43.15
 20
-8.7
 11
-42.925
 21
-8.425
  0
LINE
  8
曲げ物
 10
-43.15
 20
-8.275
 11
-42.925
 21
-8.025
  0
LINE
  8
曲げ物
 10
-43.15
 20
-7.875
 11
-42.925
 21
-7.6
  0
LINE
  8
曲げ物
 10
-43.15
 20
-7.425
 11
-42.925
 21
-7.2
  0
LINE
  8
曲げ物
 10
-43.15
 20
-7.0
 11
-42.925
 21
-6.75
  0
LINE
  8
曲げ物
 10
-43.15
 20
-6.6
 11
-42.925
 21
-6.325
  0
LINE
  8
曲げ物
 10
-43.15
 20
-6.15
 11
-42.925
 21
-5.925
  0
LINE
  8
曲げ物
 10
-43.15
 20
-5.725
 11
-42.925
 21
-5.475
  0
LINE
  8
曲げ物
 10
-43.15
 20
-5.325
 11
-42.925
 21
-5.05
  0
LINE
  8
曲げ物
 10
-43.15
 20
-4.875
 11
-42.925
 21
-4.65
  0
LINE
  8
曲げ物
 10
-43.15
 20
-4.45
 11
-42.925
 21
-4.2
  0
LINE
  8
曲げ物
 10
-43.15
 20
-4.05
 11
-42.925
 21
-3.775
  0
LINE
  8
曲げ物
 10
-43.15
 20
-3.625
 11
-42.925
 21
-3.375
  0
LINE
  8
曲げ物
 10
-43.15
 20
-3.175
 11
-42.925
 21
-2.95
  0
LINE
  8
曲げ物
 10
-43.15
 20
-2.775
 11
-42.925
 21
-2.5
  0
LINE
  8
曲げ物
 10
-43.15
 20
-2.35
 11
-42.925
 21
-2.1
  0
LINE
  8
曲げ物
 10
-43.15
 20
-1.9
 11
-42.925
 21
-1.675
  0
LINE
  8
曲げ物
 10
-43.15
 20
-1.5
 11
-42.925
 21
-1.225
  0
LINE
  8
曲げ物
 10
-43.15
 20
-1.075
 11
-42.925
 21
-0.825
  0
LINE
  8
曲げ物
 10
-43.15
 20
-0.625
 11
-42.925
 21
-0.4
  0
LINE
  8
曲げ物
 10
-43.15
 20
-0.225
 11
-42.925
 21
0.0
  0
LINE
  8
曲げ物
 10
-43.15
 20
0.2
 11
-42.925
 21
0.45
  0
LINE
  8
曲げ物
 10
-43.15
 20
0.6
 11
-42.925
 21
0.875
  0
LINE
  8
曲げ物
 10
-43.15
 20
1.05
 11
-42.925
 21
1.275
  0
LINE
  8
曲げ物
 10
-43.15
 20
1.475
 11
-42.925
 21
1.725
  0
LINE
  8
曲げ物
 10
-43.15
 20
1.875
 11
-42.925
 21
2.15
  0
LINE
  8
曲げ物
 10
-43.15
 20
2.325
 11
-42.925
 21
2.55
  0
LINE
  8
曲げ物
 10
-43.15
 20
2.75
 11
-42.925
 21
3.0
  0
LINE
  8
曲げ物
 10
-43.15
 20
3.15
 11
-42.925
 21
3.425
  0
LINE
  8
曲げ物
 10
-43.15
 20
3.575
 11
-42.925
 21
3.825
  0
LINE
  8
曲げ物
 10
-43.15
 20
4.025
 11
-42.925
 21
4.25
  0
LINE
  8
曲げ物
 10
-43.15
 20
4.425
 11
-42.925
 21
4.7
  0
LINE
  8
曲げ物
 10
-43.15
 20
4.85
 11
-42.925
 21
5.1
  0
LINE
  8
曲げ物
 10
-43.15
 20
5.3
 11
-42.925
 21
5.525
  0
LINE
  8
曲げ物
 10
-43.15
 20
5.7
 11
-43.0
 21
5.85
  0
ENDBLK
  0
BLOCK
  2
*HAT_0008
 70
    65
 10
0.0
 20
0.0
  0
LINE
  8
その他部品等
 10
-93.425
 20
-85.75
 11
-92.5
 21
-84.775
  0
LINE
  8
その他部品等
 10
-95.575
 20
-85.75
 11
-92.5
 21
-82.675
  0
LINE
  8
その他部品等
 10
-97.675
 20
-85.7
 11
-93.65
 21
-81.725
  0
LINE
  8
その他部品等
 10
-99.575
 20
-85.525
 11
-95.8
 21
-81.725
  0
LINE
  8
その他部品等
 10
-99.575
 20
-83.425
 11
-97.9
 21
-81.725
  0
LINE
  8
その他部品等
 10
-99.575
 20
-83.975
 11
-97.85
 21
-85.7
  0
LINE
  8
その他部品等
 10
-99.575
 20
-81.875
 11
-95.75
 21
-85.7
  0
LINE
  8
その他部品等
 10
-97.625
 20
-81.725
 11
-93.625
 21
-85.7
  0
LINE
  8
その他部品等
 10
-95.5
 20
-81.725
 11
-92.5
 21
-84.725
  0
LINE
  8
その他部品等
 10
-93.4
 20
-81.725
 11
-92.5
 21
-82.625
  0
ENDBLK
  0
BLOCK
  2
*HAT_0009
 70
    65
 10
0.0
 20
0.0
  0
LINE
  8
その他部品等
 10
-40.45
 20
-47.575
 11
-38.8
 21
-45.875
  0
LINE
  8
その他部品等
 10
-42.875
 20
-47.9
 11
-38.8
 21
-43.775
  0
LINE
  8
その他部品等
 10
-43.0
 20
-45.875
 11
-38.8
 21
-41.675
  0
LINE
  8
その他部品等
 10
-43.0
 20
-43.75
 11
-39.65
 21
-40.4
  0
LINE
  8
その他部品等
 10
-43.0
 20
-41.65
 11
-41.75
 21
-40.4
  0
LINE
  8
その他部品等
 10
-43.0
 20
-47.425
 11
-42.55
 21
-47.825
  0
LINE
  8
その他部品等
 10
-43.0
 20
-45.275
 11
-40.7
 21
-47.575
  0
LINE
  8
その他部品等
 10
-43.0
 20
-43.175
 11
-38.825
 21
-47.35
  0
LINE
  8
その他部品等
 10
-43.0
 20
-41.05
 11
-38.8
 21
-45.25
  0
LINE
  8
その他部品等
 10
-41.525
 20
-40.4
 11
-38.8
 21
-43.15
  0
LINE
  8
その他部品等
 10
-39.4
 20
-40.4
 11
-38.8
 21
-41.0
  0
ENDBLK
  0
BLOCK
  2
*HAT_0010
 70
    65
 10
0.0
 20
0.0
  0
LINE
  8
その他部品等
 10
-56.15
 20
58.85
 11
-56.9
 21
58.85
  0
LINE
  8
その他部品等
 10
-55.25
 20
59.75
 11
-57.8
 21
59.75
  0
LINE
  8
その他部品等
 10
-54.35
 20
60.65
 11
-58.7
 21
60.65
  0
LINE
  8
その他部品等
 10
-53.45
 20
61.55
 11
-58.025
 21
61.55
  0
LINE
  8
その他部品等
 10
-52.55
 20
62.45
 11
-57.125
 21
62.45
  0
LINE
  8
その他部品等
 10
-51.65
 20
63.35
 11
-56.25
 21
63.35
  0
LINE
  8
その他部品等
 10
-50.75
 20
64.25
 11
-56.75
 21
64.25
  0
LINE
  8
その他部品等
 10
-49.85
 20
65.15
 11
-55.325
 21
65.15
  0
LINE
  8
その他部品等
 10
-48.95
 20
66.05
 11
-49.575
 21
66.05
  0
LINE
  8
その他部品等
 10
-58.4
 20
60.4
 11
-58.4
 21
61.225
  0
LINE
  8
その他部品等
 10
-57.5
 20
59.5
 11
-57.5
 21
62.125
  0
LINE
  8
その他部品等
 10
-56.6
 20
58.6
 11
-56.6
 21
62.975
  0
LINE
  8
その他部品等
 10
-56.6
 20
64.15
 11
-56.6
 21
64.975
  0
LINE
  8
その他部品等
 10
-55.7
 20
59.3
 11
-55.7
 21
65.125
  0
LINE
  8
その他部品等
 10
-54.825
 20
60.2
 11
-54.825
 21
65.225
  0
LINE
  8
その他部品等
 10
-53.925
 20
61.1
 11
-53.925
 21
65.375
  0
LINE
  8
その他部品等
 10
-53.025
 20
62.0
 11
-53.025
 21
65.525
  0
LINE
  8
その他部品等
 10
-52.125
 20
62.9
 11
-52.125
 21
65.65
  0
LINE
  8
その他部品等
 10
-51.225
 20
63.8
 11
-51.225
 21
65.8
  0
LINE
  8
その他部品等
 10
-50.325
 20
64.7
 11
-50.325
 21
65.95
  0
LINE
  8
その他部品等
 10
-49.425
 20
65.6
 11
-49.425
 21
66.1
  0
ENDBLK
  0
BLOCK
  2
*HAT_0011
 70
    65
 10
0.0
 20
0.0
  0
LINE
  8
その他部品等
 10
-25.625
 20
-37.825
 11
-24.35
 21
-36.55
  0
LINE
  8
その他部品等
 10
-28.55
 20
-39.35
 11
-25.775
 21
-36.55
  0
LINE
  8
その他部品等
 10
-30.025
 20
-39.4
 11
-27.175
 21
-36.55
  0
LINE
  8
その他部品等
 10
-31.425
 20
-39.4
 11
-28.575
 21
-36.55
  0
LINE
  8
その他部品等
 10
-32.85
 20
-39.4
 11
-30.0
 21
-36.55
  0
LINE
  8
その他部品等
 10
-34.25
 20
-39.4
 11
-31.4
 21
-36.55
  0
LINE
  8
その他部品等
 10
-34.65
 20
-38.375
 11
-32.825
 21
-36.55
  0
LINE
  8
その他部品等
 10
-34.65
 20
-36.975
 11
-34.225
 21
-36.55
  0
LINE
  8
その他部品等
 10
-34.675
 20
-39.15
 11
-34.425
 21
-39.4
  0
LINE
  8
その他部品等
 10
-34.675
 20
-37.75
 11
-33.025
 21
-39.4
  0
LINE
  8
その他部品等
 10
-34.45
 20
-36.55
 11
-31.6
 21
-39.4
  0
LINE
  8
その他部品等
 10
-33.05
 20
-36.55
 11
-30.2
 21
-39.4
  0
LINE
  8
その他部品等
 10
-31.625
 20
-36.55
 11
-28.775
 21
-39.4
  0
LINE
  8
その他部品等
 10
-30.225
 20
-36.55
 11
-27.825
 21
-38.95
  0
LINE
  8
その他部品等
 10
-28.8
 20
-36.55
 11
-26.875
 21
-38.475
  0
LINE
  8
その他部品等
 10
-27.4
 20
-36.55
 11
-25.95
 21
-38.0
  0
LINE
  8
その他部品等
 10
-25.975
 20
-36.55
 11
-25.025
 21
-37.5
  0
LINE
  8
その他部品等
 10
-24.575
 20
-36.55
 11
-24.1
 21
-37.025
  0
ENDBLK
  0
BLOCK
  2
*GRP_0001
 70
    65
 10
0.0
 20
0.0
  0
LINE
  8
型材断面
  6
CONTINUOUS
 10
195.0
 20
133.5
 11
195.0
 21
-133.5
  0
LINE
  8
型材断面
  6
CONTINUOUS
 10
195.0
 20
-133.5
 11
-185.0
 21
-133.5
  0
LINE
  8
型材断面
  6
CONTINUOUS
 10
-185.0
 20
-133.5
 11
-185.0
 21
133.5
  0
LINE
  8
型材断面
  6
CONTINUOUS
 10
195.0
 20
133.5
 11
-185.0
 21
133.5
  0
LINE
  8
型材断面
  6
CONTINUOUS
 10
145.0
 20
-133.5
 11
145.0
 21
-118.5
  0
LINE
  8
型材断面
  6
CONTINUOUS
 10
195.0
 20
-118.5
 11
145.0
 21
-118.5
  0
ENDBLK
  0
BLOCK
  2
*GRP_0002
 70
    65
 10
0.0
 20
0.0
  0
ARC
  8
型材断面
  6
CONTINUOUS
 62
    47
 10
-25.986607
 20
-29.811642
 40
0.375
 50
47.457603
 51
227.457661
  0
ARC
  8
型材断面
  6
CONTINUOUS
 62
    47
 10
-25.986607
 20
2.780309
 40
0.375
 50
132.542339
 51
312.542397
  0
ARC
  8
型材断面
  6
CONTINUOUS
 62
    47
 10
-26.141447
 20
-26.740665
 40
0.25
 50
90.0
 51
180.0
  0
LINE
  8
型材断面
  6
CONTINUOUS
 62
    47
 10
-26.141445
 20
-26.490668
 11
-25.891447
 21
-26.490668
  0
ARC
  8
型材断面
  6
CONTINUOUS
 62
    47
 10
-25.891447
 20
-26.740665
 40
0.25
 50
0.0
 51
90.0
  0
LINE
  8
型材断面
  6
CONTINUOUS
 62
    47
 10
-25.641447
 20
-27.032415
 11
-25.641447
 21
-26.740665
  0
ARC
  8
型材断面
  6
CONTINUOUS
 62
    47
 10
-25.391447
 20
-27.032413
 40
0.25
 50
180.0
 51
277.662549
  0
LINE
  8
型材断面
  6
CONTINUOUS
 62
    47
 10
-26.391447
 20
-26.740665
 11
-26.391447
 21
-27.93723
  0
ARC
  8
型材断面
  6
CONTINUOUS
 62
    47
 10
-25.990049
 20
-27.93723
 40
0.401398
 50
180.0
 51
311.670799
  0
ARC
  8
型材断面
  6
CONTINUOUS
 62
    47
 10
-25.141437
 20
-28.890671
 40
0.875
 50
227.457588
 51
491.670746
  0
ARC
  8
型材断面
  6
CONTINUOUS
 62
    47
 10
-25.391447
 20
0.001081
 40
0.25
 50
82.337451
 51
180.0
  0
LINE
  8
型材断面
  6
CONTINUOUS
 62
    47
 10
-25.641447
 20
0.00108
 11
-25.641447
 21
-0.290668
  0
ARC
  8
型材断面
  6
CONTINUOUS
 62
    47
 10
-25.891447
 20
-0.290664
 40
0.25
 50
270.0
 51
360.0
  0
LINE
  8
型材断面
  6
CONTINUOUS
 62
    47
 10
-26.141445
 20
-0.540665
 11
-25.891447
 21
-0.540665
  0
ARC
  8
型材断面
  6
CONTINUOUS
 62
    47
 10
-26.141447
 20
-0.290664
 40
0.25
 50
180.0
 51
270.0
  0
LINE
  8
型材断面
  6
CONTINUOUS
 62
    47
 10
-26.391447
 20
-0.290668
 11
-26.391447
 21
0.905895
  0
ARC
  8
型材断面
  6
CONTINUOUS
 62
    47
 10
-25.990049
 20
0.905898
 40
0.401398
 50
48.329208
 51
180.0
  0
ARC
  8
型材断面
  6
CONTINUOUS
 62
    47
 10
-25.141437
 20
1.859338
 40
0.875
 50
228.329251
 51
492.542412
  0
LINE
  8
型材断面
  6
CONTINUOUS
 62
    47
 10
-2.641445
 20
-36.540668
 11
-2.641445
 21
-39.390668
  0
LINE
  8
型材断面
  6
CONTINUOUS
 62
    47
 10
-6.641442
 20
-39.390668
 11
-2.641445
 21
-39.390668
  0
LINE
  8
型材断面
  6
CONTINUOUS
 62
    47
 10
-6.641442
 20
-40.39067
 11
-6.641442
 21
-39.390668
  0
LINE
  8
型材断面
  6
CONTINUOUS
 62
    47
 10
-1.641442
 20
-40.39067
 11
-6.641442
 21
-40.39067
  0
LINE
  8
型材断面
  6
CONTINUOUS
 62
    47
 10
-1.641442
 20
-36.540668
 11
-1.641442
 21
-40.39067
  0
LINE
  8
型材断面
  6
CONTINUOUS
 62
    47
 10
13.108553
 20
-28.140668
 11
15.608553
 21
-28.140668
  0
LINE
  8
型材断面
  6
CONTINUOUS
 62
    47
 10
-23.291445
 20
-33.540665
 11
-23.141445
 21
-33.690665
  0
LINE
  8
型材断面
  6
CONTINUOUS
 62
    47
 10
-23.291445
 20
-33.540665
 11
-23.141445
 21
-33.390665
  0
LINE
  8
型材断面
  6
CONTINUOUS
 62
    47
 10
-23.891445
 20
-35.540668
 11
-36.141442
 21
-35.540668
  0
ARC
  8
型材断面
  6
CONTINUOUS
 62
    47
 10
-36.141443
 20
-35.790663
 40
0.25
 50
90.0
 51
180.0
  0
LINE
  8
型材断面
  6
CONTINUOUS
 62
    47
 10
-36.39144
 20
-35.790665
 11
-36.39144
 21
-36.040665
  0
ARC
  8
型材断面
  6
CONTINUOUS
 62
    47
 10
-36.141443
 20
-36.040663
 40
0.25
 50
180.0
 51
270.0
  0
LINE
  8
型材断面
  6
CONTINUOUS
 62
    47
 10
-36.141442
 20
-36.290668
 11
-35.391442
 21
-36.290668
  0
LINE
  8
型材断面
  6
CONTINUOUS
 62
    47
 10
-34.641442
 20
-36.540668
 11
-2.641445
 21
-36.540668
  0
LINE
  8
型材断面
  6
CONTINUOUS
 62
    47
 10
-34.641442
 20
-36.540668
 11
-34.641442
 21
-39.390668
  0
LINE
  8
型材断面
  6
CONTINUOUS
 62
    47
 10
-35.391442
 20
-39.64067
 11
-35.391442
 21
-36.290668
  0
LINE
  8
型材断面
  6
CONTINUOUS
 62
    47
 10
-34.641442
 20
-39.390668
 11
-28.641442
 21
-39.390668
  0
LINE
  8
型材断面
  6
CONTINUOUS
 62
    47
 10
-28.641442
 20
-40.39067
 11
-28.641442
 21
-39.390668
  0
LINE
  8
型材断面
  6
CONTINUOUS
 62
    47
 10
-34.641442
 20
-40.39067
 11
-28.641442
 21
-40.39067
  0
LINE
  8
型材断面
  6
CONTINUOUS
 62
    47
 10
-34.641442
 20
-47.89067
 11
-34.641442
 21
-40.39067
  0
LINE
  8
型材断面
  6
CONTINUOUS
 62
    47
 10
-35.391442
 20
-47.89067
 11
-34.641442
 21
-47.89067
  0
LINE
  8
型材断面
  6
CONTINUOUS
 62
    47
 10
-35.391442
 20
-47.89067
 11
-35.391442
 21
-43.290668
  0
LINE
  8
型材断面
  6
CONTINUOUS
 62
    47
 10
-35.241442
 20
-43.140668
 11
-35.391442
 21
-43.290668
  0
LINE
  8
型材断面
  6
CONTINUOUS
 62
    47
 10
-35.241442
 20
-43.140668
 11
-35.391442
 21
-42.990668
  0
LINE
  8
型材断面
  6
CONTINUOUS
 62
    47
 10
-35.391442
 20
-42.990668
 11
-35.391442
 21
-40.39067
  0
LINE
  8
型材断面
  6
CONTINUOUS
 62
    47
 10
-42.891442
 20
-40.39067
 11
-35.391442
 21
-40.39067
  0
LINE
  8
型材断面
  6
CONTINUOUS
 62
    47
 10
-42.891442
 20
-37.790668
 11
-42.891442
 21
-40.39067
  0
LINE
  8
型材断面
  6
CONTINUOUS
 62
    47
 10
-42.891442
 20
-37.790668
 11
-42.741442
 21
-37.640668
  0
LINE
  8
型材断面
  6
CONTINUOUS
 62
    47
 10
-42.741442
 20
-37.640668
 11
-42.891442
 21
-37.490668
  0
LINE
  8
型材断面
  6
CONTINUOUS
 62
    47
 10
-35.391442
 20
-39.64067
 11
-41.891442
 21
-39.64067
  0
LINE
  8
型材断面
  6
CONTINUOUS
 62
    47
 10
-42.741442
 20
-28.890668
 11
-42.891442
 21
-28.740668
  0
LINE
  8
型材断面
  6
CONTINUOUS
 62
    47
 10
-42.741442
 20
-28.890668
 11
-42.891442
 21
-29.040668
  0
LINE
  8
型材断面
  6
CONTINUOUS
 62
    47
 10
-42.891442
 20
-29.040668
 11
-42.891442
 21
-37.490668
  0
LINE
  8
型材断面
  6
CONTINUOUS
 62
    47
 10
-42.741442
 20
1.859335
 11
-42.891442
 21
2.009335
  0
LINE
  8
型材断面
  6
CONTINUOUS
 62
    47
 10
-42.741442
 20
1.859335
 11
-42.891442
 21
1.709335
  0
LINE
  8
型材断面
  6
CONTINUOUS
 62
    47
 10
-41.891442
 20
-39.64067
 11
-41.891442
 21
8.609335
  0
ARC
  8
型材断面
  6
CONTINUOUS
 62
    47
 10
-42.391443
 20
8.859335
 40
0.5
 50
90.0
 51
179.918972
  0
LINE
  8
型材断面
  6
CONTINUOUS
 62
    47
 10
-42.891442
 20
8.860043
 11
-42.891442
 21
2.009335
  0
LINE
  8
型材断面
  6
CONTINUOUS
 62
    47
 10
-31.38924
 20
13.459335
 11
-31.38924
 21
10.709335
  0
LINE
  8
型材断面
  6
CONTINUOUS
 62
    47
 10
-31.38924
 20
13.459335
 11
-29.639243
 21
13.459335
  0
LINE
  8
型材断面
  6
CONTINUOUS
 62
    47
 10
-29.639243
 20
13.459335
 11
-29.639243
 21
12.859335
  0
LINE
  8
型材断面
  6
CONTINUOUS
 62
    47
 10
-30.63924
 20
12.859335
 11
-29.639243
 21
12.859335
  0
LINE
  8
型材断面
  6
CONTINUOUS
 62
    47
 10
-30.63924
 20
12.859335
 11
-30.63924
 21
11.459335
  0
LINE
  8
型材断面
  6
CONTINUOUS
 62
    47
 10
-23.891445
 20
14.860075
 11
-23.891445
 21
13.459335
  0
LINE
  8
型材断面
  6
CONTINUOUS
 62
    47
 10
-23.141445
 20
14.860075
 11
-23.891445
 21
14.860075
  0
LINE
  8
型材断面
  6
CONTINUOUS
 62
    47
 10
-23.141445
 20
-33.390665
 11
-23.141445
 21
14.860075
  0
LINE
  8
型材断面
  6
CONTINUOUS
 62
    47
 10
-23.891445
 20
8.609335
 11
-41.891442
 21
8.609335
  0
LINE
  8
型材断面
  6
CONTINUOUS
 62
    47
 10
-23.141445
 20
-35.540668
 11
-23.141445
 21
-33.690665
  0
LINE
  8
型材断面
  6
CONTINUOUS
 62
    47
 10
-23.141445
 20
-35.540668
 11
14.858553
 21
-35.540668
  0
LINE
  8
型材断面
  6
CONTINUOUS
 62
    47
 10
14.858553
 20
-35.540668
 11
14.858553
 21
-28.890668
  0
LINE
  8
型材断面
  6
CONTINUOUS
 62
    47
 10
13.108553
 20
-28.890668
 11
14.858553
 21
-28.890668
  0
LINE
  8
型材断面
  6
CONTINUOUS
 62
    47
 10
13.108553
 20
-28.140668
 11
13.108553
 21
-28.890668
  0
LINE
  8
型材断面
  6
CONTINUOUS
 62
    47
 10
15.608553
 20
-36.540668
 11
15.608553
 21
-28.140668
  0
LINE
  8
型材断面
  6
CONTINUOUS
 62
    47
 10
-1.641442
 20
-36.540668
 11
15.608553
 21
-36.540668
  0
ARC
  8
型材断面
  6
CONTINUOUS
 62
    47
 10
-25.141437
 20
-28.890671
 40
1.625
 50
57.769336
 51
97.662541
  0
ARC
  8
型材断面
  6
CONTINUOUS
 62
    47
 10
-24.141445
 20
-27.304593
 40
0.25
 50
237.769336
 51
360.0
  0
ARC
  8
型材断面
  6
CONTINUOUS
 62
    47
 10
-25.141437
 20
-28.890671
 40
1.625
 50
227.457616
 51
302.230664
  0
LINE
  8
型材断面
  6
CONTINUOUS
 62
    47
 10
-23.891445
 20
-35.540668
 11
-23.891445
 21
-30.47675
  0
ARC
  8
型材断面
  6
CONTINUOUS
 62
    47
 10
-24.141445
 20
-30.476748
 40
0.25
 50
0.0
 51
122.230664
  0
LINE
  8
型材断面
  6
CONTINUOUS
 62
    47
 10
-23.891445
 20
3.445413
 11
-23.891445
 21
8.609335
  0
ARC
  8
型材断面
  6
CONTINUOUS
 62
    47
 10
-25.141437
 20
1.859338
 40
1.625
 50
57.769336
 51
132.542384
  0
ARC
  8
型材断面
  6
CONTINUOUS
 62
    47
 10
-24.141445
 20
3.445415
 40
0.25
 50
237.769336
 51
360.0
  0
ARC
  8
型材断面
  6
CONTINUOUS
 62
    47
 10
-25.141437
 20
1.859338
 40
1.625
 50
262.337459
 51
302.230664
  0
LINE
  8
型材断面
  6
CONTINUOUS
 62
    47
 10
-23.891445
 20
-27.304595
 11
-23.891445
 21
0.273257
  0
ARC
  8
型材断面
  6
CONTINUOUS
 62
    47
 10
-24.141445
 20
0.273261
 40
0.25
 50
0.0
 51
122.230664
  0
LINE
  8
型材断面
  6
CONTINUOUS
 62
    47
 10
-23.891445
 20
9.359335
 11
-23.891445
 21
12.859335
  0
LINE
  8
型材断面
  6
CONTINUOUS
 62
    47
 10
-42.891442
 20
-28.740668
 11
-42.891442
 21
1.709335
  0
LINE
  8
型材断面
  6
CONTINUOUS
 62
    47
 10
-23.891445
 20
12.859335
 11
-27.089243
 21
12.859335
  0
LINE
  8
型材断面
  6
CONTINUOUS
 62
    47
 10
-27.089243
 20
13.459335
 11
-27.089243
 21
12.859335
  0
LINE
  8
型材断面
  6
CONTINUOUS
 62
    47
 10
-23.891445
 20
13.459335
 11
-27.089243
 21
13.459335
  0
LINE
  8
型材断面
  6
CONTINUOUS
 62
    47
 10
-29.63924
 20
9.359335
 11
-29.63924
 21
10.709335
  0
LINE
  8
型材断面
  6
CONTINUOUS
 62
    47
 10
-31.38924
 20
10.709335
 11
-29.63924
 21
10.709335
  0
LINE
  8
型材断面
  6
CONTINUOUS
 62
    47
 10
-28.88924
 20
11.459335
 11
-30.63924
 21
11.459335
  0
LINE
  8
型材断面
  6
CONTINUOUS
 62
    47
 10
-28.88924
 20
9.359335
 11
-28.88924
 21
11.459335
  0
LINE
  8
型材断面
  6
CONTINUOUS
 62
    47
 10
-42.391445
 20
9.359332
 11
-29.63924
 21
9.359335
  0
LINE
  8
型材断面
  6
CONTINUOUS
 62
    47
 10
-28.88924
 20
9.359335
 11
-23.891445
 21
9.359335
  0
LINE
  8
型材断面
  6
CONTINUOUS
 62
    47
 10
-29.389238
 20
9.359335
 11
-29.13924
 21
9.359335
  0
ENDBLK
  0
BLOCK
  2
*GRP_0003
 70
    65
 10
0.0
 20
0.0
  0
LINE
  8
型材断面
  6
CONTINUOUS
 62
    47
 10
-42.896445
 20
12.86008
 11
-42.893645
 21
12.86008
  0
ARC
  8
型材断面
  6
CONTINUOUS
 62
    47
 10
-43.393644
 20
30.460086
 40
0.25
 50
90.0
 51
180.0
  0
ARC
  8
型材断面
  6
CONTINUOUS
 62
    47
 10
-43.393644
 20
30.210086
 40
0.25
 50
180.0
 51
270.0
  0
ARC
  8
型材断面
  6
CONTINUOUS
 62
    47
 10
-54.393651
 20
41.310814
 40
0.25
 50
180.0
 51
270.0
  0
ARC
  8
型材断面
  6
CONTINUOUS
 62
    47
 10
-54.143651
 20
41.310814
 40
0.25
 50
270.0
 51
360.0
  0
ARC
  8
型材断面
  6
CONTINUOUS
 62
    47
 10
-26.143648
 20
17.610081
 40
0.25
 50
90.0
 51
180.0
  0
ARC
  8
型材断面
  6
CONTINUOUS
 62
    47
 10
-25.893648
 20
17.610081
 40
0.25
 50
0.0
 51
90.0
  0
ARC
  8
型材断面
  6
CONTINUOUS
 62
    47
 10
-26.143648
 20
36.610076
 40
0.25
 50
180.0
 51
270.0
  0
ARC
  8
型材断面
  6
CONTINUOUS
 62
    47
 10
-25.893648
 20
36.610076
 40
0.25
 50
270.0
 51
360.0
  0
ARC
  8
型材断面
  6
CONTINUOUS
 62
    47
 10
-25.643648
 20
37.360077
 40
0.75
 50
90.0
 51
180.0
  0
LINE
  8
型材断面
  6
CONTINUOUS
 62
    47
 10
-68.072937
 20
54.430605
 11
-57.819825
 21
64.683692
  0
LINE
  8
型材断面
  6
CONTINUOUS
 62
    47
 10
-57.11271
 20
64.683683
 11
-56.052088
 21
63.623005
  0
ARC
  8
型材断面
  6
CONTINUOUS
 62
    47
 10
-57.466274
 20
64.33014
 40
0.5
 50
44.998573
 51
134.999937
  0
LINE
  8
型材断面
  6
CONTINUOUS
 62
    47
 10
-43.643645
 20
30.460082
 11
-43.643645
 21
30.210085
  0
LINE
  8
型材断面
  6
CONTINUOUS
 62
    47
 10
-54.39365
 20
41.060813
 11
-54.143653
 21
41.060813
  0
LINE
  8
型材断面
  6
CONTINUOUS
 62
    47
 10
-26.143648
 20
17.86008
 11
-25.89365
 21
17.86008
  0
LINE
  8
型材断面
  6
CONTINUOUS
 62
    47
 10
-26.143648
 20
36.360075
 11
-25.89365
 21
36.360075
  0
LINE
  8
型材断面
  6
CONTINUOUS
 62
    47
 10
-26.393648
 20
37.360075
 11
-26.393648
 21
36.610075
  0
ARC
  8
型材断面
  6
CONTINUOUS
 62
    47
 10
-42.991444
 20
12.010082
 40
0.15
 50
180.0
 51
270.0
  0
LINE
  8
型材断面
  6
CONTINUOUS
 62
    47
 10
-42.991445
 20
11.86008
 11
-42.041442
 21
11.86008
  0
ARC
  8
型材断面
  6
CONTINUOUS
 62
    47
 10
-42.041441
 20
12.010082
 40
0.150001
 50
270.0
 51
359.790786
  0
LINE
  8
型材断面
  6
CONTINUOUS
 62
    47
 10
-41.891442
 20
12.009533
 11
-41.891442
 21
16.36008
  0
LINE
  8
型材断面
  6
CONTINUOUS
 62
    47
 10
-26.393648
 20
17.11008
 11
-41.891438
 21
17.11008
  0
LINE
  8
型材断面
  6
CONTINUOUS
 62
    47
 10
-26.393648
 20
17.11008
 11
-26.393648
 21
17.610078
  0
LINE
  8
型材断面
  6
CONTINUOUS
 62
    47
 10
-25.643648
 20
17.11008
 11
-25.643648
 21
17.610078
  0
LINE
  8
型材断面
  6
CONTINUOUS
 62
    47
 10
-23.141445
 20
16.36008
 11
-41.891442
 21
16.36008
  0
LINE
  8
型材断面
  6
CONTINUOUS
 62
    47
 10
-25.643648
 20
37.360075
 11
-25.643648
 21
36.610075
  0
LINE
  8
型材断面
  6
CONTINUOUS
 62
    47
 10
-23.891445
 20
40.360822
 11
-42.141442
 21
40.360822
  0
LINE
  8
型材断面
  6
CONTINUOUS
 62
    47
 10
-23.141445
 20
44.360822
 11
-23.141445
 21
16.36008
  0
LINE
  8
型材断面
  6
CONTINUOUS
 62
    47
 10
-23.141445
 20
44.360822
 11
-23.891445
 21
44.360822
  0
LINE
  8
型材断面
  6
CONTINUOUS
 62
    47
 10
-42.141442
 20
40.360822
 11
-42.141442
 21
49.35879
  0
LINE
  8
型材断面
  6
CONTINUOUS
 62
    47
 10
-46.223308
 20
53.440653
 11
-42.141442
 21
49.35879
  0
LINE
  8
型材断面
  6
CONTINUOUS
 62
    47
 10
-47.42538
 20
52.23858
 11
-46.223308
 21
53.440653
  0
LINE
  8
型材断面
  6
CONTINUOUS
 62
    47
 10
-47.42538
 20
51.814315
 11
-47.42538
 21
52.23858
  0
LINE
  8
型材断面
  6
CONTINUOUS
 62
    47
 10
-47.42538
 20
51.814315
 11
-47.107183
 21
51.496118
  0
LINE
  8
型材断面
  6
CONTINUOUS
 62
    47
 10
-47.107183
 20
51.496118
 11
-46.223308
 21
52.379992
  0
LINE
  8
型材断面
  6
CONTINUOUS
 62
    47
 10
-48.521397
 20
47.60703
 11
-49.758832
 21
48.844465
  0
LINE
  8
型材断面
  6
CONTINUOUS
 62
    47
 10
-48.874947
 20
49.728353
 11
-49.758832
 21
48.844465
  0
LINE
  8
型材断面
  6
CONTINUOUS
 62
    47
 10
-49.193145
 20
50.04655
 11
-48.874947
 21
49.728353
  0
LINE
  8
型材断面
  6
CONTINUOUS
 62
    47
 10
-49.61741
 20
50.04655
 11
-49.193145
 21
50.04655
  0
LINE
  8
型材断面
  6
CONTINUOUS
 62
    47
 10
-51.9873
 20
43.648248
 11
-51.703407
 21
43.364358
  0
LINE
  8
型材断面
  6
CONTINUOUS
 62
    47
 10
-54.81573
 20
45.06246
 11
-53.57826
 21
46.29993
  0
LINE
  8
型材断面
  6
CONTINUOUS
 62
    47
 10
-54.81573
 20
44.70891
 11
-54.81573
 21
45.06246
  0
LINE
  8
型材断面
  6
CONTINUOUS
 62
    47
 10
-54.81573
 20
44.70891
 11
-55.16928
 21
44.70891
  0
LINE
  8
型材断面
  6
CONTINUOUS
 62
    47
 10
-56.76027
 20
43.11792
 11
-55.16928
 21
44.70891
  0
LINE
  8
型材断面
  6
CONTINUOUS
 62
    47
 10
-51.9873
 20
43.648248
 11
-53.89365
 21
41.741898
  0
LINE
  8
型材断面
  6
CONTINUOUS
 62
    47
 10
-53.89365
 20
41.741898
 11
-53.89365
 21
41.310813
  0
LINE
  8
型材断面
  6
CONTINUOUS
 62
    47
 10
-54.64365
 20
41.708455
 11
-54.64365
 21
41.310813
  0
LINE
  8
型材断面
  6
CONTINUOUS
 62
    47
 10
-55.699582
 20
42.764393
 11
-54.64365
 21
41.708455
  0
LINE
  8
型材断面
  6
CONTINUOUS
 62
    47
 10
-55.699582
 20
42.764393
 11
-55.891447
 21
42.57253
  0
LINE
  8
型材断面
  6
CONTINUOUS
 62
    47
 10
-62.310027
 20
47.253472
 11
-56.641447
 21
41.584878
  0
LINE
  8
型材断面
  6
CONTINUOUS
 62
    47
 10
-62.310027
 20
47.465597
 11
-62.310027
 21
47.253472
  0
LINE
  8
型材断面
  6
CONTINUOUS
 62
    47
 10
-62.310027
 20
47.465597
 11
-62.52215
 21
47.465597
  0
LINE
  8
型材断面
  6
CONTINUOUS
 62
    47
 10
-68.249708
 20
53.193175
 11
-62.52215
 21
47.465597
  0
LINE
  8
型材断面
  6
CONTINUOUS
 62
    47
 10
-68.249708
 20
53.193175
 11
-70.893462
 21
50.549423
  0
LINE
  8
型材断面
  6
CONTINUOUS
 62
    47
 10
-70.893462
 20
50.549423
 11
-70.893405
 21
48.360075
  0
LINE
  8
型材断面
  6
CONTINUOUS
 62
    47
 10
-70.893405
 20
48.360075
 11
-71.643405
 21
48.360075
  0
LINE
  8
型材断面
  6
CONTINUOUS
 62
    47
 10
-71.643473
 20
50.860075
 11
-71.643405
 21
48.360075
  0
LINE
  8
型材断面
  6
CONTINUOUS
 62
    47
 10
-68.072937
 20
54.430605
 11
-71.643473
 21
50.860075
  0
LINE
  8
型材断面
  6
CONTINUOUS
 62
    47
 10
-67.365825
 20
53.7235
 11
-56.76027
 21
43.11792
  0
LINE
  8
型材断面
  6
CONTINUOUS
 62
    47
 10
-59.587605
 20
61.501705
 11
-67.365825
 21
53.7235
  0
LINE
  8
型材断面
  6
CONTINUOUS
 62
    47
 10
-58.880518
 20
60.79458
 11
-59.587605
 21
61.501705
  0
LINE
  8
型材断面
  6
CONTINUOUS
 62
    47
 10
-56.052088
 20
63.623005
 11
-58.880518
 21
60.79458
  0
LINE
  8
型材断面
  6
CONTINUOUS
 62
    47
 10
-55.891447
 20
28.710085
 11
-55.891447
 21
42.57253
  0
LINE
  8
型材断面
  6
CONTINUOUS
 62
    47
 10
-56.641447
 20
26.960085
 11
-55.891447
 21
26.960085
  0
LINE
  8
型材断面
  6
CONTINUOUS
 62
    47
 10
-55.891447
 20
27.960085
 11
-55.891447
 21
26.960085
  0
LINE
  8
型材断面
  6
CONTINUOUS
 62
    47
 10
-55.891447
 20
27.960085
 11
-42.891442
 21
27.960085
  0
LINE
  8
型材断面
  6
CONTINUOUS
 62
    47
 10
-42.891442
 20
30.710085
 11
-43.393642
 21
30.710085
  0
LINE
  8
型材断面
  6
CONTINUOUS
 62
    47
 10
-42.891442
 20
29.960085
 11
-43.393642
 21
29.960085
  0
LINE
  8
型材断面
  6
CONTINUOUS
 62
    47
 10
-42.891442
 20
28.710085
 11
-42.891442
 21
29.960085
  0
LINE
  8
型材断面
  6
CONTINUOUS
 62
    47
 10
-55.891447
 20
28.710085
 11
-42.891442
 21
28.710085
  0
LINE
  8
型材断面
  6
CONTINUOUS
 62
    47
 10
-49.61741
 20
50.04655
 11
-50.819495
 21
48.844465
  0
LINE
  8
型材断面
  6
CONTINUOUS
 62
    47
 10
-51.70338
 20
44.425043
 11
-53.57826
 21
46.29993
  0
LINE
  8
型材断面
  6
CONTINUOUS
 62
    47
 10
-51.70338
 20
44.425043
 11
-49.051725
 21
47.0767
  0
LINE
  8
型材断面
  6
CONTINUOUS
 62
    47
 10
-48.521397
 20
47.60703
 11
-44.98587
 21
51.142555
  0
LINE
  8
型材断面
  6
CONTINUOUS
 62
    47
 10
-49.051725
 20
47.0767
 11
-50.819495
 21
48.844465
  0
LINE
  8
型材断面
  6
CONTINUOUS
 62
    47
 10
-42.891442
 20
30.710085
 11
-42.891442
 21
49.048128
  0
LINE
  8
型材断面
  6
CONTINUOUS
 62
    47
 10
-44.455542
 20
50.612227
 11
-51.703407
 21
43.364358
  0
LINE
  8
型材断面
  6
CONTINUOUS
 62
    47
 10
-42.891442
 20
49.048128
 11
-44.455542
 21
50.612227
  0
LINE
  8
型材断面
  6
CONTINUOUS
 62
    47
 10
-44.98587
 20
51.142555
 11
-46.223308
 21
52.379992
  0
LINE
  8
型材断面
  6
CONTINUOUS
 62
    47
 10
-43.141445
 20
12.01008
 11
-43.141445
 21
12.61008
  0
ARC
  8
型材断面
  6
CONTINUOUS
 62
    47
 10
-42.891444
 20
12.610082
 40
0.25
 50
89.999657
 51
180.0
  0
LINE
  8
型材断面
  6
CONTINUOUS
 62
    47
 10
-25.643648
 20
17.11008
 11
-23.891445
 21
17.11008
  0
LINE
  8
型材断面
  6
CONTINUOUS
 62
    47
 10
-23.891445
 20
40.360822
 11
-23.891445
 21
44.360822
  0
LINE
  8
型材断面
  6
CONTINUOUS
 62
    47
 10
-23.891445
 20
37.360075
 11
-25.643648
 21
37.360075
  0
LINE
  8
型材断面
  6
CONTINUOUS
 62
    47
 10
-23.891445
 20
17.11008
 11
-23.891445
 21
37.360075
  0
LINE
  8
型材断面
  6
CONTINUOUS
 62
    47
 10
-23.891445
 20
38.110075
 11
-25.643648
 21
38.110075
  0
LINE
  8
型材断面
  6
CONTINUOUS
 62
    47
 10
-23.891445
 20
38.110075
 11
-23.891445
 21
39.610822
  0
LINE
  8
型材断面
  6
CONTINUOUS
 62
    47
 10
-23.891445
 20
39.610822
 11
-41.891438
 21
39.610822
  0
LINE
  8
型材断面
  6
CONTINUOUS
 62
    47
 10
-41.891438
 20
39.610822
 11
-41.891438
 21
17.11008
  0
LINE
  8
型材断面
  6
CONTINUOUS
 62
    47
 10
-42.891442
 20
17.96008
 11
-42.741442
 21
18.11008
  0
LINE
  8
型材断面
  6
CONTINUOUS
 62
    47
 10
-42.891442
 20
17.96008
 11
-42.891442
 21
12.860028
  0
LINE
  8
型材断面
  6
CONTINUOUS
 62
    47
 10
-42.741442
 20
18.11008
 11
-42.891442
 21
18.26008
  0
LINE
  8
型材断面
  6
CONTINUOUS
 62
    47
 10
-42.891442
 20
18.26008
 11
-42.891442
 21
27.960085
  0
LINE
  8
型材断面
  6
CONTINUOUS
 62
    47
 10
-56.641447
 20
41.584878
 11
-56.641447
 21
38.760085
  0
LINE
  8
型材断面
  6
CONTINUOUS
 62
    47
 10
-56.491447
 20
38.610085
 11
-56.641447
 21
38.760085
  0
LINE
  8
型材断面
  6
CONTINUOUS
 62
    47
 10
-56.491447
 20
38.610085
 11
-56.641447
 21
38.460085
  0
LINE
  8
型材断面
  6
CONTINUOUS
 62
    47
 10
-56.641447
 20
26.960085
 11
-56.641447
 21
38.460085
  0
ENDBLK
  0
BLOCK
  2
*GRP_0004
 70
    65
 10
0.0
 20
0.0
  0
LINE
  8
型材断面
  6
CONTINUOUS
 10
-36.14144
 20
-43.892707
 11
-36.29144
 21
-43.742707
  0
LINE
  8
型材断面
  6
CONTINUOUS
 10
-36.14144
 20
-43.892707
 11
-36.29144
 21
-44.042707
  0
LINE
  8
型材断面
  6
CONTINUOUS
 62
    47
 10
-100.391497
 20
-85.7138
 11
-99.491497
 21
-85.7138
  0
LINE
  8
型材断面
  6
CONTINUOUS
 10
-99.49149
 20
-81.713797
 11
-99.491497
 21
-85.7138
  0
LINE
  8
型材断面
  6
CONTINUOUS
 10
-99.49149
 20
-80.963797
 11
-99.491442
 21
-56.499643
  0
LINE
  8
型材断面
  6
CONTINUOUS
 62
    47
 10
-100.391497
 20
-85.7138
 11
-100.391438
 21
-55.7138
  0
LINE
  8
型材断面
  6
CONTINUOUS
 10
-93.927772
 20
-55.742677
 11
-99.491442
 21
-56.499643
  0
LINE
  8
型材断面
  6
CONTINUOUS
 10
-63.944557
 20
-51.66333
 11
-93.184613
 21
-55.64157
  0
LINE
  8
型材断面
  6
CONTINUOUS
 10
-63.201403
 20
-51.562223
 11
-36.14144
 21
-47.880592
  0
LINE
  8
型材断面
  6
CONTINUOUS
 10
-100.391438
 20
-55.7138
 11
-36.29144
 21
-46.99271
  0
LINE
  8
型材断面
  6
CONTINUOUS
 10
-35.39144
 20
-41.14271
 11
-36.29144
 21
-41.14271
  0
LINE
  8
型材断面
  6
CONTINUOUS
 10
-36.29144
 20
-46.99271
 11
-36.29144
 21
-44.042707
  0
LINE
  8
型材断面
  6
CONTINUOUS
 10
-36.29144
 20
-43.742707
 11
-36.29144
 21
-41.14271
  0
LINE
  8
型材断面
  6
CONTINUOUS
 10
-93.0608
 20
-56.533018
 11
-91.178137
 21
-56.276872
  0
LINE
  8
型材断面
  6
CONTINUOUS
 10
-91.178137
 20
-56.276872
 11
-91.074957
 21
-57.019747
  0
LINE
  8
型材断面
  6
CONTINUOUS
 10
-91.074957
 20
-57.019747
 11
-93.700778
 21
-57.377002
  0
LINE
  8
型材断面
  6
CONTINUOUS
 10
-63.826265
 20
-52.55552
 11
-65.708925
 21
-52.811662
  0
LINE
  8
型材断面
  6
CONTINUOUS
 10
-65.708925
 20
-52.811662
 11
-65.609887
 21
-53.5551
  0
LINE
  8
型材断面
  6
CONTINUOUS
 10
-65.609887
 20
-53.5551
 11
-62.984068
 21
-53.197845
  0
LINE
  8
型材断面
  6
CONTINUOUS
 10
-93.05997
 20
-56.532905
 11
-93.183788
 21
-55.641457
  0
LINE
  8
型材断面
  6
CONTINUOUS
 10
-93.69995
 20
-57.37689
 11
-93.926945
 21
-55.742565
  0
LINE
  8
型材断面
  6
CONTINUOUS
 10
-63.826265
 20
-52.55552
 11
-63.94511
 21
-51.663405
  0
LINE
  8
型材断面
  6
CONTINUOUS
 10
-62.984068
 20
-53.197845
 11
-63.201952
 21
-51.562298
  0
LINE
  8
型材断面
  6
CONTINUOUS
 10
-38.031142
 20
-49.802902
 11
-38.13225
 21
-49.059747
  0
LINE
  8
型材断面
  6
CONTINUOUS
 62
    47
 10
-35.39144
 20
-41.14271
 11
-35.39144
 21
-49.443757
  0
LINE
  8
型材断面
  6
CONTINUOUS
 10
-38.031142
 20
-49.802902
 11
-35.39144
 21
-49.443757
  0
LINE
  8
型材断面
  6
CONTINUOUS
 10
-38.13225
 20
-49.059747
 11
-36.14144
 21
-48.788887
  0
LINE
  8
型材断面
  6
CONTINUOUS
 10
-36.14144
 20
-47.880592
 11
-36.14144
 21
-48.788887
  0
LINE
  8
型材断面
  6
CONTINUOUS
 10
-97.841488
 20
-79.7138
 11
-98.591488
 21
-79.7138
  0
LINE
  8
型材断面
  6
CONTINUOUS
 10
-98.591488
 20
-80.963797
 11
-98.591488
 21
-79.7138
  0
LINE
  8
型材断面
  6
CONTINUOUS
 10
-97.841488
 20
-81.2138
 11
-97.841488
 21
-79.7138
  0
ARC
  8
型材断面
  6
CONTINUOUS
 10
-98.341495
 20
-81.213797
 40
0.5
 50
-90.0
 51
0.0
  0
LINE
  8
型材断面
  6
CONTINUOUS
 10
-98.591488
 20
-80.963797
 11
-99.49149
 21
-80.963797
  0
LINE
  8
型材断面
  6
CONTINUOUS
 10
-98.341485
 20
-81.713797
 11
-99.49149
 21
-81.713797
  0
ENDBLK
  0
BLOCK
  2
*GRP_0005
 70
    65
 10
0.0
 20
0.0
  0
LINE
  8
ゴム等
  6
CONTINUOUS
 10
-29.614243
 20
11.709338
 11
-27.11424
 21
11.709338
  0
LINE
  8
ゴム等
  6
CONTINUOUS
 10
-27.11424
 20
12.709338
 11
-27.11424
 21
13.459338
  0
LINE
  8
ゴム等
  6
CONTINUOUS
 10
-29.614243
 20
12.709338
 11
-29.614243
 21
13.459338
  0
LINE
  8
ゴム等
  6
CONTINUOUS
 10
-31.61424
 20
13.459338
 11
-29.614243
 21
13.459338
  0
LINE
  8
ゴム等
  6
CONTINUOUS
 10
-27.11424
 20
13.459338
 11
-24.11424
 21
13.459338
  0
LINE
  8
ゴム等
  6
CONTINUOUS
 10
-24.11424
 20
13.459338
 11
-24.11424
 21
14.959338
  0
LINE
  8
ゴム等
  6
CONTINUOUS
 10
-23.114243
 20
14.959338
 11
-24.11424
 21
14.959338
  0
LINE
  8
ゴム等
  6
CONTINUOUS
 10
-23.114243
 20
14.959338
 11
-23.114243
 21
16.209338
  0
ARC
  8
ゴム等
  6
CONTINUOUS
 10
-28.614233
 20
10.584339
 40
6.375
 50
61.927513
 51
118.072487
  0
LINE
  8
ゴム等
  6
CONTINUOUS
 10
-23.114243
 20
16.209338
 11
-25.61424
 21
16.209338
  0
LINE
  8
ゴム等
  6
CONTINUOUS
 10
-31.61424
 20
13.459338
 11
-31.61424
 21
16.209338
  0
LINE
  8
ゴム等
  6
CONTINUOUS
 10
-27.11424
 20
11.709338
 11
-26.66421
 21
12.307485
  0
ARC
  8
ゴム等
  6
CONTINUOUS
 10
-26.864233
 20
12.459339
 40
0.25
 50
322.618449
 51
450.0
  0
LINE
  8
ゴム等
  6
CONTINUOUS
 10
-27.11424
 20
12.709338
 11
-26.864243
 21
12.709338
  0
LINE
  8
ゴム等
  6
CONTINUOUS
 10
-29.614243
 20
11.709338
 11
-30.064272
 21
12.307485
  0
ARC
  8
ゴム等
  6
CONTINUOUS
 10
-29.864233
 20
12.459339
 40
0.25
 50
90.0
 51
217.381551
  0
LINE
  8
ゴム等
  6
CONTINUOUS
 10
-29.614243
 20
12.709338
 11
-29.864243
 21
12.709338
  0
INSERT
  2
*HAT_0001
  8
ゴム等
 10
0.0
 20
0.0
  0
ENDBLK
  0
BLOCK
  2
*GRP_0006
 70
    65
 10
0.0
 20
0.0
  0
LINE
  8
ボルト／ビス
  6
CONTINUOUS
 62
    64
 10
-36.29144
 20
-42.142707
 11
-36.815525
 21
-42.188558
  0
ARC
  8
ボルト／ビス
  6
CONTINUOUS
 62
    64
 10
-36.741444
 20
-43.035322
 40
0.85
 50
94.999989
 51
180.0
  0
LINE
  8
ボルト／ビス
  6
CONTINUOUS
 62
    64
 10
-37.59144
 20
-43.035322
 11
-37.59144
 21
-43.892707
  0
LINE
  8
ボルト／ビス
  6
CONTINUOUS
 62
    64
 10
-36.29144
 20
-45.64271
 11
-36.815525
 21
-45.596857
  0
ARC
  8
ボルト／ビス
  6
CONTINUOUS
 62
    64
 10
-36.741444
 20
-44.750088
 40
0.85
 50
180.0
 51
265.000011
  0
LINE
  8
ボルト／ビス
  6
CONTINUOUS
 62
    64
 10
-37.59144
 20
-44.750093
 11
-37.59144
 21
-43.892707
  0
LINE
  8
ボルト／ビス
  6
CONTINUOUS
 62
    64
 10
-37.398988
 20
-42.694387
 11
-37.52007
 21
-42.694387
  0
LINE
  8
ボルト／ビス
  6
CONTINUOUS
 62
    64
 10
-37.073948
 20
-43.54271
 11
-37.073948
 21
-43.892707
  0
LINE
  8
ボルト／ビス
  6
CONTINUOUS
 62
    64
 10
-37.398988
 20
-43.342707
 11
-37.398988
 21
-42.694387
  0
LINE
  8
ボルト／ビス
  6
CONTINUOUS
 62
    64
 10
-37.073948
 20
-43.54271
 11
-37.198988
 21
-43.54271
  0
ARC
  8
ボルト／ビス
  6
CONTINUOUS
 62
    64
 10
-37.198992
 20
-43.342705
 40
0.2
 50
180.0
 51
270.0
  0
LINE
  8
ボルト／ビス
  6
CONTINUOUS
 62
    64
 10
-37.398988
 20
-45.091028
 11
-37.52007
 21
-45.091028
  0
LINE
  8
ボルト／ビス
  6
CONTINUOUS
 62
    64
 10
-37.073948
 20
-44.242707
 11
-37.073948
 21
-43.892707
  0
LINE
  8
ボルト／ビス
  6
CONTINUOUS
 62
    64
 10
-37.398988
 20
-44.44271
 11
-37.398988
 21
-45.091028
  0
LINE
  8
ボルト／ビス
  6
CONTINUOUS
 62
    64
 10
-37.073948
 20
-44.242707
 11
-37.198988
 21
-44.242707
  0
ARC
  8
ボルト／ビス
  6
CONTINUOUS
 62
    64
 10
-37.198992
 20
-44.442705
 40
0.2
 50
90.0
 51
180.0
  0
LINE
  8
ボルト／ビス
  6
CONTINUOUS
 62
    64
 10
-36.29144
 20
-42.142707
 11
-36.29144
 21
-45.64271
  0
LINE
  8
ボルト／ビス
  6
CONTINUOUS
 62
    64
 10
-38.577135
 20
-43.892707
 11
-31.166195
 21
-43.892707
  0
LINE
  8
ボルト／ビス
  6
CONTINUOUS
 62
    64
 10
-33.54144
 20
-42.892707
 11
-33.29144
 21
-43.142707
  0
LINE
  8
ボルト／ビス
  6
CONTINUOUS
 62
    64
 10
-33.54144
 20
-44.89271
 11
-33.29144
 21
-44.642707
  0
LINE
  8
ボルト／ビス
  6
CONTINUOUS
 62
    64
 10
-33.54144
 20
-42.892707
 11
-33.54144
 21
-44.89271
  0
LINE
  8
ボルト／ビス
  6
CONTINUOUS
 62
    64
 10
-33.29144
 20
-43.142707
 11
-33.29144
 21
-44.642707
  0
LINE
  8
ボルト／ビス
  6
CONTINUOUS
 62
    64
 10
-36.29144
 20
-43.142707
 11
-33.29144
 21
-43.142707
  0
LINE
  8
ボルト／ビス
  6
CONTINUOUS
 62
    64
 10
-36.29144
 20
-44.642707
 11
-33.29144
 21
-44.642707
  0
LINE
  8
ボルト／ビス
  6
CONTINUOUS
 62
    64
 10
-36.29144
 20
-44.89271
 11
-33.54144
 21
-44.89271
  0
LINE
  8
ボルト／ビス
  6
CONTINUOUS
 62
    64
 10
-36.29144
 20
-42.892707
 11
-33.54144
 21
-42.892707
  0
ENDBLK
  0
BLOCK
  2
*GRP_0007
 70
    65
 10
0.0
 20
0.0
  0
LINE
  8
ボルト／ビス
  6
CONTINUOUS
 62
    64
 10
-32.941453
 20
-61.26798
 11
-32.7138
 21
-61.893443
  0
ARC
  8
ボルト／ビス
  6
CONTINUOUS
 62
    64
 10
-30.894368
 20
-60.955246
 40
2.047085
 50
152.722034
 51
180.0
  0
LINE
  8
ボルト／ビス
  6
CONTINUOUS
 62
    64
 10
-32.941453
 20
-55.013353
 11
-32.7138
 21
-54.38789
  0
ARC
  8
ボルト／ビス
  6
CONTINUOUS
 62
    64
 10
-30.894368
 20
-55.326079
 40
2.047085
 50
180.0
 51
207.277966
  0
ARC
  8
ボルト／ビス
  6
CONTINUOUS
 62
    64
 10
-25.094587
 20
-58.140662
 40
7.846866
 50
166.165046
 51
193.834954
  0
LINE
  8
ボルト／ビス
  6
CONTINUOUS
 62
    64
 10
-30.36645
 20
-61.893443
 11
-32.7138
 21
-61.893443
  0
LINE
  8
ボルト／ビス
  6
CONTINUOUS
 62
    64
 10
-30.36645
 20
-54.38789
 11
-32.7138
 21
-54.38789
  0
LINE
  8
ボルト／ビス
  6
CONTINUOUS
 62
    64
 10
-32.941453
 20
-55.013353
 11
-32.941453
 21
-61.26798
  0
LINE
  8
ボルト／ビス
  6
CONTINUOUS
 62
    64
 10
-32.7138
 20
-56.264278
 11
-30.36645
 21
-56.264278
  0
LINE
  8
ボルト／ビス
  6
CONTINUOUS
 62
    64
 10
-32.7138
 20
-60.017055
 11
-30.36645
 21
-60.017055
  0
LINE
  8
ボルト／ビス
  6
CONTINUOUS
 62
    64
 10
-30.36645
 20
-54.38789
 11
-30.36645
 21
-61.893443
  0
LINE
  8
ボルト／ビス
  6
CONTINUOUS
 62
    64
 10
-29.46645
 20
-62.515665
 11
-28.966453
 21
-62.515665
  0
LINE
  8
ボルト／ビス
  6
CONTINUOUS
 62
    64
 10
-29.46645
 20
-53.765668
 11
-28.966453
 21
-53.765668
  0
LINE
  8
ボルト／ビス
  6
CONTINUOUS
 62
    64
 10
-29.46645
 20
-62.515665
 11
-29.46645
 21
-53.765668
  0
LINE
  8
ボルト／ビス
  6
CONTINUOUS
 62
    64
 10
-28.966453
 20
-62.515665
 11
-28.966453
 21
-53.765668
  0
LINE
  8
ボルト／ビス
  6
CONTINUOUS
 62
    64
 10
-30.36645
 20
-58.140665
 11
-29.46645
 21
-58.140665
  0
LINE
  8
ボルト／ビス
  6
CONTINUOUS
 62
    64
 10
-30.36645
 20
-54.190665
 11
-29.46645
 21
-54.190665
  0
LINE
  8
ボルト／ビス
  6
CONTINUOUS
 62
    64
 10
-30.36645
 20
-62.090668
 11
-29.46645
 21
-62.090668
  0
LINE
  8
ボルト／ビス
  6
CONTINUOUS
 62
    64
 10
-30.36645
 20
-54.190665
 11
-30.36645
 21
-62.090668
  0
LINE
  8
ボルト／ビス
  6
CONTINUOUS
 62
    64
 10
-35.44145
 20
-58.140665
 11
-15.36645
 21
-58.140665
  0
LINE
  8
ボルト／ビス
  6
CONTINUOUS
 62
    64
 10
-17.866453
 20
-56.540668
 11
-17.866453
 21
-59.740665
  0
LINE
  8
ボルト／ビス
  6
CONTINUOUS
 62
    64
 10
-18.466453
 20
-56.140665
 11
-17.866453
 21
-56.540668
  0
LINE
  8
ボルト／ビス
  6
CONTINUOUS
 62
    64
 10
-18.466453
 20
-60.140668
 11
-17.866453
 21
-59.740665
  0
LINE
  8
ボルト／ビス
  6
CONTINUOUS
 62
    64
 10
-17.866453
 20
-56.540668
 11
-17.866453
 21
-59.740665
  0
LINE
  8
ボルト／ビス
  6
CONTINUOUS
 62
    64
 10
-18.466453
 20
-56.140665
 11
-18.466453
 21
-60.140668
  0
LINE
  8
ボルト／ビス
  6
CONTINUOUS
 62
    64
 10
-28.966453
 20
-56.140665
 11
-18.466453
 21
-56.140665
  0
LINE
  8
ボルト／ビス
  6
CONTINUOUS
 62
    64
 10
-28.966453
 20
-60.140668
 11
-18.466453
 21
-60.140668
  0
LINE
  8
ボルト／ビス
  6
CONTINUOUS
 62
    64
 10
-28.966453
 20
-56.540668
 11
-17.866453
 21
-56.540668
  0
LINE
  8
ボルト／ビス
  6
CONTINUOUS
 62
    64
 10
-28.966453
 20
-59.740665
 11
-17.866453
 21
-59.740665
  0
ENDBLK
  0
BLOCK
  2
*GRP_0008
 70
    65
 10
0.0
 20
0.0
  0
LINE
  8
ボルト／ビス
  6
CONTINUOUS
 62
    64
 10
-21.79145
 20
-61.267977
 11
-22.019098
 21
-61.89344
  0
ARC
  8
ボルト／ビス
  6
CONTINUOUS
 62
    64
 10
-23.838534
 20
-60.955244
 40
2.047085
 50
0.0
 51
27.277966
  0
LINE
  8
ボルト／ビス
  6
CONTINUOUS
 62
    64
 10
-21.79145
 20
-55.013347
 11
-22.019098
 21
-54.387885
  0
ARC
  8
ボルト／ビス
  6
CONTINUOUS
 62
    64
 10
-23.838534
 20
-55.326077
 40
2.047085
 50
332.722034
 51
360.0
  0
ARC
  8
ボルト／ビス
  6
CONTINUOUS
 62
    64
 10
-29.638316
 20
-58.140661
 40
7.846866
 50
346.165046
 51
373.834954
  0
LINE
  8
ボルト／ビス
  6
CONTINUOUS
 62
    64
 10
-24.36645
 20
-61.89344
 11
-22.019098
 21
-61.89344
  0
LINE
  8
ボルト／ビス
  6
CONTINUOUS
 62
    64
 10
-24.36645
 20
-54.387885
 11
-22.019098
 21
-54.387885
  0
LINE
  8
ボルト／ビス
  6
CONTINUOUS
 62
    64
 10
-21.79145
 20
-55.013347
 11
-21.79145
 21
-61.267977
  0
LINE
  8
ボルト／ビス
  6
CONTINUOUS
 62
    64
 10
-22.019098
 20
-56.264272
 11
-24.36645
 21
-56.264272
  0
LINE
  8
ボルト／ビス
  6
CONTINUOUS
 62
    64
 10
-22.019098
 20
-60.017053
 11
-24.36645
 21
-60.017053
  0
LINE
  8
ボルト／ビス
  6
CONTINUOUS
 62
    64
 10
-24.36645
 20
-54.387885
 11
-24.36645
 21
-61.89344
  0
LINE
  8
ボルト／ビス
  6
CONTINUOUS
 62
    64
 10
-25.26645
 20
-62.515662
 11
-25.76645
 21
-62.515662
  0
LINE
  8
ボルト／ビス
  6
CONTINUOUS
 62
    64
 10
-25.26645
 20
-53.765662
 11
-25.76645
 21
-53.765662
  0
LINE
  8
ボルト／ビス
  6
CONTINUOUS
 62
    64
 10
-25.26645
 20
-62.515662
 11
-25.26645
 21
-53.765662
  0
LINE
  8
ボルト／ビス
  6
CONTINUOUS
 62
    64
 10
-25.76645
 20
-62.515662
 11
-25.76645
 21
-53.765662
  0
LINE
  8
ボルト／ビス
  6
CONTINUOUS
 62
    64
 10
-24.36645
 20
-58.14066
 11
-25.26645
 21
-58.14066
  0
LINE
  8
ボルト／ビス
  6
CONTINUOUS
 62
    64
 10
-24.36645
 20
-54.190662
 11
-25.26645
 21
-54.190662
  0
LINE
  8
ボルト／ビス
  6
CONTINUOUS
 62
    64
 10
-24.36645
 20
-62.090662
 11
-25.26645
 21
-62.090662
  0
LINE
  8
ボルト／ビス
  6
CONTINUOUS
 62
    64
 10
-24.36645
 20
-54.190662
 11
-24.36645
 21
-62.090662
  0
ENDBLK
  0
BLOCK
  2
*GRP_0009
 70
    65
 10
0.0
 20
0.0
  0
LINE
  8
ボルト／ビス
  6
CONTINUOUS
 62
    64
 10
-28.608005
 20
-42.59067
 11
-28.653855
 21
-43.114753
  0
ARC
  8
ボルト／ビス
  6
CONTINUOUS
 62
    64
 10
-29.500622
 20
-43.040665
 40
0.85
 50
270.0
 51
355.000011
  0
LINE
  8
ボルト／ビス
  6
CONTINUOUS
 62
    64
 10
-29.50062
 20
-43.890668
 11
-30.358005
 21
-43.890668
  0
LINE
  8
ボルト／ビス
  6
CONTINUOUS
 62
    64
 10
-32.108007
 20
-42.59067
 11
-32.062155
 21
-43.114753
  0
ARC
  8
ボルト／ビス
  6
CONTINUOUS
 62
    64
 10
-31.215389
 20
-43.040665
 40
0.85
 50
184.999989
 51
270.0
  0
LINE
  8
ボルト／ビス
  6
CONTINUOUS
 62
    64
 10
-31.21539
 20
-43.890668
 11
-30.358005
 21
-43.890668
  0
LINE
  8
ボルト／ビス
  6
CONTINUOUS
 62
    64
 10
-29.159685
 20
-43.698218
 11
-29.159685
 21
-43.819297
  0
LINE
  8
ボルト／ビス
  6
CONTINUOUS
 62
    64
 10
-30.008007
 20
-43.373175
 11
-30.358005
 21
-43.373175
  0
LINE
  8
ボルト／ビス
  6
CONTINUOUS
 62
    64
 10
-29.808005
 20
-43.698218
 11
-29.159685
 21
-43.698218
  0
LINE
  8
ボルト／ビス
  6
CONTINUOUS
 62
    64
 10
-30.008007
 20
-43.373175
 11
-30.008007
 21
-43.498215
  0
ARC
  8
ボルト／ビス
  6
CONTINUOUS
 62
    64
 10
-29.808005
 20
-43.498213
 40
0.2
 50
180.0
 51
270.0
  0
LINE
  8
ボルト／ビス
  6
CONTINUOUS
 62
    64
 10
-31.556325
 20
-43.698218
 11
-31.556325
 21
-43.819297
  0
LINE
  8
ボルト／ビス
  6
CONTINUOUS
 62
    64
 10
-30.708005
 20
-43.373175
 11
-30.358005
 21
-43.373175
  0
LINE
  8
ボルト／ビス
  6
CONTINUOUS
 62
    64
 10
-30.908007
 20
-43.698218
 11
-31.556325
 21
-43.698218
  0
LINE
  8
ボルト／ビス
  6
CONTINUOUS
 62
    64
 10
-30.708005
 20
-43.373175
 11
-30.708005
 21
-43.498215
  0
ARC
  8
ボルト／ビス
  6
CONTINUOUS
 62
    64
 10
-30.908005
 20
-43.498213
 40
0.2
 50
270.0
 51
360.0
  0
LINE
  8
ボルト／ビス
  6
CONTINUOUS
 62
    64
 10
-28.608005
 20
-42.59067
 11
-32.108007
 21
-42.59067
  0
LINE
  8
ボルト／ビス
  6
CONTINUOUS
 62
    64
 10
-29.358005
 20
-37.84067
 11
-29.608005
 21
-37.590668
  0
LINE
  8
ボルト／ビス
  6
CONTINUOUS
 62
    64
 10
-31.358007
 20
-37.84067
 11
-31.108005
 21
-37.590668
  0
LINE
  8
ボルト／ビス
  6
CONTINUOUS
 62
    64
 10
-29.358005
 20
-37.84067
 11
-31.358007
 21
-37.84067
  0
LINE
  8
ボルト／ビス
  6
CONTINUOUS
 62
    64
 10
-29.608005
 20
-37.590668
 11
-31.108005
 21
-37.590668
  0
LINE
  8
ボルト／ビス
  6
CONTINUOUS
 62
    64
 10
-30.358005
 20
-44.876362
 11
-30.358005
 21
-36.803233
  0
LINE
  8
ボルト／ビス
  6
CONTINUOUS
 62
    64
 10
-29.358005
 20
-42.59067
 11
-29.358005
 21
-37.84067
  0
LINE
  8
ボルト／ビス
  6
CONTINUOUS
 62
    64
 10
-31.358007
 20
-42.59067
 11
-31.358007
 21
-37.84067
  0
LINE
  8
ボルト／ビス
  6
CONTINUOUS
 62
    64
 10
-31.108005
 20
-42.59067
 11
-31.108005
 21
-37.590668
  0
LINE
  8
ボルト／ビス
  6
CONTINUOUS
 62
    64
 10
-29.608005
 20
-42.59067
 11
-29.608005
 21
-37.590668
  0
ENDBLK
  0
BLOCK
  2
*GRP_0010
 70
    65
 10
0.0
 20
0.0
  0
LINE
  8
ボルト／ビス
  6
CONTINUOUS
 62
    64
 10
-2.11644
 20
-41.99067
 11
-2.162292
 21
-42.514753
  0
ARC
  8
ボルト／ビス
  6
CONTINUOUS
 62
    64
 10
-3.009058
 20
-42.440665
 40
0.85
 50
270.0
 51
355.000011
  0
LINE
  8
ボルト／ビス
  6
CONTINUOUS
 62
    64
 10
-3.009058
 20
-43.290668
 11
-3.866442
 21
-43.290668
  0
LINE
  8
ボルト／ビス
  6
CONTINUOUS
 62
    64
 10
-5.616442
 20
-41.99067
 11
-5.570593
 21
-42.514753
  0
ARC
  8
ボルト／ビス
  6
CONTINUOUS
 62
    64
 10
-4.723825
 20
-42.440665
 40
0.85
 50
184.999989
 51
270.0
  0
LINE
  8
ボルト／ビス
  6
CONTINUOUS
 62
    64
 10
-4.723827
 20
-43.290668
 11
-3.866442
 21
-43.290668
  0
LINE
  8
ボルト／ビス
  6
CONTINUOUS
 62
    64
 10
-2.668123
 20
-43.098218
 11
-2.668123
 21
-43.219297
  0
LINE
  8
ボルト／ビス
  6
CONTINUOUS
 62
    64
 10
-3.516442
 20
-42.773175
 11
-3.866442
 21
-42.773175
  0
LINE
  8
ボルト／ビス
  6
CONTINUOUS
 62
    64
 10
-3.31644
 20
-43.098218
 11
-2.668123
 21
-43.098218
  0
LINE
  8
ボルト／ビス
  6
CONTINUOUS
 62
    64
 10
-3.516442
 20
-42.773175
 11
-3.516442
 21
-42.898215
  0
ARC
  8
ボルト／ビス
  6
CONTINUOUS
 62
    64
 10
-3.316442
 20
-42.898213
 40
0.2
 50
180.0
 51
270.0
  0
LINE
  8
ボルト／ビス
  6
CONTINUOUS
 62
    64
 10
-5.064762
 20
-43.098218
 11
-5.064762
 21
-43.219297
  0
LINE
  8
ボルト／ビス
  6
CONTINUOUS
 62
    64
 10
-4.21644
 20
-42.773175
 11
-3.866442
 21
-42.773175
  0
LINE
  8
ボルト／ビス
  6
CONTINUOUS
 62
    64
 10
-4.416442
 20
-43.098218
 11
-5.064762
 21
-43.098218
  0
LINE
  8
ボルト／ビス
  6
CONTINUOUS
 62
    64
 10
-4.21644
 20
-42.773175
 11
-4.21644
 21
-42.898215
  0
ARC
  8
ボルト／ビス
  6
CONTINUOUS
 62
    64
 10
-4.416442
 20
-42.898213
 40
0.2
 50
270.0
 51
360.0
  0
LINE
  8
ボルト／ビス
  6
CONTINUOUS
 62
    64
 10
-2.11644
 20
-41.99067
 11
-5.616442
 21
-41.99067
  0
LINE
  8
ボルト／ビス
  6
CONTINUOUS
 62
    64
 10
-2.86644
 20
-37.24067
 11
-3.116442
 21
-36.990668
  0
LINE
  8
ボルト／ビス
  6
CONTINUOUS
 62
    64
 10
-4.866442
 20
-37.24067
 11
-4.616442
 21
-36.990668
  0
LINE
  8
ボルト／ビス
  6
CONTINUOUS
 62
    64
 10
-2.86644
 20
-37.24067
 11
-4.866442
 21
-37.24067
  0
LINE
  8
ボルト／ビス
  6
CONTINUOUS
 62
    64
 10
-3.116442
 20
-36.990668
 11
-4.616442
 21
-36.990668
  0
LINE
  8
ボルト／ビス
  6
CONTINUOUS
 62
    64
 10
-3.866442
 20
-44.276362
 11
-3.866442
 21
-36.203233
  0
LINE
  8
ボルト／ビス
  6
CONTINUOUS
 62
    64
 10
-2.86644
 20
-41.99067
 11
-2.86644
 21
-37.24067
  0
LINE
  8
ボルト／ビス
  6
CONTINUOUS
 62
    64
 10
-4.866442
 20
-41.99067
 11
-4.866442
 21
-37.24067
  0
LINE
  8
ボルト／ビス
  6
CONTINUOUS
 62
    64
 10
-4.616442
 20
-41.99067
 11
-4.616442
 21
-36.990668
  0
LINE
  8
ボルト／ビス
  6
CONTINUOUS
 62
    64
 10
-3.116442
 20
-41.99067
 11
-3.116442
 21
-36.990668
  0
ENDBLK
  0
BLOCK
  2
*GRP_0011
 70
    65
 10
0.0
 20
0.0
  0
LINE
  8
ボルト／ビス
  6
CONTINUOUS
 10
-19.141445
 20
28.46008
 11
-20.291442
 21
29.21008
  0
LINE
  8
ボルト／ビス
  6
CONTINUOUS
 10
-19.141445
 20
32.460082
 11
-20.291442
 21
31.710082
  0
LINE
  8
ボルト／ビス
  6
CONTINUOUS
 10
-19.141445
 20
28.46008
 11
-19.141445
 21
32.460082
  0
LINE
  8
ボルト／ビス
  6
CONTINUOUS
 10
-20.291442
 20
29.21008
 11
-20.291442
 21
31.710082
  0
LINE
  8
ボルト／ビス
  6
CONTINUOUS
 10
-17.94884
 20
30.46008
 11
-26.641445
 21
30.46008
  0
LINE
  8
ボルト／ビス
  6
CONTINUOUS
 10
-26.391442
 20
29.210078
 11
-26.641445
 21
29.460078
  0
LINE
  8
ボルト／ビス
  6
CONTINUOUS
 10
-26.391442
 20
31.710078
 11
-26.641445
 21
31.460078
  0
LINE
  8
ボルト／ビス
  6
CONTINUOUS
 10
-26.641445
 20
31.460078
 11
-26.641445
 21
29.460078
  0
LINE
  8
ボルト／ビス
  6
CONTINUOUS
 10
-26.391442
 20
31.710078
 11
-26.391442
 21
29.210078
  0
LINE
  8
ボルト／ビス
  6
CONTINUOUS
 10
-20.291442
 20
31.710082
 11
-26.391442
 21
31.710082
  0
LINE
  8
ボルト／ビス
  6
CONTINUOUS
 10
-20.291442
 20
29.21008
 11
-26.391442
 21
29.21008
  0
LINE
  8
ボルト／ビス
  6
CONTINUOUS
 10
-20.291442
 20
31.46008
 11
-26.641445
 21
31.46008
  0
LINE
  8
ボルト／ビス
  6
CONTINUOUS
 10
-20.291442
 20
29.460082
 11
-26.641445
 21
29.460082
  0
ENDBLK
  0
BLOCK
  2
*GRP_0012
 70
    65
 10
0.0
 20
0.0
  0
LINE
  8
ボルト／ビス
  6
CONTINUOUS
 10
-19.141445
 20
18.460082
 11
-20.291442
 21
19.210082
  0
LINE
  8
ボルト／ビス
  6
CONTINUOUS
 10
-19.141445
 20
22.460085
 11
-20.291442
 21
21.710085
  0
LINE
  8
ボルト／ビス
  6
CONTINUOUS
 10
-19.141445
 20
18.460082
 11
-19.141445
 21
22.460085
  0
LINE
  8
ボルト／ビス
  6
CONTINUOUS
 10
-20.291442
 20
19.210082
 11
-20.291442
 21
21.710085
  0
LINE
  8
ボルト／ビス
  6
CONTINUOUS
 10
-17.94884
 20
20.460082
 11
-26.641445
 21
20.460082
  0
LINE
  8
ボルト／ビス
  6
CONTINUOUS
 10
-26.391442
 20
19.21008
 11
-26.641445
 21
19.46008
  0
LINE
  8
ボルト／ビス
  6
CONTINUOUS
 10
-26.391442
 20
21.71008
 11
-26.641445
 21
21.46008
  0
LINE
  8
ボルト／ビス
  6
CONTINUOUS
 10
-26.641445
 20
21.46008
 11
-26.641445
 21
19.46008
  0
LINE
  8
ボルト／ビス
  6
CONTINUOUS
 10
-26.391442
 20
21.71008
 11
-26.391442
 21
19.21008
  0
LINE
  8
ボルト／ビス
  6
CONTINUOUS
 10
-20.291442
 20
21.710085
 11
-26.391442
 21
21.710085
  0
LINE
  8
ボルト／ビス
  6
CONTINUOUS
 10
-20.291442
 20
19.210082
 11
-26.391442
 21
19.210082
  0
LINE
  8
ボルト／ビス
  6
CONTINUOUS
 10
-20.291442
 20
21.460082
 11
-26.641445
 21
21.460082
  0
LINE
  8
ボルト／ビス
  6
CONTINUOUS
 10
-20.291442
 20
19.460085
 11
-26.641445
 21
19.460085
  0
ENDBLK
  0
BLOCK
  2
*GRP_0013
 70
    65
 10
0.0
 20
0.0
  0
LINE
  8
ボルト／ビス
  6
CONTINUOUS
 10
-19.141445
 20
-11.54066
 11
-20.291442
 21
-12.29066
  0
LINE
  8
ボルト／ビス
  6
CONTINUOUS
 10
-19.141445
 20
-15.54066
 11
-20.291442
 21
-14.79066
  0
LINE
  8
ボルト／ビス
  6
CONTINUOUS
 10
-19.141445
 20
-11.54066
 11
-19.141445
 21
-15.54066
  0
LINE
  8
ボルト／ビス
  6
CONTINUOUS
 10
-20.291442
 20
-12.29066
 11
-20.291442
 21
-14.79066
  0
LINE
  8
ボルト／ビス
  6
CONTINUOUS
 10
-17.94884
 20
-13.540657
 11
-26.641445
 21
-13.540657
  0
LINE
  8
ボルト／ビス
  6
CONTINUOUS
 10
-26.391442
 20
-12.290655
 11
-26.641445
 21
-12.540657
  0
LINE
  8
ボルト／ビス
  6
CONTINUOUS
 10
-26.391442
 20
-14.790657
 11
-26.641445
 21
-14.540655
  0
LINE
  8
ボルト／ビス
  6
CONTINUOUS
 10
-26.641445
 20
-14.540655
 11
-26.641445
 21
-12.540657
  0
LINE
  8
ボルト／ビス
  6
CONTINUOUS
 10
-26.391442
 20
-14.790657
 11
-26.391442
 21
-12.290655
  0
LINE
  8
ボルト／ビス
  6
CONTINUOUS
 10
-20.291442
 20
-14.79066
 11
-26.391442
 21
-14.79066
  0
LINE
  8
ボルト／ビス
  6
CONTINUOUS
 10
-20.291442
 20
-12.29066
 11
-26.391442
 21
-12.29066
  0
LINE
  8
ボルト／ビス
  6
CONTINUOUS
 10
-20.291442
 20
-14.54066
 11
-26.641445
 21
-14.54066
  0
LINE
  8
ボルト／ビス
  6
CONTINUOUS
 10
-20.291442
 20
-12.54066
 11
-26.641445
 21
-12.54066
  0
ENDBLK
  0
BLOCK
  2
*GRP_0014
 70
    65
 10
0.0
 20
0.0
  0
LINE
  8
ボルト／ビス
  6
CONTINUOUS
 10
-19.141445
 20
-21.54066
 11
-20.291442
 21
-22.29066
  0
LINE
  8
ボルト／ビス
  6
CONTINUOUS
 10
-19.141445
 20
-25.540662
 11
-20.291442
 21
-24.790662
  0
LINE
  8
ボルト／ビス
  6
CONTINUOUS
 10
-19.141445
 20
-21.54066
 11
-19.141445
 21
-25.540662
  0
LINE
  8
ボルト／ビス
  6
CONTINUOUS
 10
-20.291442
 20
-22.29066
 11
-20.291442
 21
-24.790662
  0
LINE
  8
ボルト／ビス
  6
CONTINUOUS
 10
-17.94884
 20
-23.54066
 11
-26.641445
 21
-23.54066
  0
LINE
  8
ボルト／ビス
  6
CONTINUOUS
 10
-26.391442
 20
-22.290657
 11
-26.641445
 21
-22.540657
  0
LINE
  8
ボルト／ビス
  6
CONTINUOUS
 10
-26.391442
 20
-24.790657
 11
-26.641445
 21
-24.540657
  0
LINE
  8
ボルト／ビス
  6
CONTINUOUS
 10
-26.641445
 20
-24.540657
 11
-26.641445
 21
-22.540657
  0
LINE
  8
ボルト／ビス
  6
CONTINUOUS
 10
-26.391442
 20
-24.790657
 11
-26.391442
 21
-22.290657
  0
LINE
  8
ボルト／ビス
  6
CONTINUOUS
 10
-20.291442
 20
-24.790662
 11
-26.391442
 21
-24.790662
  0
LINE
  8
ボルト／ビス
  6
CONTINUOUS
 10
-20.291442
 20
-22.29066
 11
-26.391442
 21
-22.29066
  0
LINE
  8
ボルト／ビス
  6
CONTINUOUS
 10
-20.291442
 20
-24.54066
 11
-26.641445
 21
-24.54066
  0
LINE
  8
ボルト／ビス
  6
CONTINUOUS
 10
-20.291442
 20
-22.540662
 11
-26.641445
 21
-22.540662
  0
ENDBLK
  0
BLOCK
  2
*GRP_0015
 70
    65
 10
0.0
 20
0.0
  0
LINE
  8
ボルト／ビス
  6
CONTINUOUS
 10
-19.141445
 20
-16.290665
 11
-20.291442
 21
-17.040665
  0
LINE
  8
ボルト／ビス
  6
CONTINUOUS
 10
-19.141445
 20
-20.290665
 11
-20.291442
 21
-19.540665
  0
LINE
  8
ボルト／ビス
  6
CONTINUOUS
 10
-19.141445
 20
-16.290665
 11
-19.141445
 21
-20.290665
  0
LINE
  8
ボルト／ビス
  6
CONTINUOUS
 10
-20.291442
 20
-17.040665
 11
-20.291442
 21
-19.540665
  0
LINE
  8
ボルト／ビス
  6
CONTINUOUS
 10
-17.94884
 20
-18.290662
 11
-26.641445
 21
-18.290662
  0
LINE
  8
ボルト／ビス
  6
CONTINUOUS
 10
-26.391442
 20
-17.04066
 11
-26.641445
 21
-17.290662
  0
LINE
  8
ボルト／ビス
  6
CONTINUOUS
 10
-26.391442
 20
-19.540662
 11
-26.641445
 21
-19.29066
  0
LINE
  8
ボルト／ビス
  6
CONTINUOUS
 10
-26.641445
 20
-19.29066
 11
-26.641445
 21
-17.290662
  0
LINE
  8
ボルト／ビス
  6
CONTINUOUS
 10
-26.391442
 20
-19.540662
 11
-26.391442
 21
-17.04066
  0
LINE
  8
ボルト／ビス
  6
CONTINUOUS
 10
-20.291442
 20
-19.540665
 11
-26.391442
 21
-19.540665
  0
LINE
  8
ボルト／ビス
  6
CONTINUOUS
 10
-20.291442
 20
-17.040665
 11
-26.391442
 21
-17.040665
  0
LINE
  8
ボルト／ビス
  6
CONTINUOUS
 10
-20.291442
 20
-19.290665
 11
-26.641445
 21
-19.290665
  0
LINE
  8
ボルト／ビス
  6
CONTINUOUS
 10
-20.291442
 20
-17.290665
 11
-26.641445
 21
-17.290665
  0
ENDBLK
  0
BLOCK
  2
*GRP_0016
 70
    65
 10
0.0
 20
0.0
  0
LINE
  8
別途部材
  6
CONTINUOUS
 10
-17.891445
 20
38.21008
 11
-17.891445
 21
16.21008
  0
ARC
  8
別途部材
  6
CONTINUOUS
 10
-14.891437
 20
38.210083
 40
3.0
 50
90.0
 51
180.0
  0
LINE
  8
別途部材
  6
CONTINUOUS
 10
-14.891445
 20
41.21008
 11
-14.891445
 21
41.21008
  0
LINE
  8
別途部材
  6
CONTINUOUS
 10
-11.891445
 20
38.21008
 11
-11.891445
 21
16.21008
  0
ARC
  8
別途部材
  6
CONTINUOUS
 10
-14.891437
 20
38.210083
 40
3.0
 50
0.0
 51
90.0
  0
CIRCLE
  8
別途部材
  6
CONTINUOUS
 10
-14.891445
 20
38.21008
 40
1.5
  0
LINE
  8
別途部材
  6
CONTINUOUS
 10
-16.391445
 20
38.21008
 11
-13.391445
 21
38.21008
  0
LINE
  8
別途部材
  6
CONTINUOUS
 10
-14.891445
 20
39.71008
 11
-14.891445
 21
36.71008
  0
LINE
  8
別途部材
  6
CONTINUOUS
 10
-17.891445
 20
16.21008
 11
-16.891445
 21
16.21008
  0
LINE
  8
別途部材
  6
CONTINUOUS
 10
-12.891442
 20
16.21008
 11
-11.891445
 21
16.21008
  0
LINE
  8
別途部材
  6
CONTINUOUS
 10
-16.891445
 20
16.21008
 11
-16.891445
 21
35.21008
  0
LINE
  8
別途部材
  6
CONTINUOUS
 10
-16.891445
 20
35.21008
 11
-12.891442
 21
35.21008
  0
LINE
  8
別途部材
  6
CONTINUOUS
 10
-12.891442
 20
16.21008
 11
-12.891442
 21
35.21008
  0
ARC
  8
別途部材
  6
CONTINUOUS
 10
-14.891437
 20
34.480917
 40
1.270834
 50
90.0
 51
90.0
  0
ARC
  8
別途部材
  6
CONTINUOUS
 10
-14.891437
 20
16.43925
 40
1.270834
 50
10.38896
 51
169.61104
  0
LINE
  8
別途部材
  6
CONTINUOUS
 10
-13.141445
 20
16.21008
 11
-13.641442
 21
16.21008
  0
LINE
  8
別途部材
  6
CONTINUOUS
 10
-16.641442
 20
16.21008
 11
-16.141445
 21
16.21008
  0
CIRCLE
  8
別途部材
  6
CONTINUOUS
 10
-14.891445
 20
33.210082
 40
0.499997
  0
LINE
  8
別途部材
  6
CONTINUOUS
 10
-14.391442
 20
33.210082
 11
-15.391445
 21
33.210082
  0
LINE
  8
別途部材
  6
CONTINUOUS
 10
-14.891445
 20
33.710085
 11
-14.891445
 21
32.71008
  0
ARC
  8
別途部材
  6
CONTINUOUS
 10
-14.891437
 20
33.98092
 40
1.270834
 50
190.38896
 51
349.61104
  0
LINE
  8
別途部材
  6
CONTINUOUS
 10
-13.141445
 20
34.21008
 11
-13.641442
 21
34.21008
  0
LINE
  8
別途部材
  6
CONTINUOUS
 10
-16.141445
 20
34.21008
 11
-16.641442
 21
34.21008
  0
LINE
  8
別途部材
  6
CONTINUOUS
 10
-13.641442
 20
16.21008
 11
-13.641442
 21
34.21008
  0
LINE
  8
別途部材
  6
CONTINUOUS
 10
-13.141445
 20
16.21008
 11
-13.141445
 21
34.21008
  0
LINE
  8
別途部材
  6
CONTINUOUS
 10
-16.141445
 20
16.21008
 11
-16.141445
 21
34.21008
  0
LINE
  8
別途部材
  6
CONTINUOUS
 10
-16.641442
 20
16.21008
 11
-16.641442
 21
34.21008
  0
LINE
  8
別途部材
  6
CONTINUOUS
 10
-17.891445
 20
34.710082
 11
-19.141445
 21
34.710082
  0
LINE
  8
別途部材
  6
CONTINUOUS
 10
-14.891445
 20
41.460082
 11
-14.891442
 21
41.21008
  0
LINE
  8
別途部材
  6
CONTINUOUS
 10
-23.141445
 20
35.21008
 11
-19.141445
 21
35.21008
  0
ARC
  8
別途部材
  6
CONTINUOUS
 10
-22.64144
 20
16.710084
 40
0.5
 50
180.0
 51
270.0
  0
LINE
  8
別途部材
  6
CONTINUOUS
 10
-19.641447
 20
16.21008
 11
-22.641447
 21
16.21008
  0
ARC
  8
別途部材
  6
CONTINUOUS
 10
-19.64144
 20
16.710084
 40
0.5
 50
270.0
 51
360.0
  0
LINE
  8
別途部材
  6
CONTINUOUS
 10
-23.141445
 20
16.710082
 11
-23.141445
 21
40.96008
  0
ARC
  8
別途部材
  6
CONTINUOUS
 10
-22.64144
 20
40.960084
 40
0.5
 50
90.0
 51
180.0
  0
LINE
  8
別途部材
  6
CONTINUOUS
 10
-19.141445
 20
16.710082
 11
-19.141445
 21
40.96008
  0
ARC
  8
別途部材
  6
CONTINUOUS
 10
-19.64144
 20
40.960084
 40
0.5
 50
0.0
 51
90.0
  0
LINE
  8
別途部材
  6
CONTINUOUS
 10
-22.641447
 20
41.460082
 11
-14.891445
 21
41.460082
  0
LINE
  8
別途部材
  6
CONTINUOUS
 10
-20.291445
 20
31.710082
 11
-20.291445
 21
29.21008
  0
LINE
  8
別途部材
  6
CONTINUOUS
 10
-20.291445
 20
21.71008
 11
-20.291445
 21
19.21008
  0
POLYLINE
  8
別途部材
  6
CONTINUOUS
 66
     1
  0
VERTEX
  8
別途部材
 10
-19.141445
 20
32.460082
  0
VERTEX
  8
別途部材
 10
-20.291445
 20
31.710082
  0
VERTEX
  8
別途部材
 10
-23.141445
 20
31.710082
  0
SEQEND
  0
LINE
  8
別途部材
  6
CONTINUOUS
 10
-19.141445
 20
30.46008
 11
-23.141445
 21
30.46008
  0
POLYLINE
  8
別途部材
  6
CONTINUOUS
 66
     1
  0
VERTEX
  8
別途部材
 10
-19.141445
 20
28.46008
  0
VERTEX
  8
別途部材
 10
-20.291445
 20
29.21008
  0
VERTEX
  8
別途部材
 10
-23.141445
 20
29.21008
  0
SEQEND
  0
POLYLINE
  8
別途部材
  6
CONTINUOUS
 66
     1
  0
VERTEX
  8
別途部材
 10
-19.141445
 20
22.46008
  0
VERTEX
  8
別途部材
 10
-20.291445
 20
21.71008
  0
VERTEX
  8
別途部材
 10
-23.141445
 20
21.71008
  0
SEQEND
  0
LINE
  8
別途部材
  6
CONTINUOUS
 10
-19.141445
 20
20.460082
 11
-23.141445
 21
20.460082
  0
POLYLINE
  8
別途部材
  6
CONTINUOUS
 66
     1
  0
VERTEX
  8
別途部材
 10
-19.141445
 20
18.46008
  0
VERTEX
  8
別途部材
 10
-20.291445
 20
19.21008
  0
VERTEX
  8
別途部材
 10
-23.141445
 20
19.21008
  0
SEQEND
  0
ENDBLK
  0
BLOCK
  2
*GRP_0017
 70
    65
 10
0.0
 20
0.0
  0
LINE
  8
別途部材
  6
CONTINUOUS
 10
-17.891445
 20
-31.290665
 11
-17.891445
 21
-9.290662
  0
ARC
  8
別途部材
  6
CONTINUOUS
 10
-14.891435
 20
-31.290662
 40
3.0
 50
180.0
 51
270.0
  0
LINE
  8
別途部材
  6
CONTINUOUS
 10
-14.891445
 20
-34.290665
 11
-14.891445
 21
-34.290665
  0
LINE
  8
別途部材
  6
CONTINUOUS
 10
-11.891445
 20
-31.290665
 11
-11.891445
 21
-9.290662
  0
ARC
  8
別途部材
  6
CONTINUOUS
 10
-14.891435
 20
-31.290662
 40
3.0
 50
-90.0
 51
0.0
  0
CIRCLE
  8
別途部材
  6
CONTINUOUS
 10
-14.891445
 20
-31.290665
 40
1.5
  0
LINE
  8
別途部材
  6
CONTINUOUS
 10
-16.391445
 20
-31.290665
 11
-13.391445
 21
-31.290665
  0
LINE
  8
別途部材
  6
CONTINUOUS
 10
-14.891445
 20
-32.790665
 11
-14.891445
 21
-29.790665
  0
LINE
  8
別途部材
  6
CONTINUOUS
 10
-17.891445
 20
-9.290662
 11
-16.891445
 21
-9.290662
  0
LINE
  8
別途部材
  6
CONTINUOUS
 10
-12.891442
 20
-9.290662
 11
-11.891445
 21
-9.290662
  0
LINE
  8
別途部材
  6
CONTINUOUS
 10
-16.891445
 20
-9.290662
 11
-16.891445
 21
-28.290665
  0
LINE
  8
別途部材
  6
CONTINUOUS
 10
-16.891445
 20
-28.290665
 11
-12.891442
 21
-28.290665
  0
LINE
  8
別途部材
  6
CONTINUOUS
 10
-12.891442
 20
-9.290662
 11
-12.891442
 21
-28.290665
  0
ARC
  8
別途部材
  6
CONTINUOUS
 10
-14.891435
 20
-27.561496
 40
1.270834
 50
270.0
 51
270.0
  0
ARC
  8
別途部材
  6
CONTINUOUS
 10
-14.891435
 20
-9.519828
 40
1.270834
 50
190.38896
 51
349.61104
  0
LINE
  8
別途部材
  6
CONTINUOUS
 10
-13.141445
 20
-9.290662
 11
-13.641442
 21
-9.290662
  0
LINE
  8
別途部材
  6
CONTINUOUS
 10
-16.641442
 20
-9.290662
 11
-16.141445
 21
-9.290662
  0
CIRCLE
  8
別途部材
  6
CONTINUOUS
 10
-14.891445
 20
-26.290665
 40
0.499997
  0
LINE
  8
別途部材
  6
CONTINUOUS
 10
-14.391442
 20
-26.290665
 11
-15.391445
 21
-26.290665
  0
LINE
  8
別途部材
  6
CONTINUOUS
 10
-14.891445
 20
-26.790665
 11
-14.891445
 21
-25.790662
  0
ARC
  8
別途部材
  6
CONTINUOUS
 10
-14.891435
 20
-27.061498
 40
1.270834
 50
10.38896
 51
169.61104
  0
LINE
  8
別途部材
  6
CONTINUOUS
 10
-13.141445
 20
-27.290662
 11
-13.641442
 21
-27.290662
  0
LINE
  8
別途部材
  6
CONTINUOUS
 10
-16.141445
 20
-27.290662
 11
-16.641442
 21
-27.290662
  0
LINE
  8
別途部材
  6
CONTINUOUS
 10
-13.641442
 20
-9.290662
 11
-13.641442
 21
-27.290662
  0
LINE
  8
別途部材
  6
CONTINUOUS
 10
-13.141445
 20
-9.290662
 11
-13.141445
 21
-27.290662
  0
LINE
  8
別途部材
  6
CONTINUOUS
 10
-16.141445
 20
-9.290662
 11
-16.141445
 21
-27.290662
  0
LINE
  8
別途部材
  6
CONTINUOUS
 10
-16.641442
 20
-9.290662
 11
-16.641442
 21
-27.290662
  0
LINE
  8
別途部材
  6
CONTINUOUS
 10
-17.891445
 20
-27.790662
 11
-19.141445
 21
-27.790662
  0
LINE
  8
別途部材
  6
CONTINUOUS
 10
-14.891445
 20
-34.540662
 11
-14.891442
 21
-34.29066
  0
LINE
  8
別途部材
  6
CONTINUOUS
 10
-23.141445
 20
-28.290665
 11
-19.141445
 21
-28.290665
  0
ARC
  8
別途部材
  6
CONTINUOUS
 10
-22.641438
 20
-9.790663
 40
0.5
 50
90.0
 51
180.0
  0
LINE
  8
別途部材
  6
CONTINUOUS
 10
-19.641447
 20
-9.290662
 11
-22.641447
 21
-9.290662
  0
ARC
  8
別途部材
  6
CONTINUOUS
 10
-19.641438
 20
-9.790663
 40
0.5
 50
0.0
 51
90.0
  0
LINE
  8
別途部材
  6
CONTINUOUS
 10
-23.141445
 20
-9.790662
 11
-23.141445
 21
-34.040662
  0
ARC
  8
別途部材
  6
CONTINUOUS
 10
-22.641438
 20
-34.040663
 40
0.5
 50
180.0
 51
270.0
  0
LINE
  8
別途部材
  6
CONTINUOUS
 10
-19.141445
 20
-9.790662
 11
-19.141445
 21
-34.040662
  0
ARC
  8
別途部材
  6
CONTINUOUS
 10
-19.641438
 20
-34.040663
 40
0.5
 50
-90.0
 51
0.0
  0
LINE
  8
別途部材
  6
CONTINUOUS
 10
-22.641447
 20
-34.540662
 11
-14.891445
 21
-34.540662
  0
LINE
  8
別途部材
  6
CONTINUOUS
 10
-20.291445
 20
-24.790662
 11
-20.291445
 21
-22.290665
  0
LINE
  8
別途部材
  6
CONTINUOUS
 10
-20.291445
 20
-14.790665
 11
-20.291445
 21
-12.29066
  0
POLYLINE
  8
別途部材
  6
CONTINUOUS
 66
     1
  0
VERTEX
  8
別途部材
 10
-19.141445
 20
-25.540662
  0
VERTEX
  8
別途部材
 10
-20.291445
 20
-24.790662
  0
VERTEX
  8
別途部材
 10
-23.141445
 20
-24.790662
  0
SEQEND
  0
LINE
  8
別途部材
  6
CONTINUOUS
 10
-19.141445
 20
-23.54066
 11
-23.141445
 21
-23.54066
  0
POLYLINE
  8
別途部材
  6
CONTINUOUS
 66
     1
  0
VERTEX
  8
別途部材
 10
-19.141445
 20
-21.540665
  0
VERTEX
  8
別途部材
 10
-20.291445
 20
-22.290665
  0
VERTEX
  8
別途部材
 10
-23.141445
 20
-22.290665
  0
SEQEND
  0
POLYLINE
  8
別途部材
  6
CONTINUOUS
 66
     1
  0
VERTEX
  8
別途部材
 10
-19.141445
 20
-15.540665
  0
VERTEX
  8
別途部材
 10
-20.291445
 20
-14.790665
  0
VERTEX
  8
別途部材
 10
-23.141445
 20
-14.790665
  0
SEQEND
  0
LINE
  8
別途部材
  6
CONTINUOUS
 10
-19.141445
 20
-13.540662
 11
-23.141445
 21
-13.540662
  0
POLYLINE
  8
別途部材
  6
CONTINUOUS
 66
     1
  0
VERTEX
  8
別途部材
 10
-19.141445
 20
-11.54066
  0
VERTEX
  8
別途部材
 10
-20.291445
 20
-12.29066
  0
VERTEX
  8
別途部材
 10
-23.141445
 20
-12.29066
  0
SEQEND
  0
ENDBLK
  0
BLOCK
  2
*GRP_0018
 70
    65
 10
0.0
 20
0.0
  0
LINE
  8
別途部材
  6
CONTINUOUS
 10
-19.891445
 20
-23.290665
 11
2.108557
 21
-23.290665
  0
ARC
  8
別途部材
  6
CONTINUOUS
 10
-19.891436
 20
-26.290673
 40
3.0
 50
90.0
 51
180.0
  0
LINE
  8
別途部材
  6
CONTINUOUS
 10
-22.891445
 20
-26.290665
 11
-22.891445
 21
-26.290665
  0
LINE
  8
別途部材
  6
CONTINUOUS
 10
-19.891445
 20
-29.290665
 11
2.108557
 21
-29.290665
  0
ARC
  8
別途部材
  6
CONTINUOUS
 10
-19.891436
 20
-26.290673
 40
3.0
 50
180.0
 51
270.0
  0
CIRCLE
  8
別途部材
  6
CONTINUOUS
 10
-19.891445
 20
-26.290665
 40
1.5
  0
LINE
  8
別途部材
  6
CONTINUOUS
 10
-19.891445
 20
-24.790665
 11
-19.891445
 21
-27.790665
  0
LINE
  8
別途部材
  6
CONTINUOUS
 10
-21.391445
 20
-26.290665
 11
-18.391445
 21
-26.290665
  0
LINE
  8
別途部材
  6
CONTINUOUS
 10
2.108557
 20
-23.290665
 11
2.108557
 21
-24.29067
  0
LINE
  8
別途部材
  6
CONTINUOUS
 10
2.108557
 20
-28.290668
 11
2.108557
 21
-29.290665
  0
LINE
  8
別途部材
  6
CONTINUOUS
 10
2.108557
 20
-24.29067
 11
-16.891445
 21
-24.29067
  0
LINE
  8
別途部材
  6
CONTINUOUS
 10
-16.891445
 20
-24.29067
 11
-16.891445
 21
-28.290668
  0
LINE
  8
別途部材
  6
CONTINUOUS
 10
2.108557
 20
-28.290668
 11
-16.891445
 21
-28.290668
  0
ARC
  8
別途部材
  6
CONTINUOUS
 10
-16.16227
 20
-26.290673
 40
1.270834
 50
180.0
 51
180.0
  0
ARC
  8
別途部材
  6
CONTINUOUS
 10
1.879397
 20
-26.290673
 40
1.270834
 50
100.38896
 51
259.61104
  0
LINE
  8
別途部材
  6
CONTINUOUS
 10
2.108557
 20
-28.04067
 11
2.108557
 21
-27.540668
  0
LINE
  8
別途部材
  6
CONTINUOUS
 10
2.108557
 20
-24.540668
 11
2.108557
 21
-25.04067
  0
CIRCLE
  8
別途部材
  6
CONTINUOUS
 10
-14.891445
 20
-26.290665
 40
0.499997
  0
LINE
  8
別途部材
  6
CONTINUOUS
 10
-14.891445
 20
-26.790668
 11
-14.891445
 21
-25.79067
  0
LINE
  8
別途部材
  6
CONTINUOUS
 10
-15.391445
 20
-26.290665
 11
-14.391442
 21
-26.290665
  0
ARC
  8
別途部材
  6
CONTINUOUS
 10
-15.662273
 20
-26.290673
 40
1.270834
 50
280.38896
 51
439.61104
  0
LINE
  8
別途部材
  6
CONTINUOUS
 10
-15.891442
 20
-28.04067
 11
-15.891442
 21
-27.540668
  0
LINE
  8
別途部材
  6
CONTINUOUS
 10
-15.891442
 20
-25.04067
 11
-15.891442
 21
-24.540668
  0
LINE
  8
別途部材
  6
CONTINUOUS
 10
2.108557
 20
-27.540668
 11
-15.891442
 21
-27.540668
  0
LINE
  8
別途部材
  6
CONTINUOUS
 10
2.108557
 20
-28.04067
 11
-15.891442
 21
-28.04067
  0
LINE
  8
別途部材
  6
CONTINUOUS
 10
2.108557
 20
-25.04067
 11
-15.891442
 21
-25.04067
  0
LINE
  8
別途部材
  6
CONTINUOUS
 10
2.108557
 20
-24.540668
 11
-15.891442
 21
-24.540668
  0
LINE
  8
別途部材
  6
CONTINUOUS
 10
-20.291442
 20
-17.040665
 11
-20.291442
 21
-19.540665
  0
LINE
  8
別途部材
  6
CONTINUOUS
 10
-19.141445
 20
-18.290668
 11
-23.141442
 21
-18.290668
  0
POLYLINE
  8
別途部材
  6
CONTINUOUS
 66
     1
  0
VERTEX
  8
別途部材
 10
-19.141445
 20
-20.290665
  0
VERTEX
  8
別途部材
 10
-20.291442
 20
-19.540665
  0
VERTEX
  8
別途部材
 10
-23.141442
 20
-19.540665
  0
SEQEND
  0
POLYLINE
  8
別途部材
  6
CONTINUOUS
 66
     1
  0
VERTEX
  8
別途部材
 10
-19.141445
 20
-16.290665
  0
VERTEX
  8
別途部材
 10
-20.291442
 20
-17.040665
  0
VERTEX
  8
別途部材
 10
-23.141442
 20
-17.040665
  0
SEQEND
  0
LINE
  8
別途部材
  6
CONTINUOUS
 10
-23.141442
 20
-26.290665
 11
-22.891445
 21
-26.290665
  0
ARC
  8
別途部材
  6
CONTINUOUS
 10
-19.641437
 20
-13.790669
 40
0.5
 50
0.0
 51
90.0
  0
LINE
  8
別途部材
  6
CONTINUOUS
 10
-19.641442
 20
-13.290668
 11
-22.641442
 21
-13.290668
  0
ARC
  8
別途部材
  6
CONTINUOUS
 10
-22.641437
 20
-13.790669
 40
0.5
 50
90.0
 51
180.0
  0
ARC
  8
別途部材
  6
CONTINUOUS
 10
-19.641437
 20
-21.790669
 40
0.5
 50
-90.0
 51
0.0
  0
LINE
  8
別途部材
  6
CONTINUOUS
 10
-22.641442
 20
-22.290668
 11
-19.641442
 21
-22.290668
  0
ARC
  8
別途部材
  6
CONTINUOUS
 10
-22.641437
 20
-21.790669
 40
0.5
 50
180.0
 51
270.0
  0
LINE
  8
別途部材
  6
CONTINUOUS
 10
-23.141442
 20
-13.790668
 11
-23.141442
 21
-26.290665
  0
LINE
  8
別途部材
  6
CONTINUOUS
 10
-19.141445
 20
-13.790668
 11
-19.141445
 21
-23.290665
  0
ENDBLK
  0
BLOCK
  2
*GRP_0019
 70
    65
 10
0.0
 20
0.0
  0
LINE
  8
St
  6
CONTINUOUS
 10
-25.76645
 20
-47.037187
 11
-27.36645
 21
-48.637193
  0
LINE
  8
St
  6
CONTINUOUS
 10
-25.76645
 20
-46.68363
 11
-27.36645
 21
-48.283635
  0
ARC
  8
St
  6
CONTINUOUS
 62
   127
 10
-25.766458
 20
-41.990672
 40
1.6
 50
90.0
 51
180.0
  0
LINE
  8
St
  6
CONTINUOUS
 10
-7.149208
 20
-40.39067
 11
-8.749205
 21
-41.99067
  0
LINE
  8
St
  6
CONTINUOUS
 10
-7.50276
 20
-40.39067
 11
-9.102758
 21
-41.99067
  0
LINE
  8
St
  6
CONTINUOUS
 10
-21.469942
 20
-40.39067
 11
-23.06994
 21
-41.99067
  0
LINE
  8
St
  6
CONTINUOUS
 10
-21.823498
 20
-40.39067
 11
-23.423495
 21
-41.99067
  0
LINE
  8
St
  6
CONTINUOUS
 10
-2.516438
 20
-40.39067
 11
-2.516438
 21
-41.99067
  0
LINE
  8
St
  6
CONTINUOUS
 62
   127
 10
-2.516438
 20
-40.39067
 11
-34.64144
 21
-40.39067
  0
LINE
  8
St
  6
CONTINUOUS
 10
-34.64144
 20
-40.39067
 11
-34.64144
 21
-41.99067
  0
LINE
  8
St
  6
CONTINUOUS
 62
   127
 10
-2.516438
 20
-41.99067
 11
-34.64144
 21
-41.99067
  0
LINE
  8
St
  6
CONTINUOUS
 10
-29.46644
 20
-40.39067
 11
-29.46644
 21
-41.99067
  0
LINE
  8
St
  6
CONTINUOUS
 10
-31.216438
 20
-40.39067
 11
-31.216438
 21
-41.99067
  0
LINE
  8
St
  6
CONTINUOUS
 10
-4.74144
 20
-40.39067
 11
-4.74144
 21
-41.99067
  0
LINE
  8
St
  6
CONTINUOUS
 10
-2.991442
 20
-40.39067
 11
-2.991442
 21
-41.99067
  0
LINE
  8
St
  6
CONTINUOUS
 10
-30.341438
 20
-42.904215
 11
-30.341438
 21
-39.575685
  0
LINE
  8
St
  6
CONTINUOUS
 10
-3.866442
 20
-42.904215
 11
-3.866442
 21
-39.575685
  0
LINE
  8
St
  6
CONTINUOUS
 10
-2.991442
 20
-40.79067
 11
-4.74144
 21
-40.79067
  0
LINE
  8
St
  6
CONTINUOUS
 10
-2.991442
 20
-41.190668
 11
-4.74144
 21
-41.190668
  0
LINE
  8
St
  6
CONTINUOUS
 10
-2.991442
 20
-41.59067
 11
-4.74144
 21
-41.59067
  0
LINE
  8
St
  6
CONTINUOUS
 10
-29.46644
 20
-40.79067
 11
-31.216438
 21
-40.79067
  0
LINE
  8
St
  6
CONTINUOUS
 10
-29.46644
 20
-41.190668
 11
-31.216438
 21
-41.190668
  0
LINE
  8
St
  6
CONTINUOUS
 10
-29.46644
 20
-41.59067
 11
-31.216438
 21
-41.59067
  0
LINE
  8
St
  6
CONTINUOUS
 10
-25.76645
 20
-60.640662
 11
-27.36645
 21
-60.640662
  0
LINE
  8
St
  6
CONTINUOUS
 10
-25.76645
 20
-55.64066
 11
-27.36645
 21
-55.64066
  0
LINE
  8
St
  6
CONTINUOUS
 62
   127
 10
-26.16645
 20
-55.64066
 11
-26.16645
 21
-60.640662
  0
LINE
  8
St
  6
CONTINUOUS
 62
   127
 10
-26.566447
 20
-55.64066
 11
-26.566447
 21
-60.640662
  0
LINE
  8
St
  6
CONTINUOUS
 62
   127
 10
-26.96645
 20
-55.64066
 11
-26.96645
 21
-60.640662
  0
LINE
  8
St
  6
CONTINUOUS
 10
-24.202327
 20
-58.14066
 11
-29.076245
 21
-58.14066
  0
LINE
  8
St
  6
CONTINUOUS
 10
-25.76645
 20
-65.790668
 11
-27.36645
 21
-65.790668
  0
LINE
  8
St
  6
CONTINUOUS
 62
   127
 10
-27.36645
 20
-41.99067
 11
-27.36645
 21
-65.790668
  0
LINE
  8
St
  6
CONTINUOUS
 62
   127
 10
-25.76645
 20
-41.99067
 11
-25.76645
 21
-65.790668
  0
ENDBLK
  0
BLOCK
  2
*GRP_0020
 70
    65
 10
0.0
 20
0.0
  0
LINE
  8
ゴム等
  6
CONTINUOUS
 10
-50.642723
 20
49.021233
 11
-49.36993
 21
50.294028
  0
LINE
  8
ゴム等
  6
CONTINUOUS
 10
-47.672875
 20
51.991083
 11
-46.400085
 21
53.263877
  0
LINE
  8
ゴム等
  6
CONTINUOUS
 10
-46.682925
 20
51.708243
 11
-47.036478
 21
51.354687
  0
LINE
  8
ゴム等
  6
CONTINUOUS
 10
-48.733537
 20
49.65763
 11
-49.087087
 21
49.30408
  0
LINE
  8
ゴム等
  6
CONTINUOUS
 10
-47.672875
 20
51.991083
 11
-47.036478
 21
51.354687
  0
LINE
  8
ゴム等
  6
CONTINUOUS
 10
-49.36993
 20
50.294028
 11
-48.733537
 21
49.65763
  0
LINE
  8
ゴム等
  6
CONTINUOUS
 10
-46.50615
 20
51.531467
 11
-46.57686
 21
49.905122
  0
LINE
  8
ゴム等
  6
CONTINUOUS
 10
-48.910312
 20
49.127305
 11
-47.283968
 21
49.19801
  0
LINE
  8
ゴム等
  6
CONTINUOUS
 10
-49.087087
 20
49.30408
 11
-48.910312
 21
49.127305
  0
LINE
  8
ゴム等
  6
CONTINUOUS
 10
-46.682925
 20
51.708243
 11
-46.50615
 21
51.531467
  0
LINE
  8
ゴム等
  6
CONTINUOUS
 10
-46.57686
 20
49.905122
 11
-47.283968
 21
49.19801
  0
ARC
  8
ゴム等
  6
CONTINUOUS
 10
-48.167853
 20
50.788999
 40
0.5
 50
45.00002
 51
225.00002
  0
ARC
  8
ゴム等
  6
CONTINUOUS
 10
-47.602168
 20
50.223314
 40
0.5
 50
225.00002
 51
405.00002
  0
LINE
  8
ゴム等
  6
CONTINUOUS
 10
-47.814295
 20
51.142557
 11
-47.248613
 21
50.576875
  0
LINE
  8
ゴム等
  6
CONTINUOUS
 10
-48.521403
 20
50.43545
 11
-47.95572
 21
49.869767
  0
LINE
  8
ゴム等
  6
CONTINUOUS
 10
-51.591618
 20
49.970127
 11
-49.693837
 21
49.970127
  0
LINE
  8
ゴム等
  6
CONTINUOUS
 10
-49.046035
 20
49.970132
 11
-48.056085
 21
49.970132
  0
LINE
  8
ゴム等
  6
CONTINUOUS
 10
-47.17101
 20
49.970132
 11
-46.574035
 21
49.970132
  0
LINE
  8
ゴム等
  6
CONTINUOUS
 10
-47.64187
 20
50.970132
 11
-46.530555
 21
50.97013
  0
LINE
  8
ゴム等
  6
CONTINUOUS
 10
-50.642723
 20
49.021233
 11
-52.05694
 21
50.435448
  0
LINE
  8
ゴム等
  6
CONTINUOUS
 10
-48.521403
 20
53.61743
 11
-50.996275
 21
51.142557
  0
ARC
  8
ゴム等
  6
CONTINUOUS
 10
-48.698184
 20
53.794203
 40
0.25
 50
315.00002
 51
405.00002
  0
ARC
  8
ゴム等
  6
CONTINUOUS
 10
-51.173057
 20
51.319328
 40
0.25
 50
225.00002
 51
315.00002
  0
LINE
  8
ゴム等
  6
CONTINUOUS
 10
-48.521403
 20
53.970985
 11
-47.8143
 21
54.678092
  0
LINE
  8
ゴム等
  6
CONTINUOUS
 10
-51.349832
 20
51.142557
 11
-52.05694
 21
50.435448
  0
LINE
  8
ゴム等
  6
CONTINUOUS
 10
-46.400085
 20
53.263877
 11
-47.8143
 21
54.678092
  0
LINE
  8
ゴム等
  6
CONTINUOUS
 10
-47.106337
 20
53.97013
 11
-48.522257
 21
53.970132
  0
LINE
  8
ゴム等
  6
CONTINUOUS
 10
-46.69384
 20
52.970132
 11
-49.168705
 21
52.970132
  0
LINE
  8
ゴム等
  6
CONTINUOUS
 10
-47.651925
 20
51.97013
 11
-50.168703
 21
51.97013
  0
LINE
  8
ゴム等
  6
CONTINUOUS
 10
-48.633893
 20
50.97013
 11
-51.522257
 21
50.97013
  0
ENDBLK
  0
BLOCK
  2
*GRP_0021
 70
    65
 10
0.0
 20
0.0
  0
LINE
  8
ゴム等
  6
CONTINUOUS
 10
-64.580365
 20
50.938033
 11
-59.277063
 21
56.241335
  0
LINE
  8
ゴム等
  6
CONTINUOUS
 10
-64.580372
 20
50.93804
 11
-56.760272
 21
43.117917
  0
LINE
  8
ゴム等
  6
CONTINUOUS
 10
-59.277063
 20
56.241335
 11
-51.45697
 21
48.42122
  0
LINE
  8
ゴム等
  6
CONTINUOUS
 10
-56.760272
 20
43.117917
 11
-51.45697
 21
48.42122
  0
ENDBLK
  0
BLOCK
  2
*DIM_0022
 70
    65
 10
0.0
 20
0.0
  0
LINE
  8
寸法
  6
BYBLOCK
 62
     0
 10
-71.643473
 20
53.860075
 11
-71.643473
 21
124.37094
  0
LINE
  8
寸法
  6
BYBLOCK
 62
     0
 10
-13.139245
 20
124.37094
 11
-71.643473
 21
124.37094
  0
POINT
  8
寸法
 62
     0
 10
-13.139245
 20
124.37094
  0
POINT
  8
寸法
 62
     0
 10
-71.643473
 20
124.37094
  0
TEXT
  7
TextStyle03
  8
寸法
  6
CONTINUOUS
 62
     0
 10
-44.8125
 20
124.725
  1
117
 40
3.0
 72
     5
 11
-39.9375
 21
124.725
  0
ENDBLK
  0
BLOCK
  2
*DIM_0023
 70
    65
 10
0.0
 20
0.0
  0
LINE
  8
寸法
  6
BYBLOCK
 62
     0
 10
15.610755
 20
-25.140665
 11
15.610755
 21
118.44188
  0
LINE
  8
寸法
  6
BYBLOCK
 62
     0
 10
-71.643473
 20
118.44188
 11
15.610755
 21
118.44188
  0
POINT
  8
寸法
 62
     0
 10
-71.643473
 20
118.44188
  0
POINT
  8
寸法
 62
     0
 10
15.610755
 20
118.44188
  0
TEXT
  7
TextStyle03
  8
寸法
  6
CONTINUOUS
 62
     0
 10
-32.125
 20
118.8
  1
174.5
 40
3.0
 72
     5
 11
-23.875
 21
118.8
  0
ENDBLK
  0
BLOCK
  2
*DIM_0024
 70
    65
 10
0.0
 20
0.0
  0
LINE
  8
寸法
  6
BYBLOCK
 62
     0
 10
-13.139245
 20
113.564495
 11
15.610755
 21
113.564495
  0
POINT
  8
寸法
 62
     0
 10
-13.139245
 20
113.564495
  0
POINT
  8
寸法
 62
     0
 10
15.610755
 20
113.564495
  0
TEXT
  7
TextStyle03
  8
寸法
  6
CONTINUOUS
 62
     0
 10
-2.03125
 20
113.925
  1
57.5
 40
3.0
 72
     5
 11
4.53125
 21
113.925
  0
ENDBLK
  0
BLOCK
  2
*DIM_0025
 70
    65
 10
0.0
 20
0.0
  0
LINE
  8
寸法
  6
BYBLOCK
 62
     0
 10
-45.88924
 20
-47.890668
 11
-139.734495
 21
-47.890668
  0
LINE
  8
寸法
  6
BYBLOCK
 62
     0
 10
-139.734495
 20
-40.390668
 11
-139.734495
 21
-47.890668
  0
POINT
  8
寸法
 62
     0
 10
-139.734495
 20
-47.890668
  0
TEXT
  7
TextStyle03
  8
寸法
  6
CONTINUOUS
 62
     0
 10
-140.1
 20
-45.74375
  1
15
 40
3.0
 50
90.0
 72
     5
 11
-140.1
 21
-42.55625
  0
ENDBLK
  0
BLOCK
  2
*DIM_0026
 70
    65
 10
0.0
 20
0.0
  0
LINE
  8
寸法
  6
BYBLOCK
 62
     0
 10
-45.389243
 20
9.359338
 11
-133.512018
 21
9.359338
  0
LINE
  8
寸法
  6
BYBLOCK
 62
     0
 10
-133.512018
 20
-40.390668
 11
-133.512018
 21
9.359338
  0
POINT
  8
寸法
 62
     0
 10
-133.512018
 20
-40.390668
  0
POINT
  8
寸法
 62
     0
 10
-133.512018
 20
9.359338
  0
TEXT
  7
TextStyle03
  8
寸法
  6
CONTINUOUS
 62
     0
 10
-133.875
 20
-18.80625
  1
99.5
 40
3.0
 50
90.0
 72
     5
 11
-133.875
 21
-12.24375
  0
ENDBLK
  0
BLOCK
  2
*DIM_0027
 70
    65
 10
0.0
 20
0.0
  0
LINE
  8
寸法
  6
BYBLOCK
 62
     0
 10
-45.98924
 20
11.86008
 11
-133.512018
 21
11.86008
  0
LINE
  8
寸法
  6
BYBLOCK
 62
     0
 10
-133.512018
 20
9.359338
 11
-133.512018
 21
11.86008
  0
POINT
  8
寸法
 62
     0
 10
-133.512018
 20
11.86008
  0
TEXT
  7
TextStyle03
  8
寸法
  6
CONTINUOUS
 62
     0
 10
-133.875
 20
9.85
  1
5
 40
3.0
 50
90.0
 72
     5
 11
-133.875
 21
11.35
  0
ENDBLK
  0
BLOCK
  2
*DIM_0028
 70
    65
 10
0.0
 20
0.0
  0
LINE
  8
寸法
  6
BYBLOCK
 62
     0
 10
-59.641447
 20
26.960082
 11
-133.512018
 21
26.960082
  0
LINE
  8
寸法
  6
BYBLOCK
 62
     0
 10
-133.512018
 20
11.86008
 11
-133.512018
 21
26.960082
  0
POINT
  8
寸法
 62
     0
 10
-133.512018
 20
26.960082
  0
TEXT
  7
TextStyle03
  8
寸法
  6
CONTINUOUS
 62
     0
 10
-133.875
 20
16.11875
  1
30.2
 40
3.0
 50
90.0
 72
     5
 11
-133.875
 21
22.68125
  0
ENDBLK
  0
BLOCK
  2
*DIM_0029
 70
    65
 10
0.0
 20
0.0
  0
LINE
  8
寸法
  6
BYBLOCK
 62
     0
 10
-74.643405
 20
48.360073
 11
-133.512018
 21
48.360073
  0
LINE
  8
寸法
  6
BYBLOCK
 62
     0
 10
-133.512018
 20
26.960082
 11
-133.512018
 21
48.360073
  0
POINT
  8
寸法
 62
     0
 10
-133.512018
 20
48.360073
  0
TEXT
  7
TextStyle03
  8
寸法
  6
CONTINUOUS
 62
     0
 10
-133.875
 20
34.36875
  1
42.8
 40
3.0
 50
90.0
 72
     5
 11
-133.875
 21
40.93125
  0
ENDBLK
  0
BLOCK
  2
*DIM_0030
 70
    65
 10
0.0
 20
0.0
  0
LINE
  8
寸法
  6
BYBLOCK
 62
     0
 10
-74.643473
 20
50.860075
 11
-133.512018
 21
50.860075
  0
LINE
  8
寸法
  6
BYBLOCK
 62
     0
 10
-133.512018
 20
48.360073
 11
-133.512018
 21
50.860075
  0
POINT
  8
寸法
 62
     0
 10
-133.512018
 20
50.860075
  0
TEXT
  7
TextStyle03
  8
寸法
  6
CONTINUOUS
 62
     0
 10
-133.875
 20
48.85
  1
5
 40
3.0
 50
90.0
 72
     5
 11
-133.875
 21
50.35
  0
ENDBLK
  0
BLOCK
  2
*DIM_0031
 70
    65
 10
0.0
 20
0.0
  0
LINE
  8
寸法
  6
BYBLOCK
 62
     0
 10
-45.889245
 20
-40.390668
 11
-139.734495
 21
-40.390668
  0
LINE
  8
寸法
  6
BYBLOCK
 62
     0
 10
-74.643473
 20
50.860075
 11
-139.734495
 21
50.860075
  0
LINE
  8
寸法
  6
BYBLOCK
 62
     0
 10
-139.734495
 20
-40.390668
 11
-139.734495
 21
50.860075
  0
POINT
  8
寸法
 62
     0
 10
-139.734495
 20
-40.390668
  0
POINT
  8
寸法
 62
     0
 10
-139.734495
 20
50.860075
  0
TEXT
  7
TextStyle03
  8
寸法
  6
CONTINUOUS
 62
     0
 10
-140.1
 20
1.1
  1
182.5
 40
3.0
 50
90.0
 72
     5
 11
-140.1
 21
9.35
  0
ENDBLK
  0
BLOCK
  2
*DIM_0032
 70
    65
 10
0.0
 20
0.0
  0
LINE
  8
寸法
  6
BYBLOCK
 62
     0
 10
-11.389245
 20
-70.390668
 11
54.162982
 21
-70.390668
  0
LINE
  8
寸法
  6
BYBLOCK
 62
     0
 10
1.360755
 20
-40.390668
 11
54.162982
 21
-40.390668
  0
LINE
  8
寸法
  6
BYBLOCK
 62
     0
 10
54.162982
 20
-70.390668
 11
54.162982
 21
-40.390668
  0
POINT
  8
寸法
 62
     0
 10
54.162982
 20
-70.390668
  0
POINT
  8
寸法
 62
     0
 10
54.162982
 20
-40.390668
  0
TEXT
  7
TextStyle03
  8
寸法
  6
CONTINUOUS
 62
     0
 10
53.8
 20
-56.99375
  1
60
 40
3.0
 50
90.0
 72
     5
 11
53.8
 21
-53.80625
  0
ENDBLK
  0
BLOCK
  2
*DIM_0033
 70
    65
 10
0.0
 20
0.0
  0
LINE
  8
寸法
  6
BYBLOCK
 62
     0
 10
18.610755
 20
-36.540665
 11
54.162982
 21
-36.540665
  0
LINE
  8
寸法
  6
BYBLOCK
 62
     0
 10
54.162982
 20
-40.390668
 11
54.162982
 21
-36.540665
  0
POINT
  8
寸法
 62
     0
 10
54.162982
 20
-36.540665
  0
TEXT
  7
TextStyle03
  8
寸法
  6
CONTINUOUS
 62
     0
 10
57.175
 20
-40.9125
  1
7.7
 40
3.0
 50
90.0
 72
     5
 11
57.175
 21
-36.0375
  0
ENDBLK
  0
BLOCK
  2
*DIM_0034
 70
    65
 10
0.0
 20
0.0
  0
LINE
  8
寸法
  6
BYBLOCK
 62
     0
 10
18.610755
 20
-28.140665
 11
54.162982
 21
-28.140665
  0
LINE
  8
寸法
  6
BYBLOCK
 62
     0
 10
54.162982
 20
-36.540665
 11
54.162982
 21
-28.140665
  0
POINT
  8
寸法
 62
     0
 10
54.162982
 20
-28.140665
  0
TEXT
  7
TextStyle03
  8
寸法
  6
CONTINUOUS
 62
     0
 10
53.8
 20
-35.63125
  1
16.8
 40
3.0
 50
90.0
 72
     5
 11
53.8
 21
-29.06875
  0
ENDBLK
  0
BLOCK
  2
*GRP_0035
 70
    65
 10
0.0
 20
0.0
  0
POLYLINE
  8
寸法
  6
BYBLOCK
 62
     0
 66
     1
  0
VERTEX
  8
寸法
 10
-32.007965
 20
82.717377
  0
VERTEX
  8
寸法
 10
-42.80613
 20
93.515543
  0
VERTEX
  8
寸法
 10
-77.275828
 20
93.515543
  0
SEQEND
  0
ENDBLK
  0
BLOCK
  2
*GRP_0036
 70
    65
 10
0.0
 20
0.0
  0
POLYLINE
  8
寸法
  6
BYBLOCK
 62
     0
 66
     1
  0
VERTEX
  8
寸法
 10
-56.641447
 20
38.76082
  0
VERTEX
  8
寸法
 10
-61.306563
 20
34.095705
  0
VERTEX
  8
寸法
 10
-65.40858
 20
34.095705
  0
SEQEND
  0
ENDBLK
  0
BLOCK
  2
*GRP_0037
 70
    65
 10
0.0
 20
0.0
  0
POLYLINE
  8
寸法
  6
BYBLOCK
 62
     0
 66
     1
  0
VERTEX
  8
寸法
 10
-42.889245
 20
-37.490668
  0
VERTEX
  8
寸法
 10
-46.558325
 20
-33.821587
  0
VERTEX
  8
寸法
 10
-52.939657
 20
-33.821587
  0
SEQEND
  0
ENDBLK
  0
BLOCK
  2
*GRP_0038
 70
    65
 10
0.0
 20
0.0
  0
POLYLINE
  8
寸法
  6
BYBLOCK
 62
     0
 66
     1
  0
VERTEX
  8
寸法
 10
-100.38925
 20
-60.668923
  0
VERTEX
  8
寸法
 10
-104.135157
 20
-64.41483
  0
VERTEX
  8
寸法
 10
-109.800555
 20
-64.41483
  0
SEQEND
  0
ENDBLK
  0
BLOCK
  2
*GRP_0039
 70
    65
 10
0.0
 20
0.0
  0
POLYLINE
  8
寸法
  6
BYBLOCK
 62
     0
 66
     1
  0
VERTEX
  8
寸法
 10
-47.106337
 20
53.97013
  0
VERTEX
  8
寸法
 10
-45.1238
 20
55.952667
  0
VERTEX
  8
寸法
 10
-40.129093
 20
55.952667
  0
SEQEND
  0
ENDBLK
  0
BLOCK
  2
*GRP_0040
 70
    65
 10
0.0
 20
0.0
  0
POLYLINE
  8
寸法
  6
BYBLOCK
 62
     0
 66
     1
  0
VERTEX
  8
寸法
 10
-26.116572
 20
14.903427
  0
VERTEX
  8
寸法
 10
-18.259772
 20
7.046625
  0
VERTEX
  8
寸法
 10
-15.023442
 20
7.046625
  0
SEQEND
  0
ENDBLK
  0
BLOCK
  2
*GRP_0041
 70
    65
 10
0.0
 20
0.0
  0
POLYLINE
  8
寸法
  6
BYBLOCK
 62
     0
 66
     1
  0
VERTEX
  8
寸法
 10
-18.57674
 20
-41.990668
  0
VERTEX
  8
寸法
 10
-10.567018
 20
-50.00039
  0
VERTEX
  8
寸法
 10
16.738808
 20
-50.00039
  0
SEQEND
  0
ENDBLK
  0
BLOCK
  2
*GRP_0042
 70
    65
 10
0.0
 20
0.0
  0
POLYLINE
  8
寸法
  6
BYBLOCK
 62
     0
 66
     1
  0
VERTEX
  8
寸法
 10
-26.408965
 20
-38.234975
  0
VERTEX
  8
寸法
 10
-3.428715
 20
-61.215225
  0
VERTEX
  8
寸法
 10
18.16676
 20
-61.215225
  0
SEQEND
  0
ENDBLK
  0
BLOCK
  2
*GRP_0043
 70
    65
 10
0.0
 20
0.0
  0
POLYLINE
  8
寸法
  6
CONTINUOUS
 62
     0
 66
     1
  0
VERTEX
  8
寸法
 10
-60.305527
 20
48.700878
  0
VERTEX
  8
寸法
 10
-65.96342
 20
43.042982
  0
VERTEX
  8
寸法
 10
-68.375702
 20
43.042982
  0
SEQEND
  0
ENDBLK
  0
BLOCK
  2
*GRP_0044
 70
    65
 10
0.0
 20
0.0
  0
LINE
  8
ゴム等
  6
CONTINUOUS
 10
91.608415
 20
-6.481967
 11
96.911717
 21
-1.178665
  0
LINE
  8
ゴム等
  6
CONTINUOUS
 10
91.608408
 20
-6.48196
 11
99.428507
 21
-14.302082
  0
LINE
  8
ゴム等
  6
CONTINUOUS
 10
96.911717
 20
-1.178665
 11
104.73181
 21
-8.99878
  0
LINE
  8
ゴム等
  6
CONTINUOUS
 10
99.428507
 20
-14.302082
 11
104.73181
 21
-8.99878
  0
ENDBLK
  0
BLOCK
  2
*DIM_0045
 70
    65
 10
0.0
 20
0.0
  0
LINE
  8
寸法
  6
BYBLOCK
 62
     0
 10
-20.141445
 20
14.860075
 11
54.162982
 21
14.860075
  0
LINE
  8
寸法
  6
BYBLOCK
 62
     0
 10
54.162982
 20
-28.140665
 11
54.162982
 21
14.860075
  0
POINT
  8
寸法
 62
     0
 10
54.162982
 20
-28.140665
  0
POINT
  8
寸法
 62
     0
 10
54.162982
 20
14.860075
  0
TEXT
  7
TextStyle03
  8
寸法
  6
CONTINUOUS
 62
     0
 10
53.775
 20
-8.24375
  1
86
 40
3.0
 50
90.0
 72
     5
 11
53.775
 21
-5.05625
  0
ENDBLK
  0
BLOCK
  2
*DIM_0046
 70
    65
 10
0.0
 20
0.0
  0
LINE
  8
寸法
  6
BYBLOCK
 62
     0
 10
-20.141445
 20
16.36008
 11
54.162982
 21
16.36008
  0
LINE
  8
寸法
  6
BYBLOCK
 62
     0
 10
54.162982
 20
14.860075
 11
54.162982
 21
16.36008
  0
POINT
  8
寸法
 62
     0
 10
54.162982
 20
16.36008
  0
TEXT
  7
TextStyle03
  8
寸法
  6
CONTINUOUS
 62
     0
 10
57.15
 20
14.85
  1
3
 40
3.0
 50
90.0
 72
     5
 11
57.15
 21
16.35
  0
ENDBLK
  0
BLOCK
  2
*DIM_0047
 70
    65
 10
0.0
 20
0.0
  0
LINE
  8
寸法
  6
BYBLOCK
 62
     0
 10
-20.141445
 20
44.360822
 11
54.162982
 21
44.360822
  0
LINE
  8
寸法
  6
BYBLOCK
 62
     0
 10
54.162982
 20
16.36008
 11
54.162982
 21
44.360822
  0
POINT
  8
寸法
 62
     0
 10
54.162982
 20
44.360822
  0
TEXT
  7
TextStyle03
  8
寸法
  6
CONTINUOUS
 62
     0
 10
53.775
 20
28.75625
  1
56
 40
3.0
 50
90.0
 72
     5
 11
53.775
 21
31.94375
  0
ENDBLK
  0
BLOCK
  2
*GRP_0048
 70
    65
 10
0.0
 20
0.0
  0
POLYLINE
  8
寸法
  6
BYBLOCK
 62
     0
 66
     1
  0
VERTEX
  8
寸法
 10
-11.891445
 20
-18.623275
  0
VERTEX
  8
寸法
 10
-5.557792
 20
-12.289623
  0
VERTEX
  8
寸法
 10
21.155172
 20
-12.289623
  0
SEQEND
  0
ENDBLK
  0
BLOCK
  2
*GRP_0049
 70
    65
 10
0.0
 20
0.0
  0
LINE
  8
寸法
  6
BYBLOCK
 62
     0
 10
-6.465517
 20
-23.290665
 11
4.535525
 21
-12.289623
  0
ENDBLK
  0
BLOCK
  2
*GRP_0050
 70
    65
 10
0.0
 20
0.0
  0
POLYLINE
  8
ガラス
  6
CONTINUOUS
 66
     1
 70
     4
  0
VERTEX
  8
ガラス
 10
-32.2
 20
-34.35
 70
     8
  0
VERTEX
  8
ガラス
 10
-32.15
 20
-34.325
 70
     8
  0
VERTEX
  8
ガラス
 10
-32.1
 20
-34.325
 70
     8
  0
VERTEX
  8
ガラス
 10
-32.075
 20
-34.3
 70
     8
  0
VERTEX
  8
ガラス
 10
-32.025
 20
-34.3
 70
     8
  0
VERTEX
  8
ガラス
 10
-31.975
 20
-34.275
 70
     8
  0
VERTEX
  8
ガラス
 10
-31.925
 20
-34.275
 70
     8
  0
VERTEX
  8
ガラス
 10
-31.875
 20
-34.275
 70
     8
  0
VERTEX
  8
ガラス
 10
-31.85
 20
-34.25
 70
     8
  0
VERTEX
  8
ガラス
 10
-31.8
 20
-34.25
 70
     8
  0
VERTEX
  8
ガラス
 10
-31.75
 20
-34.25
 70
     8
  0
VERTEX
  8
ガラス
 10
-31.7
 20
-34.225
 70
     8
  0
VERTEX
  8
ガラス
 10
-31.675
 20
-34.225
 70
     8
  0
VERTEX
  8
ガラス
 10
-31.625
 20
-34.225
 70
     8
  0
VERTEX
  8
ガラス
 10
-31.575
 20
-34.225
 70
     8
  0
VERTEX
  8
ガラス
 10
-31.525
 20
-34.225
 70
     8
  0
VERTEX
  8
ガラス
 10
-31.5
 20
-34.225
 70
     8
  0
VERTEX
  8
ガラス
 10
-31.45
 20
-34.225
 70
     8
  0
VERTEX
  8
ガラス
 10
-31.4
 20
-34.225
 70
     8
  0
VERTEX
  8
ガラス
 10
-31.375
 20
-34.225
 70
     8
  0
VERTEX
  8
ガラス
 10
-31.325
 20
-34.225
 70
     8
  0
VERTEX
  8
ガラス
 10
-31.3
 20
-34.25
 70
     8
  0
VERTEX
  8
ガラス
 10
-31.25
 20
-34.25
 70
     8
  0
VERTEX
  8
ガラス
 10
-31.2
 20
-34.275
 70
     8
  0
VERTEX
  8
ガラス
 10
-31.175
 20
-34.275
 70
     8
  0
VERTEX
  8
ガラス
 10
-31.125
 20
-34.3
 70
     8
  0
VERTEX
  8
ガラス
 10
-31.1
 20
-34.325
 70
     8
  0
VERTEX
  8
ガラス
 10
-31.05
 20
-34.35
 70
     8
  0
VERTEX
  8
ガラス
 10
-31.025
 20
-34.375
 70
     8
  0
VERTEX
  8
ガラス
 10
-30.975
 20
-34.375
 70
     8
  0
VERTEX
  8
ガラス
 10
-30.95
 20
-34.4
 70
     8
  0
VERTEX
  8
ガラス
 10
-30.9
 20
-34.425
 70
     8
  0
VERTEX
  8
ガラス
 10
-30.875
 20
-34.475
 70
     8
  0
VERTEX
  8
ガラス
 10
-30.825
 20
-34.5
 70
     8
  0
VERTEX
  8
ガラス
 10
-30.8
 20
-34.525
 70
     8
  0
VERTEX
  8
ガラス
 10
-30.775
 20
-34.55
 70
     8
  0
VERTEX
  8
ガラス
 10
-30.725
 20
-34.575
 70
     8
  0
VERTEX
  8
ガラス
 10
-30.7
 20
-34.6
 70
     8
  0
VERTEX
  8
ガラス
 10
-30.65
 20
-34.625
 70
     8
  0
VERTEX
  8
ガラス
 10
-30.625
 20
-34.675
 70
     8
  0
VERTEX
  8
ガラス
 10
-30.6
 20
-34.7
 70
     8
  0
SEQEND
  0
POLYLINE
  8
ガラス
  6
CONTINUOUS
 66
     1
 70
     4
  0
VERTEX
  8
ガラス
 10
-30.6
 20
-34.7
 70
     8
  0
VERTEX
  8
ガラス
 10
-30.625
 20
-34.7
 70
     8
  0
VERTEX
  8
ガラス
 10
-30.65
 20
-34.7
 70
     8
  0
VERTEX
  8
ガラス
 10
-30.675
 20
-34.725
 70
     8
  0
VERTEX
  8
ガラス
 10
-30.7
 20
-34.725
 70
     8
  0
VERTEX
  8
ガラス
 10
-30.725
 20
-34.725
 70
     8
  0
VERTEX
  8
ガラス
 10
-30.775
 20
-34.75
 70
     8
  0
VERTEX
  8
ガラス
 10
-30.8
 20
-34.75
 70
     8
  0
VERTEX
  8
ガラス
 10
-30.825
 20
-34.75
 70
     8
  0
VERTEX
  8
ガラス
 10
-30.85
 20
-34.775
 70
     8
  0
VERTEX
  8
ガラス
 10
-30.875
 20
-34.775
 70
     8
  0
VERTEX
  8
ガラス
 10
-30.925
 20
-34.775
 70
     8
  0
VERTEX
  8
ガラス
 10
-30.95
 20
-34.8
 70
     8
  0
VERTEX
  8
ガラス
 10
-30.975
 20
-34.8
 70
     8
  0
VERTEX
  8
ガラス
 10
-31.0
 20
-34.825
 70
     8
  0
VERTEX
  8
ガラス
 10
-31.025
 20
-34.825
 70
     8
  0
VERTEX
  8
ガラス
 10
-31.05
 20
-34.825
 70
     8
  0
VERTEX
  8
ガラス
 10
-31.1
 20
-34.85
 70
     8
  0
VERTEX
  8
ガラス
 10
-31.125
 20
-34.85
 70
     8
  0
VERTEX
  8
ガラス
 10
-31.15
 20
-34.875
 70
     8
  0
VERTEX
  8
ガラス
 10
-31.175
 20
-34.875
 70
     8
  0
VERTEX
  8
ガラス
 10
-31.2
 20
-34.875
 70
     8
  0
VERTEX
  8
ガラス
 10
-31.225
 20
-34.9
 70
     8
  0
VERTEX
  8
ガラス
 10
-31.25
 20
-34.9
 70
     8
  0
VERTEX
  8
ガラス
 10
-31.275
 20
-34.925
 70
     8
  0
VERTEX
  8
ガラス
 10
-31.325
 20
-34.95
 70
     8
  0
VERTEX
  8
ガラス
 10
-31.35
 20
-34.95
 70
     8
  0
VERTEX
  8
ガラス
 10
-31.375
 20
-34.975
 70
     8
  0
VERTEX
  8
ガラス
 10
-31.4
 20
-34.975
 70
     8
  0
VERTEX
  8
ガラス
 10
-31.425
 20
-35.0
 70
     8
  0
VERTEX
  8
ガラス
 10
-31.45
 20
-35.0
 70
     8
  0
VERTEX
  8
ガラス
 10
-31.475
 20
-35.025
 70
     8
  0
VERTEX
  8
ガラス
 10
-31.5
 20
-35.05
 70
     8
  0
VERTEX
  8
ガラス
 10
-31.525
 20
-35.05
 70
     8
  0
VERTEX
  8
ガラス
 10
-31.55
 20
-35.075
 70
     8
  0
VERTEX
  8
ガラス
 10
-31.575
 20
-35.075
 70
     8
  0
VERTEX
  8
ガラス
 10
-31.6
 20
-35.1
 70
     8
  0
VERTEX
  8
ガラス
 10
-31.625
 20
-35.125
 70
     8
  0
VERTEX
  8
ガラス
 10
-31.65
 20
-35.125
 70
     8
  0
VERTEX
  8
ガラス
 10
-31.7
 20
-35.15
 70
     8
  0
VERTEX
  8
ガラス
 10
-31.725
 20
-35.175
 70
     8
  0
SEQEND
  0
ARC
  8
ガラス
  6
CONTINUOUS
 10
-31.945688
 20
-34.739248
 40
0.477567
 50
120.563758
 51
300.563758
  0
ENDBLK
  0
BLOCK
  2
*GRP_0051
 70
    65
 10
0.0
 20
0.0
  0
POLYLINE
  8
ガラス
  6
CONTINUOUS
 66
     1
 70
     4
  0
VERTEX
  8
ガラス
 10
-39.1
 20
-38.375
 70
     8
  0
VERTEX
  8
ガラス
 10
-39.05
 20
-38.375
 70
     8
  0
VERTEX
  8
ガラス
 10
-39.0
 20
-38.35
 70
     8
  0
VERTEX
  8
ガラス
 10
-38.975
 20
-38.35
 70
     8
  0
VERTEX
  8
ガラス
 10
-38.925
 20
-38.35
 70
     8
  0
VERTEX
  8
ガラス
 10
-38.875
 20
-38.325
 70
     8
  0
VERTEX
  8
ガラス
 10
-38.825
 20
-38.325
 70
     8
  0
VERTEX
  8
ガラス
 10
-38.8
 20
-38.3
 70
     8
  0
VERTEX
  8
ガラス
 10
-38.75
 20
-38.3
 70
     8
  0
VERTEX
  8
ガラス
 10
-38.7
 20
-38.3
 70
     8
  0
VERTEX
  8
ガラス
 10
-38.65
 20
-38.275
 70
     8
  0
VERTEX
  8
ガラス
 10
-38.6
 20
-38.275
 70
     8
  0
VERTEX
  8
ガラス
 10
-38.575
 20
-38.275
 70
     8
  0
VERTEX
  8
ガラス
 10
-38.525
 20
-38.275
 70
     8
  0
VERTEX
  8
ガラス
 10
-38.475
 20
-38.275
 70
     8
  0
VERTEX
  8
ガラス
 10
-38.45
 20
-38.25
 70
     8
  0
VERTEX
  8
ガラス
 10
-38.4
 20
-38.275
 70
     8
  0
VERTEX
  8
ガラス
 10
-38.35
 20
-38.275
 70
     8
  0
VERTEX
  8
ガラス
 10
-38.3
 20
-38.275
 70
     8
  0
VERTEX
  8
ガラス
 10
-38.275
 20
-38.275
 70
     8
  0
VERTEX
  8
ガラス
 10
-38.225
 20
-38.275
 70
     8
  0
VERTEX
  8
ガラス
 10
-38.2
 20
-38.3
 70
     8
  0
VERTEX
  8
ガラス
 10
-38.15
 20
-38.3
 70
     8
  0
VERTEX
  8
ガラス
 10
-38.1
 20
-38.325
 70
     8
  0
VERTEX
  8
ガラス
 10
-38.075
 20
-38.325
 70
     8
  0
VERTEX
  8
ガラス
 10
-38.025
 20
-38.35
 70
     8
  0
VERTEX
  8
ガラス
 10
-38.0
 20
-38.375
 70
     8
  0
VERTEX
  8
ガラス
 10
-37.95
 20
-38.375
 70
     8
  0
VERTEX
  8
ガラス
 10
-37.925
 20
-38.4
 70
     8
  0
VERTEX
  8
ガラス
 10
-37.875
 20
-38.425
 70
     8
  0
VERTEX
  8
ガラス
 10
-37.85
 20
-38.45
 70
     8
  0
VERTEX
  8
ガラス
 10
-37.8
 20
-38.475
 70
     8
  0
VERTEX
  8
ガラス
 10
-37.775
 20
-38.5
 70
     8
  0
VERTEX
  8
ガラス
 10
-37.75
 20
-38.525
 70
     8
  0
VERTEX
  8
ガラス
 10
-37.7
 20
-38.55
 70
     8
  0
VERTEX
  8
ガラス
 10
-37.675
 20
-38.6
 70
     8
  0
VERTEX
  8
ガラス
 10
-37.625
 20
-38.625
 70
     8
  0
VERTEX
  8
ガラス
 10
-37.6
 20
-38.65
 70
     8
  0
VERTEX
  8
ガラス
 10
-37.55
 20
-38.675
 70
     8
  0
VERTEX
  8
ガラス
 10
-37.525
 20
-38.7
 70
     8
  0
VERTEX
  8
ガラス
 10
-37.5
 20
-38.75
 70
     8
  0
SEQEND
  0
POLYLINE
  8
ガラス
  6
CONTINUOUS
 66
     1
 70
     4
  0
VERTEX
  8
ガラス
 10
-37.5
 20
-38.75
 70
     8
  0
VERTEX
  8
ガラス
 10
-37.525
 20
-38.75
 70
     8
  0
VERTEX
  8
ガラス
 10
-37.55
 20
-38.75
 70
     8
  0
VERTEX
  8
ガラス
 10
-37.575
 20
-38.775
 70
     8
  0
VERTEX
  8
ガラス
 10
-37.6
 20
-38.775
 70
     8
  0
VERTEX
  8
ガラス
 10
-37.65
 20
-38.775
 70
     8
  0
VERTEX
  8
ガラス
 10
-37.675
 20
-38.775
 70
     8
  0
VERTEX
  8
ガラス
 10
-37.7
 20
-38.8
 70
     8
  0
VERTEX
  8
ガラス
 10
-37.725
 20
-38.8
 70
     8
  0
VERTEX
  8
ガラス
 10
-37.75
 20
-38.8
 70
     8
  0
VERTEX
  8
ガラス
 10
-37.775
 20
-38.825
 70
     8
  0
VERTEX
  8
ガラス
 10
-37.825
 20
-38.825
 70
     8
  0
VERTEX
  8
ガラス
 10
-37.85
 20
-38.85
 70
     8
  0
VERTEX
  8
ガラス
 10
-37.875
 20
-38.85
 70
     8
  0
VERTEX
  8
ガラス
 10
-37.9
 20
-38.85
 70
     8
  0
VERTEX
  8
ガラス
 10
-37.925
 20
-38.875
 70
     8
  0
VERTEX
  8
ガラス
 10
-37.95
 20
-38.875
 70
     8
  0
VERTEX
  8
ガラス
 10
-38.0
 20
-38.875
 70
     8
  0
VERTEX
  8
ガラス
 10
-38.025
 20
-38.9
 70
     8
  0
VERTEX
  8
ガラス
 10
-38.05
 20
-38.9
 70
     8
  0
VERTEX
  8
ガラス
 10
-38.075
 20
-38.925
 70
     8
  0
VERTEX
  8
ガラス
 10
-38.1
 20
-38.925
 70
     8
  0
VERTEX
  8
ガラス
 10
-38.125
 20
-38.95
 70
     8
  0
VERTEX
  8
ガラス
 10
-38.15
 20
-38.95
 70
     8
  0
VERTEX
  8
ガラス
 10
-38.2
 20
-38.975
 70
     8
  0
VERTEX
  8
ガラス
 10
-38.225
 20
-38.975
 70
     8
  0
VERTEX
  8
ガラス
 10
-38.25
 20
-39.0
 70
     8
  0
VERTEX
  8
ガラス
 10
-38.275
 20
-39.0
 70
     8
  0
VERTEX
  8
ガラス
 10
-38.3
 20
-39.025
 70
     8
  0
VERTEX
  8
ガラス
 10
-38.325
 20
-39.05
 70
     8
  0
VERTEX
  8
ガラス
 10
-38.35
 20
-39.05
 70
     8
  0
VERTEX
  8
ガラス
 10
-38.375
 20
-39.075
 70
     8
  0
VERTEX
  8
ガラス
 10
-38.4
 20
-39.075
 70
     8
  0
VERTEX
  8
ガラス
 10
-38.425
 20
-39.1
 70
     8
  0
VERTEX
  8
ガラス
 10
-38.45
 20
-39.125
 70
     8
  0
VERTEX
  8
ガラス
 10
-38.475
 20
-39.125
 70
     8
  0
VERTEX
  8
ガラス
 10
-38.5
 20
-39.15
 70
     8
  0
VERTEX
  8
ガラス
 10
-38.55
 20
-39.15
 70
     8
  0
VERTEX
  8
ガラス
 10
-38.575
 20
-39.175
 70
     8
  0
VERTEX
  8
ガラス
 10
-38.6
 20
-39.2
 70
     8
  0
VERTEX
  8
ガラス
 10
-38.625
 20
-39.2
 70
     8
  0
SEQEND
  0
ARC
  8
ガラス
  6
CONTINUOUS
 10
-38.847444
 20
-38.783479
 40
0.477567
 50
120.563758
 51
300.563758
  0
ENDBLK
  0
BLOCK
  2
*GRP_0052
 70
    65
 10
0.0
 20
0.0
  0
POLYLINE
  8
ガラス
  6
CONTINUOUS
 66
     1
 70
     4
  0
VERTEX
  8
ガラス
 10
-45.125
 20
-38.925
 70
     8
  0
VERTEX
  8
ガラス
 10
-45.075
 20
-38.925
 70
     8
  0
VERTEX
  8
ガラス
 10
-45.025
 20
-38.925
 70
     8
  0
VERTEX
  8
ガラス
 10
-44.975
 20
-38.9
 70
     8
  0
VERTEX
  8
ガラス
 10
-44.925
 20
-38.9
 70
     8
  0
VERTEX
  8
ガラス
 10
-44.9
 20
-38.875
 70
     8
  0
VERTEX
  8
ガラス
 10
-44.85
 20
-38.875
 70
     8
  0
VERTEX
  8
ガラス
 10
-44.8
 20
-38.85
 70
     8
  0
VERTEX
  8
ガラス
 10
-44.75
 20
-38.85
 70
     8
  0
VERTEX
  8
ガラス
 10
-44.725
 20
-38.85
 70
     8
  0
VERTEX
  8
ガラス
 10
-44.675
 20
-38.825
 70
     8
  0
VERTEX
  8
ガラス
 10
-44.625
 20
-38.825
 70
     8
  0
VERTEX
  8
ガラス
 10
-44.575
 20
-38.825
 70
     8
  0
VERTEX
  8
ガラス
 10
-44.55
 20
-38.825
 70
     8
  0
VERTEX
  8
ガラス
 10
-44.5
 20
-38.825
 70
     8
  0
VERTEX
  8
ガラス
 10
-44.45
 20
-38.825
 70
     8
  0
VERTEX
  8
ガラス
 10
-44.4
 20
-38.825
 70
     8
  0
VERTEX
  8
ガラス
 10
-44.375
 20
-38.825
 70
     8
  0
VERTEX
  8
ガラス
 10
-44.325
 20
-38.825
 70
     8
  0
VERTEX
  8
ガラス
 10
-44.275
 20
-38.825
 70
     8
  0
VERTEX
  8
ガラス
 10
-44.25
 20
-38.825
 70
     8
  0
VERTEX
  8
ガラス
 10
-44.2
 20
-38.85
 70
     8
  0
VERTEX
  8
ガラス
 10
-44.175
 20
-38.85
 70
     8
  0
VERTEX
  8
ガラス
 10
-44.125
 20
-38.875
 70
     8
  0
VERTEX
  8
ガラス
 10
-44.075
 20
-38.875
 70
     8
  0
VERTEX
  8
ガラス
 10
-44.05
 20
-38.9
 70
     8
  0
VERTEX
  8
ガラス
 10
-44.0
 20
-38.925
 70
     8
  0
VERTEX
  8
ガラス
 10
-43.975
 20
-38.95
 70
     8
  0
VERTEX
  8
ガラス
 10
-43.925
 20
-38.95
 70
     8
  0
VERTEX
  8
ガラス
 10
-43.9
 20
-38.975
 70
     8
  0
VERTEX
  8
ガラス
 10
-43.85
 20
-39.0
 70
     8
  0
VERTEX
  8
ガラス
 10
-43.825
 20
-39.025
 70
     8
  0
VERTEX
  8
ガラス
 10
-43.8
 20
-39.05
 70
     8
  0
VERTEX
  8
ガラス
 10
-43.75
 20
-39.075
 70
     8
  0
VERTEX
  8
ガラス
 10
-43.725
 20
-39.125
 70
     8
  0
VERTEX
  8
ガラス
 10
-43.675
 20
-39.15
 70
     8
  0
VERTEX
  8
ガラス
 10
-43.65
 20
-39.175
 70
     8
  0
VERTEX
  8
ガラス
 10
-43.6
 20
-39.2
 70
     8
  0
VERTEX
  8
ガラス
 10
-43.575
 20
-39.225
 70
     8
  0
VERTEX
  8
ガラス
 10
-43.55
 20
-39.25
 70
     8
  0
VERTEX
  8
ガラス
 10
-43.5
 20
-39.3
 70
     8
  0
SEQEND
  0
POLYLINE
  8
ガラス
  6
CONTINUOUS
 66
     1
 70
     4
  0
VERTEX
  8
ガラス
 10
-43.5
 20
-39.3
 70
     8
  0
VERTEX
  8
ガラス
 10
-43.525
 20
-39.3
 70
     8
  0
VERTEX
  8
ガラス
 10
-43.575
 20
-39.3
 70
     8
  0
VERTEX
  8
ガラス
 10
-43.6
 20
-39.325
 70
     8
  0
VERTEX
  8
ガラス
 10
-43.625
 20
-39.325
 70
     8
  0
VERTEX
  8
ガラス
 10
-43.65
 20
-39.325
 70
     8
  0
VERTEX
  8
ガラス
 10
-43.675
 20
-39.35
 70
     8
  0
VERTEX
  8
ガラス
 10
-43.725
 20
-39.35
 70
     8
  0
VERTEX
  8
ガラス
 10
-43.75
 20
-39.35
 70
     8
  0
VERTEX
  8
ガラス
 10
-43.775
 20
-39.375
 70
     8
  0
VERTEX
  8
ガラス
 10
-43.8
 20
-39.375
 70
     8
  0
VERTEX
  8
ガラス
 10
-43.825
 20
-39.375
 70
     8
  0
VERTEX
  8
ガラス
 10
-43.85
 20
-39.4
 70
     8
  0
VERTEX
  8
ガラス
 10
-43.9
 20
-39.4
 70
     8
  0
VERTEX
  8
ガラス
 10
-43.925
 20
-39.4
 70
     8
  0
VERTEX
  8
ガラス
 10
-43.95
 20
-39.425
 70
     8
  0
VERTEX
  8
ガラス
 10
-43.975
 20
-39.425
 70
     8
  0
VERTEX
  8
ガラス
 10
-44.0
 20
-39.45
 70
     8
  0
VERTEX
  8
ガラス
 10
-44.025
 20
-39.45
 70
     8
  0
VERTEX
  8
ガラス
 10
-44.075
 20
-39.45
 70
     8
  0
VERTEX
  8
ガラス
 10
-44.1
 20
-39.475
 70
     8
  0
VERTEX
  8
ガラス
 10
-44.125
 20
-39.475
 70
     8
  0
VERTEX
  8
ガラス
 10
-44.15
 20
-39.5
 70
     8
  0
VERTEX
  8
ガラス
 10
-44.175
 20
-39.5
 70
     8
  0
VERTEX
  8
ガラス
 10
-44.2
 20
-39.525
 70
     8
  0
VERTEX
  8
ガラス
 10
-44.225
 20
-39.525
 70
     8
  0
VERTEX
  8
ガラス
 10
-44.25
 20
-39.55
 70
     8
  0
VERTEX
  8
ガラス
 10
-44.275
 20
-39.55
 70
     8
  0
VERTEX
  8
ガラス
 10
-44.3
 20
-39.575
 70
     8
  0
VERTEX
  8
ガラス
 10
-44.35
 20
-39.6
 70
     8
  0
VERTEX
  8
ガラス
 10
-44.375
 20
-39.6
 70
     8
  0
VERTEX
  8
ガラス
 10
-44.4
 20
-39.625
 70
     8
  0
VERTEX
  8
ガラス
 10
-44.425
 20
-39.625
 70
     8
  0
VERTEX
  8
ガラス
 10
-44.45
 20
-39.65
 70
     8
  0
VERTEX
  8
ガラス
 10
-44.475
 20
-39.675
 70
     8
  0
VERTEX
  8
ガラス
 10
-44.5
 20
-39.675
 70
     8
  0
VERTEX
  8
ガラス
 10
-44.525
 20
-39.7
 70
     8
  0
VERTEX
  8
ガラス
 10
-44.55
 20
-39.7
 70
     8
  0
VERTEX
  8
ガラス
 10
-44.575
 20
-39.725
 70
     8
  0
VERTEX
  8
ガラス
 10
-44.6
 20
-39.75
 70
     8
  0
VERTEX
  8
ガラス
 10
-44.625
 20
-39.75
 70
     8
  0
SEQEND
  0
ARC
  8
ガラス
  6
CONTINUOUS
 10
-44.862494
 20
-39.335318
 40
0.477567
 50
120.563758
 51
300.563758
  0
ENDBLK
  0
BLOCK
  2
*GRP_0053
 70
    65
 10
0.0
 20
0.0
  0
POLYLINE
  8
ガラス
  6
CONTINUOUS
 66
     1
 70
     4
  0
VERTEX
  8
ガラス
 10
-48.8
 20
-42.925
 70
     8
  0
VERTEX
  8
ガラス
 10
-48.775
 20
-42.875
 70
     8
  0
VERTEX
  8
ガラス
 10
-48.75
 20
-42.85
 70
     8
  0
VERTEX
  8
ガラス
 10
-48.75
 20
-42.8
 70
     8
  0
VERTEX
  8
ガラス
 10
-48.725
 20
-42.75
 70
     8
  0
VERTEX
  8
ガラス
 10
-48.7
 20
-42.7
 70
     8
  0
VERTEX
  8
ガラス
 10
-48.7
 20
-42.675
 70
     8
  0
VERTEX
  8
ガラス
 10
-48.675
 20
-42.625
 70
     8
  0
VERTEX
  8
ガラス
 10
-48.65
 20
-42.575
 70
     8
  0
VERTEX
  8
ガラス
 10
-48.625
 20
-42.55
 70
     8
  0
VERTEX
  8
ガラス
 10
-48.625
 20
-42.5
 70
     8
  0
VERTEX
  8
ガラス
 10
-48.6
 20
-42.45
 70
     8
  0
VERTEX
  8
ガラス
 10
-48.575
 20
-42.425
 70
     8
  0
VERTEX
  8
ガラス
 10
-48.55
 20
-42.375
 70
     8
  0
VERTEX
  8
ガラス
 10
-48.525
 20
-42.35
 70
     8
  0
VERTEX
  8
ガラス
 10
-48.5
 20
-42.3
 70
     8
  0
VERTEX
  8
ガラス
 10
-48.475
 20
-42.275
 70
     8
  0
VERTEX
  8
ガラス
 10
-48.45
 20
-42.25
 70
     8
  0
VERTEX
  8
ガラス
 10
-48.425
 20
-42.2
 70
     8
  0
VERTEX
  8
ガラス
 10
-48.4
 20
-42.175
 70
     8
  0
VERTEX
  8
ガラス
 10
-48.375
 20
-42.15
 70
     8
  0
VERTEX
  8
ガラス
 10
-48.35
 20
-42.125
 70
     8
  0
VERTEX
  8
ガラス
 10
-48.325
 20
-42.1
 70
     8
  0
VERTEX
  8
ガラス
 10
-48.275
 20
-42.075
 70
     8
  0
VERTEX
  8
ガラス
 10
-48.25
 20
-42.05
 70
     8
  0
VERTEX
  8
ガラス
 10
-48.2
 20
-42.025
 70
     8
  0
VERTEX
  8
ガラス
 10
-48.175
 20
-42.0
 70
     8
  0
VERTEX
  8
ガラス
 10
-48.125
 20
-41.975
 70
     8
  0
VERTEX
  8
ガラス
 10
-48.1
 20
-41.975
 70
     8
  0
VERTEX
  8
ガラス
 10
-48.05
 20
-41.95
 70
     8
  0
VERTEX
  8
ガラス
 10
-48.025
 20
-41.925
 70
     8
  0
VERTEX
  8
ガラス
 10
-47.975
 20
-41.925
 70
     8
  0
VERTEX
  8
ガラス
 10
-47.925
 20
-41.9
 70
     8
  0
VERTEX
  8
ガラス
 10
-47.9
 20
-41.9
 70
     8
  0
VERTEX
  8
ガラス
 10
-47.85
 20
-41.875
 70
     8
  0
VERTEX
  8
ガラス
 10
-47.8
 20
-41.85
 70
     8
  0
VERTEX
  8
ガラス
 10
-47.75
 20
-41.85
 70
     8
  0
VERTEX
  8
ガラス
 10
-47.725
 20
-41.825
 70
     8
  0
VERTEX
  8
ガラス
 10
-47.675
 20
-41.825
 70
     8
  0
VERTEX
  8
ガラス
 10
-47.625
 20
-41.8
 70
     8
  0
VERTEX
  8
ガラス
 10
-47.575
 20
-41.8
 70
     8
  0
SEQEND
  0
POLYLINE
  8
ガラス
  6
CONTINUOUS
 66
     1
 70
     4
  0
VERTEX
  8
ガラス
 10
-47.575
 20
-41.8
 70
     8
  0
VERTEX
  8
ガラス
 10
-47.6
 20
-41.825
 70
     8
  0
VERTEX
  8
ガラス
 10
-47.6
 20
-41.85
 70
     8
  0
VERTEX
  8
ガラス
 10
-47.6
 20
-41.875
 70
     8
  0
VERTEX
  8
ガラス
 10
-47.625
 20
-41.925
 70
     8
  0
VERTEX
  8
ガラス
 10
-47.625
 20
-41.95
 70
     8
  0
VERTEX
  8
ガラス
 10
-47.65
 20
-41.975
 70
     8
  0
VERTEX
  8
ガラス
 10
-47.65
 20
-42.0
 70
     8
  0
VERTEX
  8
ガラス
 10
-47.675
 20
-42.025
 70
     8
  0
VERTEX
  8
ガラス
 10
-47.675
 20
-42.05
 70
     8
  0
VERTEX
  8
ガラス
 10
-47.675
 20
-42.1
 70
     8
  0
VERTEX
  8
ガラス
 10
-47.7
 20
-42.125
 70
     8
  0
VERTEX
  8
ガラス
 10
-47.7
 20
-42.15
 70
     8
  0
VERTEX
  8
ガラス
 10
-47.7
 20
-42.175
 70
     8
  0
VERTEX
  8
ガラス
 10
-47.725
 20
-42.2
 70
     8
  0
VERTEX
  8
ガラス
 10
-47.725
 20
-42.225
 70
     8
  0
VERTEX
  8
ガラス
 10
-47.725
 20
-42.275
 70
     8
  0
VERTEX
  8
ガラス
 10
-47.75
 20
-42.3
 70
     8
  0
VERTEX
  8
ガラス
 10
-47.75
 20
-42.325
 70
     8
  0
VERTEX
  8
ガラス
 10
-47.75
 20
-42.35
 70
     8
  0
VERTEX
  8
ガラス
 10
-47.775
 20
-42.375
 70
     8
  0
VERTEX
  8
ガラス
 10
-47.775
 20
-42.425
 70
     8
  0
VERTEX
  8
ガラス
 10
-47.775
 20
-42.45
 70
     8
  0
VERTEX
  8
ガラス
 10
-47.775
 20
-42.475
 70
     8
  0
VERTEX
  8
ガラス
 10
-47.8
 20
-42.5
 70
     8
  0
VERTEX
  8
ガラス
 10
-47.8
 20
-42.525
 70
     8
  0
VERTEX
  8
ガラス
 10
-47.8
 20
-42.575
 70
     8
  0
VERTEX
  8
ガラス
 10
-47.8
 20
-42.6
 70
     8
  0
VERTEX
  8
ガラス
 10
-47.8
 20
-42.625
 70
     8
  0
VERTEX
  8
ガラス
 10
-47.8
 20
-42.65
 70
     8
  0
VERTEX
  8
ガラス
 10
-47.8
 20
-42.675
 70
     8
  0
VERTEX
  8
ガラス
 10
-47.825
 20
-42.725
 70
     8
  0
VERTEX
  8
ガラス
 10
-47.825
 20
-42.75
 70
     8
  0
VERTEX
  8
ガラス
 10
-47.825
 20
-42.775
 70
     8
  0
VERTEX
  8
ガラス
 10
-47.825
 20
-42.8
 70
     8
  0
VERTEX
  8
ガラス
 10
-47.825
 20
-42.85
 70
     8
  0
VERTEX
  8
ガラス
 10
-47.825
 20
-42.875
 70
     8
  0
VERTEX
  8
ガラス
 10
-47.825
 20
-42.9
 70
     8
  0
VERTEX
  8
ガラス
 10
-47.825
 20
-42.925
 70
     8
  0
VERTEX
  8
ガラス
 10
-47.825
 20
-42.95
 70
     8
  0
VERTEX
  8
ガラス
 10
-47.825
 20
-43.0
 70
     8
  0
SEQEND
  0
ARC
  8
ガラス
  6
CONTINUOUS
 10
-48.298813
 20
-42.947307
 40
0.477567
 50
176.001233
 51
356.001233
  0
ENDBLK
  0
BLOCK
  2
*GRP_0054
 70
    65
 10
0.0
 20
0.0
  0
POLYLINE
  8
ガラス
  6
CONTINUOUS
 66
     1
 70
     4
  0
VERTEX
  8
ガラス
 10
-58.875
 20
29.425
 70
     8
  0
VERTEX
  8
ガラス
 10
-58.825
 20
29.425
 70
     8
  0
VERTEX
  8
ガラス
 10
-58.775
 20
29.45
 70
     8
  0
VERTEX
  8
ガラス
 10
-58.725
 20
29.45
 70
     8
  0
VERTEX
  8
ガラス
 10
-58.7
 20
29.45
 70
     8
  0
VERTEX
  8
ガラス
 10
-58.65
 20
29.475
 70
     8
  0
VERTEX
  8
ガラス
 10
-58.6
 20
29.475
 70
     8
  0
VERTEX
  8
ガラス
 10
-58.55
 20
29.5
 70
     8
  0
VERTEX
  8
ガラス
 10
-58.5
 20
29.5
 70
     8
  0
VERTEX
  8
ガラス
 10
-58.475
 20
29.5
 70
     8
  0
VERTEX
  8
ガラス
 10
-58.425
 20
29.525
 70
     8
  0
VERTEX
  8
ガラス
 10
-58.375
 20
29.525
 70
     8
  0
VERTEX
  8
ガラス
 10
-58.325
 20
29.525
 70
     8
  0
VERTEX
  8
ガラス
 10
-58.3
 20
29.525
 70
     8
  0
VERTEX
  8
ガラス
 10
-58.25
 20
29.525
 70
     8
  0
VERTEX
  8
ガラス
 10
-58.2
 20
29.525
 70
     8
  0
VERTEX
  8
ガラス
 10
-58.175
 20
29.525
 70
     8
  0
VERTEX
  8
ガラス
 10
-58.125
 20
29.525
 70
     8
  0
VERTEX
  8
ガラス
 10
-58.075
 20
29.525
 70
     8
  0
VERTEX
  8
ガラス
 10
-58.05
 20
29.525
 70
     8
  0
VERTEX
  8
ガラス
 10
-58.0
 20
29.525
 70
     8
  0
VERTEX
  8
ガラス
 10
-57.95
 20
29.5
 70
     8
  0
VERTEX
  8
ガラス
 10
-57.925
 20
29.5
 70
     8
  0
VERTEX
  8
ガラス
 10
-57.875
 20
29.475
 70
     8
  0
VERTEX
  8
ガラス
 10
-57.85
 20
29.475
 70
     8
  0
VERTEX
  8
ガラス
 10
-57.8
 20
29.45
 70
     8
  0
VERTEX
  8
ガラス
 10
-57.775
 20
29.425
 70
     8
  0
VERTEX
  8
ガラス
 10
-57.725
 20
29.425
 70
     8
  0
VERTEX
  8
ガラス
 10
-57.7
 20
29.4
 70
     8
  0
VERTEX
  8
ガラス
 10
-57.65
 20
29.375
 70
     8
  0
VERTEX
  8
ガラス
 10
-57.625
 20
29.35
 70
     8
  0
VERTEX
  8
ガラス
 10
-57.575
 20
29.325
 70
     8
  0
VERTEX
  8
ガラス
 10
-57.55
 20
29.3
 70
     8
  0
VERTEX
  8
ガラス
 10
-57.5
 20
29.275
 70
     8
  0
VERTEX
  8
ガラス
 10
-57.475
 20
29.225
 70
     8
  0
VERTEX
  8
ガラス
 10
-57.425
 20
29.2
 70
     8
  0
VERTEX
  8
ガラス
 10
-57.4
 20
29.175
 70
     8
  0
VERTEX
  8
ガラス
 10
-57.375
 20
29.15
 70
     8
  0
VERTEX
  8
ガラス
 10
-57.325
 20
29.125
 70
     8
  0
VERTEX
  8
ガラス
 10
-57.3
 20
29.1
 70
     8
  0
VERTEX
  8
ガラス
 10
-57.25
 20
29.05
 70
     8
  0
SEQEND
  0
POLYLINE
  8
ガラス
  6
CONTINUOUS
 66
     1
 70
     4
  0
VERTEX
  8
ガラス
 10
-57.25
 20
29.05
 70
     8
  0
VERTEX
  8
ガラス
 10
-57.275
 20
29.05
 70
     8
  0
VERTEX
  8
ガラス
 10
-57.325
 20
29.05
 70
     8
  0
VERTEX
  8
ガラス
 10
-57.35
 20
29.025
 70
     8
  0
VERTEX
  8
ガラス
 10
-57.375
 20
29.025
 70
     8
  0
VERTEX
  8
ガラス
 10
-57.4
 20
29.025
 70
     8
  0
VERTEX
  8
ガラス
 10
-57.425
 20
29.0
 70
     8
  0
VERTEX
  8
ガラス
 10
-57.475
 20
29.0
 70
     8
  0
VERTEX
  8
ガラス
 10
-57.5
 20
29.0
 70
     8
  0
VERTEX
  8
ガラス
 10
-57.525
 20
28.975
 70
     8
  0
VERTEX
  8
ガラス
 10
-57.55
 20
28.975
 70
     8
  0
VERTEX
  8
ガラス
 10
-57.575
 20
28.975
 70
     8
  0
VERTEX
  8
ガラス
 10
-57.625
 20
28.95
 70
     8
  0
VERTEX
  8
ガラス
 10
-57.65
 20
28.95
 70
     8
  0
VERTEX
  8
ガラス
 10
-57.675
 20
28.95
 70
     8
  0
VERTEX
  8
ガラス
 10
-57.7
 20
28.925
 70
     8
  0
VERTEX
  8
ガラス
 10
-57.725
 20
28.925
 70
     8
  0
VERTEX
  8
ガラス
 10
-57.75
 20
28.9
 70
     8
  0
VERTEX
  8
ガラス
 10
-57.775
 20
28.9
 70
     8
  0
VERTEX
  8
ガラス
 10
-57.825
 20
28.9
 70
     8
  0
VERTEX
  8
ガラス
 10
-57.85
 20
28.875
 70
     8
  0
VERTEX
  8
ガラス
 10
-57.875
 20
28.875
 70
     8
  0
VERTEX
  8
ガラス
 10
-57.9
 20
28.85
 70
     8
  0
VERTEX
  8
ガラス
 10
-57.925
 20
28.85
 70
     8
  0
VERTEX
  8
ガラス
 10
-57.95
 20
28.825
 70
     8
  0
VERTEX
  8
ガラス
 10
-57.975
 20
28.825
 70
     8
  0
VERTEX
  8
ガラス
 10
-58.0
 20
28.8
 70
     8
  0
VERTEX
  8
ガラス
 10
-58.025
 20
28.8
 70
     8
  0
VERTEX
  8
ガラス
 10
-58.075
 20
28.775
 70
     8
  0
VERTEX
  8
ガラス
 10
-58.1
 20
28.75
 70
     8
  0
VERTEX
  8
ガラス
 10
-58.125
 20
28.75
 70
     8
  0
VERTEX
  8
ガラス
 10
-58.15
 20
28.725
 70
     8
  0
VERTEX
  8
ガラス
 10
-58.175
 20
28.725
 70
     8
  0
VERTEX
  8
ガラス
 10
-58.2
 20
28.7
 70
     8
  0
VERTEX
  8
ガラス
 10
-58.225
 20
28.675
 70
     8
  0
VERTEX
  8
ガラス
 10
-58.25
 20
28.675
 70
     8
  0
VERTEX
  8
ガラス
 10
-58.275
 20
28.65
 70
     8
  0
VERTEX
  8
ガラス
 10
-58.3
 20
28.65
 70
     8
  0
VERTEX
  8
ガラス
 10
-58.325
 20
28.625
 70
     8
  0
VERTEX
  8
ガラス
 10
-58.35
 20
28.6
 70
     8
  0
VERTEX
  8
ガラス
 10
-58.375
 20
28.6
 70
     8
  0
SEQEND
  0
ARC
  8
ガラス
  6
CONTINUOUS
 10
-58.614696
 20
29.015434
 40
0.477567
 50
120.563758
 51
300.563758
  0
ENDBLK
  0
BLOCK
  2
*GRP_0055
 70
    65
 10
0.0
 20
0.0
  0
POLYLINE
  8
ガラス
  6
CONTINUOUS
 66
     1
 70
     4
  0
VERTEX
  8
ガラス
 10
-62.55
 20
25.425
 70
     8
  0
VERTEX
  8
ガラス
 10
-62.525
 20
25.475
 70
     8
  0
VERTEX
  8
ガラス
 10
-62.5
 20
25.5
 70
     8
  0
VERTEX
  8
ガラス
 10
-62.5
 20
25.55
 70
     8
  0
VERTEX
  8
ガラス
 10
-62.475
 20
25.6
 70
     8
  0
VERTEX
  8
ガラス
 10
-62.45
 20
25.65
 70
     8
  0
VERTEX
  8
ガラス
 10
-62.45
 20
25.675
 70
     8
  0
VERTEX
  8
ガラス
 10
-62.425
 20
25.725
 70
     8
  0
VERTEX
  8
ガラス
 10
-62.4
 20
25.775
 70
     8
  0
VERTEX
  8
ガラス
 10
-62.4
 20
25.8
 70
     8
  0
VERTEX
  8
ガラス
 10
-62.375
 20
25.85
 70
     8
  0
VERTEX
  8
ガラス
 10
-62.35
 20
25.9
 70
     8
  0
VERTEX
  8
ガラス
 10
-62.325
 20
25.925
 70
     8
  0
VERTEX
  8
ガラス
 10
-62.3
 20
25.975
 70
     8
  0
VERTEX
  8
ガラス
 10
-62.275
 20
26.0
 70
     8
  0
VERTEX
  8
ガラス
 10
-62.275
 20
26.05
 70
     8
  0
VERTEX
  8
ガラス
 10
-62.25
 20
26.075
 70
     8
  0
VERTEX
  8
ガラス
 10
-62.225
 20
26.1
 70
     8
  0
VERTEX
  8
ガラス
 10
-62.175
 20
26.15
 70
     8
  0
VERTEX
  8
ガラス
 10
-62.15
 20
26.175
 70
     8
  0
VERTEX
  8
ガラス
 10
-62.125
 20
26.2
 70
     8
  0
VERTEX
  8
ガラス
 10
-62.1
 20
26.225
 70
     8
  0
VERTEX
  8
ガラス
 10
-62.075
 20
26.25
 70
     8
  0
VERTEX
  8
ガラス
 10
-62.025
 20
26.275
 70
     8
  0
VERTEX
  8
ガラス
 10
-62.0
 20
26.3
 70
     8
  0
VERTEX
  8
ガラス
 10
-61.975
 20
26.325
 70
     8
  0
VERTEX
  8
ガラス
 10
-61.925
 20
26.35
 70
     8
  0
VERTEX
  8
ガラス
 10
-61.9
 20
26.375
 70
     8
  0
VERTEX
  8
ガラス
 10
-61.85
 20
26.375
 70
     8
  0
VERTEX
  8
ガラス
 10
-61.8
 20
26.4
 70
     8
  0
VERTEX
  8
ガラス
 10
-61.775
 20
26.425
 70
     8
  0
VERTEX
  8
ガラス
 10
-61.725
 20
26.425
 70
     8
  0
VERTEX
  8
ガラス
 10
-61.675
 20
26.45
 70
     8
  0
VERTEX
  8
ガラス
 10
-61.65
 20
26.475
 70
     8
  0
VERTEX
  8
ガラス
 10
-61.6
 20
26.475
 70
     8
  0
VERTEX
  8
ガラス
 10
-61.55
 20
26.5
 70
     8
  0
VERTEX
  8
ガラス
 10
-61.5
 20
26.5
 70
     8
  0
VERTEX
  8
ガラス
 10
-61.475
 20
26.525
 70
     8
  0
VERTEX
  8
ガラス
 10
-61.425
 20
26.525
 70
     8
  0
VERTEX
  8
ガラス
 10
-61.375
 20
26.55
 70
     8
  0
VERTEX
  8
ガラス
 10
-61.325
 20
26.55
 70
     8
  0
SEQEND
  0
POLYLINE
  8
ガラス
  6
CONTINUOUS
 66
     1
 70
     4
  0
VERTEX
  8
ガラス
 10
-61.325
 20
26.55
 70
     8
  0
VERTEX
  8
ガラス
 10
-61.35
 20
26.525
 70
     8
  0
VERTEX
  8
ガラス
 10
-61.35
 20
26.5
 70
     8
  0
VERTEX
  8
ガラス
 10
-61.375
 20
26.475
 70
     8
  0
VERTEX
  8
ガラス
 10
-61.375
 20
26.425
 70
     8
  0
VERTEX
  8
ガラス
 10
-61.375
 20
26.4
 70
     8
  0
VERTEX
  8
ガラス
 10
-61.4
 20
26.375
 70
     8
  0
VERTEX
  8
ガラス
 10
-61.4
 20
26.35
 70
     8
  0
VERTEX
  8
ガラス
 10
-61.425
 20
26.325
 70
     8
  0
VERTEX
  8
ガラス
 10
-61.425
 20
26.3
 70
     8
  0
VERTEX
  8
ガラス
 10
-61.425
 20
26.25
 70
     8
  0
VERTEX
  8
ガラス
 10
-61.45
 20
26.225
 70
     8
  0
VERTEX
  8
ガラス
 10
-61.45
 20
26.2
 70
     8
  0
VERTEX
  8
ガラス
 10
-61.45
 20
26.175
 70
     8
  0
VERTEX
  8
ガラス
 10
-61.475
 20
26.15
 70
     8
  0
VERTEX
  8
ガラス
 10
-61.475
 20
26.125
 70
     8
  0
VERTEX
  8
ガラス
 10
-61.5
 20
26.075
 70
     8
  0
VERTEX
  8
ガラス
 10
-61.5
 20
26.05
 70
     8
  0
VERTEX
  8
ガラス
 10
-61.5
 20
26.025
 70
     8
  0
VERTEX
  8
ガラス
 10
-61.5
 20
26.0
 70
     8
  0
VERTEX
  8
ガラス
 10
-61.525
 20
25.975
 70
     8
  0
VERTEX
  8
ガラス
 10
-61.525
 20
25.925
 70
     8
  0
VERTEX
  8
ガラス
 10
-61.525
 20
25.9
 70
     8
  0
VERTEX
  8
ガラス
 10
-61.525
 20
25.875
 70
     8
  0
VERTEX
  8
ガラス
 10
-61.55
 20
25.85
 70
     8
  0
VERTEX
  8
ガラス
 10
-61.55
 20
25.825
 70
     8
  0
VERTEX
  8
ガラス
 10
-61.55
 20
25.775
 70
     8
  0
VERTEX
  8
ガラス
 10
-61.55
 20
25.75
 70
     8
  0
VERTEX
  8
ガラス
 10
-61.55
 20
25.725
 70
     8
  0
VERTEX
  8
ガラス
 10
-61.55
 20
25.7
 70
     8
  0
VERTEX
  8
ガラス
 10
-61.575
 20
25.675
 70
     8
  0
VERTEX
  8
ガラス
 10
-61.575
 20
25.625
 70
     8
  0
VERTEX
  8
ガラス
 10
-61.575
 20
25.6
 70
     8
  0
VERTEX
  8
ガラス
 10
-61.575
 20
25.575
 70
     8
  0
VERTEX
  8
ガラス
 10
-61.575
 20
25.55
 70
     8
  0
VERTEX
  8
ガラス
 10
-61.575
 20
25.5
 70
     8
  0
VERTEX
  8
ガラス
 10
-61.575
 20
25.475
 70
     8
  0
VERTEX
  8
ガラス
 10
-61.575
 20
25.45
 70
     8
  0
VERTEX
  8
ガラス
 10
-61.575
 20
25.425
 70
     8
  0
VERTEX
  8
ガラス
 10
-61.575
 20
25.4
 70
     8
  0
VERTEX
  8
ガラス
 10
-61.575
 20
25.35
 70
     8
  0
SEQEND
  0
ARC
  8
ガラス
  6
CONTINUOUS
 10
-62.051016
 20
25.403445
 40
0.477567
 50
176.001233
 51
356.001233
  0
ENDBLK
  0
BLOCK
  2
*GRP_0056
 70
    65
 10
0.0
 20
0.0
  0
POLYLINE
  8
ガラス
  6
CONTINUOUS
 66
     1
 70
     4
  0
VERTEX
  8
ガラス
 10
-53.875
 20
29.675
 70
     8
  0
VERTEX
  8
ガラス
 10
-53.825
 20
29.675
 70
     8
  0
VERTEX
  8
ガラス
 10
-53.775
 20
29.7
 70
     8
  0
VERTEX
  8
ガラス
 10
-53.725
 20
29.7
 70
     8
  0
VERTEX
  8
ガラス
 10
-53.675
 20
29.725
 70
     8
  0
VERTEX
  8
ガラス
 10
-53.625
 20
29.725
 70
     8
  0
VERTEX
  8
ガラス
 10
-53.6
 20
29.725
 70
     8
  0
VERTEX
  8
ガラス
 10
-53.55
 20
29.75
 70
     8
  0
VERTEX
  8
ガラス
 10
-53.5
 20
29.75
 70
     8
  0
VERTEX
  8
ガラス
 10
-53.45
 20
29.75
 70
     8
  0
VERTEX
  8
ガラス
 10
-53.425
 20
29.775
 70
     8
  0
VERTEX
  8
ガラス
 10
-53.375
 20
29.775
 70
     8
  0
VERTEX
  8
ガラス
 10
-53.325
 20
29.775
 70
     8
  0
VERTEX
  8
ガラス
 10
-53.275
 20
29.775
 70
     8
  0
VERTEX
  8
ガラス
 10
-53.25
 20
29.775
 70
     8
  0
VERTEX
  8
ガラス
 10
-53.2
 20
29.8
 70
     8
  0
VERTEX
  8
ガラス
 10
-53.15
 20
29.8
 70
     8
  0
VERTEX
  8
ガラス
 10
-53.125
 20
29.775
 70
     8
  0
VERTEX
  8
ガラス
 10
-53.075
 20
29.775
 70
     8
  0
VERTEX
  8
ガラス
 10
-53.025
 20
29.775
 70
     8
  0
VERTEX
  8
ガラス
 10
-53.0
 20
29.775
 70
     8
  0
VERTEX
  8
ガラス
 10
-52.95
 20
29.75
 70
     8
  0
VERTEX
  8
ガラス
 10
-52.9
 20
29.75
 70
     8
  0
VERTEX
  8
ガラス
 10
-52.875
 20
29.725
 70
     8
  0
VERTEX
  8
ガラス
 10
-52.825
 20
29.725
 70
     8
  0
VERTEX
  8
ガラス
 10
-52.8
 20
29.7
 70
     8
  0
VERTEX
  8
ガラス
 10
-52.75
 20
29.675
 70
     8
  0
VERTEX
  8
ガラス
 10
-52.725
 20
29.675
 70
     8
  0
VERTEX
  8
ガラス
 10
-52.675
 20
29.65
 70
     8
  0
VERTEX
  8
ガラス
 10
-52.65
 20
29.625
 70
     8
  0
VERTEX
  8
ガラス
 10
-52.6
 20
29.6
 70
     8
  0
VERTEX
  8
ガラス
 10
-52.575
 20
29.575
 70
     8
  0
VERTEX
  8
ガラス
 10
-52.525
 20
29.55
 70
     8
  0
VERTEX
  8
ガラス
 10
-52.5
 20
29.525
 70
     8
  0
VERTEX
  8
ガラス
 10
-52.45
 20
29.5
 70
     8
  0
VERTEX
  8
ガラス
 10
-52.425
 20
29.45
 70
     8
  0
VERTEX
  8
ガラス
 10
-52.4
 20
29.425
 70
     8
  0
VERTEX
  8
ガラス
 10
-52.35
 20
29.4
 70
     8
  0
VERTEX
  8
ガラス
 10
-52.325
 20
29.375
 70
     8
  0
VERTEX
  8
ガラス
 10
-52.275
 20
29.35
 70
     8
  0
VERTEX
  8
ガラス
 10
-52.25
 20
29.3
 70
     8
  0
SEQEND
  0
POLYLINE
  8
ガラス
  6
CONTINUOUS
 66
     1
 70
     4
  0
VERTEX
  8
ガラス
 10
-52.25
 20
29.3
 70
     8
  0
VERTEX
  8
ガラス
 10
-52.275
 20
29.3
 70
     8
  0
VERTEX
  8
ガラス
 10
-52.3
 20
29.3
 70
     8
  0
VERTEX
  8
ガラス
 10
-52.35
 20
29.3
 70
     8
  0
VERTEX
  8
ガラス
 10
-52.375
 20
29.275
 70
     8
  0
VERTEX
  8
ガラス
 10
-52.4
 20
29.275
 70
     8
  0
VERTEX
  8
ガラス
 10
-52.425
 20
29.275
 70
     8
  0
VERTEX
  8
ガラス
 10
-52.45
 20
29.25
 70
     8
  0
VERTEX
  8
ガラス
 10
-52.5
 20
29.25
 70
     8
  0
VERTEX
  8
ガラス
 10
-52.525
 20
29.25
 70
     8
  0
VERTEX
  8
ガラス
 10
-52.55
 20
29.225
 70
     8
  0
VERTEX
  8
ガラス
 10
-52.575
 20
29.225
 70
     8
  0
VERTEX
  8
ガラス
 10
-52.6
 20
29.225
 70
     8
  0
VERTEX
  8
ガラス
 10
-52.625
 20
29.2
 70
     8
  0
VERTEX
  8
ガラス
 10
-52.675
 20
29.2
 70
     8
  0
VERTEX
  8
ガラス
 10
-52.7
 20
29.175
 70
     8
  0
VERTEX
  8
ガラス
 10
-52.725
 20
29.175
 70
     8
  0
VERTEX
  8
ガラス
 10
-52.75
 20
29.175
 70
     8
  0
VERTEX
  8
ガラス
 10
-52.775
 20
29.15
 70
     8
  0
VERTEX
  8
ガラス
 10
-52.8
 20
29.15
 70
     8
  0
VERTEX
  8
ガラス
 10
-52.825
 20
29.125
 70
     8
  0
VERTEX
  8
ガラス
 10
-52.875
 20
29.125
 70
     8
  0
VERTEX
  8
ガラス
 10
-52.9
 20
29.1
 70
     8
  0
VERTEX
  8
ガラス
 10
-52.925
 20
29.1
 70
     8
  0
VERTEX
  8
ガラス
 10
-52.95
 20
29.075
 70
     8
  0
VERTEX
  8
ガラス
 10
-52.975
 20
29.075
 70
     8
  0
VERTEX
  8
ガラス
 10
-53.0
 20
29.05
 70
     8
  0
VERTEX
  8
ガラス
 10
-53.025
 20
29.05
 70
     8
  0
VERTEX
  8
ガラス
 10
-53.05
 20
29.025
 70
     8
  0
VERTEX
  8
ガラス
 10
-53.075
 20
29.025
 70
     8
  0
VERTEX
  8
ガラス
 10
-53.1
 20
29.0
 70
     8
  0
VERTEX
  8
ガラス
 10
-53.15
 20
28.975
 70
     8
  0
VERTEX
  8
ガラス
 10
-53.175
 20
28.975
 70
     8
  0
VERTEX
  8
ガラス
 10
-53.2
 20
28.95
 70
     8
  0
VERTEX
  8
ガラス
 10
-53.225
 20
28.95
 70
     8
  0
VERTEX
  8
ガラス
 10
-53.25
 20
28.925
 70
     8
  0
VERTEX
  8
ガラス
 10
-53.275
 20
28.9
 70
     8
  0
VERTEX
  8
ガラス
 10
-53.3
 20
28.9
 70
     8
  0
VERTEX
  8
ガラス
 10
-53.325
 20
28.875
 70
     8
  0
VERTEX
  8
ガラス
 10
-53.35
 20
28.85
 70
     8
  0
VERTEX
  8
ガラス
 10
-53.375
 20
28.85
 70
     8
  0
SEQEND
  0
ARC
  8
ガラス
  6
CONTINUOUS
 10
-53.60719
 20
29.267399
 40
0.477567
 50
120.563758
 51
300.563758
  0
ENDBLK
  0
BLOCK
  2
*GRP_0057
 70
    65
 10
0.0
 20
0.0
  0
POLYLINE
  8
ガラス
  6
CONTINUOUS
 66
     1
 70
     4
  0
VERTEX
  8
ガラス
 10
-48.475
 20
29.675
 70
     8
  0
VERTEX
  8
ガラス
 10
-48.425
 20
29.675
 70
     8
  0
VERTEX
  8
ガラス
 10
-48.4
 20
29.7
 70
     8
  0
VERTEX
  8
ガラス
 10
-48.35
 20
29.7
 70
     8
  0
VERTEX
  8
ガラス
 10
-48.3
 20
29.725
 70
     8
  0
VERTEX
  8
ガラス
 10
-48.25
 20
29.725
 70
     8
  0
VERTEX
  8
ガラス
 10
-48.2
 20
29.725
 70
     8
  0
VERTEX
  8
ガラス
 10
-48.175
 20
29.75
 70
     8
  0
VERTEX
  8
ガラス
 10
-48.125
 20
29.75
 70
     8
  0
VERTEX
  8
ガラス
 10
-48.075
 20
29.75
 70
     8
  0
VERTEX
  8
ガラス
 10
-48.025
 20
29.775
 70
     8
  0
VERTEX
  8
ガラス
 10
-48.0
 20
29.775
 70
     8
  0
VERTEX
  8
ガラス
 10
-47.95
 20
29.775
 70
     8
  0
VERTEX
  8
ガラス
 10
-47.9
 20
29.775
 70
     8
  0
VERTEX
  8
ガラス
 10
-47.85
 20
29.775
 70
     8
  0
VERTEX
  8
ガラス
 10
-47.825
 20
29.8
 70
     8
  0
VERTEX
  8
ガラス
 10
-47.775
 20
29.8
 70
     8
  0
VERTEX
  8
ガラス
 10
-47.725
 20
29.775
 70
     8
  0
VERTEX
  8
ガラス
 10
-47.7
 20
29.775
 70
     8
  0
VERTEX
  8
ガラス
 10
-47.65
 20
29.775
 70
     8
  0
VERTEX
  8
ガラス
 10
-47.6
 20
29.775
 70
     8
  0
VERTEX
  8
ガラス
 10
-47.575
 20
29.75
 70
     8
  0
VERTEX
  8
ガラス
 10
-47.525
 20
29.75
 70
     8
  0
VERTEX
  8
ガラス
 10
-47.5
 20
29.725
 70
     8
  0
VERTEX
  8
ガラス
 10
-47.45
 20
29.725
 70
     8
  0
VERTEX
  8
ガラス
 10
-47.425
 20
29.7
 70
     8
  0
VERTEX
  8
ガラス
 10
-47.375
 20
29.675
 70
     8
  0
VERTEX
  8
ガラス
 10
-47.35
 20
29.675
 70
     8
  0
VERTEX
  8
ガラス
 10
-47.3
 20
29.65
 70
     8
  0
VERTEX
  8
ガラス
 10
-47.275
 20
29.625
 70
     8
  0
VERTEX
  8
ガラス
 10
-47.225
 20
29.6
 70
     8
  0
VERTEX
  8
ガラス
 10
-47.2
 20
29.575
 70
     8
  0
VERTEX
  8
ガラス
 10
-47.15
 20
29.55
 70
     8
  0
VERTEX
  8
ガラス
 10
-47.125
 20
29.525
 70
     8
  0
VERTEX
  8
ガラス
 10
-47.075
 20
29.5
 70
     8
  0
VERTEX
  8
ガラス
 10
-47.05
 20
29.45
 70
     8
  0
VERTEX
  8
ガラス
 10
-47.0
 20
29.425
 70
     8
  0
VERTEX
  8
ガラス
 10
-46.975
 20
29.4
 70
     8
  0
VERTEX
  8
ガラス
 10
-46.95
 20
29.375
 70
     8
  0
VERTEX
  8
ガラス
 10
-46.9
 20
29.35
 70
     8
  0
VERTEX
  8
ガラス
 10
-46.875
 20
29.3
 70
     8
  0
SEQEND
  0
POLYLINE
  8
ガラス
  6
CONTINUOUS
 66
     1
 70
     4
  0
VERTEX
  8
ガラス
 10
-46.875
 20
29.3
 70
     8
  0
VERTEX
  8
ガラス
 10
-46.9
 20
29.3
 70
     8
  0
VERTEX
  8
ガラス
 10
-46.925
 20
29.3
 70
     8
  0
VERTEX
  8
ガラス
 10
-46.95
 20
29.3
 70
     8
  0
VERTEX
  8
ガラス
 10
-47.0
 20
29.275
 70
     8
  0
VERTEX
  8
ガラス
 10
-47.025
 20
29.275
 70
     8
  0
VERTEX
  8
ガラス
 10
-47.05
 20
29.275
 70
     8
  0
VERTEX
  8
ガラス
 10
-47.075
 20
29.25
 70
     8
  0
VERTEX
  8
ガラス
 10
-47.1
 20
29.25
 70
     8
  0
VERTEX
  8
ガラス
 10
-47.125
 20
29.25
 70
     8
  0
VERTEX
  8
ガラス
 10
-47.175
 20
29.225
 70
     8
  0
VERTEX
  8
ガラス
 10
-47.2
 20
29.225
 70
     8
  0
VERTEX
  8
ガラス
 10
-47.225
 20
29.225
 70
     8
  0
VERTEX
  8
ガラス
 10
-47.25
 20
29.2
 70
     8
  0
VERTEX
  8
ガラス
 10
-47.275
 20
29.2
 70
     8
  0
VERTEX
  8
ガラス
 10
-47.325
 20
29.175
 70
     8
  0
VERTEX
  8
ガラス
 10
-47.35
 20
29.175
 70
     8
  0
VERTEX
  8
ガラス
 10
-47.375
 20
29.175
 70
     8
  0
VERTEX
  8
ガラス
 10
-47.4
 20
29.15
 70
     8
  0
VERTEX
  8
ガラス
 10
-47.425
 20
29.15
 70
     8
  0
VERTEX
  8
ガラス
 10
-47.45
 20
29.125
 70
     8
  0
VERTEX
  8
ガラス
 10
-47.475
 20
29.125
 70
     8
  0
VERTEX
  8
ガラス
 10
-47.5
 20
29.1
 70
     8
  0
VERTEX
  8
ガラス
 10
-47.55
 20
29.1
 70
     8
  0
VERTEX
  8
ガラス
 10
-47.575
 20
29.075
 70
     8
  0
VERTEX
  8
ガラス
 10
-47.6
 20
29.075
 70
     8
  0
VERTEX
  8
ガラス
 10
-47.625
 20
29.05
 70
     8
  0
VERTEX
  8
ガラス
 10
-47.65
 20
29.05
 70
     8
  0
VERTEX
  8
ガラス
 10
-47.675
 20
29.025
 70
     8
  0
VERTEX
  8
ガラス
 10
-47.7
 20
29.025
 70
     8
  0
VERTEX
  8
ガラス
 10
-47.725
 20
29.0
 70
     8
  0
VERTEX
  8
ガラス
 10
-47.75
 20
28.975
 70
     8
  0
VERTEX
  8
ガラス
 10
-47.775
 20
28.975
 70
     8
  0
VERTEX
  8
ガラス
 10
-47.8
 20
28.95
 70
     8
  0
VERTEX
  8
ガラス
 10
-47.85
 20
28.95
 70
     8
  0
VERTEX
  8
ガラス
 10
-47.875
 20
28.925
 70
     8
  0
VERTEX
  8
ガラス
 10
-47.9
 20
28.9
 70
     8
  0
VERTEX
  8
ガラス
 10
-47.925
 20
28.9
 70
     8
  0
VERTEX
  8
ガラス
 10
-47.95
 20
28.875
 70
     8
  0
VERTEX
  8
ガラス
 10
-47.975
 20
28.85
 70
     8
  0
VERTEX
  8
ガラス
 10
-48.0
 20
28.85
 70
     8
  0
SEQEND
  0
ARC
  8
ガラス
  6
CONTINUOUS
 10
-48.227073
 20
29.267399
 40
0.477567
 50
120.563758
 51
300.563758
  0
ENDBLK
  0
BLOCK
  2
*GRP_0058
 70
    65
 10
0.0
 20
0.0
  0
POLYLINE
  8
ガラス
  6
CONTINUOUS
 66
     1
 70
     4
  0
VERTEX
  8
ガラス
 10
-41.275
 20
41.375
 70
     8
  0
VERTEX
  8
ガラス
 10
-41.225
 20
41.375
 70
     8
  0
VERTEX
  8
ガラス
 10
-41.175
 20
41.4
 70
     8
  0
VERTEX
  8
ガラス
 10
-41.125
 20
41.4
 70
     8
  0
VERTEX
  8
ガラス
 10
-41.1
 20
41.425
 70
     8
  0
VERTEX
  8
ガラス
 10
-41.05
 20
41.425
 70
     8
  0
VERTEX
  8
ガラス
 10
-41.0
 20
41.425
 70
     8
  0
VERTEX
  8
ガラス
 10
-40.95
 20
41.45
 70
     8
  0
VERTEX
  8
ガラス
 10
-40.9
 20
41.45
 70
     8
  0
VERTEX
  8
ガラス
 10
-40.875
 20
41.45
 70
     8
  0
VERTEX
  8
ガラス
 10
-40.825
 20
41.475
 70
     8
  0
VERTEX
  8
ガラス
 10
-40.775
 20
41.475
 70
     8
  0
VERTEX
  8
ガラス
 10
-40.725
 20
41.475
 70
     8
  0
VERTEX
  8
ガラス
 10
-40.7
 20
41.475
 70
     8
  0
VERTEX
  8
ガラス
 10
-40.65
 20
41.475
 70
     8
  0
VERTEX
  8
ガラス
 10
-40.6
 20
41.5
 70
     8
  0
VERTEX
  8
ガラス
 10
-40.55
 20
41.5
 70
     8
  0
VERTEX
  8
ガラス
 10
-40.525
 20
41.475
 70
     8
  0
VERTEX
  8
ガラス
 10
-40.475
 20
41.475
 70
     8
  0
VERTEX
  8
ガラス
 10
-40.425
 20
41.475
 70
     8
  0
VERTEX
  8
ガラス
 10
-40.4
 20
41.475
 70
     8
  0
VERTEX
  8
ガラス
 10
-40.35
 20
41.45
 70
     8
  0
VERTEX
  8
ガラス
 10
-40.325
 20
41.45
 70
     8
  0
VERTEX
  8
ガラス
 10
-40.275
 20
41.425
 70
     8
  0
VERTEX
  8
ガラス
 10
-40.25
 20
41.425
 70
     8
  0
VERTEX
  8
ガラス
 10
-40.2
 20
41.4
 70
     8
  0
VERTEX
  8
ガラス
 10
-40.15
 20
41.375
 70
     8
  0
VERTEX
  8
ガラス
 10
-40.125
 20
41.375
 70
     8
  0
VERTEX
  8
ガラス
 10
-40.075
 20
41.35
 70
     8
  0
VERTEX
  8
ガラス
 10
-40.05
 20
41.325
 70
     8
  0
VERTEX
  8
ガラス
 10
-40.025
 20
41.3
 70
     8
  0
VERTEX
  8
ガラス
 10
-39.975
 20
41.275
 70
     8
  0
VERTEX
  8
ガラス
 10
-39.95
 20
41.25
 70
     8
  0
VERTEX
  8
ガラス
 10
-39.9
 20
41.225
 70
     8
  0
VERTEX
  8
ガラス
 10
-39.875
 20
41.2
 70
     8
  0
VERTEX
  8
ガラス
 10
-39.825
 20
41.15
 70
     8
  0
VERTEX
  8
ガラス
 10
-39.8
 20
41.125
 70
     8
  0
VERTEX
  8
ガラス
 10
-39.75
 20
41.1
 70
     8
  0
VERTEX
  8
ガラス
 10
-39.725
 20
41.075
 70
     8
  0
VERTEX
  8
ガラス
 10
-39.7
 20
41.05
 70
     8
  0
VERTEX
  8
ガラス
 10
-39.65
 20
41.0
 70
     8
  0
SEQEND
  0
POLYLINE
  8
ガラス
  6
CONTINUOUS
 66
     1
 70
     4
  0
VERTEX
  8
ガラス
 10
-39.65
 20
41.0
 70
     8
  0
VERTEX
  8
ガラス
 10
-39.675
 20
41.0
 70
     8
  0
VERTEX
  8
ガラス
 10
-39.725
 20
41.0
 70
     8
  0
VERTEX
  8
ガラス
 10
-39.75
 20
41.0
 70
     8
  0
VERTEX
  8
ガラス
 10
-39.775
 20
40.975
 70
     8
  0
VERTEX
  8
ガラス
 10
-39.8
 20
40.975
 70
     8
  0
VERTEX
  8
ガラス
 10
-39.825
 20
40.975
 70
     8
  0
VERTEX
  8
ガラス
 10
-39.875
 20
40.95
 70
     8
  0
VERTEX
  8
ガラス
 10
-39.9
 20
40.95
 70
     8
  0
VERTEX
  8
ガラス
 10
-39.925
 20
40.95
 70
     8
  0
VERTEX
  8
ガラス
 10
-39.95
 20
40.925
 70
     8
  0
VERTEX
  8
ガラス
 10
-39.975
 20
40.925
 70
     8
  0
VERTEX
  8
ガラス
 10
-40.0
 20
40.925
 70
     8
  0
VERTEX
  8
ガラス
 10
-40.05
 20
40.9
 70
     8
  0
VERTEX
  8
ガラス
 10
-40.075
 20
40.9
 70
     8
  0
VERTEX
  8
ガラス
 10
-40.1
 20
40.875
 70
     8
  0
VERTEX
  8
ガラス
 10
-40.125
 20
40.875
 70
     8
  0
VERTEX
  8
ガラス
 10
-40.15
 20
40.875
 70
     8
  0
VERTEX
  8
ガラス
 10
-40.175
 20
40.85
 70
     8
  0
VERTEX
  8
ガラス
 10
-40.225
 20
40.85
 70
     8
  0
VERTEX
  8
ガラス
 10
-40.25
 20
40.825
 70
     8
  0
VERTEX
  8
ガラス
 10
-40.275
 20
40.825
 70
     8
  0
VERTEX
  8
ガラス
 10
-40.3
 20
40.8
 70
     8
  0
VERTEX
  8
ガラス
 10
-40.325
 20
40.8
 70
     8
  0
VERTEX
  8
ガラス
 10
-40.35
 20
40.775
 70
     8
  0
VERTEX
  8
ガラス
 10
-40.375
 20
40.775
 70
     8
  0
VERTEX
  8
ガラス
 10
-40.4
 20
40.75
 70
     8
  0
VERTEX
  8
ガラス
 10
-40.425
 20
40.75
 70
     8
  0
VERTEX
  8
ガラス
 10
-40.475
 20
40.725
 70
     8
  0
VERTEX
  8
ガラス
 10
-40.5
 20
40.725
 70
     8
  0
VERTEX
  8
ガラス
 10
-40.525
 20
40.7
 70
     8
  0
VERTEX
  8
ガラス
 10
-40.55
 20
40.675
 70
     8
  0
VERTEX
  8
ガラス
 10
-40.575
 20
40.675
 70
     8
  0
VERTEX
  8
ガラス
 10
-40.6
 20
40.65
 70
     8
  0
VERTEX
  8
ガラス
 10
-40.625
 20
40.65
 70
     8
  0
VERTEX
  8
ガラス
 10
-40.65
 20
40.625
 70
     8
  0
VERTEX
  8
ガラス
 10
-40.675
 20
40.6
 70
     8
  0
VERTEX
  8
ガラス
 10
-40.7
 20
40.6
 70
     8
  0
VERTEX
  8
ガラス
 10
-40.725
 20
40.575
 70
     8
  0
VERTEX
  8
ガラス
 10
-40.75
 20
40.55
 70
     8
  0
VERTEX
  8
ガラス
 10
-40.775
 20
40.55
 70
     8
  0
SEQEND
  0
ARC
  8
ガラス
  6
CONTINUOUS
 10
-41.013769
 20
40.967545
 40
0.477567
 50
120.563758
 51
300.563758
  0
ENDBLK
  0
BLOCK
  2
*GRP_0059
 70
    65
 10
0.0
 20
0.0
  0
POLYLINE
  8
ガラス
  6
CONTINUOUS
 66
     1
 70
     4
  0
VERTEX
  8
ガラス
 10
-46.025
 20
36.075
 70
     8
  0
VERTEX
  8
ガラス
 10
-46.025
 20
36.125
 70
     8
  0
VERTEX
  8
ガラス
 10
-46.0
 20
36.175
 70
     8
  0
VERTEX
  8
ガラス
 10
-46.0
 20
36.225
 70
     8
  0
VERTEX
  8
ガラス
 10
-46.0
 20
36.25
 70
     8
  0
VERTEX
  8
ガラス
 10
-46.0
 20
36.3
 70
     8
  0
VERTEX
  8
ガラス
 10
-46.0
 20
36.35
 70
     8
  0
VERTEX
  8
ガラス
 10
-45.975
 20
36.4
 70
     8
  0
VERTEX
  8
ガラス
 10
-45.975
 20
36.45
 70
     8
  0
VERTEX
  8
ガラス
 10
-45.975
 20
36.475
 70
     8
  0
VERTEX
  8
ガラス
 10
-45.95
 20
36.525
 70
     8
  0
VERTEX
  8
ガラス
 10
-45.95
 20
36.575
 70
     8
  0
VERTEX
  8
ガラス
 10
-45.95
 20
36.625
 70
     8
  0
VERTEX
  8
ガラス
 10
-45.925
 20
36.65
 70
     8
  0
VERTEX
  8
ガラス
 10
-45.925
 20
36.7
 70
     8
  0
VERTEX
  8
ガラス
 10
-45.9
 20
36.75
 70
     8
  0
VERTEX
  8
ガラス
 10
-45.9
 20
36.775
 70
     8
  0
VERTEX
  8
ガラス
 10
-45.875
 20
36.825
 70
     8
  0
VERTEX
  8
ガラス
 10
-45.85
 20
36.85
 70
     8
  0
VERTEX
  8
ガラス
 10
-45.825
 20
36.9
 70
     8
  0
VERTEX
  8
ガラス
 10
-45.825
 20
36.925
 70
     8
  0
VERTEX
  8
ガラス
 10
-45.8
 20
36.975
 70
     8
  0
VERTEX
  8
ガラス
 10
-45.775
 20
37.0
 70
     8
  0
VERTEX
  8
ガラス
 10
-45.75
 20
37.025
 70
     8
  0
VERTEX
  8
ガラス
 10
-45.725
 20
37.05
 70
     8
  0
VERTEX
  8
ガラス
 10
-45.675
 20
37.1
 70
     8
  0
VERTEX
  8
ガラス
 10
-45.65
 20
37.125
 70
     8
  0
VERTEX
  8
ガラス
 10
-45.625
 20
37.15
 70
     8
  0
VERTEX
  8
ガラス
 10
-45.6
 20
37.175
 70
     8
  0
VERTEX
  8
ガラス
 10
-45.55
 20
37.2
 70
     8
  0
VERTEX
  8
ガラス
 10
-45.525
 20
37.225
 70
     8
  0
VERTEX
  8
ガラス
 10
-45.475
 20
37.25
 70
     8
  0
VERTEX
  8
ガラス
 10
-45.45
 20
37.275
 70
     8
  0
VERTEX
  8
ガラス
 10
-45.4
 20
37.3
 70
     8
  0
VERTEX
  8
ガラス
 10
-45.375
 20
37.325
 70
     8
  0
VERTEX
  8
ガラス
 10
-45.325
 20
37.35
 70
     8
  0
VERTEX
  8
ガラス
 10
-45.3
 20
37.375
 70
     8
  0
VERTEX
  8
ガラス
 10
-45.25
 20
37.4
 70
     8
  0
VERTEX
  8
ガラス
 10
-45.2
 20
37.425
 70
     8
  0
VERTEX
  8
ガラス
 10
-45.175
 20
37.45
 70
     8
  0
VERTEX
  8
ガラス
 10
-45.125
 20
37.475
 70
     8
  0
SEQEND
  0
POLYLINE
  8
ガラス
  6
CONTINUOUS
 66
     1
 70
     4
  0
VERTEX
  8
ガラス
 10
-45.125
 20
37.475
 70
     8
  0
VERTEX
  8
ガラス
 10
-45.125
 20
37.425
 70
     8
  0
VERTEX
  8
ガラス
 10
-45.125
 20
37.4
 70
     8
  0
VERTEX
  8
ガラス
 10
-45.15
 20
37.375
 70
     8
  0
VERTEX
  8
ガラス
 10
-45.15
 20
37.35
 70
     8
  0
VERTEX
  8
ガラス
 10
-45.15
 20
37.3
 70
     8
  0
VERTEX
  8
ガラス
 10
-45.15
 20
37.275
 70
     8
  0
VERTEX
  8
ガラス
 10
-45.15
 20
37.25
 70
     8
  0
VERTEX
  8
ガラス
 10
-45.15
 20
37.225
 70
     8
  0
VERTEX
  8
ガラス
 10
-45.15
 20
37.2
 70
     8
  0
VERTEX
  8
ガラス
 10
-45.15
 20
37.15
 70
     8
  0
VERTEX
  8
ガラス
 10
-45.15
 20
37.125
 70
     8
  0
VERTEX
  8
ガラス
 10
-45.15
 20
37.1
 70
     8
  0
VERTEX
  8
ガラス
 10
-45.15
 20
37.075
 70
     8
  0
VERTEX
  8
ガラス
 10
-45.175
 20
37.025
 70
     8
  0
VERTEX
  8
ガラス
 10
-45.175
 20
37.0
 70
     8
  0
VERTEX
  8
ガラス
 10
-45.175
 20
36.975
 70
     8
  0
VERTEX
  8
ガラス
 10
-45.175
 20
36.95
 70
     8
  0
VERTEX
  8
ガラス
 10
-45.175
 20
36.925
 70
     8
  0
VERTEX
  8
ガラス
 10
-45.175
 20
36.875
 70
     8
  0
VERTEX
  8
ガラス
 10
-45.175
 20
36.85
 70
     8
  0
VERTEX
  8
ガラス
 10
-45.175
 20
36.825
 70
     8
  0
VERTEX
  8
ガラス
 10
-45.15
 20
36.8
 70
     8
  0
VERTEX
  8
ガラス
 10
-45.15
 20
36.75
 70
     8
  0
VERTEX
  8
ガラス
 10
-45.15
 20
36.725
 70
     8
  0
VERTEX
  8
ガラス
 10
-45.15
 20
36.7
 70
     8
  0
VERTEX
  8
ガラス
 10
-45.15
 20
36.675
 70
     8
  0
VERTEX
  8
ガラス
 10
-45.15
 20
36.65
 70
     8
  0
VERTEX
  8
ガラス
 10
-45.15
 20
36.6
 70
     8
  0
VERTEX
  8
ガラス
 10
-45.15
 20
36.575
 70
     8
  0
VERTEX
  8
ガラス
 10
-45.125
 20
36.55
 70
     8
  0
VERTEX
  8
ガラス
 10
-45.125
 20
36.525
 70
     8
  0
VERTEX
  8
ガラス
 10
-45.125
 20
36.5
 70
     8
  0
VERTEX
  8
ガラス
 10
-45.125
 20
36.45
 70
     8
  0
VERTEX
  8
ガラス
 10
-45.125
 20
36.425
 70
     8
  0
VERTEX
  8
ガラス
 10
-45.1
 20
36.4
 70
     8
  0
VERTEX
  8
ガラス
 10
-45.1
 20
36.375
 70
     8
  0
VERTEX
  8
ガラス
 10
-45.1
 20
36.325
 70
     8
  0
VERTEX
  8
ガラス
 10
-45.1
 20
36.3
 70
     8
  0
VERTEX
  8
ガラス
 10
-45.075
 20
36.275
 70
     8
  0
VERTEX
  8
ガラス
 10
-45.075
 20
36.25
 70
     8
  0
SEQEND
  0
ARC
  8
ガラス
  6
CONTINUOUS
 10
-45.539088
 20
36.172929
 40
0.477567
 50
190.27122
 51
370.27122
  0
ENDBLK
  0
BLOCK
  2
*GRP_0060
 70
    65
 10
0.0
 20
0.0
  0
POLYLINE
  8
ガラス
  6
CONTINUOUS
 66
     1
 70
     4
  0
VERTEX
  8
ガラス
 10
-22.2
 20
-34.3
 70
     8
  0
VERTEX
  8
ガラス
 10
-22.175
 20
-34.3
 70
     8
  0
VERTEX
  8
ガラス
 10
-22.125
 20
-34.275
 70
     8
  0
VERTEX
  8
ガラス
 10
-22.075
 20
-34.275
 70
     8
  0
VERTEX
  8
ガラス
 10
-22.025
 20
-34.25
 70
     8
  0
VERTEX
  8
ガラス
 10
-21.975
 20
-34.25
 70
     8
  0
VERTEX
  8
ガラス
 10
-21.95
 20
-34.225
 70
     8
  0
VERTEX
  8
ガラス
 10
-21.9
 20
-34.225
 70
     8
  0
VERTEX
  8
ガラス
 10
-21.85
 20
-34.225
 70
     8
  0
VERTEX
  8
ガラス
 10
-21.8
 20
-34.2
 70
     8
  0
VERTEX
  8
ガラス
 10
-21.75
 20
-34.2
 70
     8
  0
VERTEX
  8
ガラス
 10
-21.725
 20
-34.2
 70
     8
  0
VERTEX
  8
ガラス
 10
-21.675
 20
-34.2
 70
     8
  0
VERTEX
  8
ガラス
 10
-21.625
 20
-34.175
 70
     8
  0
VERTEX
  8
ガラス
 10
-21.575
 20
-34.175
 70
     8
  0
VERTEX
  8
ガラス
 10
-21.55
 20
-34.175
 70
     8
  0
VERTEX
  8
ガラス
 10
-21.5
 20
-34.175
 70
     8
  0
VERTEX
  8
ガラス
 10
-21.45
 20
-34.175
 70
     8
  0
VERTEX
  8
ガラス
 10
-21.425
 20
-34.2
 70
     8
  0
VERTEX
  8
ガラス
 10
-21.375
 20
-34.2
 70
     8
  0
VERTEX
  8
ガラス
 10
-21.325
 20
-34.2
 70
     8
  0
VERTEX
  8
ガラス
 10
-21.3
 20
-34.2
 70
     8
  0
VERTEX
  8
ガラス
 10
-21.25
 20
-34.225
 70
     8
  0
VERTEX
  8
ガラス
 10
-21.225
 20
-34.225
 70
     8
  0
VERTEX
  8
ガラス
 10
-21.175
 20
-34.25
 70
     8
  0
VERTEX
  8
ガラス
 10
-21.15
 20
-34.275
 70
     8
  0
VERTEX
  8
ガラス
 10
-21.1
 20
-34.275
 70
     8
  0
VERTEX
  8
ガラス
 10
-21.075
 20
-34.3
 70
     8
  0
VERTEX
  8
ガラス
 10
-21.025
 20
-34.325
 70
     8
  0
VERTEX
  8
ガラス
 10
-21.0
 20
-34.35
 70
     8
  0
VERTEX
  8
ガラス
 10
-20.95
 20
-34.375
 70
     8
  0
VERTEX
  8
ガラス
 10
-20.925
 20
-34.4
 70
     8
  0
VERTEX
  8
ガラス
 10
-20.875
 20
-34.425
 70
     8
  0
VERTEX
  8
ガラス
 10
-20.85
 20
-34.45
 70
     8
  0
VERTEX
  8
ガラス
 10
-20.8
 20
-34.475
 70
     8
  0
VERTEX
  8
ガラス
 10
-20.775
 20
-34.5
 70
     8
  0
VERTEX
  8
ガラス
 10
-20.725
 20
-34.55
 70
     8
  0
VERTEX
  8
ガラス
 10
-20.7
 20
-34.575
 70
     8
  0
VERTEX
  8
ガラス
 10
-20.675
 20
-34.6
 70
     8
  0
VERTEX
  8
ガラス
 10
-20.625
 20
-34.625
 70
     8
  0
VERTEX
  8
ガラス
 10
-20.6
 20
-34.65
 70
     8
  0
SEQEND
  0
POLYLINE
  8
ガラス
  6
CONTINUOUS
 66
     1
 70
     4
  0
VERTEX
  8
ガラス
 10
-20.6
 20
-34.65
 70
     8
  0
VERTEX
  8
ガラス
 10
-20.625
 20
-34.675
 70
     8
  0
VERTEX
  8
ガラス
 10
-20.65
 20
-34.675
 70
     8
  0
VERTEX
  8
ガラス
 10
-20.675
 20
-34.675
 70
     8
  0
VERTEX
  8
ガラス
 10
-20.725
 20
-34.7
 70
     8
  0
VERTEX
  8
ガラス
 10
-20.75
 20
-34.7
 70
     8
  0
VERTEX
  8
ガラス
 10
-20.775
 20
-34.7
 70
     8
  0
VERTEX
  8
ガラス
 10
-20.8
 20
-34.725
 70
     8
  0
VERTEX
  8
ガラス
 10
-20.825
 20
-34.725
 70
     8
  0
VERTEX
  8
ガラス
 10
-20.875
 20
-34.725
 70
     8
  0
VERTEX
  8
ガラス
 10
-20.9
 20
-34.75
 70
     8
  0
VERTEX
  8
ガラス
 10
-20.925
 20
-34.75
 70
     8
  0
VERTEX
  8
ガラス
 10
-20.95
 20
-34.75
 70
     8
  0
VERTEX
  8
ガラス
 10
-20.975
 20
-34.775
 70
     8
  0
VERTEX
  8
ガラス
 10
-21.0
 20
-34.775
 70
     8
  0
VERTEX
  8
ガラス
 10
-21.05
 20
-34.775
 70
     8
  0
VERTEX
  8
ガラス
 10
-21.075
 20
-34.8
 70
     8
  0
VERTEX
  8
ガラス
 10
-21.1
 20
-34.8
 70
     8
  0
VERTEX
  8
ガラス
 10
-21.125
 20
-34.825
 70
     8
  0
VERTEX
  8
ガラス
 10
-21.15
 20
-34.825
 70
     8
  0
VERTEX
  8
ガラス
 10
-21.175
 20
-34.85
 70
     8
  0
VERTEX
  8
ガラス
 10
-21.2
 20
-34.85
 70
     8
  0
VERTEX
  8
ガラス
 10
-21.25
 20
-34.875
 70
     8
  0
VERTEX
  8
ガラス
 10
-21.275
 20
-34.875
 70
     8
  0
VERTEX
  8
ガラス
 10
-21.3
 20
-34.9
 70
     8
  0
VERTEX
  8
ガラス
 10
-21.325
 20
-34.9
 70
     8
  0
VERTEX
  8
ガラス
 10
-21.35
 20
-34.925
 70
     8
  0
VERTEX
  8
ガラス
 10
-21.375
 20
-34.925
 70
     8
  0
VERTEX
  8
ガラス
 10
-21.4
 20
-34.95
 70
     8
  0
VERTEX
  8
ガラス
 10
-21.425
 20
-34.95
 70
     8
  0
VERTEX
  8
ガラス
 10
-21.45
 20
-34.975
 70
     8
  0
VERTEX
  8
ガラス
 10
-21.475
 20
-34.975
 70
     8
  0
VERTEX
  8
ガラス
 10
-21.5
 20
-35.0
 70
     8
  0
VERTEX
  8
ガラス
 10
-21.525
 20
-35.025
 70
     8
  0
VERTEX
  8
ガラス
 10
-21.575
 20
-35.025
 70
     8
  0
VERTEX
  8
ガラス
 10
-21.6
 20
-35.05
 70
     8
  0
VERTEX
  8
ガラス
 10
-21.625
 20
-35.075
 70
     8
  0
VERTEX
  8
ガラス
 10
-21.65
 20
-35.075
 70
     8
  0
VERTEX
  8
ガラス
 10
-21.675
 20
-35.1
 70
     8
  0
VERTEX
  8
ガラス
 10
-21.7
 20
-35.1
 70
     8
  0
VERTEX
  8
ガラス
 10
-21.725
 20
-35.125
 70
     8
  0
SEQEND
  0
ARC
  8
ガラス
  6
CONTINUOUS
 10
-21.953329
 20
-34.70345
 40
0.477567
 50
120.563758
 51
300.563758
  0
ENDBLK
  0
BLOCK
  2
*GRP_0061
 70
    65
 10
0.0
 20
0.0
  0
POLYLINE
  8
ガラス
  6
CONTINUOUS
 66
     1
 70
     4
  0
VERTEX
  8
ガラス
 10
-13.775
 20
-34.3
 70
     8
  0
VERTEX
  8
ガラス
 10
-13.725
 20
-34.3
 70
     8
  0
VERTEX
  8
ガラス
 10
-13.675
 20
-34.275
 70
     8
  0
VERTEX
  8
ガラス
 10
-13.625
 20
-34.275
 70
     8
  0
VERTEX
  8
ガラス
 10
-13.6
 20
-34.25
 70
     8
  0
VERTEX
  8
ガラス
 10
-13.55
 20
-34.25
 70
     8
  0
VERTEX
  8
ガラス
 10
-13.5
 20
-34.25
 70
     8
  0
VERTEX
  8
ガラス
 10
-13.45
 20
-34.225
 70
     8
  0
VERTEX
  8
ガラス
 10
-13.4
 20
-34.225
 70
     8
  0
VERTEX
  8
ガラス
 10
-13.375
 20
-34.2
 70
     8
  0
VERTEX
  8
ガラス
 10
-13.325
 20
-34.2
 70
     8
  0
VERTEX
  8
ガラス
 10
-13.275
 20
-34.2
 70
     8
  0
VERTEX
  8
ガラス
 10
-13.225
 20
-34.2
 70
     8
  0
VERTEX
  8
ガラス
 10
-13.2
 20
-34.175
 70
     8
  0
VERTEX
  8
ガラス
 10
-13.15
 20
-34.175
 70
     8
  0
VERTEX
  8
ガラス
 10
-13.1
 20
-34.175
 70
     8
  0
VERTEX
  8
ガラス
 10
-13.05
 20
-34.175
 70
     8
  0
VERTEX
  8
ガラス
 10
-13.025
 20
-34.175
 70
     8
  0
VERTEX
  8
ガラス
 10
-12.975
 20
-34.2
 70
     8
  0
VERTEX
  8
ガラス
 10
-12.95
 20
-34.2
 70
     8
  0
VERTEX
  8
ガラス
 10
-12.9
 20
-34.2
 70
     8
  0
VERTEX
  8
ガラス
 10
-12.85
 20
-34.2
 70
     8
  0
VERTEX
  8
ガラス
 10
-12.825
 20
-34.225
 70
     8
  0
VERTEX
  8
ガラス
 10
-12.775
 20
-34.225
 70
     8
  0
VERTEX
  8
ガラス
 10
-12.75
 20
-34.25
 70
     8
  0
VERTEX
  8
ガラス
 10
-12.7
 20
-34.275
 70
     8
  0
VERTEX
  8
ガラス
 10
-12.65
 20
-34.275
 70
     8
  0
VERTEX
  8
ガラス
 10
-12.625
 20
-34.3
 70
     8
  0
VERTEX
  8
ガラス
 10
-12.6
 20
-34.325
 70
     8
  0
VERTEX
  8
ガラス
 10
-12.55
 20
-34.35
 70
     8
  0
VERTEX
  8
ガラス
 10
-12.525
 20
-34.375
 70
     8
  0
VERTEX
  8
ガラス
 10
-12.475
 20
-34.4
 70
     8
  0
VERTEX
  8
ガラス
 10
-12.45
 20
-34.425
 70
     8
  0
VERTEX
  8
ガラス
 10
-12.4
 20
-34.45
 70
     8
  0
VERTEX
  8
ガラス
 10
-12.375
 20
-34.475
 70
     8
  0
VERTEX
  8
ガラス
 10
-12.325
 20
-34.5
 70
     8
  0
VERTEX
  8
ガラス
 10
-12.3
 20
-34.55
 70
     8
  0
VERTEX
  8
ガラス
 10
-12.275
 20
-34.575
 70
     8
  0
VERTEX
  8
ガラス
 10
-12.225
 20
-34.6
 70
     8
  0
VERTEX
  8
ガラス
 10
-12.2
 20
-34.625
 70
     8
  0
VERTEX
  8
ガラス
 10
-12.15
 20
-34.65
 70
     8
  0
SEQEND
  0
POLYLINE
  8
ガラス
  6
CONTINUOUS
 66
     1
 70
     4
  0
VERTEX
  8
ガラス
 10
-12.15
 20
-34.65
 70
     8
  0
VERTEX
  8
ガラス
 10
-12.175
 20
-34.675
 70
     8
  0
VERTEX
  8
ガラス
 10
-12.225
 20
-34.675
 70
     8
  0
VERTEX
  8
ガラス
 10
-12.25
 20
-34.675
 70
     8
  0
VERTEX
  8
ガラス
 10
-12.275
 20
-34.7
 70
     8
  0
VERTEX
  8
ガラス
 10
-12.3
 20
-34.7
 70
     8
  0
VERTEX
  8
ガラス
 10
-12.325
 20
-34.7
 70
     8
  0
VERTEX
  8
ガラス
 10
-12.375
 20
-34.725
 70
     8
  0
VERTEX
  8
ガラス
 10
-12.4
 20
-34.725
 70
     8
  0
VERTEX
  8
ガラス
 10
-12.425
 20
-34.725
 70
     8
  0
VERTEX
  8
ガラス
 10
-12.45
 20
-34.75
 70
     8
  0
VERTEX
  8
ガラス
 10
-12.475
 20
-34.75
 70
     8
  0
VERTEX
  8
ガラス
 10
-12.525
 20
-34.75
 70
     8
  0
VERTEX
  8
ガラス
 10
-12.55
 20
-34.775
 70
     8
  0
VERTEX
  8
ガラス
 10
-12.575
 20
-34.775
 70
     8
  0
VERTEX
  8
ガラス
 10
-12.6
 20
-34.775
 70
     8
  0
VERTEX
  8
ガラス
 10
-12.625
 20
-34.8
 70
     8
  0
VERTEX
  8
ガラス
 10
-12.65
 20
-34.8
 70
     8
  0
VERTEX
  8
ガラス
 10
-12.675
 20
-34.825
 70
     8
  0
VERTEX
  8
ガラス
 10
-12.725
 20
-34.825
 70
     8
  0
VERTEX
  8
ガラス
 10
-12.75
 20
-34.85
 70
     8
  0
VERTEX
  8
ガラス
 10
-12.775
 20
-34.85
 70
     8
  0
VERTEX
  8
ガラス
 10
-12.8
 20
-34.875
 70
     8
  0
VERTEX
  8
ガラス
 10
-12.825
 20
-34.875
 70
     8
  0
VERTEX
  8
ガラス
 10
-12.85
 20
-34.9
 70
     8
  0
VERTEX
  8
ガラス
 10
-12.875
 20
-34.9
 70
     8
  0
VERTEX
  8
ガラス
 10
-12.9
 20
-34.925
 70
     8
  0
VERTEX
  8
ガラス
 10
-12.925
 20
-34.925
 70
     8
  0
VERTEX
  8
ガラス
 10
-12.975
 20
-34.95
 70
     8
  0
VERTEX
  8
ガラス
 10
-13.0
 20
-34.95
 70
     8
  0
VERTEX
  8
ガラス
 10
-13.025
 20
-34.975
 70
     8
  0
VERTEX
  8
ガラス
 10
-13.05
 20
-35.0
 70
     8
  0
VERTEX
  8
ガラス
 10
-13.075
 20
-35.0
 70
     8
  0
VERTEX
  8
ガラス
 10
-13.1
 20
-35.025
 70
     8
  0
VERTEX
  8
ガラス
 10
-13.125
 20
-35.025
 70
     8
  0
VERTEX
  8
ガラス
 10
-13.15
 20
-35.05
 70
     8
  0
VERTEX
  8
ガラス
 10
-13.175
 20
-35.075
 70
     8
  0
VERTEX
  8
ガラス
 10
-13.2
 20
-35.075
 70
     8
  0
VERTEX
  8
ガラス
 10
-13.225
 20
-35.1
 70
     8
  0
VERTEX
  8
ガラス
 10
-13.25
 20
-35.1
 70
     8
  0
VERTEX
  8
ガラス
 10
-13.275
 20
-35.125
 70
     8
  0
SEQEND
  0
ARC
  8
ガラス
  6
CONTINUOUS
 10
-13.514245
 20
-34.704468
 40
0.477567
 50
120.563758
 51
300.563758
  0
ENDBLK
  0
BLOCK
  2
*GRP_0062
 70
    65
 10
0.0
 20
0.0
  0
POLYLINE
  8
ガラス
  6
CONTINUOUS
 66
     1
 70
     4
  0
VERTEX
  8
ガラス
 10
-26.575
 20
-34.35
 70
     8
  0
VERTEX
  8
ガラス
 10
-26.525
 20
-34.325
 70
     8
  0
VERTEX
  8
ガラス
 10
-26.5
 20
-34.325
 70
     8
  0
VERTEX
  8
ガラス
 10
-26.45
 20
-34.3
 70
     8
  0
VERTEX
  8
ガラス
 10
-26.4
 20
-34.3
 70
     8
  0
VERTEX
  8
ガラス
 10
-26.35
 20
-34.275
 70
     8
  0
VERTEX
  8
ガラス
 10
-26.3
 20
-34.275
 70
     8
  0
VERTEX
  8
ガラス
 10
-26.275
 20
-34.275
 70
     8
  0
VERTEX
  8
ガラス
 10
-26.225
 20
-34.25
 70
     8
  0
VERTEX
  8
ガラス
 10
-26.175
 20
-34.25
 70
     8
  0
VERTEX
  8
ガラス
 10
-26.125
 20
-34.25
 70
     8
  0
VERTEX
  8
ガラス
 10
-26.1
 20
-34.225
 70
     8
  0
VERTEX
  8
ガラス
 10
-26.05
 20
-34.225
 70
     8
  0
VERTEX
  8
ガラス
 10
-26.0
 20
-34.225
 70
     8
  0
VERTEX
  8
ガラス
 10
-25.95
 20
-34.225
 70
     8
  0
VERTEX
  8
ガラス
 10
-25.925
 20
-34.225
 70
     8
  0
VERTEX
  8
ガラス
 10
-25.875
 20
-34.225
 70
     8
  0
VERTEX
  8
ガラス
 10
-25.825
 20
-34.225
 70
     8
  0
VERTEX
  8
ガラス
 10
-25.8
 20
-34.225
 70
     8
  0
VERTEX
  8
ガラス
 10
-25.75
 20
-34.225
 70
     8
  0
VERTEX
  8
ガラス
 10
-25.7
 20
-34.225
 70
     8
  0
VERTEX
  8
ガラス
 10
-25.675
 20
-34.25
 70
     8
  0
VERTEX
  8
ガラス
 10
-25.625
 20
-34.25
 70
     8
  0
VERTEX
  8
ガラス
 10
-25.6
 20
-34.275
 70
     8
  0
VERTEX
  8
ガラス
 10
-25.55
 20
-34.275
 70
     8
  0
VERTEX
  8
ガラス
 10
-25.5
 20
-34.3
 70
     8
  0
VERTEX
  8
ガラス
 10
-25.475
 20
-34.325
 70
     8
  0
VERTEX
  8
ガラス
 10
-25.425
 20
-34.35
 70
     8
  0
VERTEX
  8
ガラス
 10
-25.4
 20
-34.375
 70
     8
  0
VERTEX
  8
ガラス
 10
-25.35
 20
-34.375
 70
     8
  0
VERTEX
  8
ガラス
 10
-25.325
 20
-34.4
 70
     8
  0
VERTEX
  8
ガラス
 10
-25.3
 20
-34.425
 70
     8
  0
VERTEX
  8
ガラス
 10
-25.25
 20
-34.475
 70
     8
  0
VERTEX
  8
ガラス
 10
-25.225
 20
-34.5
 70
     8
  0
VERTEX
  8
ガラス
 10
-25.175
 20
-34.525
 70
     8
  0
VERTEX
  8
ガラス
 10
-25.15
 20
-34.55
 70
     8
  0
VERTEX
  8
ガラス
 10
-25.1
 20
-34.575
 70
     8
  0
VERTEX
  8
ガラス
 10
-25.075
 20
-34.6
 70
     8
  0
VERTEX
  8
ガラス
 10
-25.05
 20
-34.625
 70
     8
  0
VERTEX
  8
ガラス
 10
-25.0
 20
-34.675
 70
     8
  0
VERTEX
  8
ガラス
 10
-24.975
 20
-34.7
 70
     8
  0
SEQEND
  0
POLYLINE
  8
ガラス
  6
CONTINUOUS
 66
     1
 70
     4
  0
VERTEX
  8
ガラス
 10
-24.975
 20
-34.7
 70
     8
  0
VERTEX
  8
ガラス
 10
-25.0
 20
-34.7
 70
     8
  0
VERTEX
  8
ガラス
 10
-25.025
 20
-34.7
 70
     8
  0
VERTEX
  8
ガラス
 10
-25.05
 20
-34.725
 70
     8
  0
VERTEX
  8
ガラス
 10
-25.075
 20
-34.725
 70
     8
  0
VERTEX
  8
ガラス
 10
-25.125
 20
-34.725
 70
     8
  0
VERTEX
  8
ガラス
 10
-25.15
 20
-34.75
 70
     8
  0
VERTEX
  8
ガラス
 10
-25.175
 20
-34.75
 70
     8
  0
VERTEX
  8
ガラス
 10
-25.2
 20
-34.75
 70
     8
  0
VERTEX
  8
ガラス
 10
-25.225
 20
-34.775
 70
     8
  0
VERTEX
  8
ガラス
 10
-25.275
 20
-34.775
 70
     8
  0
VERTEX
  8
ガラス
 10
-25.3
 20
-34.775
 70
     8
  0
VERTEX
  8
ガラス
 10
-25.325
 20
-34.8
 70
     8
  0
VERTEX
  8
ガラス
 10
-25.35
 20
-34.8
 70
     8
  0
VERTEX
  8
ガラス
 10
-25.375
 20
-34.825
 70
     8
  0
VERTEX
  8
ガラス
 10
-25.4
 20
-34.825
 70
     8
  0
VERTEX
  8
ガラス
 10
-25.45
 20
-34.825
 70
     8
  0
VERTEX
  8
ガラス
 10
-25.475
 20
-34.85
 70
     8
  0
VERTEX
  8
ガラス
 10
-25.5
 20
-34.85
 70
     8
  0
VERTEX
  8
ガラス
 10
-25.525
 20
-34.875
 70
     8
  0
VERTEX
  8
ガラス
 10
-25.55
 20
-34.875
 70
     8
  0
VERTEX
  8
ガラス
 10
-25.575
 20
-34.875
 70
     8
  0
VERTEX
  8
ガラス
 10
-25.6
 20
-34.9
 70
     8
  0
VERTEX
  8
ガラス
 10
-25.65
 20
-34.9
 70
     8
  0
VERTEX
  8
ガラス
 10
-25.675
 20
-34.925
 70
     8
  0
VERTEX
  8
ガラス
 10
-25.7
 20
-34.95
 70
     8
  0
VERTEX
  8
ガラス
 10
-25.725
 20
-34.95
 70
     8
  0
VERTEX
  8
ガラス
 10
-25.75
 20
-34.975
 70
     8
  0
VERTEX
  8
ガラス
 10
-25.775
 20
-34.975
 70
     8
  0
VERTEX
  8
ガラス
 10
-25.8
 20
-35.0
 70
     8
  0
VERTEX
  8
ガラス
 10
-25.825
 20
-35.0
 70
     8
  0
VERTEX
  8
ガラス
 10
-25.85
 20
-35.025
 70
     8
  0
VERTEX
  8
ガラス
 10
-25.875
 20
-35.05
 70
     8
  0
VERTEX
  8
ガラス
 10
-25.9
 20
-35.05
 70
     8
  0
VERTEX
  8
ガラス
 10
-25.925
 20
-35.075
 70
     8
  0
VERTEX
  8
ガラス
 10
-25.95
 20
-35.075
 70
     8
  0
VERTEX
  8
ガラス
 10
-26.0
 20
-35.1
 70
     8
  0
VERTEX
  8
ガラス
 10
-26.025
 20
-35.125
 70
     8
  0
VERTEX
  8
ガラス
 10
-26.05
 20
-35.125
 70
     8
  0
VERTEX
  8
ガラス
 10
-26.075
 20
-35.15
 70
     8
  0
VERTEX
  8
ガラス
 10
-26.1
 20
-35.175
 70
     8
  0
SEQEND
  0
ARC
  8
ガラス
  6
CONTINUOUS
 10
-26.324999
 20
-34.739248
 40
0.477567
 50
120.563758
 51
300.563758
  0
ENDBLK
  0
BLOCK
  2
*GRP_0063
 70
    65
 10
0.0
 20
0.0
  0
LINE
  8
型材断面
  6
CONTINUOUS
 62
    47
 10
113.292335
 20
-44.55992
 11
113.295135
 21
-44.55992
  0
ARC
  8
型材断面
  6
CONTINUOUS
 62
    47
 10
112.795136
 20
-26.959914
 40
0.25
 50
90.0
 51
180.0
  0
ARC
  8
型材断面
  6
CONTINUOUS
 62
    47
 10
112.795136
 20
-27.209914
 40
0.25
 50
180.0
 51
270.0
  0
ARC
  8
型材断面
  6
CONTINUOUS
 62
    47
 10
101.795129
 20
-16.109186
 40
0.25
 50
180.0
 51
270.0
  0
ARC
  8
型材断面
  6
CONTINUOUS
 62
    47
 10
102.045129
 20
-16.109186
 40
0.25
 50
270.0
 51
360.0
  0
ARC
  8
型材断面
  6
CONTINUOUS
 62
    47
 10
130.045132
 20
-39.809919
 40
0.25
 50
90.0
 51
180.0
  0
ARC
  8
型材断面
  6
CONTINUOUS
 62
    47
 10
130.295132
 20
-39.809919
 40
0.25
 50
0.0
 51
90.0
  0
ARC
  8
型材断面
  6
CONTINUOUS
 62
    47
 10
130.045132
 20
-20.809924
 40
0.25
 50
180.0
 51
270.0
  0
ARC
  8
型材断面
  6
CONTINUOUS
 62
    47
 10
130.295132
 20
-20.809924
 40
0.25
 50
270.0
 51
360.0
  0
ARC
  8
型材断面
  6
CONTINUOUS
 62
    47
 10
130.545132
 20
-20.059923
 40
0.75
 50
90.0
 51
180.0
  0
LINE
  8
型材断面
  6
CONTINUOUS
 62
    47
 10
88.115842
 20
-2.989395
 11
98.368955
 21
7.263693
  0
LINE
  8
型材断面
  6
CONTINUOUS
 62
    47
 10
99.07607
 20
7.263682
 11
100.136693
 21
6.203005
  0
ARC
  8
型材断面
  6
CONTINUOUS
 62
    47
 10
98.722506
 20
6.91014
 40
0.5
 50
44.998573
 51
134.999937
  0
LINE
  8
型材断面
  6
CONTINUOUS
 62
    47
 10
112.545135
 20
-26.959918
 11
112.545135
 21
-27.209915
  0
LINE
  8
型材断面
  6
CONTINUOUS
 62
    47
 10
101.79513
 20
-16.359188
 11
102.045127
 21
-16.359188
  0
LINE
  8
型材断面
  6
CONTINUOUS
 62
    47
 10
130.045132
 20
-39.55992
 11
130.29513
 21
-39.55992
  0
LINE
  8
型材断面
  6
CONTINUOUS
 62
    47
 10
130.045132
 20
-21.059925
 11
130.29513
 21
-21.059925
  0
LINE
  8
型材断面
  6
CONTINUOUS
 62
    47
 10
129.795132
 20
-20.059925
 11
129.795132
 21
-20.809925
  0
ARC
  8
型材断面
  6
CONTINUOUS
 62
    47
 10
113.197336
 20
-45.409918
 40
0.15
 50
180.0
 51
270.0
  0
LINE
  8
型材断面
  6
CONTINUOUS
 62
    47
 10
113.197335
 20
-45.55992
 11
114.147337
 21
-45.55992
  0
ARC
  8
型材断面
  6
CONTINUOUS
 62
    47
 10
114.147339
 20
-45.409918
 40
0.150001
 50
270.0
 51
359.790786
  0
LINE
  8
型材断面
  6
CONTINUOUS
 62
    47
 10
114.297337
 20
-45.410467
 11
114.297337
 21
-41.05992
  0
LINE
  8
型材断面
  6
CONTINUOUS
 62
    47
 10
129.795132
 20
-40.30992
 11
114.297343
 21
-40.30992
  0
LINE
  8
型材断面
  6
CONTINUOUS
 62
    47
 10
129.795132
 20
-40.30992
 11
129.795132
 21
-39.809922
  0
LINE
  8
型材断面
  6
CONTINUOUS
 62
    47
 10
130.545132
 20
-40.30992
 11
130.545132
 21
-39.809922
  0
LINE
  8
型材断面
  6
CONTINUOUS
 62
    47
 10
133.047335
 20
-41.05992
 11
114.297337
 21
-41.05992
  0
LINE
  8
型材断面
  6
CONTINUOUS
 62
    47
 10
130.545132
 20
-20.059925
 11
130.545132
 21
-20.809925
  0
LINE
  8
型材断面
  6
CONTINUOUS
 62
    47
 10
132.297335
 20
-17.059177
 11
114.047337
 21
-17.059177
  0
LINE
  8
型材断面
  6
CONTINUOUS
 62
    47
 10
133.047335
 20
-13.059177
 11
133.047335
 21
-41.05992
  0
LINE
  8
型材断面
  6
CONTINUOUS
 62
    47
 10
133.047335
 20
-13.059177
 11
132.297335
 21
-13.059177
  0
LINE
  8
型材断面
  6
CONTINUOUS
 62
    47
 10
114.047337
 20
-17.059177
 11
114.047337
 21
-8.06121
  0
LINE
  8
型材断面
  6
CONTINUOUS
 62
    47
 10
109.965473
 20
-3.979348
 11
114.047337
 21
-8.06121
  0
LINE
  8
型材断面
  6
CONTINUOUS
 62
    47
 10
108.7634
 20
-5.18142
 11
109.965473
 21
-3.979348
  0
LINE
  8
型材断面
  6
CONTINUOUS
 62
    47
 10
108.7634
 20
-5.605685
 11
108.7634
 21
-5.18142
  0
LINE
  8
型材断面
  6
CONTINUOUS
 62
    47
 10
108.7634
 20
-5.605685
 11
109.081597
 21
-5.923883
  0
LINE
  8
型材断面
  6
CONTINUOUS
 62
    47
 10
109.081597
 20
-5.923883
 11
109.965473
 21
-5.040007
  0
LINE
  8
型材断面
  6
CONTINUOUS
 62
    47
 10
107.667382
 20
-9.81297
 11
106.429947
 21
-8.575535
  0
LINE
  8
型材断面
  6
CONTINUOUS
 62
    47
 10
107.313832
 20
-7.691647
 11
106.429947
 21
-8.575535
  0
LINE
  8
型材断面
  6
CONTINUOUS
 62
    47
 10
106.995635
 20
-7.37345
 11
107.313832
 21
-7.691647
  0
LINE
  8
型材断面
  6
CONTINUOUS
 62
    47
 10
106.57137
 20
-7.37345
 11
106.995635
 21
-7.37345
  0
LINE
  8
型材断面
  6
CONTINUOUS
 62
    47
 10
104.20148
 20
-13.771753
 11
104.485373
 21
-14.055642
  0
LINE
  8
型材断面
  6
CONTINUOUS
 62
    47
 10
101.37305
 20
-12.35754
 11
102.61052
 21
-11.12007
  0
LINE
  8
型材断面
  6
CONTINUOUS
 62
    47
 10
101.37305
 20
-12.71109
 11
101.37305
 21
-12.35754
  0
LINE
  8
型材断面
  6
CONTINUOUS
 62
    47
 10
101.37305
 20
-12.71109
 11
101.0195
 21
-12.71109
  0
LINE
  8
型材断面
  6
CONTINUOUS
 62
    47
 10
99.42851
 20
-14.30208
 11
101.0195
 21
-12.71109
  0
LINE
  8
型材断面
  6
CONTINUOUS
 62
    47
 10
104.20148
 20
-13.771753
 11
102.29513
 21
-15.678103
  0
LINE
  8
型材断面
  6
CONTINUOUS
 62
    47
 10
102.29513
 20
-15.678103
 11
102.29513
 21
-16.109188
  0
LINE
  8
型材断面
  6
CONTINUOUS
 62
    47
 10
101.54513
 20
-15.711545
 11
101.54513
 21
-16.109188
  0
LINE
  8
型材断面
  6
CONTINUOUS
 62
    47
 10
100.489198
 20
-14.655608
 11
101.54513
 21
-15.711545
  0
LINE
  8
型材断面
  6
CONTINUOUS
 62
    47
 10
100.489198
 20
-14.655608
 11
100.297333
 21
-14.84747
  0
LINE
  8
型材断面
  6
CONTINUOUS
 62
    47
 10
93.878752
 20
-10.166528
 11
99.547333
 21
-15.835123
  0
LINE
  8
型材断面
  6
CONTINUOUS
 62
    47
 10
93.878752
 20
-9.954403
 11
93.878752
 21
-10.166528
  0
LINE
  8
型材断面
  6
CONTINUOUS
 62
    47
 10
93.878752
 20
-9.954403
 11
93.66663
 21
-9.954403
  0
LINE
  8
型材断面
  6
CONTINUOUS
 62
    47
 10
87.939072
 20
-4.226825
 11
93.66663
 21
-9.954403
  0
LINE
  8
型材断面
  6
CONTINUOUS
 62
    47
 10
87.939072
 20
-4.226825
 11
85.295318
 21
-6.870578
  0
LINE
  8
型材断面
  6
CONTINUOUS
 62
    47
 10
85.295318
 20
-6.870578
 11
85.295375
 21
-9.059925
  0
LINE
  8
型材断面
  6
CONTINUOUS
 62
    47
 10
85.295375
 20
-9.059925
 11
84.545375
 21
-9.059925
  0
LINE
  8
型材断面
  6
CONTINUOUS
 62
    47
 10
84.545307
 20
-6.559925
 11
84.545375
 21
-9.059925
  0
LINE
  8
型材断面
  6
CONTINUOUS
 62
    47
 10
88.115842
 20
-2.989395
 11
84.545307
 21
-6.559925
  0
LINE
  8
型材断面
  6
CONTINUOUS
 62
    47
 10
88.822955
 20
-3.6965
 11
99.42851
 21
-14.30208
  0
LINE
  8
型材断面
  6
CONTINUOUS
 62
    47
 10
96.601175
 20
4.081705
 11
88.822955
 21
-3.6965
  0
LINE
  8
型材断面
  6
CONTINUOUS
 62
    47
 10
97.308262
 20
3.37458
 11
96.601175
 21
4.081705
  0
LINE
  8
型材断面
  6
CONTINUOUS
 62
    47
 10
100.136693
 20
6.203005
 11
97.308262
 21
3.37458
  0
LINE
  8
型材断面
  6
CONTINUOUS
 62
    47
 10
100.297333
 20
-28.709915
 11
100.297333
 21
-14.84747
  0
LINE
  8
型材断面
  6
CONTINUOUS
 62
    47
 10
99.547333
 20
-30.459915
 11
100.297333
 21
-30.459915
  0
LINE
  8
型材断面
  6
CONTINUOUS
 62
    47
 10
100.297333
 20
-29.459915
 11
100.297333
 21
-30.459915
  0
LINE
  8
型材断面
  6
CONTINUOUS
 62
    47
 10
100.297333
 20
-29.459915
 11
113.297337
 21
-29.459915
  0
LINE
  8
型材断面
  6
CONTINUOUS
 62
    47
 10
113.297337
 20
-26.709915
 11
112.795138
 21
-26.709915
  0
LINE
  8
型材断面
  6
CONTINUOUS
 62
    47
 10
113.297337
 20
-27.459915
 11
112.795138
 21
-27.459915
  0
LINE
  8
型材断面
  6
CONTINUOUS
 62
    47
 10
113.297337
 20
-28.709915
 11
113.297337
 21
-27.459915
  0
LINE
  8
型材断面
  6
CONTINUOUS
 62
    47
 10
100.297333
 20
-28.709915
 11
113.297337
 21
-28.709915
  0
LINE
  8
型材断面
  6
CONTINUOUS
 62
    47
 10
106.57137
 20
-7.37345
 11
105.369285
 21
-8.575535
  0
LINE
  8
型材断面
  6
CONTINUOUS
 62
    47
 10
104.4854
 20
-12.994957
 11
102.61052
 21
-11.12007
  0
LINE
  8
型材断面
  6
CONTINUOUS
 62
    47
 10
104.4854
 20
-12.994957
 11
107.137055
 21
-10.3433
  0
LINE
  8
型材断面
  6
CONTINUOUS
 62
    47
 10
107.667382
 20
-9.81297
 11
111.20291
 21
-6.277445
  0
LINE
  8
型材断面
  6
CONTINUOUS
 62
    47
 10
107.137055
 20
-10.3433
 11
105.369285
 21
-8.575535
  0
LINE
  8
型材断面
  6
CONTINUOUS
 62
    47
 10
113.297337
 20
-26.709915
 11
113.297337
 21
-8.371872
  0
LINE
  8
型材断面
  6
CONTINUOUS
 62
    47
 10
111.733238
 20
-6.807773
 11
104.485373
 21
-14.055642
  0
LINE
  8
型材断面
  6
CONTINUOUS
 62
    47
 10
113.297337
 20
-8.371872
 11
111.733238
 21
-6.807773
  0
LINE
  8
型材断面
  6
CONTINUOUS
 62
    47
 10
111.20291
 20
-6.277445
 11
109.965473
 21
-5.040007
  0
LINE
  8
型材断面
  6
CONTINUOUS
 62
    47
 10
113.047335
 20
-45.40992
 11
113.047335
 21
-44.80992
  0
ARC
  8
型材断面
  6
CONTINUOUS
 62
    47
 10
113.297336
 20
-44.809918
 40
0.25
 50
89.999657
 51
180.0
  0
LINE
  8
型材断面
  6
CONTINUOUS
 62
    47
 10
130.545132
 20
-40.30992
 11
132.297335
 21
-40.30992
  0
LINE
  8
型材断面
  6
CONTINUOUS
 62
    47
 10
132.297335
 20
-17.059177
 11
132.297335
 21
-13.059177
  0
LINE
  8
型材断面
  6
CONTINUOUS
 62
    47
 10
132.297335
 20
-20.059925
 11
130.545132
 21
-20.059925
  0
LINE
  8
型材断面
  6
CONTINUOUS
 62
    47
 10
132.297335
 20
-40.30992
 11
132.297335
 21
-20.059925
  0
LINE
  8
型材断面
  6
CONTINUOUS
 62
    47
 10
132.297335
 20
-19.309925
 11
130.545132
 21
-19.309925
  0
LINE
  8
型材断面
  6
CONTINUOUS
 62
    47
 10
132.297335
 20
-19.309925
 11
132.297335
 21
-17.809177
  0
LINE
  8
型材断面
  6
CONTINUOUS
 62
    47
 10
132.297335
 20
-17.809177
 11
114.297343
 21
-17.809177
  0
LINE
  8
型材断面
  6
CONTINUOUS
 62
    47
 10
114.297343
 20
-17.809177
 11
114.297343
 21
-40.30992
  0
LINE
  8
型材断面
  6
CONTINUOUS
 62
    47
 10
113.297337
 20
-39.45992
 11
113.447337
 21
-39.30992
  0
LINE
  8
型材断面
  6
CONTINUOUS
 62
    47
 10
113.297337
 20
-39.45992
 11
113.297337
 21
-44.559973
  0
LINE
  8
型材断面
  6
CONTINUOUS
 62
    47
 10
113.447337
 20
-39.30992
 11
113.297337
 21
-39.15992
  0
LINE
  8
型材断面
  6
CONTINUOUS
 62
    47
 10
113.297337
 20
-39.15992
 11
113.297337
 21
-29.459915
  0
LINE
  8
型材断面
  6
CONTINUOUS
 62
    47
 10
99.547333
 20
-15.835123
 11
99.547333
 21
-18.659915
  0
LINE
  8
型材断面
  6
CONTINUOUS
 62
    47
 10
99.697333
 20
-18.809915
 11
99.547333
 21
-18.659915
  0
LINE
  8
型材断面
  6
CONTINUOUS
 62
    47
 10
99.697333
 20
-18.809915
 11
99.547333
 21
-18.959915
  0
LINE
  8
型材断面
  6
CONTINUOUS
 62
    47
 10
99.547333
 20
-30.459915
 11
99.547333
 21
-18.959915
  0
ENDBLK
  0
BLOCK
  2
*GRP_0064
 70
    65
 10
0.0
 20
0.0
  0
LINE
  8
ボルト／ビス
  6
CONTINUOUS
 10
137.047335
 20
-28.95992
 11
135.897337
 21
-28.20992
  0
LINE
  8
ボルト／ビス
  6
CONTINUOUS
 10
137.047335
 20
-24.959918
 11
135.897337
 21
-25.709918
  0
LINE
  8
ボルト／ビス
  6
CONTINUOUS
 10
137.047335
 20
-28.95992
 11
137.047335
 21
-24.959918
  0
LINE
  8
ボルト／ビス
  6
CONTINUOUS
 10
135.897337
 20
-28.20992
 11
135.897337
 21
-25.709918
  0
LINE
  8
ボルト／ビス
  6
CONTINUOUS
 10
138.23994
 20
-26.95992
 11
129.547335
 21
-26.95992
  0
LINE
  8
ボルト／ビス
  6
CONTINUOUS
 10
129.797337
 20
-28.209922
 11
129.547335
 21
-27.959922
  0
LINE
  8
ボルト／ビス
  6
CONTINUOUS
 10
129.797337
 20
-25.709922
 11
129.547335
 21
-25.959922
  0
LINE
  8
ボルト／ビス
  6
CONTINUOUS
 10
129.547335
 20
-25.959922
 11
129.547335
 21
-27.959922
  0
LINE
  8
ボルト／ビス
  6
CONTINUOUS
 10
129.797337
 20
-25.709922
 11
129.797337
 21
-28.209922
  0
LINE
  8
ボルト／ビス
  6
CONTINUOUS
 10
135.897337
 20
-25.709918
 11
129.797337
 21
-25.709918
  0
LINE
  8
ボルト／ビス
  6
CONTINUOUS
 10
135.897337
 20
-28.20992
 11
129.797337
 21
-28.20992
  0
LINE
  8
ボルト／ビス
  6
CONTINUOUS
 10
135.897337
 20
-25.95992
 11
129.547335
 21
-25.95992
  0
LINE
  8
ボルト／ビス
  6
CONTINUOUS
 10
135.897337
 20
-27.959918
 11
129.547335
 21
-27.959918
  0
ENDBLK
  0
BLOCK
  2
*GRP_0065
 70
    65
 10
0.0
 20
0.0
  0
LINE
  8
別途部材
  6
CONTINUOUS
 10
138.297335
 20
-19.20992
 11
138.297335
 21
-41.20992
  0
ARC
  8
別途部材
  6
CONTINUOUS
 10
141.297343
 20
-19.209917
 40
3.0
 50
90.0
 51
180.0
  0
LINE
  8
別途部材
  6
CONTINUOUS
 10
141.297335
 20
-16.20992
 11
141.297335
 21
-16.20992
  0
LINE
  8
別途部材
  6
CONTINUOUS
 10
144.297335
 20
-19.20992
 11
144.297335
 21
-41.20992
  0
ARC
  8
別途部材
  6
CONTINUOUS
 10
141.297343
 20
-19.209917
 40
3.0
 50
0.0
 51
90.0
  0
CIRCLE
  8
別途部材
  6
CONTINUOUS
 10
141.297335
 20
-19.20992
 40
1.5
  0
LINE
  8
別途部材
  6
CONTINUOUS
 10
139.797335
 20
-19.20992
 11
142.797335
 21
-19.20992
  0
LINE
  8
別途部材
  6
CONTINUOUS
 10
141.297335
 20
-17.70992
 11
141.297335
 21
-20.70992
  0
LINE
  8
別途部材
  6
CONTINUOUS
 10
138.297335
 20
-41.20992
 11
139.297335
 21
-41.20992
  0
LINE
  8
別途部材
  6
CONTINUOUS
 10
143.297337
 20
-41.20992
 11
144.297335
 21
-41.20992
  0
LINE
  8
別途部材
  6
CONTINUOUS
 10
139.297335
 20
-41.20992
 11
139.297335
 21
-22.20992
  0
LINE
  8
別途部材
  6
CONTINUOUS
 10
139.297335
 20
-22.20992
 11
143.297337
 21
-22.20992
  0
LINE
  8
別途部材
  6
CONTINUOUS
 10
143.297337
 20
-41.20992
 11
143.297337
 21
-22.20992
  0
ARC
  8
別途部材
  6
CONTINUOUS
 10
141.297343
 20
-22.939083
 40
1.270834
 50
90.0
 51
90.0
  0
ARC
  8
別途部材
  6
CONTINUOUS
 10
141.297343
 20
-40.98075
 40
1.270834
 50
10.38896
 51
169.61104
  0
LINE
  8
別途部材
  6
CONTINUOUS
 10
143.047335
 20
-41.20992
 11
142.547337
 21
-41.20992
  0
LINE
  8
別途部材
  6
CONTINUOUS
 10
139.547337
 20
-41.20992
 11
140.047335
 21
-41.20992
  0
CIRCLE
  8
別途部材
  6
CONTINUOUS
 10
141.297335
 20
-24.209918
 40
0.499997
  0
LINE
  8
別途部材
  6
CONTINUOUS
 10
141.797337
 20
-24.209918
 11
140.797335
 21
-24.209918
  0
LINE
  8
別途部材
  6
CONTINUOUS
 10
141.297335
 20
-23.709915
 11
141.297335
 21
-24.70992
  0
ARC
  8
別途部材
  6
CONTINUOUS
 10
141.297343
 20
-23.43908
 40
1.270834
 50
190.38896
 51
349.61104
  0
LINE
  8
別途部材
  6
CONTINUOUS
 10
143.047335
 20
-23.20992
 11
142.547337
 21
-23.20992
  0
LINE
  8
別途部材
  6
CONTINUOUS
 10
140.047335
 20
-23.20992
 11
139.547337
 21
-23.20992
  0
LINE
  8
別途部材
  6
CONTINUOUS
 10
142.547337
 20
-41.20992
 11
142.547337
 21
-23.20992
  0
LINE
  8
別途部材
  6
CONTINUOUS
 10
143.047335
 20
-41.20992
 11
143.047335
 21
-23.20992
  0
LINE
  8
別途部材
  6
CONTINUOUS
 10
140.047335
 20
-41.20992
 11
140.047335
 21
-23.20992
  0
LINE
  8
別途部材
  6
CONTINUOUS
 10
139.547337
 20
-41.20992
 11
139.547337
 21
-23.20992
  0
LINE
  8
別途部材
  6
CONTINUOUS
 10
138.297335
 20
-22.709918
 11
137.047335
 21
-22.709918
  0
LINE
  8
別途部材
  6
CONTINUOUS
 10
141.297335
 20
-15.959918
 11
141.297337
 21
-16.20992
  0
LINE
  8
別途部材
  6
CONTINUOUS
 10
133.047335
 20
-22.20992
 11
137.047335
 21
-22.20992
  0
ARC
  8
別途部材
  6
CONTINUOUS
 10
133.54734
 20
-40.709916
 40
0.5
 50
180.0
 51
270.0
  0
LINE
  8
別途部材
  6
CONTINUOUS
 10
136.547333
 20
-41.20992
 11
133.547333
 21
-41.20992
  0
ARC
  8
別途部材
  6
CONTINUOUS
 10
136.54734
 20
-40.709916
 40
0.5
 50
270.0
 51
360.0
  0
LINE
  8
別途部材
  6
CONTINUOUS
 10
133.047335
 20
-40.709918
 11
133.047335
 21
-16.45992
  0
ARC
  8
別途部材
  6
CONTINUOUS
 10
133.54734
 20
-16.459916
 40
0.5
 50
90.0
 51
180.0
  0
LINE
  8
別途部材
  6
CONTINUOUS
 10
137.047335
 20
-40.709918
 11
137.047335
 21
-16.45992
  0
ARC
  8
別途部材
  6
CONTINUOUS
 10
136.54734
 20
-16.459916
 40
0.5
 50
0.0
 51
90.0
  0
LINE
  8
別途部材
  6
CONTINUOUS
 10
133.547333
 20
-15.959918
 11
141.297335
 21
-15.959918
  0
LINE
  8
別途部材
  6
CONTINUOUS
 10
135.897335
 20
-25.709918
 11
135.897335
 21
-28.20992
  0
LINE
  8
別途部材
  6
CONTINUOUS
 10
135.897335
 20
-35.70992
 11
135.897335
 21
-38.20992
  0
POLYLINE
  8
別途部材
  6
CONTINUOUS
 66
     1
  0
VERTEX
  8
別途部材
 10
137.047335
 20
-24.959918
  0
VERTEX
  8
別途部材
 10
135.897335
 20
-25.709918
  0
VERTEX
  8
別途部材
 10
133.047335
 20
-25.709918
  0
SEQEND
  0
LINE
  8
別途部材
  6
CONTINUOUS
 10
137.047335
 20
-26.95992
 11
133.047335
 21
-26.95992
  0
POLYLINE
  8
別途部材
  6
CONTINUOUS
 66
     1
  0
VERTEX
  8
別途部材
 10
137.047335
 20
-28.95992
  0
VERTEX
  8
別途部材
 10
135.897335
 20
-28.20992
  0
VERTEX
  8
別途部材
 10
133.047335
 20
-28.20992
  0
SEQEND
  0
POLYLINE
  8
別途部材
  6
CONTINUOUS
 66
     1
  0
VERTEX
  8
別途部材
 10
137.047335
 20
-34.95992
  0
VERTEX
  8
別途部材
 10
135.897335
 20
-35.70992
  0
VERTEX
  8
別途部材
 10
133.047335
 20
-35.70992
  0
SEQEND
  0
LINE
  8
別途部材
  6
CONTINUOUS
 10
137.047335
 20
-36.959918
 11
133.047335
 21
-36.959918
  0
POLYLINE
  8
別途部材
  6
CONTINUOUS
 66
     1
  0
VERTEX
  8
別途部材
 10
137.047335
 20
-38.95992
  0
VERTEX
  8
別途部材
 10
135.897335
 20
-38.20992
  0
VERTEX
  8
別途部材
 10
133.047335
 20
-38.20992
  0
SEQEND
  0
ENDBLK
  0
BLOCK
  2
*GRP_0066
 70
    65
 10
0.0
 20
0.0
  0
LINE
  8
ボルト／ビス
  6
CONTINUOUS
 10
137.047335
 20
-38.959918
 11
135.897337
 21
-38.209918
  0
LINE
  8
ボルト／ビス
  6
CONTINUOUS
 10
137.047335
 20
-34.959915
 11
135.897337
 21
-35.709915
  0
LINE
  8
ボルト／ビス
  6
CONTINUOUS
 10
137.047335
 20
-38.959918
 11
137.047335
 21
-34.959915
  0
LINE
  8
ボルト／ビス
  6
CONTINUOUS
 10
135.897337
 20
-38.209918
 11
135.897337
 21
-35.709915
  0
LINE
  8
ボルト／ビス
  6
CONTINUOUS
 10
138.23994
 20
-36.959918
 11
129.547335
 21
-36.959918
  0
LINE
  8
ボルト／ビス
  6
CONTINUOUS
 10
129.797337
 20
-38.20992
 11
129.547335
 21
-37.95992
  0
LINE
  8
ボルト／ビス
  6
CONTINUOUS
 10
129.797337
 20
-35.70992
 11
129.547335
 21
-35.95992
  0
LINE
  8
ボルト／ビス
  6
CONTINUOUS
 10
129.547335
 20
-35.95992
 11
129.547335
 21
-37.95992
  0
LINE
  8
ボルト／ビス
  6
CONTINUOUS
 10
129.797337
 20
-35.70992
 11
129.797337
 21
-38.20992
  0
LINE
  8
ボルト／ビス
  6
CONTINUOUS
 10
135.897337
 20
-35.709915
 11
129.797337
 21
-35.709915
  0
LINE
  8
ボルト／ビス
  6
CONTINUOUS
 10
135.897337
 20
-38.209918
 11
129.797337
 21
-38.209918
  0
LINE
  8
ボルト／ビス
  6
CONTINUOUS
 10
135.897337
 20
-35.959918
 11
129.547335
 21
-35.959918
  0
LINE
  8
ボルト／ビス
  6
CONTINUOUS
 10
135.897337
 20
-37.959915
 11
129.547335
 21
-37.959915
  0
ENDBLK
  0
BLOCK
  2
*GRP_0067
 70
    65
 10
0.0
 20
0.0
  0
LINE
  8
ボルト／ビス
  6
CONTINUOUS
 62
    64
 10
-49.616445
 20
18.482768
 11
-49.388797
 21
17.857302
  0
ARC
  8
ボルト／ビス
  6
CONTINUOUS
 62
    64
 10
-47.569361
 20
18.7955
 40
2.047085
 50
152.722034
 51
180.0
  0
LINE
  8
ボルト／ビス
  6
CONTINUOUS
 62
    64
 10
-49.616445
 20
24.737398
 11
-49.388797
 21
25.36286
  0
ARC
  8
ボルト／ビス
  6
CONTINUOUS
 62
    64
 10
-47.569361
 20
24.424667
 40
2.047085
 50
180.0
 51
207.277966
  0
ARC
  8
ボルト／ビス
  6
CONTINUOUS
 62
    64
 10
-41.76958
 20
21.610084
 40
7.846866
 50
166.165046
 51
193.834954
  0
LINE
  8
ボルト／ビス
  6
CONTINUOUS
 62
    64
 10
-47.041445
 20
17.857302
 11
-49.388797
 21
17.857302
  0
LINE
  8
ボルト／ビス
  6
CONTINUOUS
 62
    64
 10
-47.041445
 20
25.36286
 11
-49.388797
 21
25.36286
  0
LINE
  8
ボルト／ビス
  6
CONTINUOUS
 62
    64
 10
-49.616445
 20
24.737398
 11
-49.616445
 21
18.482768
  0
LINE
  8
ボルト／ビス
  6
CONTINUOUS
 62
    64
 10
-49.388797
 20
23.48647
 11
-47.041445
 21
23.48647
  0
LINE
  8
ボルト／ビス
  6
CONTINUOUS
 62
    64
 10
-49.388797
 20
19.733695
 11
-47.041445
 21
19.733695
  0
LINE
  8
ボルト／ビス
  6
CONTINUOUS
 62
    64
 10
-47.041445
 20
25.36286
 11
-47.041445
 21
17.857302
  0
LINE
  8
ボルト／ビス
  6
CONTINUOUS
 62
    64
 10
-46.141445
 20
17.23508
 11
-45.641445
 21
17.23508
  0
LINE
  8
ボルト／ビス
  6
CONTINUOUS
 62
    64
 10
-46.141445
 20
25.985082
 11
-45.641445
 21
25.985082
  0
LINE
  8
ボルト／ビス
  6
CONTINUOUS
 62
    64
 10
-46.141445
 20
17.23508
 11
-46.141445
 21
25.985082
  0
LINE
  8
ボルト／ビス
  6
CONTINUOUS
 62
    64
 10
-45.641445
 20
17.23508
 11
-45.641445
 21
25.985082
  0
LINE
  8
ボルト／ビス
  6
CONTINUOUS
 62
    64
 10
-47.041445
 20
21.610082
 11
-46.141445
 21
21.610082
  0
LINE
  8
ボルト／ビス
  6
CONTINUOUS
 62
    64
 10
-47.041445
 20
25.56008
 11
-46.141445
 21
25.56008
  0
LINE
  8
ボルト／ビス
  6
CONTINUOUS
 62
    64
 10
-47.041445
 20
17.660082
 11
-46.141445
 21
17.660082
  0
LINE
  8
ボルト／ビス
  6
CONTINUOUS
 62
    64
 10
-47.041445
 20
25.56008
 11
-47.041445
 21
17.660082
  0
LINE
  8
ボルト／ビス
  6
CONTINUOUS
 62
    64
 10
-52.116447
 20
21.610082
 11
-14.541447
 21
21.610082
  0
LINE
  8
ボルト／ビス
  6
CONTINUOUS
 62
    64
 10
-17.041445
 20
23.210082
 11
-17.041445
 21
20.01008
  0
LINE
  8
ボルト／ビス
  6
CONTINUOUS
 62
    64
 10
-17.041445
 20
23.210082
 11
-17.041445
 21
20.01008
  0
LINE
  8
ボルト／ビス
  6
CONTINUOUS
 62
    64
 10
-17.641445
 20
23.61008
 11
-17.041445
 21
23.210082
  0
LINE
  8
ボルト／ビス
  6
CONTINUOUS
 62
    64
 10
-17.641445
 20
19.610082
 11
-17.041445
 21
20.01008
  0
LINE
  8
ボルト／ビス
  6
CONTINUOUS
 62
    64
 10
-17.041445
 20
23.210082
 11
-17.041445
 21
20.01008
  0
LINE
  8
ボルト／ビス
  6
CONTINUOUS
 62
    64
 10
-17.641445
 20
23.61008
 11
-17.641445
 21
19.610082
  0
LINE
  8
ボルト／ビス
  6
CONTINUOUS
 62
    64
 10
-45.641445
 20
23.61008
 11
-17.641445
 21
23.61008
  0
LINE
  8
ボルト／ビス
  6
CONTINUOUS
 62
    64
 10
-45.641445
 20
19.610082
 11
-17.641445
 21
19.610082
  0
LINE
  8
ボルト／ビス
  6
CONTINUOUS
 62
    64
 10
-17.041445
 20
23.210082
 11
-45.641445
 21
23.210082
  0
LINE
  8
ボルト／ビス
  6
CONTINUOUS
 62
    64
 10
-17.041445
 20
20.01008
 11
-45.641445
 21
20.01008
  0
ENDBLK
  0
BLOCK
  2
*GRP_0068
 70
    65
 10
0.0
 20
0.0
  0
LINE
  8
ボルト／ビス
  6
CONTINUOUS
 62
    64
 10
-55.018755
 20
-0.615665
 11
-55.644218
 21
-0.388018
  0
ARC
  8
ボルト／ビス
  6
CONTINUOUS
 62
    64
 10
-54.70603
 20
1.431423
 40
2.047085
 50
270.0
 51
297.277966
  0
LINE
  8
ボルト／ビス
  6
CONTINUOUS
 62
    64
 10
-48.764127
 20
-0.615665
 11
-48.138665
 21
-0.388018
  0
ARC
  8
ボルト／ビス
  6
CONTINUOUS
 62
    64
 10
-49.076863
 20
1.431423
 40
2.047085
 50
242.722034
 51
270.0
  0
ARC
  8
ボルト／ビス
  6
CONTINUOUS
 62
    64
 10
-51.891447
 20
7.231204
 40
7.846866
 50
256.165046
 51
283.834954
  0
LINE
  8
ボルト／ビス
  6
CONTINUOUS
 62
    64
 10
-55.644218
 20
1.959335
 11
-55.644218
 21
-0.388018
  0
LINE
  8
ボルト／ビス
  6
CONTINUOUS
 62
    64
 10
-48.138665
 20
1.959335
 11
-48.138665
 21
-0.388018
  0
LINE
  8
ボルト／ビス
  6
CONTINUOUS
 62
    64
 10
-48.764127
 20
-0.615665
 11
-55.018755
 21
-0.615665
  0
LINE
  8
ボルト／ビス
  6
CONTINUOUS
 62
    64
 10
-50.015053
 20
-0.388018
 11
-50.015053
 21
1.959335
  0
LINE
  8
ボルト／ビス
  6
CONTINUOUS
 62
    64
 10
-53.76783
 20
-0.388018
 11
-53.76783
 21
1.959335
  0
LINE
  8
ボルト／ビス
  6
CONTINUOUS
 62
    64
 10
-48.138665
 20
1.959335
 11
-55.644218
 21
1.959335
  0
LINE
  8
ボルト／ビス
  6
CONTINUOUS
 62
    64
 10
-56.26644
 20
2.859335
 11
-56.26644
 21
3.359335
  0
LINE
  8
ボルト／ビス
  6
CONTINUOUS
 62
    64
 10
-47.516442
 20
2.859335
 11
-47.516442
 21
3.359335
  0
LINE
  8
ボルト／ビス
  6
CONTINUOUS
 62
    64
 10
-56.26644
 20
2.859335
 11
-47.516442
 21
2.859335
  0
LINE
  8
ボルト／ビス
  6
CONTINUOUS
 62
    64
 10
-56.26644
 20
3.359335
 11
-47.516442
 21
3.359335
  0
LINE
  8
ボルト／ビス
  6
CONTINUOUS
 62
    64
 10
-51.89144
 20
1.959335
 11
-51.89144
 21
2.859335
  0
LINE
  8
ボルト／ビス
  6
CONTINUOUS
 62
    64
 10
-47.94144
 20
1.959335
 11
-47.94144
 21
2.859335
  0
LINE
  8
ボルト／ビス
  6
CONTINUOUS
 62
    64
 10
-55.841442
 20
1.959335
 11
-55.841442
 21
2.859335
  0
LINE
  8
ボルト／ビス
  6
CONTINUOUS
 62
    64
 10
-47.94144
 20
1.959335
 11
-55.841442
 21
1.959335
  0
ENDBLK
  0
BLOCK
  2
*GRP_0069
 70
    65
 10
0.0
 20
0.0
  0
LINE
  8
ボルト／ビス
  6
CONTINUOUS
 62
    64
 10
-55.01876
 20
19.33508
 11
-55.644222
 21
19.107432
  0
ARC
  8
ボルト／ビス
  6
CONTINUOUS
 62
    64
 10
-54.706028
 20
17.287999
 40
2.047085
 50
62.722034
 51
90.0
  0
LINE
  8
ボルト／ビス
  6
CONTINUOUS
 62
    64
 10
-48.764127
 20
19.33508
 11
-48.138665
 21
19.107432
  0
ARC
  8
ボルト／ビス
  6
CONTINUOUS
 62
    64
 10
-49.076861
 20
17.287999
 40
2.047085
 50
90.0
 51
117.277966
  0
ARC
  8
ボルト／ビス
  6
CONTINUOUS
 62
    64
 10
-51.891444
 20
11.488218
 40
7.846866
 50
76.165046
 51
103.834954
  0
LINE
  8
ボルト／ビス
  6
CONTINUOUS
 62
    64
 10
-55.644222
 20
16.76008
 11
-55.644222
 21
19.107432
  0
LINE
  8
ボルト／ビス
  6
CONTINUOUS
 62
    64
 10
-48.138665
 20
16.76008
 11
-48.138665
 21
19.107432
  0
LINE
  8
ボルト／ビス
  6
CONTINUOUS
 62
    64
 10
-48.764127
 20
19.33508
 11
-55.01876
 21
19.33508
  0
LINE
  8
ボルト／ビス
  6
CONTINUOUS
 62
    64
 10
-50.015055
 20
19.107432
 11
-50.015055
 21
16.76008
  0
LINE
  8
ボルト／ビス
  6
CONTINUOUS
 62
    64
 10
-53.76783
 20
19.107432
 11
-53.76783
 21
16.76008
  0
LINE
  8
ボルト／ビス
  6
CONTINUOUS
 62
    64
 10
-48.138665
 20
16.76008
 11
-55.644222
 21
16.76008
  0
LINE
  8
ボルト／ビス
  6
CONTINUOUS
 62
    64
 10
-56.266445
 20
15.86008
 11
-56.266445
 21
15.36008
  0
LINE
  8
ボルト／ビス
  6
CONTINUOUS
 62
    64
 10
-47.516442
 20
15.86008
 11
-47.516442
 21
15.36008
  0
LINE
  8
ボルト／ビス
  6
CONTINUOUS
 62
    64
 10
-56.266445
 20
15.86008
 11
-47.516442
 21
15.86008
  0
LINE
  8
ボルト／ビス
  6
CONTINUOUS
 62
    64
 10
-56.266445
 20
15.36008
 11
-47.516442
 21
15.36008
  0
LINE
  8
ボルト／ビス
  6
CONTINUOUS
 62
    64
 10
-51.891442
 20
16.76008
 11
-51.891442
 21
15.86008
  0
LINE
  8
ボルト／ビス
  6
CONTINUOUS
 62
    64
 10
-47.941445
 20
16.76008
 11
-47.941445
 21
15.86008
  0
LINE
  8
ボルト／ビス
  6
CONTINUOUS
 62
    64
 10
-55.841442
 20
16.76008
 11
-55.841442
 21
15.86008
  0
LINE
  8
ボルト／ビス
  6
CONTINUOUS
 62
    64
 10
-47.941445
 20
16.76008
 11
-55.841442
 21
16.76008
  0
LINE
  8
ボルト／ビス
  6
CONTINUOUS
 62
    64
 10
-51.891442
 20
21.835082
 11
-51.891442
 21
-5.73992
  0
LINE
  8
ボルト／ビス
  6
CONTINUOUS
 62
    64
 10
-50.291442
 20
-3.23992
 11
-53.491445
 21
-3.23992
  0
LINE
  8
ボルト／ビス
  6
CONTINUOUS
 62
    64
 10
-50.291442
 20
-3.23992
 11
-53.491445
 21
-3.23992
  0
LINE
  8
ボルト／ビス
  6
CONTINUOUS
 62
    64
 10
-49.891445
 20
-2.63992
 11
-50.291442
 21
-3.23992
  0
LINE
  8
ボルト／ビス
  6
CONTINUOUS
 62
    64
 10
-53.891442
 20
-2.63992
 11
-53.491445
 21
-3.23992
  0
LINE
  8
ボルト／ビス
  6
CONTINUOUS
 62
    64
 10
-50.291442
 20
-3.23992
 11
-53.491445
 21
-3.23992
  0
LINE
  8
ボルト／ビス
  6
CONTINUOUS
 62
    64
 10
-49.891445
 20
-2.63992
 11
-53.891442
 21
-2.63992
  0
LINE
  8
ボルト／ビス
  6
CONTINUOUS
 62
    64
 10
-49.891445
 20
15.36008
 11
-49.891445
 21
-2.63992
  0
LINE
  8
ボルト／ビス
  6
CONTINUOUS
 62
    64
 10
-53.891442
 20
15.36008
 11
-53.891442
 21
-2.63992
  0
LINE
  8
ボルト／ビス
  6
CONTINUOUS
 62
    64
 10
-50.291442
 20
-3.23992
 11
-50.291442
 21
15.36008
  0
LINE
  8
ボルト／ビス
  6
CONTINUOUS
 62
    64
 10
-53.491445
 20
-3.23992
 11
-53.491445
 21
15.36008
  0
ENDBLK
  0
BLOCK
  2
*GRP_0070
 70
    65
 10
0.0
 20
0.0
  0
LINE
  8
ボルト／ビス
  6
CONTINUOUS
 62
    64
 10
-49.616445
 20
0.23665
 11
-49.388797
 21
0.862112
  0
ARC
  8
ボルト／ビス
  6
CONTINUOUS
 62
    64
 10
-47.569361
 20
-0.076081
 40
2.047085
 50
180.0
 51
207.277966
  0
LINE
  8
ボルト／ビス
  6
CONTINUOUS
 62
    64
 10
-49.616445
 20
-6.017983
 11
-49.388797
 21
-6.643445
  0
ARC
  8
ボルト／ビス
  6
CONTINUOUS
 62
    64
 10
-47.569361
 20
-5.705248
 40
2.047085
 50
152.722034
 51
180.0
  0
ARC
  8
ボルト／ビス
  6
CONTINUOUS
 62
    64
 10
-41.76958
 20
-2.890665
 40
7.846866
 50
166.165046
 51
193.834954
  0
LINE
  8
ボルト／ビス
  6
CONTINUOUS
 62
    64
 10
-47.041445
 20
0.862112
 11
-49.388797
 21
0.862112
  0
LINE
  8
ボルト／ビス
  6
CONTINUOUS
 62
    64
 10
-47.041445
 20
-6.643445
 11
-49.388797
 21
-6.643445
  0
LINE
  8
ボルト／ビス
  6
CONTINUOUS
 62
    64
 10
-49.616445
 20
-6.017983
 11
-49.616445
 21
0.23665
  0
LINE
  8
ボルト／ビス
  6
CONTINUOUS
 62
    64
 10
-49.388797
 20
-4.767055
 11
-47.041445
 21
-4.767055
  0
LINE
  8
ボルト／ビス
  6
CONTINUOUS
 62
    64
 10
-49.388797
 20
-1.01428
 11
-47.041445
 21
-1.01428
  0
LINE
  8
ボルト／ビス
  6
CONTINUOUS
 62
    64
 10
-47.041445
 20
-6.643445
 11
-47.041445
 21
0.862112
  0
LINE
  8
ボルト／ビス
  6
CONTINUOUS
 62
    64
 10
-46.141445
 20
1.484335
 11
-45.641445
 21
1.484335
  0
LINE
  8
ボルト／ビス
  6
CONTINUOUS
 62
    64
 10
-46.141445
 20
-7.265668
 11
-45.641445
 21
-7.265668
  0
LINE
  8
ボルト／ビス
  6
CONTINUOUS
 62
    64
 10
-46.141445
 20
1.484335
 11
-46.141445
 21
-7.265668
  0
LINE
  8
ボルト／ビス
  6
CONTINUOUS
 62
    64
 10
-45.641445
 20
1.484335
 11
-45.641445
 21
-7.265668
  0
LINE
  8
ボルト／ビス
  6
CONTINUOUS
 62
    64
 10
-47.041445
 20
-2.890668
 11
-46.141445
 21
-2.890668
  0
LINE
  8
ボルト／ビス
  6
CONTINUOUS
 62
    64
 10
-47.041445
 20
-6.840665
 11
-46.141445
 21
-6.840665
  0
LINE
  8
ボルト／ビス
  6
CONTINUOUS
 62
    64
 10
-47.041445
 20
1.059332
 11
-46.141445
 21
1.059332
  0
LINE
  8
ボルト／ビス
  6
CONTINUOUS
 62
    64
 10
-47.041445
 20
-6.840665
 11
-47.041445
 21
1.059332
  0
LINE
  8
ボルト／ビス
  6
CONTINUOUS
 62
    64
 10
-52.116447
 20
-2.890668
 11
-14.541447
 21
-2.890668
  0
LINE
  8
ボルト／ビス
  6
CONTINUOUS
 62
    64
 10
-17.041445
 20
-4.490668
 11
-17.041445
 21
-1.290665
  0
LINE
  8
ボルト／ビス
  6
CONTINUOUS
 62
    64
 10
-17.041445
 20
-4.490668
 11
-17.041445
 21
-1.290665
  0
LINE
  8
ボルト／ビス
  6
CONTINUOUS
 62
    64
 10
-17.641445
 20
-4.890665
 11
-17.041445
 21
-4.490668
  0
LINE
  8
ボルト／ビス
  6
CONTINUOUS
 62
    64
 10
-17.641445
 20
-0.890668
 11
-17.041445
 21
-1.290665
  0
LINE
  8
ボルト／ビス
  6
CONTINUOUS
 62
    64
 10
-17.041445
 20
-4.490668
 11
-17.041445
 21
-1.290665
  0
LINE
  8
ボルト／ビス
  6
CONTINUOUS
 62
    64
 10
-17.641445
 20
-4.890665
 11
-17.641445
 21
-0.890668
  0
LINE
  8
ボルト／ビス
  6
CONTINUOUS
 62
    64
 10
-45.641445
 20
-4.890665
 11
-17.641445
 21
-4.890665
  0
LINE
  8
ボルト／ビス
  6
CONTINUOUS
 62
    64
 10
-45.641445
 20
-0.890668
 11
-17.641445
 21
-0.890668
  0
LINE
  8
ボルト／ビス
  6
CONTINUOUS
 62
    64
 10
-17.041445
 20
-4.490668
 11
-45.641445
 21
-4.490668
  0
LINE
  8
ボルト／ビス
  6
CONTINUOUS
 62
    64
 10
-17.041445
 20
-1.290665
 11
-45.641445
 21
-1.290665
  0
ENDBLK
  0
BLOCK
  2
*GRP_0071
 70
    65
 10
0.0
 20
0.0
  0
LINE
  8
曲げ物
  6
CONTINUOUS
 10
-45.641445
 20
27.86008
 11
-43.141445
 21
27.86008
  0
LINE
  8
曲げ物
  6
CONTINUOUS
 10
-43.141445
 20
27.86008
 11
-43.141445
 21
12.86008
  0
LINE
  8
曲げ物
  6
CONTINUOUS
 10
-43.141445
 20
12.86008
 11
-58.141445
 21
12.86008
  0
LINE
  8
曲げ物
  6
CONTINUOUS
 10
-58.141445
 20
12.86008
 11
-58.141445
 21
15.36008
  0
LINE
  8
曲げ物
  6
CONTINUOUS
 10
-45.641445
 20
27.86008
 11
-45.641445
 21
15.36008
  0
LINE
  8
曲げ物
  6
CONTINUOUS
 10
-58.141445
 20
15.36008
 11
-45.641445
 21
15.36008
  0
ENDBLK
  0
BLOCK
  2
*GRP_0072
 70
    65
 10
0.0
 20
0.0
  0
LINE
  8
曲げ物
  6
CONTINUOUS
 10
-45.641445
 20
-9.14066
 11
-43.141445
 21
-9.14066
  0
LINE
  8
曲げ物
  6
CONTINUOUS
 10
-43.141445
 20
-9.14066
 11
-43.141445
 21
5.85934
  0
LINE
  8
曲げ物
  6
CONTINUOUS
 10
-43.141445
 20
5.85934
 11
-58.141445
 21
5.85934
  0
LINE
  8
曲げ物
  6
CONTINUOUS
 10
-58.141445
 20
5.85934
 11
-58.141445
 21
3.359338
  0
LINE
  8
曲げ物
  6
CONTINUOUS
 10
-45.641445
 20
-9.14066
 11
-45.641445
 21
3.359338
  0
LINE
  8
曲げ物
  6
CONTINUOUS
 10
-58.141445
 20
3.359338
 11
-45.641445
 21
3.359338
  0
ENDBLK
  0
BLOCK
  2
*GRP_0073
 70
    65
 10
0.0
 20
0.0
  0
LINE
  8
ボルト／ビス
  6
CONTINUOUS
 62
    64
 10
-19.166445
 20
18.48277
 11
-19.394092
 21
17.857308
  0
ARC
  8
ボルト／ビス
  6
CONTINUOUS
 62
    64
 10
-21.21353
 20
18.795501
 40
2.047085
 50
0.0
 51
27.277966
  0
LINE
  8
ボルト／ビス
  6
CONTINUOUS
 62
    64
 10
-19.166445
 20
24.737398
 11
-19.394092
 21
25.36286
  0
ARC
  8
ボルト／ビス
  6
CONTINUOUS
 62
    64
 10
-21.21353
 20
24.424668
 40
2.047085
 50
332.722034
 51
360.0
  0
ARC
  8
ボルト／ビス
  6
CONTINUOUS
 62
    64
 10
-27.013312
 20
21.610085
 40
7.846866
 50
346.165046
 51
373.834954
  0
LINE
  8
ボルト／ビス
  6
CONTINUOUS
 62
    64
 10
-21.741447
 20
17.857308
 11
-19.394092
 21
17.857308
  0
LINE
  8
ボルト／ビス
  6
CONTINUOUS
 62
    64
 10
-21.741447
 20
25.36286
 11
-19.394092
 21
25.36286
  0
LINE
  8
ボルト／ビス
  6
CONTINUOUS
 62
    64
 10
-19.166445
 20
24.737398
 11
-19.166445
 21
18.48277
  0
LINE
  8
ボルト／ビス
  6
CONTINUOUS
 62
    64
 10
-19.394092
 20
23.486472
 11
-21.741447
 21
23.486472
  0
LINE
  8
ボルト／ビス
  6
CONTINUOUS
 62
    64
 10
-19.394092
 20
19.733695
 11
-21.741447
 21
19.733695
  0
LINE
  8
ボルト／ビス
  6
CONTINUOUS
 62
    64
 10
-21.741447
 20
25.36286
 11
-21.741447
 21
17.857308
  0
LINE
  8
ボルト／ビス
  6
CONTINUOUS
 62
    64
 10
-22.641447
 20
17.235085
 11
-23.141445
 21
17.235085
  0
LINE
  8
ボルト／ビス
  6
CONTINUOUS
 62
    64
 10
-22.641447
 20
25.985082
 11
-23.141445
 21
25.985082
  0
LINE
  8
ボルト／ビス
  6
CONTINUOUS
 62
    64
 10
-22.641447
 20
17.235085
 11
-22.641447
 21
25.985082
  0
LINE
  8
ボルト／ビス
  6
CONTINUOUS
 62
    64
 10
-23.141445
 20
17.235085
 11
-23.141445
 21
25.985082
  0
LINE
  8
ボルト／ビス
  6
CONTINUOUS
 62
    64
 10
-21.741447
 20
21.610088
 11
-22.641447
 21
21.610088
  0
LINE
  8
ボルト／ビス
  6
CONTINUOUS
 62
    64
 10
-21.741447
 20
25.560085
 11
-22.641447
 21
25.560085
  0
LINE
  8
ボルト／ビス
  6
CONTINUOUS
 62
    64
 10
-21.741447
 20
17.660082
 11
-22.641447
 21
17.660082
  0
LINE
  8
ボルト／ビス
  6
CONTINUOUS
 62
    64
 10
-21.741447
 20
25.560085
 11
-21.741447
 21
17.660082
  0
ENDBLK
  0
BLOCK
  2
*GRP_0074
 70
    65
 10
0.0
 20
0.0
  0
LINE
  8
ボルト／ビス
  6
CONTINUOUS
 62
    64
 10
-19.166445
 20
0.236645
 11
-19.394092
 21
0.86211
  0
ARC
  8
ボルト／ビス
  6
CONTINUOUS
 62
    64
 10
-21.21353
 20
-0.076082
 40
2.047085
 50
332.722034
 51
360.0
  0
LINE
  8
ボルト／ビス
  6
CONTINUOUS
 62
    64
 10
-19.166445
 20
-6.017983
 11
-19.394092
 21
-6.643445
  0
ARC
  8
ボルト／ビス
  6
CONTINUOUS
 62
    64
 10
-21.21353
 20
-5.705249
 40
2.047085
 50
0.0
 51
27.277966
  0
ARC
  8
ボルト／ビス
  6
CONTINUOUS
 62
    64
 10
-27.013312
 20
-2.890665
 40
7.846866
 50
346.165046
 51
373.834954
  0
LINE
  8
ボルト／ビス
  6
CONTINUOUS
 62
    64
 10
-21.741447
 20
0.86211
 11
-19.394092
 21
0.86211
  0
LINE
  8
ボルト／ビス
  6
CONTINUOUS
 62
    64
 10
-21.741447
 20
-6.643445
 11
-19.394092
 21
-6.643445
  0
LINE
  8
ボルト／ビス
  6
CONTINUOUS
 62
    64
 10
-19.166445
 20
-6.017983
 11
-19.166445
 21
0.236645
  0
LINE
  8
ボルト／ビス
  6
CONTINUOUS
 62
    64
 10
-19.394092
 20
-4.767058
 11
-21.741447
 21
-4.767058
  0
LINE
  8
ボルト／ビス
  6
CONTINUOUS
 62
    64
 10
-19.394092
 20
-1.01428
 11
-21.741447
 21
-1.01428
  0
LINE
  8
ボルト／ビス
  6
CONTINUOUS
 62
    64
 10
-21.741447
 20
-6.643445
 11
-21.741447
 21
0.86211
  0
LINE
  8
ボルト／ビス
  6
CONTINUOUS
 62
    64
 10
-22.641447
 20
1.48433
 11
-23.141445
 21
1.48433
  0
LINE
  8
ボルト／ビス
  6
CONTINUOUS
 62
    64
 10
-22.641447
 20
-7.265668
 11
-23.141445
 21
-7.265668
  0
LINE
  8
ボルト／ビス
  6
CONTINUOUS
 62
    64
 10
-22.641447
 20
1.48433
 11
-22.641447
 21
-7.265668
  0
LINE
  8
ボルト／ビス
  6
CONTINUOUS
 62
    64
 10
-23.141445
 20
1.48433
 11
-23.141445
 21
-7.265668
  0
LINE
  8
ボルト／ビス
  6
CONTINUOUS
 62
    64
 10
-21.741447
 20
-2.89067
 11
-22.641447
 21
-2.89067
  0
LINE
  8
ボルト／ビス
  6
CONTINUOUS
 62
    64
 10
-21.741447
 20
-6.84067
 11
-22.641447
 21
-6.84067
  0
LINE
  8
ボルト／ビス
  6
CONTINUOUS
 62
    64
 10
-21.741447
 20
1.059332
 11
-22.641447
 21
1.059332
  0
LINE
  8
ボルト／ビス
  6
CONTINUOUS
 62
    64
 10
-21.741447
 20
-6.84067
 11
-21.741447
 21
1.059332
  0
ENDBLK
  0
BLOCK
  2
*GRP_0075
 70
    65
 10
0.0
 20
0.0
  0
POLYLINE
  8
寸法
  6
CONTINUOUS
 62
     0
 66
     1
  0
VERTEX
  8
寸法
 10
-42.889245
 20
-15.619272
  0
VERTEX
  8
寸法
 10
-49.219925
 20
-21.949953
  0
VERTEX
  8
寸法
 10
-53.423347
 20
-21.949953
  0
SEQEND
  0
ENDBLK
  0
BLOCK
  2
*GRP_0076
 70
    65
 10
0.0
 20
0.0
  0
POLYLINE
  8
寸法
  6
BYBLOCK
 62
     0
 66
     1
  0
VERTEX
  8
寸法
 10
-55.018757
 20
19.335082
  0
VERTEX
  8
寸法
 10
-59.787335
 20
24.10366
  0
VERTEX
  8
寸法
 10
-69.000115
 20
24.10366
  0
SEQEND
  0
ENDBLK
  0
BLOCK
  2
*GRP_0077
 70
    65
 10
0.0
 20
0.0
  0
POLYLINE
  8
寸法
  6
BYBLOCK
 62
     0
 66
     1
  0
VERTEX
  8
寸法
 10
-58.141445
 20
4.60934
  0
VERTEX
  8
寸法
 10
-64.424932
 20
-1.674147
  0
VERTEX
  8
寸法
 10
-69.77902
 20
-1.674147
  0
SEQEND
  0
ENDBLK
  0
BLOCK
  2
*GRP_0078
 70
    65
 10
0.0
 20
0.0
  0
POLYLINE
  8
寸法
  6
BYBLOCK
 62
     0
 66
     1
  0
VERTEX
  8
寸法
 10
-43.141445
 20
-7.650528
  0
VERTEX
  8
寸法
 10
-47.275857
 20
-11.78494
  0
VERTEX
  8
寸法
 10
-64.150115
 20
-11.78494
  0
SEQEND
  0
ENDBLK
  0
BLOCK
  2
*GRP_0079
 70
    65
 10
0.0
 20
0.0
  0
POLYLINE
  8
ガラス
  6
CONTINUOUS
 66
     1
 70
     4
  0
VERTEX
  8
ガラス
 10
-50.025
 20
42.525
 70
     8
  0
VERTEX
  8
ガラス
 10
-50.025
 20
42.575
 70
     8
  0
VERTEX
  8
ガラス
 10
-50.05
 20
42.625
 70
     8
  0
VERTEX
  8
ガラス
 10
-50.05
 20
42.675
 70
     8
  0
VERTEX
  8
ガラス
 10
-50.05
 20
42.7
 70
     8
  0
VERTEX
  8
ガラス
 10
-50.05
 20
42.75
 70
     8
  0
VERTEX
  8
ガラス
 10
-50.05
 20
42.8
 70
     8
  0
VERTEX
  8
ガラス
 10
-50.075
 20
42.85
 70
     8
  0
VERTEX
  8
ガラス
 10
-50.075
 20
42.9
 70
     8
  0
VERTEX
  8
ガラス
 10
-50.075
 20
42.925
 70
     8
  0
VERTEX
  8
ガラス
 10
-50.1
 20
42.975
 70
     8
  0
VERTEX
  8
ガラス
 10
-50.1
 20
43.025
 70
     8
  0
VERTEX
  8
ガラス
 10
-50.1
 20
43.075
 70
     8
  0
VERTEX
  8
ガラス
 10
-50.125
 20
43.1
 70
     8
  0
VERTEX
  8
ガラス
 10
-50.125
 20
43.15
 70
     8
  0
VERTEX
  8
ガラス
 10
-50.15
 20
43.2
 70
     8
  0
VERTEX
  8
ガラス
 10
-50.15
 20
43.225
 70
     8
  0
VERTEX
  8
ガラス
 10
-50.175
 20
43.275
 70
     8
  0
VERTEX
  8
ガラス
 10
-50.2
 20
43.3
 70
     8
  0
VERTEX
  8
ガラス
 10
-50.225
 20
43.35
 70
     8
  0
VERTEX
  8
ガラス
 10
-50.225
 20
43.375
 70
     8
  0
VERTEX
  8
ガラス
 10
-50.25
 20
43.425
 70
     8
  0
VERTEX
  8
ガラス
 10
-50.275
 20
43.45
 70
     8
  0
VERTEX
  8
ガラス
 10
-50.3
 20
43.475
 70
     8
  0
VERTEX
  8
ガラス
 10
-50.325
 20
43.5
 70
     8
  0
VERTEX
  8
ガラス
 10
-50.375
 20
43.55
 70
     8
  0
VERTEX
  8
ガラス
 10
-50.4
 20
43.575
 70
     8
  0
VERTEX
  8
ガラス
 10
-50.425
 20
43.6
 70
     8
  0
VERTEX
  8
ガラス
 10
-50.475
 20
43.625
 70
     8
  0
VERTEX
  8
ガラス
 10
-50.5
 20
43.65
 70
     8
  0
VERTEX
  8
ガラス
 10
-50.525
 20
43.675
 70
     8
  0
VERTEX
  8
ガラス
 10
-50.575
 20
43.7
 70
     8
  0
VERTEX
  8
ガラス
 10
-50.6
 20
43.725
 70
     8
  0
VERTEX
  8
ガラス
 10
-50.65
 20
43.75
 70
     8
  0
VERTEX
  8
ガラス
 10
-50.675
 20
43.775
 70
     8
  0
VERTEX
  8
ガラス
 10
-50.725
 20
43.8
 70
     8
  0
VERTEX
  8
ガラス
 10
-50.75
 20
43.825
 70
     8
  0
VERTEX
  8
ガラス
 10
-50.8
 20
43.85
 70
     8
  0
VERTEX
  8
ガラス
 10
-50.85
 20
43.875
 70
     8
  0
VERTEX
  8
ガラス
 10
-50.875
 20
43.9
 70
     8
  0
VERTEX
  8
ガラス
 10
-50.925
 20
43.925
 70
     8
  0
SEQEND
  0
POLYLINE
  8
ガラス
  6
CONTINUOUS
 66
     1
 70
     4
  0
VERTEX
  8
ガラス
 10
-50.925
 20
43.925
 70
     8
  0
VERTEX
  8
ガラス
 10
-50.925
 20
43.875
 70
     8
  0
VERTEX
  8
ガラス
 10
-50.925
 20
43.85
 70
     8
  0
VERTEX
  8
ガラス
 10
-50.925
 20
43.825
 70
     8
  0
VERTEX
  8
ガラス
 10
-50.9
 20
43.8
 70
     8
  0
VERTEX
  8
ガラス
 10
-50.9
 20
43.75
 70
     8
  0
VERTEX
  8
ガラス
 10
-50.9
 20
43.725
 70
     8
  0
VERTEX
  8
ガラス
 10
-50.9
 20
43.7
 70
     8
  0
VERTEX
  8
ガラス
 10
-50.9
 20
43.675
 70
     8
  0
VERTEX
  8
ガラス
 10
-50.9
 20
43.65
 70
     8
  0
VERTEX
  8
ガラス
 10
-50.9
 20
43.6
 70
     8
  0
VERTEX
  8
ガラス
 10
-50.9
 20
43.575
 70
     8
  0
VERTEX
  8
ガラス
 10
-50.9
 20
43.55
 70
     8
  0
VERTEX
  8
ガラス
 10
-50.9
 20
43.525
 70
     8
  0
VERTEX
  8
ガラス
 10
-50.9
 20
43.475
 70
     8
  0
VERTEX
  8
ガラス
 10
-50.9
 20
43.45
 70
     8
  0
VERTEX
  8
ガラス
 10
-50.9
 20
43.425
 70
     8
  0
VERTEX
  8
ガラス
 10
-50.875
 20
43.4
 70
     8
  0
VERTEX
  8
ガラス
 10
-50.875
 20
43.375
 70
     8
  0
VERTEX
  8
ガラス
 10
-50.9
 20
43.325
 70
     8
  0
VERTEX
  8
ガラス
 10
-50.9
 20
43.3
 70
     8
  0
VERTEX
  8
ガラス
 10
-50.9
 20
43.275
 70
     8
  0
VERTEX
  8
ガラス
 10
-50.9
 20
43.25
 70
     8
  0
VERTEX
  8
ガラス
 10
-50.9
 20
43.2
 70
     8
  0
VERTEX
  8
ガラス
 10
-50.9
 20
43.175
 70
     8
  0
VERTEX
  8
ガラス
 10
-50.9
 20
43.15
 70
     8
  0
VERTEX
  8
ガラス
 10
-50.9
 20
43.125
 70
     8
  0
VERTEX
  8
ガラス
 10
-50.9
 20
43.1
 70
     8
  0
VERTEX
  8
ガラス
 10
-50.9
 20
43.05
 70
     8
  0
VERTEX
  8
ガラス
 10
-50.925
 20
43.025
 70
     8
  0
VERTEX
  8
ガラス
 10
-50.925
 20
43.0
 70
     8
  0
VERTEX
  8
ガラス
 10
-50.925
 20
42.975
 70
     8
  0
VERTEX
  8
ガラス
 10
-50.925
 20
42.925
 70
     8
  0
VERTEX
  8
ガラス
 10
-50.925
 20
42.9
 70
     8
  0
VERTEX
  8
ガラス
 10
-50.925
 20
42.875
 70
     8
  0
VERTEX
  8
ガラス
 10
-50.95
 20
42.85
 70
     8
  0
VERTEX
  8
ガラス
 10
-50.95
 20
42.825
 70
     8
  0
VERTEX
  8
ガラス
 10
-50.95
 20
42.775
 70
     8
  0
VERTEX
  8
ガラス
 10
-50.95
 20
42.75
 70
     8
  0
VERTEX
  8
ガラス
 10
-50.975
 20
42.725
 70
     8
  0
VERTEX
  8
ガラス
 10
-50.975
 20
42.7
 70
     8
  0
SEQEND
  0
ARC
  8
ガラス
  6
CONTINUOUS
 10
-50.488243
 20
42.622115
 40
0.477567
 50
169.72878
 51
349.72878
  0
ENDBLK
  0
BLOCK
  2
*GRP_0080
 70
    65
 10
0.0
 20
0.0
  0
LINE
  8
ボルト／ビス
  6
CONTINUOUS
 62
    64
 10
-47.36645
 20
-59.689905
 11
-47.36645
 21
-94.560255
  0
LINE
  8
ボルト／ビス
  6
CONTINUOUS
 62
    64
 10
-49.116375
 20
-63.644243
 11
-48.762863
 21
-63.29048
  0
LINE
  8
ボルト／ビス
  6
CONTINUOUS
 62
    64
 10
-49.116375
 20
-63.644243
 11
-49.116375
 21
-66.790467
  0
LINE
  8
ボルト／ビス
  6
CONTINUOUS
 62
    64
 10
-49.116375
 20
-63.644243
 11
-49.469888
 21
-63.29048
  0
LINE
  8
ボルト／ビス
  6
CONTINUOUS
 62
    64
 10
-49.012825
 20
-60.790593
 11
-49.012825
 21
-63.29048
  0
LINE
  8
ボルト／ビス
  6
CONTINUOUS
 62
    64
 10
-51.3664
 20
-66.790467
 11
-51.3664
 21
-68.04053
  0
LINE
  8
ボルト／ビス
  6
CONTINUOUS
 62
    64
 10
-49.366488
 20
-78.290542
 11
-49.012825
 21
-77.93703
  0
LINE
  8
ボルト／ビス
  6
CONTINUOUS
 62
    64
 10
-49.012825
 20
-68.790668
 11
-49.012825
 21
-77.93703
  0
LINE
  8
ボルト／ビス
  6
CONTINUOUS
 62
    64
 10
-49.366488
 20
-82.990193
 11
-51.307588
 21
-90.234692
  0
LINE
  8
ボルト／ビス
  6
CONTINUOUS
 62
    64
 10
-49.366488
 20
-68.790668
 11
-49.366488
 21
-82.990193
  0
LINE
  8
ボルト／ビス
  6
CONTINUOUS
 62
    64
 10
-49.116375
 20
-63.644243
 11
-48.762863
 21
-63.29048
  0
LINE
  8
ボルト／ビス
  6
CONTINUOUS
 62
    64
 10
-45.64675
 20
-63.644243
 11
-45.293238
 21
-63.29048
  0
LINE
  8
ボルト／ビス
  6
CONTINUOUS
 62
    64
 10
-45.64675
 20
-63.644243
 11
-45.64675
 21
-66.790467
  0
LINE
  8
ボルト／ビス
  6
CONTINUOUS
 62
    64
 10
-45.64675
 20
-63.644243
 11
-46.000263
 21
-63.29048
  0
LINE
  8
ボルト／ビス
  6
CONTINUOUS
 62
    64
 10
-45.719988
 20
-60.790593
 11
-45.719988
 21
-63.29048
  0
LINE
  8
ボルト／ビス
  6
CONTINUOUS
 62
    64
 10
-43.36635
 20
-66.790467
 11
-43.36635
 21
-68.04053
  0
LINE
  8
ボルト／ビス
  6
CONTINUOUS
 62
    64
 10
-45.366463
 20
-78.290542
 11
-45.719988
 21
-77.93703
  0
LINE
  8
ボルト／ビス
  6
CONTINUOUS
 62
    64
 10
-45.719988
 20
-68.790668
 11
-45.719988
 21
-77.93703
  0
LINE
  8
ボルト／ビス
  6
CONTINUOUS
 62
    64
 10
-45.366463
 20
-82.990193
 11
-43.425313
 21
-90.234692
  0
LINE
  8
ボルト／ビス
  6
CONTINUOUS
 62
    64
 10
-45.366463
 20
-68.790668
 11
-45.366463
 21
-82.990193
  0
LINE
  8
ボルト／ビス
  6
CONTINUOUS
 62
    64
 10
-45.366463
 20
-61.144105
 11
-45.719988
 21
-60.790593
  0
LINE
  8
ボルト／ビス
  6
CONTINUOUS
 62
    64
 10
-45.366463
 20
-63.29048
 11
-45.366463
 21
-61.144105
  0
LINE
  8
ボルト／ビス
  6
CONTINUOUS
 62
    64
 10
-45.719988
 20
-60.790593
 11
-49.012825
 21
-60.790593
  0
LINE
  8
ボルト／ビス
  6
CONTINUOUS
 62
    64
 10
-49.012825
 20
-60.790593
 11
-49.366488
 21
-61.144105
  0
LINE
  8
ボルト／ビス
  6
CONTINUOUS
 62
    64
 10
-45.366463
 20
-61.144105
 11
-49.366488
 21
-61.144105
  0
LINE
  8
ボルト／ビス
  6
CONTINUOUS
 62
    64
 10
-49.366488
 20
-63.29048
 11
-49.366488
 21
-61.144105
  0
LINE
  8
ボルト／ビス
  6
CONTINUOUS
 62
    64
 10
-51.766388
 20
-63.644243
 11
-51.412875
 21
-63.29048
  0
LINE
  8
ボルト／ビス
  6
CONTINUOUS
 62
    64
 10
-51.766388
 20
-63.644243
 11
-51.766388
 21
-66.790467
  0
LINE
  8
ボルト／ビス
  6
CONTINUOUS
 62
    64
 10
-51.412875
 20
-63.29048
 11
-43.320025
 21
-63.29048
  0
LINE
  8
ボルト／ビス
  6
CONTINUOUS
 62
    64
 10
-42.966513
 20
-63.644243
 11
-43.320025
 21
-63.29048
  0
LINE
  8
ボルト／ビス
  6
CONTINUOUS
 62
    64
 10
-42.966513
 20
-63.644243
 11
-42.966513
 21
-66.790467
  0
LINE
  8
ボルト／ビス
  6
CONTINUOUS
 62
    64
 10
-51.766388
 20
-66.790467
 11
-42.966513
 21
-66.790467
  0
LINE
  8
ボルト／ビス
  6
CONTINUOUS
 62
    64
 10
-42.491363
 20
-68.04053
 11
-42.491363
 21
-68.790668
  0
LINE
  8
ボルト／ビス
  6
CONTINUOUS
 62
    64
 10
-42.491363
 20
-68.04053
 11
-52.24145
 21
-68.04053
  0
LINE
  8
ボルト／ビス
  6
CONTINUOUS
 62
    64
 10
-52.24145
 20
-68.04053
 11
-52.24145
 21
-68.790668
  0
LINE
  8
ボルト／ビス
  6
CONTINUOUS
 62
    64
 10
-42.491363
 20
-68.790668
 11
-52.24145
 21
-68.790668
  0
LINE
  8
ボルト／ビス
  6
CONTINUOUS
 62
    64
 10
-47.36645
 20
-83.31943
 11
-45.373488
 21
-90.756768
  0
LINE
  8
ボルト／ビス
  6
CONTINUOUS
 62
    64
 10
-43.425313
 20
-90.234692
 11
-45.373488
 21
-90.756768
  0
LINE
  8
ボルト／ビス
  6
CONTINUOUS
 62
    64
 10
-47.36645
 20
-83.31943
 11
-49.359275
 21
-90.756768
  0
LINE
  8
ボルト／ビス
  6
CONTINUOUS
 62
    64
 10
-51.307588
 20
-90.234692
 11
-49.359275
 21
-90.756768
  0
LINE
  8
ボルト／ビス
  6
CONTINUOUS
 62
    64
 10
-49.366488
 20
-91.790467
 11
-48.721487
 21
-88.132417
  0
LINE
  8
ボルト／ビス
  6
CONTINUOUS
 62
    64
 10
-45.366463
 20
-91.790467
 11
-46.011413
 21
-88.132417
  0
LINE
  8
ボルト／ビス
  6
CONTINUOUS
 62
    64
 10
-49.366488
 20
-91.790467
 11
-45.366463
 21
-91.790467
  0
LINE
  8
ボルト／ビス
  6
CONTINUOUS
 62
    64
 10
-48.721487
 20
-88.132417
 11
-46.011413
 21
-88.132417
  0
ENDBLK
  0
BLOCK
  2
*GRP_0081
 70
    65
 10
0.0
 20
0.0
  0
LINE
  8
曲げ物
  6
CONTINUOUS
 10
-97.391453
 20
-77.073412
 11
-97.391378
 21
-107.073412
  0
LINE
  8
曲げ物
  6
DOT
 10
-96.891465
 20
-77.073412
 11
-96.89139
 21
-107.073412
  0
LINE
  8
曲げ物
  6
CONTINUOUS
 10
-92.391442
 20
-77.073412
 11
-92.391405
 21
-107.073412
  0
LINE
  8
曲げ物
  6
DOT
 10
-92.891468
 20
-77.073412
 11
-92.891392
 21
-107.073412
  0
LINE
  8
曲げ物
  6
CONTINUOUS
 10
-97.391378
 20
-107.073412
 11
-92.391405
 21
-107.073412
  0
LINE
  8
曲げ物
  6
CONTINUOUS
 10
-97.391453
 20
-77.073412
 11
-92.391442
 21
-77.073412
  0
ENDBLK
  0
BLOCK
  2
*GRP_0082
 70
    65
 10
0.0
 20
0.0
  0
POLYLINE
  8
寸法
  6
CONTINUOUS
 66
     1
  0
VERTEX
  8
寸法
 10
-95.506797
 20
-88.210728
  0
VERTEX
  8
寸法
 10
-108.479565
 20
-101.183493
  0
VERTEX
  8
寸法
 10
-116.88351
 20
-101.183493
  0
SEQEND
  0
ENDBLK
  0
BLOCK
  2
*GRP_0083
 70
    65
 10
0.0
 20
0.0
  0
LINE
  8
ゴム等
  6
CONTINUOUS
 62
    63
 10
109.682635
 20
-5.888527
 11
109.505857
 21
-5.71175
  0
LINE
  8
ゴム等
  6
CONTINUOUS
 62
    63
 10
109.505857
 20
-5.71175
 11
109.152307
 21
-6.065308
  0
LINE
  8
ゴム等
  6
CONTINUOUS
 62
    63
 10
109.152307
 20
-6.065308
 11
108.51591
 21
-5.428913
  0
LINE
  8
ゴム等
  6
CONTINUOUS
 62
    63
 10
108.51591
 20
-5.428913
 11
109.7887
 21
-4.156117
  0
LINE
  8
ゴム等
  6
CONTINUOUS
 62
    63
 10
107.27847
 20
-8.29269
 11
107.10169
 21
-8.115913
  0
LINE
  8
ゴム等
  6
CONTINUOUS
 62
    63
 10
107.10169
 20
-8.115913
 11
107.45525
 21
-7.762363
  0
LINE
  8
ゴム等
  6
CONTINUOUS
 62
    63
 10
107.27847
 20
-8.29269
 11
108.834108
 21
-8.292698
  0
LINE
  8
ゴム等
  6
CONTINUOUS
 62
    63
 10
107.45525
 20
-7.762363
 11
106.818845
 21
-7.125972
  0
LINE
  8
ゴム等
  6
CONTINUOUS
 62
    63
 10
106.818845
 20
-7.125972
 11
105.54606
 21
-8.39876
  0
LINE
  8
ゴム等
  6
CONTINUOUS
 62
    63
 10
109.682635
 20
-7.444163
 11
108.834108
 21
-8.292698
  0
ARC
  8
ゴム等
  6
CONTINUOUS
 62
    63
 10
108.020941
 20
-6.63099
 40
0.5
 50
45.000012
 51
135.000012
  0
LINE
  8
ゴム等
  6
CONTINUOUS
 62
    63
 10
107.667385
 20
-6.27744
 11
107.667385
 21
-6.27744
  0
ARC
  8
ゴム等
  6
CONTINUOUS
 62
    63
 10
108.020941
 20
-6.63099
 40
0.5
 50
135.000012
 51
225.000012
  0
LINE
  8
ゴム等
  6
CONTINUOUS
 62
    63
 10
107.667385
 20
-6.98454
 11
108.233065
 21
-7.550233
  0
ARC
  8
ゴム等
  6
CONTINUOUS
 62
    63
 10
108.586627
 20
-7.196675
 40
0.5
 50
225.000012
 51
315.000012
  0
LINE
  8
ゴム等
  6
CONTINUOUS
 62
    63
 10
108.940172
 20
-7.550227
 11
108.940172
 21
-7.550227
  0
LINE
  8
ゴム等
  6
CONTINUOUS
 62
    63
 10
108.374485
 20
-6.27744
 11
108.940172
 21
-6.84312
  0
ARC
  8
ゴム等
  6
CONTINUOUS
 62
    63
 10
108.586627
 20
-7.196675
 40
0.5
 50
315.000012
 51
405.000012
  0
LINE
  8
ゴム等
  6
CONTINUOUS
 62
    63
 10
109.682635
 20
-5.888527
 11
109.682635
 21
-7.444163
  0
LINE
  8
ゴム等
  6
CONTINUOUS
 10
109.605437
 20
-7.52136
 11
109.605443
 21
-5.811335
  0
LINE
  8
ゴム等
  6
CONTINUOUS
 10
108.605435
 20
-5.339375
 11
108.60544
 21
-2.972855
  0
LINE
  8
ゴム等
  6
CONTINUOUS
 10
106.605435
 20
-7.33938
 11
106.605437
 21
-0.97286
  0
LINE
  8
ゴム等
  6
CONTINUOUS
 10
105.605432
 20
-8.339377
 11
105.605432
 21
0.027145
  0
LINE
  8
ゴム等
  6
CONTINUOUS
 10
108.605435
 20
-5.51844
 11
108.605443
 21
-6.50839
  0
LINE
  8
ゴム等
  6
CONTINUOUS
 10
107.605443
 20
-8.292688
 11
107.60544
 21
-6.922605
  0
LINE
  8
ゴム等
  6
CONTINUOUS
 10
107.60544
 20
-1.972865
 11
107.605443
 21
-6.352845
  0
LINE
  8
ゴム等
  6
CONTINUOUS
 10
108.605435
 20
-8.292688
 11
108.605435
 21
-7.696317
  0
LINE
  8
ゴム等
  6
CONTINUOUS
 62
    63
 10
104.485395
 20
1.147185
 11
103.778285
 21
0.440072
  0
LINE
  8
ゴム等
  6
CONTINUOUS
 62
    63
 10
100.242763
 20
-3.09546
 11
100.94987
 21
-2.388353
  0
LINE
  8
ゴム等
  6
CONTINUOUS
 62
    63
 10
100.94987
 20
-2.388353
 11
100.94987
 21
-2.388353
  0
ARC
  8
ゴム等
  6
CONTINUOUS
 62
    63
 10
101.126649
 20
-2.211574
 40
0.25
 50
225.000012
 51
315.000012
  0
LINE
  8
ゴム等
  6
CONTINUOUS
 62
    63
 10
103.778285
 20
0.440072
 11
103.778285
 21
0.440072
  0
LINE
  8
ゴム等
  6
CONTINUOUS
 62
    63
 10
103.77829
 20
0.086522
 11
101.303418
 21
-2.388357
  0
ARC
  8
ゴム等
  6
CONTINUOUS
 62
    63
 10
103.601523
 20
0.2633
 40
0.25
 50
-44.999988
 51
45.000012
  0
LINE
  8
ゴム等
  6
CONTINUOUS
 62
    63
 10
109.7887
 20
-4.156117
 11
104.485395
 21
1.147185
  0
LINE
  8
ゴム等
  6
CONTINUOUS
 62
    63
 10
105.54606
 20
-8.39876
 11
100.242763
 21
-3.09546
  0
LINE
  8
ゴム等
  6
CONTINUOUS
 10
101.60544
 20
-4.458135
 11
101.605443
 21
-2.086327
  0
LINE
  8
ゴム等
  6
CONTINUOUS
 10
102.60544
 20
-5.458137
 11
102.60544
 21
-1.08633
  0
LINE
  8
ゴム等
  6
CONTINUOUS
 10
103.605437
 20
-6.458143
 11
103.605435
 21
-0.086325
  0
LINE
  8
ゴム等
  6
CONTINUOUS
 10
104.605435
 20
-7.458133
 11
104.60544
 21
1.027143
  0
LINE
  8
ゴム等
  6
CONTINUOUS
 10
100.636333
 20
-2.70188
 11
100.63634
 21
-3.489037
  0
ENDBLK
  0
BLOCK
  2
*GRP_0084
 70
    65
 10
0.0
 20
0.0
  0
ARC
  8
St
  6
CONTINUOUS
 62
   127
 10
-28.96646
 20
-68.790669
 40
1.6
 50
-90.0
 51
0.0
  0
LINE
  8
St
  6
CONTINUOUS
 10
-71.187255
 20
-68.79067
 11
-72.787252
 21
-70.39067
  0
LINE
  8
St
  6
CONTINUOUS
 10
-71.540812
 20
-68.79067
 11
-73.14081
 21
-70.39067
  0
LINE
  8
St
  6
CONTINUOUS
 62
   127
 10
-28.966453
 20
-68.79067
 11
-77.36645
 21
-68.79067
  0
LINE
  8
St
  6
CONTINUOUS
 10
-77.36645
 20
-68.79067
 11
-77.36645
 21
-70.39067
  0
LINE
  8
St
  6
CONTINUOUS
 62
   127
 10
-28.966453
 20
-70.39067
 11
-77.36645
 21
-70.39067
  0
LINE
  8
St
  6
CONTINUOUS
 10
-39.563968
 20
-70.39067
 11
-37.96397
 21
-68.79067
  0
LINE
  8
St
  6
CONTINUOUS
 10
-39.917525
 20
-70.39067
 11
-38.317527
 21
-68.79067
  0
LINE
  8
St
  6
CONTINUOUS
 10
-28.966453
 20
-53.26651
 11
-27.36645
 21
-51.666505
  0
LINE
  8
St
  6
CONTINUOUS
 10
-28.966453
 20
-52.912953
 11
-27.36645
 21
-51.312947
  0
LINE
  8
St
  6
CONTINUOUS
 10
-28.966453
 20
-50.390668
 11
-27.36645
 21
-50.390668
  0
LINE
  8
St
  6
CONTINUOUS
 62
   127
 10
-27.36645
 20
-68.79067
 11
-27.36645
 21
-50.390668
  0
LINE
  8
St
  6
CONTINUOUS
 62
   127
 10
-28.966453
 20
-68.79067
 11
-28.966453
 21
-50.390668
  0
LINE
  8
St
  6
DOT
 10
-24.94289
 20
-57.890668
 11
-31.26726
 21
-57.890668
  0
LINE
  8
St
  6
DOT
 62
   127
 10
-53.249047
 20
-71.688363
 11
-53.249047
 21
-71.688357
  0
LINE
  8
St
  6
DOT
 10
-42.36645
 20
-68.79067
 11
-42.36645
 21
-70.39067
  0
LINE
  8
St
  6
DOT
 10
-52.366447
 20
-68.79067
 11
-52.366447
 21
-70.39067
  0
LINE
  8
St
  6
DOT
 10
-59.866447
 20
-68.79067
 11
-59.866447
 21
-70.39067
  0
LINE
  8
St
  6
DOT
 10
-64.86645
 20
-68.79067
 11
-64.86645
 21
-70.39067
  0
LINE
  8
St
  6
DOT
 10
-47.36645
 20
-66.758702
 11
-47.36645
 21
-72.498002
  0
LINE
  8
St
  6
DOT
 62
   127
 10
-52.366447
 20
-69.19067
 11
-42.36645
 21
-69.19067
  0
LINE
  8
St
  6
DOT
 62
   127
 10
-52.366447
 20
-69.590668
 11
-42.36645
 21
-69.590668
  0
LINE
  8
St
  6
DOT
 62
   127
 10
-52.366447
 20
-69.99067
 11
-42.36645
 21
-69.99067
  0
LINE
  8
St
  6
DOT
 10
-59.866447
 20
-69.19067
 11
-64.86645
 21
-69.19067
  0
LINE
  8
St
  6
DOT
 10
-59.866447
 20
-69.590668
 11
-64.86645
 21
-69.590668
  0
LINE
  8
St
  6
DOT
 10
-59.866447
 20
-69.99067
 11
-64.86645
 21
-69.99067
  0
LINE
  8
St
  6
DOT
 10
-62.36645
 20
-66.758702
 11
-62.36645
 21
-72.498002
  0
LINE
  8
St
  6
DOT
 10
-27.36645
 20
-68.79067
 11
-28.966453
 21
-68.79067
  0
LINE
  8
St
  6
DOT
 10
-27.36645
 20
-52.890665
 11
-28.966453
 21
-52.890665
  0
LINE
  8
St
  6
DOT
 10
-28.966453
 20
-59.390668
 11
-27.36645
 21
-59.390668
  0
LINE
  8
St
  6
DOT
 10
-28.966453
 20
-56.390668
 11
-27.36645
 21
-56.390668
  0
LINE
  8
St
  6
DOT
 62
   127
 10
-28.56645
 20
-68.79067
 11
-28.56645
 21
-52.890665
  0
LINE
  8
St
  6
DOT
 62
   127
 10
-28.166453
 20
-68.79067
 11
-28.166453
 21
-52.890665
  0
LINE
  8
St
  6
DOT
 62
   127
 10
-27.766453
 20
-68.79067
 11
-27.766453
 21
-52.890665
  0
ENDBLK
  0
ENDSEC
  0
SECTION
  2
ENTITIES
  0
POLYLINE
  8
通り芯
  6
CONTINUOUS
 66
     1
 70
     1
  0
VERTEX
  8
通り芯
 10
-210.0
 20
-148.5
  0
VERTEX
  8
通り芯
 10
210.0
 20
-148.5
  0
VERTEX
  8
通り芯
 10
210.0
 20
148.5
  0
VERTEX
  8
通り芯
 10
-210.0
 20
148.5
  0
SEQEND
  0
LINE
  8
通り芯
  6
CONTINUOUS
 10
-25.491447
 20
-27.26567
 11
-23.891445
 21
-27.26567
  0
LINE
  8
通り芯
  6
CONTINUOUS
 10
-25.491447
 20
-0.014948
 11
-23.891445
 21
-0.014948
  0
LINE
  8
通り芯
  6
CONTINUOUS
 10
-25.491447
 20
-27.26567
 11
-25.491447
 21
-0.014948
  0
LINE
  8
通り芯
  6
CONTINUOUS
 10
-23.893648
 20
17.360078
 11
-25.393648
 21
17.360078
  0
LINE
  8
通り芯
  6
CONTINUOUS
 10
-23.893648
 20
37.110075
 11
-25.393648
 21
37.110075
  0
LINE
  8
通り芯
  6
CONTINUOUS
 10
-25.393648
 20
17.360078
 11
-25.393648
 21
37.110075
  0
LINE
  8
通り芯
  6
CONTINUOUS
 10
132.295132
 20
-40.059922
 11
130.795132
 21
-40.059922
  0
LINE
  8
通り芯
  6
CONTINUOUS
 10
132.295132
 20
-20.309925
 11
130.795132
 21
-20.309925
  0
LINE
  8
通り芯
  6
CONTINUOUS
 10
130.795132
 20
-40.059922
 11
130.795132
 21
-20.309925
  0
INSERT
  2
*GRP_0081
  8
型材
  6
DOT
 10
0.0
 20
0.0
  0
INSERT
  2
*GRP_0001
  8
型材断面
  6
CONTINUOUS
 10
0.0
 20
0.0
  0
LINE
  8
型材断面
  6
CONTINUOUS
 10
-35.58242
 20
44.213965
 11
7.939547
 21
87.73596
  0
LINE
  8
型材断面
  6
CONTINUOUS
 10
-46.223482
 20
53.440815
 11
-1.994412
 21
97.669912
  0
LINE
  8
型材断面
  6
CONTINUOUS
 10
-57.46628
 20
65.037255
 11
-13.414035
 21
109.089528
  0
LINE
  8
型材断面
  6
CONTINUOUS
 10
-54.353197
 20
65.321912
 11
-11.99982
 21
107.675317
  0
LINE
  8
型材断面
  6
CONTINUOUS
 10
-45.516215
 20
54.14776
 11
-31.693332
 21
40.324877
  0
LINE
  8
型材断面
  6
CONTINUOUS
 10
11.828635
 20
83.846873
 11
-31.693332
 21
40.324877
  0
INSERT
  2
*GRP_0002
  8
型材断面
  6
CONTINUOUS
 62
    47
 10
0.0
 20
0.0
  0
INSERT
  2
*GRP_0003
  8
型材断面
  6
CONTINUOUS
 62
    47
 10
0.0
 20
0.0
  0
INSERT
  2
*GRP_0004
  8
型材断面
  6
CONTINUOUS
 10
0.0
 20
0.0
  0
LINE
  8
型材断面
  6
CONTINUOUS
 10
-14.391442
 20
-118.409757
 11
-14.391442
 21
-70.39067
  0
LINE
  8
型材断面
  6
CONTINUOUS
 10
-14.391442
 20
-73.39067
 11
-89.391442
 21
-73.39067
  0
LINE
  8
型材断面
  6
CONTINUOUS
 10
-14.391442
 20
-70.39067
 11
-89.391442
 21
-70.39067
  0
ARC
  8
型材断面
  6
CONTINUOUS
 10
-89.391446
 20
-73.390666
 40
3.0
 50
90.0
 51
180.0
  0
LINE
  8
型材断面
  6
CONTINUOUS
 10
-89.391442
 20
-118.409757
 11
-89.391442
 21
-73.39067
  0
LINE
  8
型材断面
  6
CONTINUOUS
 10
-92.391442
 20
-118.409757
 11
-92.391442
 21
-73.39067
  0
LINE
  8
型材断面
  6
CONTINUOUS
 10
-89.391442
 20
-104.72718
 11
-58.054932
 21
-73.39067
  0
LINE
  8
型材断面
  6
CONTINUOUS
 10
-89.391442
 20
-101.19165
 11
-61.590463
 21
-73.39067
  0
LINE
  8
型材断面
  6
CONTINUOUS
 10
-89.391442
 20
-97.656113
 11
-65.126
 21
-73.39067
  0
LINE
  8
型材断面
  6
CONTINUOUS
 10
-33.851945
 20
-118.409757
 11
-14.391442
 21
-98.949255
  0
LINE
  8
型材断面
  6
CONTINUOUS
 10
-37.387475
 20
-118.409757
 11
-14.391442
 21
-95.413725
  0
LINE
  8
型材断面
  6
CONTINUOUS
 10
-30.316407
 20
-118.409757
 11
-14.391442
 21
-102.484793
  0
LINE
  8
型材断面
  6
CONTINUOUS
 10
7.108555
 20
-118.409757
 11
7.108555
 21
-36.540668
  0
LINE
  8
型材断面
  6
CONTINUOUS
 10
7.608555
 20
-118.409757
 11
7.608555
 21
-36.540668
  0
LINE
  8
型材断面
  6
CONTINUOUS
 10
13.108555
 20
-118.409757
 11
13.108555
 21
-36.540668
  0
LINE
  8
型材断面
  6
CONTINUOUS
 10
12.608557
 20
-118.409757
 11
12.608557
 21
-36.540668
  0
LINE
  8
型材断面
  6
DOT
 10
100.297333
 20
-28.709915
 11
99.547333
 21
-28.709915
  0
LINE
  8
型材断面
  6
DOT
 10
100.297333
 20
-24.709915
 11
99.547333
 21
-24.709915
  0
LINE
  8
型材断面
  6
DOT
 10
99.734833
 20
-28.709915
 11
99.734833
 21
-24.709915
  0
LINE
  8
型材断面
  6
DOT
 10
99.922333
 20
-28.709915
 11
99.922333
 21
-24.709915
  0
LINE
  8
型材断面
  6
DOT
 10
100.109833
 20
-28.709915
 11
100.109833
 21
-24.709915
  0
LINE
  8
型材断面
  6
DOT
 10
105.297335
 20
-28.709918
 11
105.297335
 21
-23.709918
  0
LINE
  8
型材断面
  6
DOT
 10
105.297335
 20
-23.709918
 11
100.297335
 21
-23.709918
  0
INSERT
  2
*HAT_0002
  8
型材断面
 10
0.0
 20
0.0
  0
LINE
  8
型材断面
  6
DOT
 10
114.047337
 20
-17.05918
 11
113.297337
 21
-17.05918
  0
LINE
  8
型材断面
  6
DOT
 10
114.047337
 20
-13.05918
 11
113.297337
 21
-13.05918
  0
LINE
  8
型材断面
  6
DOT
 10
113.484837
 20
-17.05918
 11
113.484837
 21
-13.05918
  0
LINE
  8
型材断面
  6
DOT
 10
113.672337
 20
-17.05918
 11
113.672337
 21
-13.05918
  0
LINE
  8
型材断面
  6
DOT
 10
113.859837
 20
-17.05918
 11
113.859837
 21
-13.05918
  0
LINE
  8
型材断面
  6
CONTINUOUS
 10
98.722513
 20
7.617252
 11
131.921498
 21
40.816258
  0
LINE
  8
型材断面
  6
CONTINUOUS
 10
101.835595
 20
7.901913
 11
133.33571
 21
39.402045
  0
LINE
  8
型材断面
  6
CONTINUOUS
 10
110.672417
 20
-3.27208
 11
143.341117
 21
29.396645
  0
POLYLINE
  8
型材断面
  6
CONTINUOUS
 66
     1
 70
     1
  0
VERTEX
  8
型材断面
 10
181.77731
 20
48.651427
  0
VERTEX
  8
型材断面
 10
75.289915
 20
48.651427
  0
VERTEX
  8
型材断面
 10
75.289915
 20
-56.588068
  0
VERTEX
  8
型材断面
 10
181.77731
 20
-56.588068
  0
SEQEND
  0
LINE
  8
型材断面
  6
DOT
 10
-36.89144
 20
-39.64067
 11
-36.89144
 21
-34.64067
  0
LINE
  8
型材断面
  6
DOT
 10
-36.89144
 20
-34.64067
 11
-41.89144
 21
-34.64067
  0
INSERT
  2
*HAT_0003
  8
型材断面
 10
0.0
 20
0.0
  0
LINE
  8
型材断面
  6
DOT
 10
-55.89365
 20
28.710085
 11
-56.64365
 21
28.710085
  0
LINE
  8
型材断面
  6
DOT
 10
-55.89365
 20
32.710085
 11
-56.64365
 21
32.710085
  0
LINE
  8
型材断面
  6
DOT
 10
-56.45615
 20
28.710085
 11
-56.45615
 21
32.710085
  0
LINE
  8
型材断面
  6
DOT
 10
-56.26865
 20
28.710085
 11
-56.26865
 21
32.710085
  0
LINE
  8
型材断面
  6
DOT
 10
-56.08115
 20
28.710085
 11
-56.08115
 21
32.710085
  0
LINE
  8
型材断面
  6
DOT
 10
-50.893648
 20
28.710082
 11
-50.893648
 21
33.710082
  0
LINE
  8
型材断面
  6
DOT
 10
-50.893648
 20
33.710082
 11
-55.893648
 21
33.710082
  0
INSERT
  2
*HAT_0004
  8
型材断面
 10
0.0
 20
0.0
  0
LINE
  8
型材断面
  6
DOT
 10
-42.143645
 20
40.36082
 11
-42.893645
 21
40.36082
  0
LINE
  8
型材断面
  6
DOT
 10
-42.143645
 20
44.36082
 11
-42.893645
 21
44.36082
  0
LINE
  8
型材断面
  6
DOT
 10
-42.706145
 20
40.36082
 11
-42.706145
 21
44.36082
  0
LINE
  8
型材断面
  6
DOT
 10
-42.518645
 20
40.36082
 11
-42.518645
 21
44.36082
  0
LINE
  8
型材断面
  6
DOT
 10
-42.331145
 20
40.36082
 11
-42.331145
 21
44.36082
  0
LINE
  8
型材断面
  6
DOT
 10
-23.891445
 20
-35.540668
 11
-23.141445
 21
-35.540668
  0
LINE
  8
型材断面
  6
DOT
 10
-23.891445
 20
-31.540668
 11
-23.141445
 21
-31.540668
  0
LINE
  8
型材断面
  6
DOT
 10
-23.703945
 20
-31.540668
 11
-23.703945
 21
-35.540668
  0
LINE
  8
型材断面
  6
DOT
 10
-23.516445
 20
-31.540668
 11
-23.516445
 21
-35.540668
  0
LINE
  8
型材断面
  6
DOT
 10
-23.328945
 20
-31.540668
 11
-23.328945
 21
-35.540668
  0
INSERT
  2
*GRP_0063
  8
型材断面
  6
CONTINUOUS
 62
    47
 10
0.0
 20
0.0
  0
LINE
  8
型材断面
  6
DOT
 10
-51.70338
 20
44.42504
 11
-51.17305
 21
43.894713
  0
LINE
  8
型材断面
  6
DOT
 10
-49.582065
 20
46.546365
 11
-49.051735
 21
46.016037
  0
LINE
  8
型材断面
  6
DOT
 10
-51.570798
 20
44.292457
 11
-49.449478
 21
46.41378
  0
LINE
  8
型材断面
  6
DOT
 10
-51.438215
 20
44.159875
 11
-49.316895
 21
46.281198
  0
LINE
  8
型材断面
  6
DOT
 10
-51.305635
 20
44.027292
 11
-49.184313
 21
46.148615
  0
LINE
  8
型材断面
  6
DOT
 10
104.4854
 20
-12.99496
 11
105.01573
 21
-13.525288
  0
LINE
  8
型材断面
  6
DOT
 10
106.606715
 20
-10.873635
 11
107.137045
 21
-11.403963
  0
LINE
  8
型材断面
  6
DOT
 10
104.617982
 20
-13.127542
 11
106.739302
 21
-11.00622
  0
LINE
  8
型材断面
  6
DOT
 10
104.750565
 20
-13.260125
 11
106.871885
 21
-11.138803
  0
LINE
  8
型材断面
  6
DOT
 10
104.883145
 20
-13.392707
 11
107.004467
 21
-11.271385
  0
LINE
  8
型材断面
  6
CONTINUOUS
 10
153.275078
 20
19.46269
 11
120.606375
 21
-13.206033
  0
LINE
  8
型材断面
  6
CONTINUOUS
 10
157.164165
 20
15.573605
 11
124.49546
 21
-17.09512
  0
LINE
  8
型材断面
  6
CONTINUOUS
 10
124.49546
 20
-17.09512
 11
110.67242
 21
-3.272077
  0
LINE
  8
ガラス
  6
CONTINUOUS
 10
-55.16823
 20
56.375132
 11
-53.04691
 21
54.253805
  0
LINE
  8
ガラス
  6
CONTINUOUS
 10
-53.04691
 20
54.253805
 11
-57.289548
 21
54.253812
  0
LINE
  8
ガラス
  6
CONTINUOUS
 10
-55.16823
 20
56.375132
 11
-55.16823
 21
52.132488
  0
LINE
  8
ガラス
  6
CONTINUOUS
 10
-57.289548
 20
54.253812
 11
-7.933928
 21
103.609435
  0
LINE
  8
ガラス
  6
CONTINUOUS
 10
-57.466323
 20
54.430588
 11
-8.110703
 21
103.78621
  0
LINE
  8
ガラス
  6
CONTINUOUS
 10
-54.991455
 20
51.955712
 11
-5.635825
 21
101.31134
  0
LINE
  8
ガラス
  6
CONTINUOUS
 10
-58.880537
 20
55.844802
 11
-9.524917
 21
105.200425
  0
LINE
  8
ガラス
  6
CONTINUOUS
 10
-59.057312
 20
56.021578
 11
-9.701692
 21
105.3772
  0
LINE
  8
ガラス
  6
CONTINUOUS
 10
-55.16823
 20
52.132488
 11
-5.8126
 21
101.488115
  0
LINE
  8
ガラス
  6
CONTINUOUS
 10
-52.76407
 20
49.72832
 11
-3.408438
 21
99.083952
  0
LINE
  8
ガラス
  6
CONTINUOUS
 10
-52.940845
 20
49.905095
 11
-3.585213
 21
99.260728
  0
INSERT
  2
*GRP_0050
  8
ガラス
  6
CONTINUOUS
 10
0.0
 20
0.0
  0
INSERT
  2
*GRP_0051
  8
ガラス
  6
CONTINUOUS
 10
0.0
 20
0.0
  0
INSERT
  2
*GRP_0052
  8
ガラス
  6
CONTINUOUS
 10
0.0
 20
0.0
  0
INSERT
  2
*GRP_0053
  8
ガラス
  6
CONTINUOUS
 10
0.0
 20
0.0
  0
INSERT
  2
*GRP_0054
  8
ガラス
  6
CONTINUOUS
 10
0.0
 20
0.0
  0
INSERT
  2
*GRP_0055
  8
ガラス
  6
CONTINUOUS
 10
0.0
 20
0.0
  0
INSERT
  2
*GRP_0056
  8
ガラス
  6
CONTINUOUS
 10
0.0
 20
0.0
  0
INSERT
  2
*GRP_0057
  8
ガラス
  6
CONTINUOUS
 10
0.0
 20
0.0
  0
INSERT
  2
*GRP_0058
  8
ガラス
  6
CONTINUOUS
 10
0.0
 20
0.0
  0
INSERT
  2
*GRP_0059
  8
ガラス
  6
CONTINUOUS
 10
0.0
 20
0.0
  0
INSERT
  2
*GRP_0060
  8
ガラス
  6
CONTINUOUS
 10
0.0
 20
0.0
  0
INSERT
  2
*GRP_0061
  8
ガラス
  6
CONTINUOUS
 10
0.0
 20
0.0
  0
INSERT
  2
*GRP_0062
  8
ガラス
  6
CONTINUOUS
 10
0.0
 20
0.0
  0
INSERT
  2
*GRP_0079
  8
ガラス
  6
CONTINUOUS
 10
0.0
 20
0.0
  0
LINE
  8
ガラス
  6
CONTINUOUS
 10
97.13147
 20
-1.398417
 11
99.53563
 21
-3.802585
  0
LINE
  8
ガラス
  6
CONTINUOUS
 10
99.53563
 20
-3.802585
 11
138.037973
 21
34.699785
  0
LINE
  8
ガラス
  6
CONTINUOUS
 10
99.358852
 20
-3.625807
 11
137.861195
 21
34.876562
  0
LINE
  8
ガラス
  6
CONTINUOUS
 10
97.13147
 20
-1.398417
 11
135.633807
 21
37.10395
  0
LINE
  8
ガラス
  6
CONTINUOUS
 10
97.308247
 20
-1.575195
 11
135.810585
 21
36.927173
  0
INSERT
  2
*GRP_0005
  8
ゴム等
  6
CONTINUOUS
 10
0.0
 20
0.0
  0
INSERT
  2
*GRP_0020
  8
ゴム等
  6
CONTINUOUS
 10
0.0
 20
0.0
  0
INSERT
  2
*GRP_0021
  8
ゴム等
  6
CONTINUOUS
 10
0.0
 20
0.0
  0
LINE
  8
ゴム等
  6
CONTINUOUS
 10
-56.76027
 20
43.117917
 11
-59.277063
 21
56.241335
  0
INSERT
  2
*GRP_0044
  8
ゴム等
  6
CONTINUOUS
 10
0.0
 20
0.0
  0
LINE
  8
ゴム等
  6
CONTINUOUS
 10
99.42851
 20
-14.302082
 11
96.911717
 21
-1.178665
  0
INSERT
  2
*GRP_0006
  8
ボルト／ビス
  6
CONTINUOUS
 62
    64
 10
0.0
 20
0.0
  0
INSERT
  2
*GRP_0007
  8
ボルト／ビス
  6
CONTINUOUS
 62
    64
 10
0.0
 20
0.0
  0
INSERT
  2
*GRP_0008
  8
ボルト／ビス
  6
CONTINUOUS
 62
    64
 10
0.0
 20
0.0
  0
INSERT
  2
*GRP_0009
  8
ボルト／ビス
  6
CONTINUOUS
 62
    64
 10
0.0
 20
0.0
  0
INSERT
  2
*GRP_0010
  8
ボルト／ビス
  6
CONTINUOUS
 62
    64
 10
0.0
 20
0.0
  0
INSERT
  2
*GRP_0011
  8
ボルト／ビス
  6
CONTINUOUS
 10
0.0
 20
0.0
  0
INSERT
  2
*GRP_0012
  8
ボルト／ビス
  6
CONTINUOUS
 10
0.0
 20
0.0
  0
INSERT
  2
*GRP_0013
  8
ボルト／ビス
  6
CONTINUOUS
 10
0.0
 20
0.0
  0
INSERT
  2
*GRP_0014
  8
ボルト／ビス
  6
CONTINUOUS
 10
0.0
 20
0.0
  0
INSERT
  2
*GRP_0015
  8
ボルト／ビス
  6
CONTINUOUS
 10
0.0
 20
0.0
  0
INSERT
  2
*GRP_0064
  8
ボルト／ビス
  6
CONTINUOUS
 10
0.0
 20
0.0
  0
INSERT
  2
*GRP_0066
  8
ボルト／ビス
  6
CONTINUOUS
 10
0.0
 20
0.0
  0
INSERT
  2
*GRP_0067
  8
ボルト／ビス
  6
CONTINUOUS
 62
    64
 10
0.0
 20
0.0
  0
INSERT
  2
*GRP_0068
  8
ボルト／ビス
  6
CONTINUOUS
 62
    64
 10
0.0
 20
0.0
  0
INSERT
  2
*GRP_0069
  8
ボルト／ビス
  6
CONTINUOUS
 62
    64
 10
0.0
 20
0.0
  0
INSERT
  2
*GRP_0070
  8
ボルト／ビス
  6
CONTINUOUS
 62
    64
 10
0.0
 20
0.0
  0
INSERT
  2
*GRP_0073
  8
ボルト／ビス
  6
CONTINUOUS
 62
    64
 10
0.0
 20
0.0
  0
INSERT
  2
*GRP_0074
  8
ボルト／ビス
  6
CONTINUOUS
 62
    64
 10
0.0
 20
0.0
  0
TEXT
  7
TextStyle03
  8
文字
  6
CONTINUOUS
 10
-131.575
 20
91.65
  1
ガラスは6＋A6＋6.8mmまでの厚さを
 40
3.0
 72
     5
 11
-77.95
 21
91.65
  0
TEXT
  7
TextStyle03
  8
文字
  6
CONTINUOUS
 10
-131.575
 20
88.275
  1
限界とする。
 40
3.0
 72
     5
 11
-111.7
 21
88.275
  0
TEXT
  7
TextStyle03
  8
文字
  6
CONTINUOUS
 10
-39.1
 20
54.575
  1
ゴム厚3～6（EPDM）
 40
3.0
 72
     5
 11
-9.1
 21
54.575
  0
TEXT
  7
TextStyle03
  8
文字
  6
CONTINUOUS
 10
-83.6
 20
-31.9
  1
φ8穴加工
 40
3.0
 72
     5
 11
-68.7875
 21
-31.9
  0
TEXT
  7
TextStyle03
  8
文字
  6
CONTINUOUS
 10
-83.6
 20
-35.275
  1
裏面バッフル材付き
 40
3.0
 72
     5
 11
-53.6
 21
-35.275
  0
TEXT
  7
TextStyle03
  8
文字
  6
CONTINUOUS
 10
-13.95
 20
5.6
  1
TKR-1301
 40
3.0
 72
     5
 11
-0.6375
 21
5.6
  0
TEXT
  7
TextStyle03
  8
文字
  6
CONTINUOUS
 10
18.275
 20
-51.3
  1
アンカー：St-3.2t
 40
3.0
 72
     5
 11
46.775
 21
-51.3
  0
TEXT
  7
TextStyle03
  8
文字
  6
CONTINUOUS
 10
18.925
 20
-62.525
  1
コーナーシール（工場）
 40
3.0
 72
     5
 11
55.675
 21
-62.525
  0
TEXT
  7
TextStyle03
  8
文字
  6
CONTINUOUS
 10
-82.4
 20
41.85
  1
TKR-1109
 40
3.0
 72
     5
 11
-69.0875
 21
41.85
  0
TEXT
  7
TextStyle03
  8
文字
  6
CONTINUOUS
 10
-134.35
 20
-65.775
  1
TKM-0001～0005
 40
3.0
 72
     5
 11
-110.9125
 21
-65.775
  0
TEXT
  7
TextStyle03
  8
文字
  6
CONTINUOUS
 10
32.175
 20
125.05
  1
呼称寸法
 40
3.0
 72
     5
 11
45.3
 21
125.05
  0
TEXT
  7
TextStyle03
  8
文字
  6
CONTINUOUS
 10
42.1
 20
118.85
  1
有効開口寸法
 40
3.0
 72
     5
 11
61.975
 21
118.85
  0
TEXT
  7
TextStyle03
  8
文字
  6
CONTINUOUS
 10
80.45
 20
41.45
  1
シングルガラスタイプ
 40
3.0
 72
     5
 11
113.825
 21
41.45
  0
TEXT
  7
TextStyle03
  8
文字
  6
CONTINUOUS
 10
70.35
 20
81.125
  1
ＮＳコード：ＮＳ４ＣＺ
 40
5.0
 72
     5
 11
131.6
 21
81.125
  0
TEXT
  7
TextStyle03
  8
文字
  6
CONTINUOUS
 10
-77.475
 20
32.65
  1
TK-1150
 40
3.0
 72
     5
 11
-65.85
 21
32.65
  0
TEXT
  7
TextStyle03
  8
文字
  6
CONTINUOUS
 10
22.275
 20
-13.775
  1
滑車(ZDC)
 40
3.0
 72
     5
 11
37.275
 21
-13.775
  0
TEXT
  7
TextStyle03
  8
文字
  6
CONTINUOUS
 10
-66.05
 20
-23.35
  1
TK-1155
 40
3.0
 72
     5
 11
-54.425
 21
-23.35
  0
TEXT
  7
TextStyle03
  8
文字
  6
CONTINUOUS
 10
-100.075
 20
22.625
  1
M8×40ボルト(SUS）
 40
3.0
 72
     5
 11
-70.075
 21
22.625
  0
TEXT
  7
TextStyle03
  8
文字
  6
CONTINUOUS
 10
-84.925
 20
-13.075
  1
ブチルシート
 40
3.0
 72
     5
 11
-65.05
 21
-13.075
  0
TEXT
  7
TextStyle03
  8
文字
  6
CONTINUOUS
 10
-99.175
 20
0.35
  1
出荷固定金物
 40
3.0
 72
     5
 11
-79.3
 21
0.35
  0
TEXT
  7
TextStyle03
  8
文字
  6
CONTINUOUS
 10
-99.175
 20
-3.025
  1
L-30×30×5（AL）
 40
3.0
 72
     5
 11
-70.8625
 21
-3.025
  0
TEXT
  7
TextStyle03
  8
文字
  6
CONTINUOUS
 10
-155.4625
 20
-99.775
  1
排水パイプ(オプション)
 40
3.0
 72
     5
 11
-118.525
 21
-99.775
  0
TEXT
  7
TextStyle03
  8
文字
  6
CONTINUOUS
 10
-145.3375
 20
-103.15
  1
□10×10×1 L=60
 40
3.0
 72
     5
 11
-118.525
 21
-103.15
  0
TEXT
  7
TextStyle03
  8
文字
  6
CONTINUOUS
 10
70.6
 20
105.975
  1
シリーズ：ＴＦ２４
 40
5.0
 72
     5
 11
120.6
 21
105.975
  0
TEXT
  7
TextStyle03
  8
文字
  6
CONTINUOUS
 10
70.6
 20
100.35
  1
　　　　　四角錐（上下可動）
 40
5.0
 72
     5
 11
148.725
 21
100.35
  0
TEXT
  7
TextStyle03
  8
文字
  6
CONTINUOUS
 10
70.6
 20
94.725
  1

 40
5.0
 41
1.125
  0
TEXT
  7
TextStyle03
  8
文字
  6
CONTINUOUS
 10
70.6
 20
89.1
  1
図面名　：下枠断面詳細図（滑車側）
 40
5.0
 72
     5
 11
165.6
 21
89.1
  0
INSERT
  2
*DIM_0022
  8
寸法
  6
CONTINUOUS
 10
0.0
 20
0.0
  0
INSERT
  2
*DIM_0023
  8
寸法
  6
CONTINUOUS
 10
0.0
 20
0.0
  0
INSERT
  2
*DIM_0024
  8
寸法
  6
CONTINUOUS
 10
0.0
 20
0.0
  0
LINE
  8
寸法
  6
CONTINUOUS
 10
-13.139245
 20
124.37094
 11
-5.775137
 21
126.159455
  0
LINE
  8
寸法
  6
CONTINUOUS
 10
-13.139245
 20
124.37094
 11
-5.775137
 21
122.582425
  0
LINE
  8
寸法
  6
CONTINUOUS
 10
-5.775137
 20
126.159455
 11
-5.775137
 21
122.582425
  0
INSERT
  2
*DIM_0025
  8
寸法
  6
CONTINUOUS
 10
0.0
 20
0.0
  0
INSERT
  2
*DIM_0026
  8
寸法
  6
CONTINUOUS
 10
0.0
 20
0.0
  0
INSERT
  2
*DIM_0027
  8
寸法
  6
CONTINUOUS
 10
0.0
 20
0.0
  0
INSERT
  2
*DIM_0028
  8
寸法
  6
CONTINUOUS
 10
0.0
 20
0.0
  0
INSERT
  2
*DIM_0029
  8
寸法
  6
CONTINUOUS
 10
0.0
 20
0.0
  0
INSERT
  2
*DIM_0030
  8
寸法
  6
CONTINUOUS
 10
0.0
 20
0.0
  0
INSERT
  2
*DIM_0031
  8
寸法
  6
CONTINUOUS
 10
0.0
 20
0.0
  0
INSERT
  2
*DIM_0032
  8
寸法
  6
CONTINUOUS
 10
0.0
 20
0.0
  0
INSERT
  2
*DIM_0033
  8
寸法
  6
CONTINUOUS
 10
0.0
 20
0.0
  0
INSERT
  2
*DIM_0034
  8
寸法
  6
CONTINUOUS
 10
0.0
 20
0.0
  0
INSERT
  2
*GRP_0035
  8
寸法
  6
CONTINUOUS
 10
0.0
 20
0.0
  0
INSERT
  2
*GRP_0036
  8
寸法
  6
CONTINUOUS
 10
0.0
 20
0.0
  0
INSERT
  2
*GRP_0037
  8
寸法
  6
CONTINUOUS
 10
0.0
 20
0.0
  0
INSERT
  2
*GRP_0038
  8
寸法
  6
CONTINUOUS
 10
0.0
 20
0.0
  0
INSERT
  2
*GRP_0039
  8
寸法
  6
CONTINUOUS
 10
0.0
 20
0.0
  0
INSERT
  2
*GRP_0040
  8
寸法
  6
CONTINUOUS
 10
0.0
 20
0.0
  0
INSERT
  2
*GRP_0041
  8
寸法
  6
CONTINUOUS
 10
0.0
 20
0.0
  0
INSERT
  2
*GRP_0042
  8
寸法
  6
CONTINUOUS
 10
0.0
 20
0.0
  0
INSERT
  2
*GRP_0043
  8
寸法
  6
CONTINUOUS
 10
0.0
 20
0.0
  0
LINE
  8
寸法
  6
CONTINUOUS
 10
93.356125
 20
124.37094
 11
85.992017
 21
126.159455
  0
LINE
  8
寸法
  6
CONTINUOUS
 10
93.356125
 20
124.37094
 11
85.992017
 21
122.582425
  0
LINE
  8
寸法
  6
CONTINUOUS
 10
85.992017
 20
126.159455
 11
85.992017
 21
122.582425
  0
LINE
  8
寸法
  6
CONTINUOUS
 10
91.414948
 20
124.37094
 11
84.05084
 21
126.159455
  0
LINE
  8
寸法
  6
CONTINUOUS
 10
91.414948
 20
124.37094
 11
84.05084
 21
122.582425
  0
LINE
  8
寸法
  6
CONTINUOUS
 10
84.05084
 20
126.159455
 11
84.05084
 21
122.582425
  0
LINE
  8
寸法
  6
CONTINUOUS
 10
93.356125
 20
118.44188
 11
85.992017
 21
120.230395
  0
LINE
  8
寸法
  6
CONTINUOUS
 10
91.414948
 20
118.44188
 11
84.05084
 21
120.230395
  0
LINE
  8
寸法
  6
CONTINUOUS
 10
85.992017
 20
120.230395
 11
85.992017
 21
118.44188
  0
LINE
  8
寸法
  6
CONTINUOUS
 10
84.05084
 20
120.230395
 11
84.05084
 21
118.44188
  0
LINE
  8
寸法
  6
CONTINUOUS
 10
-13.139245
 20
124.37094
 11
93.356125
 21
124.37094
  0
LINE
  8
寸法
  6
CONTINUOUS
 10
15.610755
 20
118.44188
 11
93.356125
 21
118.44188
  0
LINE
  8
寸法
  6
DASHDOT
 10
-13.139245
 20
133.5
 11
-13.139245
 21
-35.540668
  0
INSERT
  2
*DIM_0045
  8
寸法
  6
CONTINUOUS
 10
0.0
 20
0.0
  0
INSERT
  2
*DIM_0046
  8
寸法
  6
CONTINUOUS
 10
0.0
 20
0.0
  0
INSERT
  2
*DIM_0047
  8
寸法
  6
CONTINUOUS
 10
0.0
 20
0.0
  0
INSERT
  2
*GRP_0048
  8
寸法
  6
CONTINUOUS
 10
0.0
 20
0.0
  0
INSERT
  2
*GRP_0049
  8
寸法
  6
CONTINUOUS
 10
0.0
 20
0.0
  0
LINE
  8
寸法
  6
DOT
 10
-41.891442
 20
-39.640668
 11
-42.891447
 21
-39.640668
  0
LINE
  8
寸法
  6
DOT
 10
-41.891442
 20
-35.640668
 11
-42.891447
 21
-35.640668
  0
LINE
  8
寸法
  6
DOT
 10
-42.641445
 20
-39.640668
 11
-42.641445
 21
-35.640668
  0
LINE
  8
寸法
  6
DOT
 10
-42.391445
 20
-39.640668
 11
-42.391445
 21
-35.640668
  0
LINE
  8
寸法
  6
DOT
 10
-42.141442
 20
-39.640668
 11
-42.141442
 21
-35.640668
  0
INSERT
  2
*GRP_0075
  8
寸法
  6
CONTINUOUS
 10
0.0
 20
0.0
  0
INSERT
  2
*GRP_0076
  8
寸法
  6
CONTINUOUS
 10
0.0
 20
0.0
  0
INSERT
  2
*GRP_0077
  8
寸法
  6
CONTINUOUS
 10
0.0
 20
0.0
  0
INSERT
  2
*GRP_0078
  8
寸法
  6
CONTINUOUS
 10
0.0
 20
0.0
  0
INSERT
  2
*GRP_0082
  8
寸法
  6
CONTINUOUS
 10
0.0
 20
0.0
  0
INSERT
  2
*HAT_0005
  8
ﾊｯﾁﾝｸﾞ
 10
0.0
 20
0.0
  0
INSERT
  2
*GRP_0016
  8
別途部材
  6
CONTINUOUS
 10
0.0
 20
0.0
  0
INSERT
  2
*GRP_0017
  8
別途部材
  6
CONTINUOUS
 10
0.0
 20
0.0
  0
INSERT
  2
*GRP_0018
  8
別途部材
  6
CONTINUOUS
 10
0.0
 20
0.0
  0
INSERT
  2
*GRP_0065
  8
別途部材
  6
CONTINUOUS
 10
0.0
 20
0.0
  0
INSERT
  2
*GRP_0080
  8
別途部材
  6
CONTINUOUS
 10
0.0
 20
0.0
  0
INSERT
  2
*GRP_0071
  8
曲げ物
  6
CONTINUOUS
 10
0.0
 20
0.0
  0
INSERT
  2
*GRP_0072
  8
曲げ物
  6
CONTINUOUS
 10
0.0
 20
0.0
  0
LINE
  8
曲げ物
  6
CONTINUOUS
 10
-43.141445
 20
12.86008
 11
-42.896445
 21
12.86008
  0
LINE
  8
曲げ物
  6
CONTINUOUS
 10
-43.141445
 20
27.86008
 11
-42.891442
 21
27.86008
  0
INSERT
  2
*HAT_0006
  8
曲げ物
 10
0.0
 20
0.0
  0
LINE
  8
曲げ物
  6
CONTINUOUS
 10
-43.141445
 20
5.85934
 11
-42.891442
 21
5.85934
  0
LINE
  8
曲げ物
  6
CONTINUOUS
 10
-43.141445
 20
-9.14066
 11
-42.891442
 21
-9.14066
  0
INSERT
  2
*HAT_0007
  8
曲げ物
 10
0.0
 20
0.0
  0
INSERT
  2
*GRP_0019
  8
St
  6
CONTINUOUS
 10
0.0
 20
0.0
  0
INSERT
  2
*GRP_0084
  8
St
  6
DOT
 10
0.0
 20
0.0
  0
LINE
  8
その他部品等
  6
CONTINUOUS
 10
-99.491497
 20
-85.7138
 11
-92.391442
 21
-85.7138
  0
LINE
  8
その他部品等
  6
CONTINUOUS
 10
-99.491497
 20
-81.713797
 11
-92.391442
 21
-81.713797
  0
LINE
  8
その他部品等
  6
CONTINUOUS
 10
-97.841488
 20
-79.7138
 11
-97.841488
 21
-78.573412
  0
LINE
  8
その他部品等
  6
CONTINUOUS
 10
-92.391442
 20
-78.573412
 11
-97.841488
 21
-78.573412
  0
LINE
  8
その他部品等
  6
CONTINUOUS
 10
-97.841488
 20
-78.573412
 11
-92.391442
 21
-81.713797
  0
INSERT
  2
*HAT_0008
  8
その他部品等
 10
0.0
 20
0.0
  0
LINE
  8
その他部品等
  6
CONTINUOUS
 10
-42.89144
 20
-40.39067
 11
-42.89144
 21
-47.89067
  0
LINE
  8
その他部品等
  6
CONTINUOUS
 10
-38.685275
 20
-40.39067
 11
-38.685275
 21
-47.3184
  0
LINE
  8
その他部品等
  6
CONTINUOUS
 10
-36.29144
 20
-40.39067
 11
-36.29144
 21
-46.99271
  0
LINE
  8
その他部品等
  6
CONTINUOUS
 10
-36.29144
 20
-40.39067
 11
-38.685275
 21
-47.3184
  0
INSERT
  2
*HAT_0009
  8
その他部品等
 10
0.0
 20
0.0
  0
LINE
  8
その他部品等
  6
CONTINUOUS
 10
-57.476828
 20
64.833403
 11
-48.904928
 21
66.173965
  0
LINE
  8
その他部品等
  6
CONTINUOUS
 10
-59.587627
 20
61.501685
 11
-56.582417
 21
58.496472
  0
LINE
  8
その他部品等
  6
CONTINUOUS
 10
-62.062522
 20
59.026795
 11
-59.057312
 21
56.021578
  0
LINE
  8
その他部品等
  6
CONTINUOUS
 10
-56.582417
 20
58.496472
 11
-62.062522
 21
59.026795
  0
INSERT
  2
*HAT_0010
  8
その他部品等
 10
0.0
 20
0.0
  0
LINE
  8
その他部品等
  6
CONTINUOUS
 10
94.126258
 20
1.606795
 11
99.358875
 21
1.32396
  0
LINE
  8
その他部品等
  6
CONTINUOUS
 10
-28.641445
 20
-39.390665
 11
-23.141447
 21
-36.540665
  0
INSERT
  2
*HAT_0011
  8
その他部品等
 10
0.0
 20
0.0
  0
INSERT
  2
*GRP_0083
  8
その他部品等
  6
CONTINUOUS
 10
0.0
 20
0.0
  0
LINE
  8
その他部品等
  6
CONTINUOUS
 10
98.711953
 20
7.413402
 11
107.283842
 21
8.753962
  0
LINE
  8
その他部品等
  6
CONTINUOUS
 10
96.601152
 20
4.081685
 11
99.60636
 21
1.076475
  0
LINE
  8
その他部品等
  6
CONTINUOUS
 10
94.126258
 20
1.606795
 11
97.131467
 21
-1.39842
  0
ENDSEC
  0
EOF
