  0
SECTION
  2
HEADER
  9
$EXTMIN
 10
-210.0
 20
-148.5
  9
$EXTMAX
 10
210.0
 20
148.5
  9
$PDMODE
 70
    32
  9
$PDSIZE
 40
1.5
  9
$LTSCALE
 40
10.0
  0
ENDSEC
  0
SECTION
  2
TABLES
  0
TABLE
  2
LTYPE
 70
    15
  0
LTYPE
  2
CONTINUOUS
 70
    64
  3
実線
 72
    65
 73
     0
 40
0.0
  0
LTYPE
  2
DASHED
 70
    64
  3
破線A
 72
    65
 73
     2
 40
0.6
 49
0.4
 49
-0.2
  0
LTYPE
  2
DASHEDX2
 70
    64
  3
破線B
 72
    65
 73
     2
 40
1.3
 49
0.9
 49
-0.4
  0
LTYPE
  2
DASHDOT
 70
    64
  3
１点鎖線A
 72
    65
 73
     4
 40
0.5375
 49
0.375
 49
-0.05
 49
0.0625
 49
-0.05
  0
LTYPE
  2
DASHDOTX2
 70
    64
  3
１点鎖線B
 72
    65
 73
     4
 40
1.075
 49
0.75
 49
-0.1
 49
0.125
 49
-0.1
  0
LTYPE
  2
DIVIDE2
 70
    64
  3
２点鎖線A
 72
    65
 73
     6
 40
0.5125
 49
0.3
 49
-0.0375
 49
0.05
 49
-0.0375
 49
0.05
 49
-0.0375
  0
LTYPE
  2
DIVIDE
 70
    64
  3
２点鎖線B
 72
    65
 73
     6
 40
1.05
 49
0.55
 49
-0.1
 49
0.1
 49
-0.1
 49
0.1
 49
-0.1
  0
LTYPE
  2
DOT
 70
    64
  3
点線A
 72
    65
 73
     2
 40
0.1125
 49
0.0625
 49
-0.05
  0
LTYPE
  2
DOTX2
 70
    64
  3
点線B
 72
    65
 73
     2
 40
0.275
 49
0.15
 49
-0.125
  0
LTYPE
  2
CONTINUOUS
 70
    64
  3
実線
 72
    65
 73
     0
 40
0.0
  0
LTYPE
  2
CONTINUOUS
 70
    64
  3
実線
 72
    65
 73
     0
 40
0.0
  0
LTYPE
  2
CONTINUOUS
 70
    64
  3
実線
 72
    65
 73
     0
 40
0.0
  0
LTYPE
  2
CONTINUOUS
 70
    64
  3
実線
 72
    65
 73
     0
 40
0.0
  0
LTYPE
  2
CONTINUOUS
 70
    64
  3
実線
 72
    65
 73
     0
 40
0.0
  0
LTYPE
  2
CONTINUOUS
 70
    64
  3
実線
 72
    65
 73
     0
 40
0.0
  0
ENDTAB
  0
TABLE
  2
LAYER
 70
    34
  0
LAYER
  2
通り芯
 70
     0
 62
    15
  6
CONTINUOUS
  0
LAYER
  2
補助線
 70
     0
 62
    16
  6
DOT
  0
LAYER
  2
躯体
 70
     0
 62
    31
  6
CONTINUOUS
  0
LAYER
  2
型材
 70
     0
 62
    32
  6
CONTINUOUS
  0
LAYER
  2
型材断面
 70
     0
 62
    47
  6
CONTINUOUS
  0
LAYER
  2
ガラス
 70
     0
 62
    48
  6
CONTINUOUS
  0
LAYER
  2
ゴム等
 70
     0
 62
    63
  6
CONTINUOUS
  0
LAYER
  2
ボルト／ビス
 70
     0
 62
    64
  6
CONTINUOUS
  0
LAYER
  2
文字
 70
     0
 62
    79
  6
CONTINUOUS
  0
LAYER
  2
寸法
 70
     0
 62
    80
  6
CONTINUOUS
  0
LAYER
  2
ﾊｯﾁﾝｸﾞ
 70
     0
 62
    95
  6
CONTINUOUS
  0
LAYER
  2
別途部材
 70
     0
 62
    96
  6
CONTINUOUS
  0
LAYER
  2
曲げ物
 70
     0
 62
   111
  6
CONTINUOUS
  0
LAYER
  2
鉄骨等
 70
     0
 62
   112
  6
CONTINUOUS
  0
LAYER
  2
St
 70
     0
 62
   127
  6
CONTINUOUS
  0
LAYER
  2
その他部品等
 70
     0
 62
   128
  6
CONTINUOUS
  0
LAYER
  2
ｶﾞｽｹｯﾄ
 70
     0
 62
   143
  6
CONTINUOUS
  0
LAYER
  2
ｽｹｯﾁ
 70
     0
 62
    14
  6
CONTINUOUS
  0
LAYER
  2
0
 70
     0
 62
    17
  6
CONTINUOUS
  0
LAYER
  2
1
 70
     0
 62
    30
  6
CONTINUOUS
  0
LAYER
  2
4
 70
     0
 62
    33
  6
CONTINUOUS
  0
LAYER
  2
ﾚｲﾔ3
 70
     0
 62
    46
  6
CONTINUOUS
  0
LAYER
  2
外形線
 70
     0
 62
    49
  6
CONTINUOUS
  0
LAYER
  2
部品
 70
     0
 62
    14
  6
CONTINUOUS
  0
LAYER
  2
サッシ芯
 70
     0
 62
    17
  6
DASHDOTX2
  0
LAYER
  2
寸法線
 70
     0
 62
    62
  6
CONTINUOUS
  0
LAYER
  2
姿図外形線
 70
     0
 62
    65
  6
CONTINUOUS
  0
LAYER
  2
姿補助線
 70
     0
 62
    30
  6
CONTINUOUS
  0
LAYER
  2
透視線
 70
     0
 62
    78
  6
DOT
  0
LAYER
  2
用紙
 70
     0
 62
    81
  6
CONTINUOUS
  0
LAYER
  2
実線図枠
 70
     0
 62
    94
  6
CONTINUOUS
  0
LAYER
  2
補助図枠
 70
     0
 62
    97
  6
CONTINUOUS
  0
LAYER
  2
建具記号
 70
     0
 62
   110
  6
CONTINUOUS
  0
LAYER
  2
補助文字
 70
     0
 62
   113
  6
CONTINUOUS
  0
ENDTAB
  0
TABLE
  2
STYLE
 70
    10
  0
STYLE
  2
STANDARD
 70
     0
 40
1.0
 41
1.0
 42
1.0
 50
0.0
 71
     0
  3
TXT
  4
BIGFONT
  0
STYLE
  2
TATE
 70
     4
 40
1.0
 41
1.0
 42
1.0
 50
0.0
 71
     0
  3
TXT
  4
BIGFONT
  0
STYLE
  2
TextStyle03
 70
     0
 40
1.0
 41
1.0
 42
1.0
 50
0.0
 71
     0
  3
MONOTXT
  4
BIGFONT
  0
STYLE
  2
TextStyle04
 70
     0
 40
1.0
 41
1.0
 42
1.0
 50
0.0
 71
     0
  3
MONOTXT
  4
BIGFONT
  0
STYLE
  2
TextStyle05
 70
     0
 40
1.0
 41
1.0
 42
1.0
 50
0.0
 71
     0
  3
MONOTXT
  4
BIGFONT
  0
STYLE
  2
TextStyle06
 70
     0
 40
1.0
 41
1.0
 42
1.0
 50
0.0
 71
     0
  3
MONOTXT
  4
BIGFONT
  0
STYLE
  2
TextStyle07
 70
     0
 40
1.0
 41
1.0
 42
1.0
 50
0.0
 71
     0
  3
MONOTXT
  4
BIGFONT
  0
STYLE
  2
TextStyle08
 70
     0
 40
1.0
 41
1.0
 42
1.0
 50
0.0
 71
     0
  3
MONOTXT
  4
BIGFONT
  0
STYLE
  2
TextStyle09
 70
     0
 40
1.0
 41
1.0
 42
1.0
 50
0.0
 71
     0
  3
MONOTXT
  4
BIGFONT
  0
STYLE
  2
TextStyle10
 70
     0
 40
1.0
 41
1.0
 42
1.0
 50
0.0
 71
     0
  3
MONOTXT
  4
BIGFONT
  0
ENDTAB
  0
ENDSEC
  0
SECTION
  2
BLOCKS
  0
BLOCK
  2
*GRP_0001
 70
    65
 10
0.0
 20
0.0
  0
LINE
  8
型材断面
  6
CONTINUOUS
 10
195.0
 20
133.5
 11
195.0
 21
-133.5
  0
LINE
  8
型材断面
  6
CONTINUOUS
 10
195.0
 20
-133.5
 11
-185.0
 21
-133.5
  0
LINE
  8
型材断面
  6
CONTINUOUS
 10
-185.0
 20
-133.5
 11
-185.0
 21
133.5
  0
LINE
  8
型材断面
  6
CONTINUOUS
 10
195.0
 20
133.5
 11
-185.0
 21
133.5
  0
LINE
  8
型材断面
  6
CONTINUOUS
 10
145.0
 20
-133.5
 11
145.0
 21
-118.5
  0
LINE
  8
型材断面
  6
CONTINUOUS
 10
195.0
 20
-118.5
 11
145.0
 21
-118.5
  0
ENDBLK
  0
BLOCK
  2
*DIM_0002
 70
    65
 10
0.0
 20
0.0
  0
LINE
  8
寸法
  6
BYBLOCK
 62
     0
 10
-95.755937
 20
-35.080245
 11
-95.755937
 21
-33.416065
  0
LINE
  8
寸法
  6
BYBLOCK
 62
     0
 10
-30.755937
 20
-35.080245
 11
-30.755937
 21
-33.416065
  0
LINE
  8
寸法
  6
BYBLOCK
 62
     0
 10
-95.755937
 20
-33.416065
 11
-30.755937
 21
-33.416065
  0
POINT
  8
寸法
 62
     0
 10
-95.755937
 20
-33.416065
  0
POINT
  8
寸法
 62
     0
 10
-30.755937
 20
-33.416065
  0
TEXT
  7
TextStyle03
  8
寸法
  6
CONTINUOUS
 62
     0
 10
-74.99375
 20
-33.05
  1
呼称寸法　1300
 40
3.0
 72
     5
 11
-51.55625
 21
-33.05
  0
ENDBLK
  0
BLOCK
  2
*DIM_0003
 70
    65
 10
0.0
 20
0.0
  0
LINE
  8
寸法
  6
BYBLOCK
 62
     0
 10
-29.755937
 20
59.370385
 11
-9.20651
 21
59.370385
  0
LINE
  8
寸法
  6
BYBLOCK
 62
     0
 10
-21.732063
 20
53.820385
 11
-9.20651
 21
53.820385
  0
LINE
  8
寸法
  6
BYBLOCK
 62
     0
 10
-9.20651
 20
59.370385
 11
-9.20651
 21
53.820385
  0
POINT
  8
寸法
 62
     0
 10
-9.20651
 20
59.370385
  0
POINT
  8
寸法
 62
     0
 10
-9.20651
 20
53.820385
  0
TEXT
  7
TextStyle03
  8
寸法
  6
CONTINUOUS
 62
     0
 10
-9.6
 20
54.1375
  1
111
 40
3.0
 50
90.0
 72
     5
 11
-9.6
 21
59.0125
  0
ENDBLK
  0
BLOCK
  2
*DIM_0004
 70
    65
 10
0.0
 20
0.0
  0
LINE
  8
寸法
  6
BYBLOCK
 62
     0
 10
-29.755937
 20
-5.62962
 11
-9.20651
 21
-5.62962
  0
LINE
  8
寸法
  6
BYBLOCK
 62
     0
 10
-21.732063
 20
-0.07962
 11
-9.20651
 21
-0.07962
  0
LINE
  8
寸法
  6
BYBLOCK
 62
     0
 10
-9.20651
 20
-5.62962
 11
-9.20651
 21
-0.07962
  0
POINT
  8
寸法
 62
     0
 10
-9.20651
 20
-5.62962
  0
POINT
  8
寸法
 62
     0
 10
-9.20651
 20
-0.07962
  0
TEXT
  7
TextStyle03
  8
寸法
  6
CONTINUOUS
 62
     0
 10
-9.6
 20
-5.3125
  1
111
 40
3.0
 50
90.0
 72
     5
 11
-9.6
 21
-0.4375
  0
ENDBLK
  0
BLOCK
  2
*GRP_0005
 70
    65
 10
0.0
 20
0.0
  0
POLYLINE
  8
寸法
  6
BYBLOCK
 62
     0
 66
     1
  0
VERTEX
  8
寸法
 10
-34.969535
 20
20.654355
  0
VERTEX
  8
寸法
 10
-28.553032
 20
14.237853
  0
VERTEX
  8
寸法
 10
-22.645905
 20
14.237853
  0
SEQEND
  0
ENDBLK
  0
BLOCK
  2
*DIM_0006
 70
    65
 10
0.0
 20
0.0
  0
LINE
  8
寸法
  6
BYBLOCK
 62
     0
 10
-80.755937
 20
82.238818
 11
-80.755937
 21
92.594355
  0
LINE
  8
寸法
  6
BYBLOCK
 62
     0
 10
-45.755937
 20
82.238818
 11
-45.755937
 21
92.594355
  0
LINE
  8
寸法
  6
BYBLOCK
 62
     0
 10
-80.755937
 20
92.594355
 11
-45.755937
 21
92.594355
  0
POINT
  8
寸法
 62
     0
 10
-80.755937
 20
92.594355
  0
POINT
  8
寸法
 62
     0
 10
-45.755937
 20
92.594355
  0
TEXT
  7
TextStyle03
  8
寸法
  6
CONTINUOUS
 62
     0
 10
-65.7125
 20
92.975
  1
700
 40
3.0
 72
     5
 11
-60.8375
 21
92.975
  0
ENDBLK
  0
BLOCK
  2
*DIM_0007
 70
    65
 10
0.0
 20
0.0
  0
LINE
  8
寸法
  6
BYBLOCK
 62
     0
 10
-123.904373
 20
44.370385
 11
-134.25991
 21
44.370385
  0
LINE
  8
寸法
  6
BYBLOCK
 62
     0
 10
-123.904375
 20
9.370385
 11
-134.259912
 21
9.370385
  0
LINE
  8
寸法
  6
BYBLOCK
 62
     0
 10
-134.25991
 20
44.370385
 11
-134.259912
 21
9.370385
  0
POINT
  8
寸法
 62
     0
 10
-134.25991
 20
44.370385
  0
POINT
  8
寸法
 62
     0
 10
-134.259912
 20
9.370385
  0
TEXT
  7
TextStyle03
  8
寸法
  6
CONTINUOUS
 62
     0
 10
-134.65
 20
24.4375
  1
700
 40
3.0
 50
90.0
 72
     5
 11
-134.65
 21
29.3125
  0
ENDBLK
  0
BLOCK
  2
*DIM_0008
 70
    65
 10
0.0
 20
0.0
  0
LINE
  8
寸法
  6
BYBLOCK
 62
     0
 10
-27.780937
 20
-68.635048
 11
-27.780937
 21
-33.416065
  0
LINE
  8
寸法
  6
BYBLOCK
 62
     0
 10
-30.755937
 20
-33.416065
 11
-27.780937
 21
-33.416065
  0
POINT
  8
寸法
 62
     0
 10
-30.755937
 20
-33.416065
  0
POINT
  8
寸法
 62
     0
 10
-27.780937
 20
-33.416065
  0
TEXT
  7
TextStyle03
  8
寸法
  6
CONTINUOUS
 62
     0
 10
-25.80625
 20
-33.05
  1
59.5
 40
3.0
 72
     5
 11
-19.24375
 21
-33.05
  0
ENDBLK
  0
BLOCK
  2
*DIM_0009
 70
    65
 10
0.0
 20
0.0
  0
LINE
  8
寸法
  6
BYBLOCK
 62
     0
 10
-98.730937
 20
-68.635048
 11
-98.730937
 21
-33.416065
  0
LINE
  8
寸法
  6
BYBLOCK
 62
     0
 10
-95.755937
 20
-33.416065
 11
-98.730937
 21
-33.416065
  0
POINT
  8
寸法
 62
     0
 10
-95.755937
 20
-33.416065
  0
POINT
  8
寸法
 62
     0
 10
-98.730937
 20
-33.416065
  0
TEXT
  7
TextStyle03
  8
寸法
  6
CONTINUOUS
 62
     0
 10
-107.28125
 20
-33.05
  1
59.5
 40
3.0
 72
     5
 11
-100.71875
 21
-33.05
  0
ENDBLK
  0
BLOCK
  2
*DIM_0010
 70
    65
 10
0.0
 20
0.0
  0
LINE
  8
寸法
  6
BYBLOCK
 62
     0
 10
170.304785
 20
74.557477
 11
179.967098
 21
74.557477
  0
LINE
  8
寸法
  6
BYBLOCK
 62
     0
 10
170.304785
 20
10.557477
 11
179.967098
 21
10.557477
  0
LINE
  8
寸法
  6
BYBLOCK
 62
     0
 10
179.967098
 20
74.557477
 11
179.967098
 21
10.557477
  0
POINT
  8
寸法
 62
     0
 10
179.967098
 20
74.557477
  0
POINT
  8
寸法
 62
     0
 10
179.967098
 20
10.557477
  0
TEXT
  7
TextStyle03
  8
寸法
  6
CONTINUOUS
 62
     0
 10
179.575
 20
39.24375
  1
1280
 40
3.0
 50
90.0
 72
     5
 11
179.575
 21
45.80625
  0
ENDBLK
  0
BLOCK
  2
*DIM_0011
 70
    65
 10
0.0
 20
0.0
  0
LINE
  8
寸法
  6
BYBLOCK
 62
     0
 10
103.304785
 20
77.557477
 11
103.304785
 21
85.30483
  0
LINE
  8
寸法
  6
BYBLOCK
 62
     0
 10
167.304785
 20
77.557477
 11
167.304785
 21
85.30483
  0
LINE
  8
寸法
  6
BYBLOCK
 62
     0
 10
103.304785
 20
85.30483
 11
167.304785
 21
85.30483
  0
POINT
  8
寸法
 62
     0
 10
103.304785
 20
85.30483
  0
POINT
  8
寸法
 62
     0
 10
167.304785
 20
85.30483
  0
TEXT
  7
TextStyle03
  8
寸法
  6
CONTINUOUS
 62
     0
 10
131.99375
 20
85.65
  1
1280
 40
3.0
 72
     5
 11
138.55625
 21
85.65
  0
ENDBLK
  0
BLOCK
  2
*GRP_0012
 70
    65
 10
0.0
 20
0.0
  0
LINE
  8
型材断面
  6
DOT
 10
110.26617
 20
-75.002998
 11
110.631812
 21
-75.99864
  0
LINE
  8
型材断面
  6
DOT
 10
110.631812
 20
-75.99864
 11
110.211813
 21
-76.906165
  0
LINE
  8
型材断面
  6
DOT
 10
110.211813
 20
-76.906165
 11
109.21617
 21
-77.271807
  0
LINE
  8
型材断面
  6
DOT
 10
66.251253
 20
-54.632995
 11
110.26617
 21
-75.002998
  0
LINE
  8
型材断面
  6
DOT
 10
65.255608
 20
-54.998638
 11
66.251253
 21
-54.632995
  0
LINE
  8
型材断面
  6
DOT
 10
65.255608
 20
-54.998638
 11
64.835607
 21
-55.906163
  0
LINE
  8
型材断面
  6
DOT
 10
65.201253
 20
-56.901805
 11
109.21617
 21
-77.271807
  0
LINE
  8
型材断面
  6
DOT
 10
64.835607
 20
-55.906163
 11
65.201253
 21
-56.901805
  0
INSERT
  2
*GRP_0014
  8
ボルト／ビス
  6
DOT
 62
    64
 10
0.0
 20
0.0
  0
INSERT
  2
*GRP_0015
  8
ボルト／ビス
  6
DOT
 62
    64
 10
0.0
 20
0.0
  0
INSERT
  2
*GRP_0016
  8
ボルト／ビス
  6
DOT
 62
    64
 10
0.0
 20
0.0
  0
ENDBLK
  0
BLOCK
  2
*GRP_0013
 70
    65
 10
0.0
 20
0.0
  0
LINE
  8
型材断面
  6
DOT
 10
65.20125
 20
-75.002998
 11
64.835607
 21
-75.99864
  0
LINE
  8
型材断面
  6
DOT
 10
64.835607
 20
-75.99864
 11
65.255608
 21
-76.906165
  0
LINE
  8
型材断面
  6
DOT
 10
65.255608
 20
-76.906165
 11
66.25125
 21
-77.271807
  0
LINE
  8
型材断面
  6
DOT
 10
109.216167
 20
-54.632995
 11
65.20125
 21
-75.002998
  0
LINE
  8
型材断面
  6
DOT
 10
110.211813
 20
-54.998638
 11
109.216167
 21
-54.632995
  0
LINE
  8
型材断面
  6
DOT
 10
110.211813
 20
-54.998638
 11
110.631812
 21
-55.906163
  0
LINE
  8
型材断面
  6
DOT
 10
110.266167
 20
-56.901805
 11
66.25125
 21
-77.271807
  0
LINE
  8
型材断面
  6
DOT
 10
110.631812
 20
-55.906163
 11
110.266167
 21
-56.901805
  0
INSERT
  2
*GRP_0017
  8
ボルト／ビス
  6
DOT
 62
    64
 10
0.0
 20
0.0
  0
INSERT
  2
*GRP_0018
  8
ボルト／ビス
  6
DOT
 62
    64
 10
0.0
 20
0.0
  0
INSERT
  2
*GRP_0019
  8
ボルト／ビス
  6
DOT
 62
    64
 10
0.0
 20
0.0
  0
ENDBLK
  0
BLOCK
  2
*GRP_0014
 70
    65
 10
0.0
 20
0.0
  0
INSERT
  2
*GRP_0020
  8
補助線
  6
DOT
 62
    64
 10
0.0
 20
0.0
  0
LINE
  8
ボルト／ビス
  6
DOT
 62
    64
 10
66.374002
 20
-55.558233
 11
65.913998
 21
-55.599817
  0
LINE
  8
ボルト／ビス
  6
DOT
 62
    64
 10
66.374002
 20
-55.558233
 11
66.640018
 21
-55.935818
  0
LINE
  8
ボルト／ビス
  6
DOT
 62
    64
 10
65.986025
 20
-56.396568
 11
65.72001
 21
-56.018985
  0
LINE
  8
ボルト／ビス
  6
DOT
 62
    64
 10
65.986025
 20
-56.396568
 11
66.446027
 21
-56.354985
  0
CIRCLE
  8
ボルト／ビス
  6
DOT
 62
    64
 10
66.180012
 20
-55.9774
 40
0.4
  0
LINE
  8
ボルト／ビス
  6
DOT
 62
    64
 10
66.640018
 20
-55.935818
 11
66.446027
 21
-56.354985
  0
LINE
  8
ボルト／ビス
  6
DOT
 62
    64
 10
65.913998
 20
-55.599817
 11
65.72001
 21
-56.018985
  0
ENDBLK
  0
BLOCK
  2
*GRP_0015
 70
    65
 10
0.0
 20
0.0
  0
INSERT
  2
*GRP_0021
  8
補助線
  6
DOT
 62
    64
 10
0.0
 20
0.0
  0
LINE
  8
ボルト／ビス
  6
DOT
 62
    64
 10
109.481397
 20
-75.508235
 11
109.747413
 21
-75.88582
  0
LINE
  8
ボルト／ビス
  6
DOT
 62
    64
 10
109.481397
 20
-75.508235
 11
109.021393
 21
-75.54982
  0
LINE
  8
ボルト／ビス
  6
DOT
 62
    64
 10
109.093418
 20
-76.34657
 11
109.553422
 21
-76.304985
  0
LINE
  8
ボルト／ビス
  6
DOT
 62
    64
 10
109.093418
 20
-76.34657
 11
108.827403
 21
-75.968985
  0
CIRCLE
  8
ボルト／ビス
  6
DOT
 62
    64
 10
109.287407
 20
-75.927402
 40
0.4
  0
LINE
  8
ボルト／ビス
  6
DOT
 62
    64
 10
109.021393
 20
-75.54982
 11
108.827403
 21
-75.968985
  0
LINE
  8
ボルト／ビス
  6
DOT
 62
    64
 10
109.747413
 20
-75.88582
 11
109.553422
 21
-76.304985
  0
ENDBLK
  0
BLOCK
  2
*GRP_0016
 70
    65
 10
0.0
 20
0.0
  0
INSERT
  2
*GRP_0022
  8
補助線
  6
DOT
 62
    64
 10
0.0
 20
0.0
  0
LINE
  8
ボルト／ビス
  6
DOT
 62
    64
 10
87.9277
 20
-65.533235
 11
87.467695
 21
-65.574817
  0
LINE
  8
ボルト／ビス
  6
DOT
 62
    64
 10
87.9277
 20
-65.533235
 11
88.193715
 21
-65.910818
  0
LINE
  8
ボルト／ビス
  6
DOT
 62
    64
 10
87.53972
 20
-66.371568
 11
87.273705
 21
-65.993985
  0
LINE
  8
ボルト／ビス
  6
DOT
 62
    64
 10
87.53972
 20
-66.371568
 11
87.999725
 21
-66.329985
  0
CIRCLE
  8
ボルト／ビス
  6
DOT
 62
    64
 10
87.73371
 20
-65.952402
 40
0.4
  0
LINE
  8
ボルト／ビス
  6
DOT
 62
    64
 10
88.193715
 20
-65.910818
 11
87.999725
 21
-66.329985
  0
LINE
  8
ボルト／ビス
  6
DOT
 62
    64
 10
87.467695
 20
-65.574817
 11
87.273705
 21
-65.993985
  0
ENDBLK
  0
BLOCK
  2
*GRP_0017
 70
    65
 10
0.0
 20
0.0
  0
INSERT
  2
*GRP_0023
  8
補助線
  6
DOT
 62
    64
 10
0.0
 20
0.0
  0
LINE
  8
ボルト／ビス
  6
DOT
 62
    64
 10
109.093418
 20
-55.558233
 11
109.553422
 21
-55.599817
  0
LINE
  8
ボルト／ビス
  6
DOT
 62
    64
 10
109.093418
 20
-55.558233
 11
108.827403
 21
-55.935818
  0
LINE
  8
ボルト／ビス
  6
DOT
 62
    64
 10
109.481395
 20
-56.396568
 11
109.74741
 21
-56.018985
  0
LINE
  8
ボルト／ビス
  6
DOT
 62
    64
 10
109.481395
 20
-56.396568
 11
109.021393
 21
-56.354985
  0
CIRCLE
  8
ボルト／ビス
  6
DOT
 62
    64
 10
109.287407
 20
-55.9774
 40
0.4
  0
LINE
  8
ボルト／ビス
  6
DOT
 62
    64
 10
108.827403
 20
-55.935818
 11
109.021393
 21
-56.354985
  0
LINE
  8
ボルト／ビス
  6
DOT
 62
    64
 10
109.553422
 20
-55.599817
 11
109.74741
 21
-56.018985
  0
ENDBLK
  0
BLOCK
  2
*GRP_0018
 70
    65
 10
0.0
 20
0.0
  0
INSERT
  2
*GRP_0024
  8
補助線
  6
DOT
 62
    64
 10
0.0
 20
0.0
  0
LINE
  8
ボルト／ビス
  6
DOT
 62
    64
 10
65.986023
 20
-75.508235
 11
65.720008
 21
-75.88582
  0
LINE
  8
ボルト／ビス
  6
DOT
 62
    64
 10
65.986023
 20
-75.508235
 11
66.446027
 21
-75.54982
  0
LINE
  8
ボルト／ビス
  6
DOT
 62
    64
 10
66.374002
 20
-76.34657
 11
65.913998
 21
-76.304985
  0
LINE
  8
ボルト／ビス
  6
DOT
 62
    64
 10
66.374002
 20
-76.34657
 11
66.640018
 21
-75.968985
  0
CIRCLE
  8
ボルト／ビス
  6
DOT
 62
    64
 10
66.180012
 20
-75.927402
 40
0.4
  0
LINE
  8
ボルト／ビス
  6
DOT
 62
    64
 10
66.446027
 20
-75.54982
 11
66.640018
 21
-75.968985
  0
LINE
  8
ボルト／ビス
  6
DOT
 62
    64
 10
65.720008
 20
-75.88582
 11
65.913998
 21
-76.304985
  0
ENDBLK
  0
BLOCK
  2
*GRP_0019
 70
    65
 10
0.0
 20
0.0
  0
INSERT
  2
*GRP_0025
  8
補助線
  6
DOT
 62
    64
 10
0.0
 20
0.0
  0
LINE
  8
ボルト／ビス
  6
DOT
 62
    64
 10
87.53972
 20
-65.533235
 11
87.999725
 21
-65.574817
  0
LINE
  8
ボルト／ビス
  6
DOT
 62
    64
 10
87.53972
 20
-65.533235
 11
87.273705
 21
-65.910818
  0
LINE
  8
ボルト／ビス
  6
DOT
 62
    64
 10
87.9277
 20
-66.371568
 11
88.193715
 21
-65.993985
  0
LINE
  8
ボルト／ビス
  6
DOT
 62
    64
 10
87.9277
 20
-66.371568
 11
87.467695
 21
-66.329985
  0
CIRCLE
  8
ボルト／ビス
  6
DOT
 62
    64
 10
87.73371
 20
-65.952402
 40
0.4
  0
LINE
  8
ボルト／ビス
  6
DOT
 62
    64
 10
87.273705
 20
-65.910818
 11
87.467695
 21
-66.329985
  0
LINE
  8
ボルト／ビス
  6
DOT
 62
    64
 10
87.999725
 20
-65.574817
 11
88.193715
 21
-65.993985
  0
ENDBLK
  0
BLOCK
  2
*GRP_0020
 70
    65
 10
0.0
 20
0.0
  0
LINE
  8
補助線
  6
DOT
 62
    64
 10
66.293455
 20
-56.0299
 11
66.066573
 21
-55.9249
  0
LINE
  8
補助線
  6
DOT
 62
    64
 10
66.232512
 20
-55.86396
 11
66.127513
 21
-56.09084
  0
ENDBLK
  0
BLOCK
  2
*GRP_0021
 70
    65
 10
0.0
 20
0.0
  0
LINE
  8
補助線
  6
DOT
 62
    64
 10
109.173968
 20
-75.874903
 11
109.400848
 21
-75.979903
  0
LINE
  8
補助線
  6
DOT
 62
    64
 10
109.339907
 20
-75.813962
 11
109.234908
 21
-76.040842
  0
ENDBLK
  0
BLOCK
  2
*GRP_0022
 70
    65
 10
0.0
 20
0.0
  0
LINE
  8
補助線
  6
DOT
 62
    64
 10
87.84715
 20
-66.004903
 11
87.62027
 21
-65.899903
  0
LINE
  8
補助線
  6
DOT
 62
    64
 10
87.78621
 20
-65.83896
 11
87.68121
 21
-66.065842
  0
ENDBLK
  0
BLOCK
  2
*GRP_0023
 70
    65
 10
0.0
 20
0.0
  0
LINE
  8
補助線
  6
DOT
 62
    64
 10
109.173965
 20
-56.0299
 11
109.400848
 21
-55.9249
  0
LINE
  8
補助線
  6
DOT
 62
    64
 10
109.234908
 20
-55.86396
 11
109.339907
 21
-56.09084
  0
ENDBLK
  0
BLOCK
  2
*GRP_0024
 70
    65
 10
0.0
 20
0.0
  0
LINE
  8
補助線
  6
DOT
 62
    64
 10
66.293453
 20
-75.874903
 11
66.066573
 21
-75.979903
  0
LINE
  8
補助線
  6
DOT
 62
    64
 10
66.127513
 20
-75.813962
 11
66.232512
 21
-76.040842
  0
ENDBLK
  0
BLOCK
  2
*GRP_0025
 70
    65
 10
0.0
 20
0.0
  0
LINE
  8
補助線
  6
DOT
 62
    64
 10
87.62027
 20
-66.004903
 11
87.84715
 21
-65.899903
  0
LINE
  8
補助線
  6
DOT
 62
    64
 10
87.68121
 20
-65.83896
 11
87.78621
 21
-66.065842
  0
ENDBLK
  0
BLOCK
  2
*DIM_0026
 70
    65
 10
0.0
 20
0.0
  0
LINE
  8
寸法
  6
CONTINUOUS
 10
-10.100935
 20
-67.562327
 11
-10.100935
 21
-79.037403
  0
POINT
  8
寸法
 10
-10.100935
 20
-67.562327
  0
POINT
  8
寸法
 10
-10.100935
 20
-79.037403
  0
TEXT
  7
TextStyle03
  8
寸法
  6
CONTINUOUS
 10
-10.5
 20
-77.425
  1
229.5
 40
3.0
 50
90.0
 72
     5
 11
-10.5
 21
-69.175
  0
ENDBLK
  0
BLOCK
  2
*DIM_0027
 70
    65
 10
0.0
 20
0.0
  0
LINE
  8
寸法
  6
BYBLOCK
 62
     0
 10
134.140265
 20
-67.562327
 11
134.140265
 21
-79.037403
  0
POINT
  8
寸法
 62
     0
 10
134.140265
 20
-67.562327
  0
POINT
  8
寸法
 62
     0
 10
134.140265
 20
-79.037403
  0
TEXT
  7
TextStyle03
  8
寸法
  6
CONTINUOUS
 62
     0
 10
139.125
 20
-77.55
  1
229.5
 40
3.0
 50
90.0
 72
     5
 11
139.125
 21
-69.3
  0
ENDBLK
  0
BLOCK
  2
*DIM_0028
 70
    65
 10
0.0
 20
0.0
  0
LINE
  8
寸法
  6
BYBLOCK
 62
     0
 10
119.472183
 20
-51.562325
 11
134.140265
 21
-51.562325
  0
LINE
  8
寸法
  6
BYBLOCK
 62
     0
 10
134.140265
 20
-67.562327
 11
134.140265
 21
-51.562325
  0
POINT
  8
寸法
 62
     0
 10
134.140265
 20
-67.562327
  0
POINT
  8
寸法
 62
     0
 10
134.140265
 20
-51.562325
  0
TEXT
  7
TextStyle03
  8
寸法
  6
CONTINUOUS
 62
     0
 10
133.325
 20
-50.14375
  1
上昇258以上
 40
3.0
 50
90.0
 72
     5
 11
133.325
 21
-31.95625
  0
ENDBLK
  0
ENDSEC
  0
SECTION
  2
ENTITIES
  0
POLYLINE
  8
通り芯
  6
CONTINUOUS
 66
     1
 70
     1
  0
VERTEX
  8
通り芯
 10
-210.0
 20
-148.5
  0
VERTEX
  8
通り芯
 10
210.0
 20
-148.5
  0
VERTEX
  8
通り芯
 10
210.0
 20
148.5
  0
VERTEX
  8
通り芯
 10
-210.0
 20
148.5
  0
SEQEND
  0
INSERT
  2
*GRP_0001
  8
型材断面
  6
CONTINUOUS
 10
0.0
 20
0.0
  0
LINE
  8
型材断面
  6
DASHDOT
 10
-30.755937
 20
-85.083888
 11
-30.755937
 21
59.370383
  0
LINE
  8
型材断面
  6
DASHDOT
 10
-95.755937
 20
-85.083888
 11
-95.755937
 21
59.370383
  0
LINE
  8
型材断面
  6
DOT
 10
-35.865297
 20
59.370383
 11
-35.865297
 21
-5.629618
  0
LINE
  8
型材断面
  6
DOT
 10
-33.865297
 20
59.370383
 11
-33.865297
 21
-5.629618
  0
LINE
  8
型材断面
  6
CONTINUOUS
 10
-22.732063
 20
53.820385
 11
-18.846303
 21
52.9263
  0
LINE
  8
型材断面
  6
CONTINUOUS
 10
-22.732063
 20
53.820385
 11
-18.846303
 21
54.71447
  0
LINE
  8
型材断面
  6
CONTINUOUS
 10
-18.846303
 20
54.71447
 11
-18.846303
 21
52.9263
  0
LINE
  8
型材断面
  6
CONTINUOUS
 10
-22.732063
 20
-0.07962
 11
-18.846303
 21
0.814465
  0
LINE
  8
型材断面
  6
CONTINUOUS
 10
-22.732063
 20
-0.07962
 11
-18.846303
 21
-0.973705
  0
LINE
  8
型材断面
  6
CONTINUOUS
 10
-18.846303
 20
-0.973705
 11
-18.846303
 21
0.814465
  0
LINE
  8
型材断面
  6
CONTINUOUS
 10
-103.779813
 20
-0.07962
 11
-107.665572
 21
0.814465
  0
LINE
  8
型材断面
  6
CONTINUOUS
 10
-103.779813
 20
-0.07962
 11
-107.665572
 21
-0.973705
  0
LINE
  8
型材断面
  6
CONTINUOUS
 10
-107.665572
 20
-0.973705
 11
-107.665572
 21
0.814465
  0
LINE
  8
型材断面
  6
CONTINUOUS
 10
-103.779813
 20
53.820385
 11
-107.665572
 21
52.9263
  0
LINE
  8
型材断面
  6
CONTINUOUS
 10
-103.779813
 20
53.820385
 11
-107.665572
 21
54.71447
  0
LINE
  8
型材断面
  6
CONTINUOUS
 10
-107.665572
 20
54.71447
 11
-107.665572
 21
52.9263
  0
LINE
  8
型材断面
  6
CONTINUOUS
 10
-22.732063
 20
26.870383
 11
-18.846303
 21
24.626937
  0
LINE
  8
型材断面
  6
CONTINUOUS
 10
-22.732063
 20
26.870383
 11
-18.846303
 21
29.113827
  0
LINE
  8
型材断面
  6
CONTINUOUS
 10
-18.846303
 20
29.113827
 11
-18.846303
 21
24.626937
  0
LINE
  8
型材断面
  6
CONTINUOUS
 10
-63.255937
 20
67.394257
 11
-65.499382
 21
71.280018
  0
LINE
  8
型材断面
  6
CONTINUOUS
 10
-63.255937
 20
67.394257
 11
-61.012493
 21
71.280018
  0
LINE
  8
型材断面
  6
CONTINUOUS
 10
-61.012493
 20
71.280018
 11
-65.499382
 21
71.280018
  0
LINE
  8
型材断面
  6
CONTINUOUS
 10
-63.255937
 20
-13.653492
 11
-65.499382
 21
-17.539253
  0
LINE
  8
型材断面
  6
CONTINUOUS
 10
-63.255937
 20
-13.653492
 11
-61.012493
 21
-17.539253
  0
LINE
  8
型材断面
  6
CONTINUOUS
 10
-61.012493
 20
-17.539253
 11
-65.499382
 21
-17.539253
  0
LINE
  8
型材断面
  6
CONTINUOUS
 10
-103.779813
 20
26.870383
 11
-107.665572
 21
24.626937
  0
LINE
  8
型材断面
  6
CONTINUOUS
 10
-103.779813
 20
26.870383
 11
-107.665572
 21
29.113827
  0
LINE
  8
型材断面
  6
CONTINUOUS
 10
-107.665572
 20
29.113827
 11
-107.665572
 21
24.626937
  0
LINE
  8
型材断面
  6
CONTINUOUS
 10
4.930422
 20
-11.415415
 11
2.686977
 21
-15.301175
  0
LINE
  8
型材断面
  6
CONTINUOUS
 10
4.930422
 20
-11.415415
 11
7.173868
 21
-15.301175
  0
LINE
  8
型材断面
  6
CONTINUOUS
 10
7.173868
 20
-15.301175
 11
2.686977
 21
-15.301175
  0
LINE
  8
型材断面
  6
CONTINUOUS
 10
4.930422
 20
-19.104962
 11
5.824508
 21
-22.990722
  0
LINE
  8
型材断面
  6
CONTINUOUS
 10
4.930422
 20
-19.104962
 11
4.036338
 21
-22.990722
  0
LINE
  8
型材断面
  6
CONTINUOUS
 10
4.036338
 20
-22.990722
 11
5.824508
 21
-22.990722
  0
LINE
  8
型材断面
  6
CONTINUOUS
 10
-4.103457
 20
-16.709068
 11
48.553223
 21
-16.709068
  0
LINE
  8
型材断面
  6
CONTINUOUS
 10
-4.103457
 20
-27.90906
 11
48.553223
 21
-27.90906
  0
LINE
  8
型材断面
  6
CONTINUOUS
 10
-4.103457
 20
-34.749005
 11
48.553223
 21
-34.749005
  0
LINE
  8
型材断面
  6
DASHDOT
 10
-63.255937
 20
-85.083888
 11
-63.255937
 21
59.370383
  0
LINE
  8
型材断面
  6
DASHDOT
 10
-95.755937
 20
26.870383
 11
-30.755937
 21
26.870383
  0
POLYLINE
  8
型材断面
  6
CONTINUOUS
 66
     1
 70
     1
  0
VERTEX
  8
型材断面
 10
-53.966143
 20
76.9481
  0
VERTEX
  8
型材断面
 10
-72.521355
 20
76.9481
  0
VERTEX
  8
型材断面
 10
-72.521355
 20
72.156065
  0
VERTEX
  8
型材断面
 10
-53.966143
 20
72.156065
  0
SEQEND
  0
POLYLINE
  8
型材断面
  6
CONTINUOUS
 66
     1
 70
     1
  0
VERTEX
  8
型材断面
 10
-53.966143
 20
-18.772732
  0
VERTEX
  8
型材断面
 10
-72.521355
 20
-18.772732
  0
VERTEX
  8
型材断面
 10
-72.521355
 20
-23.564768
  0
VERTEX
  8
型材断面
 10
-53.966143
 20
-23.564768
  0
SEQEND
  0
LINE
  8
型材断面
  6
CONTINUOUS
 10
-63.255937
 20
-8.604388
 11
-98.730707
 21
-8.604388
  0
LINE
  8
型材断面
  6
CONTINUOUS
 10
-27.781167
 20
26.870383
 11
-27.781167
 21
-8.604388
  0
LINE
  8
型材断面
  6
CONTINUOUS
 10
-63.255937
 20
-8.604388
 11
-27.781167
 21
-8.604388
  0
LINE
  8
型材断面
  6
CONTINUOUS
 10
-27.781167
 20
26.870383
 11
-27.781167
 21
62.345153
  0
LINE
  8
型材断面
  6
CONTINUOUS
 10
-63.255937
 20
62.345153
 11
-27.781167
 21
62.345153
  0
LINE
  8
型材断面
  6
CONTINUOUS
 10
-63.255937
 20
62.345153
 11
-98.730707
 21
62.345153
  0
LINE
  8
型材断面
  6
CONTINUOUS
 10
-4.103457
 20
-41.58895
 11
48.553223
 21
-41.58895
  0
ARC
  8
型材断面
  6
CONTINUOUS
 62
    47
 10
-98.73094
 20
-73.737319
 40
0.025002
 50
89.999123
 51
180.0
  0
ARC
  8
型材断面
  6
CONTINUOUS
 62
    47
 10
-98.740939
 20
-73.797321
 40
0.015003
 50
180.0
 51
269.791626
  0
LINE
  8
型材断面
  6
CONTINUOUS
 62
    47
 10
-98.680935
 20
-74.062403
 11
-97.405715
 21
-74.062403
  0
LINE
  8
型材断面
  6
CONTINUOUS
 62
    47
 10
-98.730943
 20
-73.71232
 11
-98.730943
 21
-70.55233
  0
LINE
  8
型材断面
  6
CONTINUOUS
 62
    47
 10
-98.730935
 20
-74.062403
 11
-98.730935
 21
-79.037403
  0
LINE
  8
型材断面
  6
CONTINUOUS
 62
    47
 10
-97.980935
 20
-79.787403
 11
-97.980935
 21
-79.037403
  0
LINE
  8
型材断面
  6
CONTINUOUS
 62
    47
 10
-97.405933
 20
-70.55233
 11
-97.405933
 21
-70.062327
  0
LINE
  8
型材断面
  6
CONTINUOUS
 62
    47
 10
-98.755935
 20
-73.73732
 11
-98.755935
 21
-73.79681
  0
ARC
  8
型材断面
  6
CONTINUOUS
 62
    47
 10
-27.780931
 20
-73.737319
 40
0.025002
 50
0.0
 51
90.000877
  0
ARC
  8
型材断面
  6
CONTINUOUS
 62
    47
 10
-27.770932
 20
-73.797321
 40
0.015003
 50
270.208374
 51
360.0
  0
LINE
  8
型材断面
  6
CONTINUOUS
 62
    47
 10
-27.83094
 20
-74.062403
 11
-29.10616
 21
-74.062403
  0
LINE
  8
型材断面
  6
CONTINUOUS
 62
    47
 10
-27.780933
 20
-73.71232
 11
-27.780933
 21
-70.55233
  0
LINE
  8
型材断面
  6
CONTINUOUS
 62
    47
 10
-27.78094
 20
-74.062403
 11
-27.78094
 21
-79.037403
  0
LINE
  8
型材断面
  6
CONTINUOUS
 62
    47
 10
-28.53094
 20
-79.787403
 11
-28.53094
 21
-79.037403
  0
LINE
  8
型材断面
  6
CONTINUOUS
 62
    47
 10
-29.105943
 20
-70.55233
 11
-29.105943
 21
-70.062327
  0
LINE
  8
型材断面
  6
CONTINUOUS
 62
    47
 10
-27.75594
 20
-73.73732
 11
-27.75594
 21
-73.79681
  0
LINE
  8
型材断面
  6
CONTINUOUS
 10
-98.730943
 20
-70.55233
 11
-63.255937
 21
-70.55233
  0
LINE
  8
型材断面
  6
CONTINUOUS
 10
-97.855935
 20
-70.062327
 11
-63.255937
 21
-70.062327
  0
LINE
  8
型材断面
  6
CONTINUOUS
 10
-97.855935
 20
-67.562327
 11
-63.255937
 21
-67.562327
  0
LINE
  8
型材断面
  6
CONTINUOUS
 10
-98.090718
 20
-67.812327
 11
-63.255937
 21
-67.812327
  0
LINE
  8
型材断面
  6
CONTINUOUS
 10
-98.730935
 20
-74.062403
 11
-63.255937
 21
-74.062403
  0
LINE
  8
型材断面
  6
CONTINUOUS
 10
-98.74094
 20
-73.812327
 11
-63.255937
 21
-73.812327
  0
LINE
  8
型材断面
  6
CONTINUOUS
 10
-98.730935
 20
-79.037403
 11
-63.255937
 21
-79.037403
  0
LINE
  8
型材断面
  6
CONTINUOUS
 10
-97.980935
 20
-79.787403
 11
-63.255937
 21
-79.787403
  0
LINE
  8
型材断面
  6
CONTINUOUS
 10
-28.53094
 20
-79.787403
 11
-63.255937
 21
-79.787403
  0
LINE
  8
型材断面
  6
CONTINUOUS
 10
-27.78094
 20
-79.037403
 11
-63.255937
 21
-79.037403
  0
LINE
  8
型材断面
  6
CONTINUOUS
 10
-27.770935
 20
-73.812327
 11
-63.255937
 21
-73.812327
  0
LINE
  8
型材断面
  6
CONTINUOUS
 10
-27.78094
 20
-74.062403
 11
-63.255937
 21
-74.062403
  0
LINE
  8
型材断面
  6
CONTINUOUS
 10
-27.780933
 20
-70.55233
 11
-63.255937
 21
-70.55233
  0
LINE
  8
型材断面
  6
CONTINUOUS
 10
-28.65594
 20
-70.062327
 11
-63.255937
 21
-70.062327
  0
LINE
  8
型材断面
  6
CONTINUOUS
 10
-28.65594
 20
-67.562327
 11
-63.255937
 21
-67.562327
  0
LINE
  8
型材断面
  6
CONTINUOUS
 10
-28.421158
 20
-67.812327
 11
-63.255937
 21
-67.812327
  0
ARC
  8
型材断面
  6
CONTINUOUS
 62
    47
 10
46.312397
 20
-73.737319
 40
0.025002
 50
89.999123
 51
180.0
  0
ARC
  8
型材断面
  6
CONTINUOUS
 62
    47
 10
46.302398
 20
-73.797321
 40
0.015003
 50
180.0
 51
269.791626
  0
LINE
  8
型材断面
  6
CONTINUOUS
 62
    47
 10
46.3624
 20
-74.062403
 11
47.63762
 21
-74.062403
  0
LINE
  8
型材断面
  6
CONTINUOUS
 62
    47
 10
46.312392
 20
-73.71232
 11
46.312392
 21
-70.55233
  0
LINE
  8
型材断面
  6
CONTINUOUS
 62
    47
 10
46.3124
 20
-74.062403
 11
46.3124
 21
-79.037403
  0
LINE
  8
型材断面
  6
CONTINUOUS
 62
    47
 10
47.0624
 20
-79.787403
 11
47.0624
 21
-79.037403
  0
LINE
  8
型材断面
  6
CONTINUOUS
 62
    47
 10
47.637402
 20
-70.55233
 11
47.637402
 21
-70.062327
  0
LINE
  8
型材断面
  6
CONTINUOUS
 62
    47
 10
46.2874
 20
-73.73732
 11
46.2874
 21
-73.79681
  0
ARC
  8
型材断面
  6
CONTINUOUS
 62
    47
 10
117.262406
 20
-73.737319
 40
0.025002
 50
0.0
 51
90.000877
  0
ARC
  8
型材断面
  6
CONTINUOUS
 62
    47
 10
117.272405
 20
-73.797321
 40
0.015003
 50
270.208374
 51
360.0
  0
LINE
  8
型材断面
  6
CONTINUOUS
 62
    47
 10
117.212395
 20
-74.062403
 11
115.937175
 21
-74.062403
  0
LINE
  8
型材断面
  6
CONTINUOUS
 62
    47
 10
117.262402
 20
-73.71232
 11
117.262402
 21
-70.55233
  0
LINE
  8
型材断面
  6
CONTINUOUS
 62
    47
 10
117.262395
 20
-74.062403
 11
117.262395
 21
-79.037403
  0
LINE
  8
型材断面
  6
CONTINUOUS
 62
    47
 10
116.512395
 20
-79.787403
 11
116.512395
 21
-79.037403
  0
LINE
  8
型材断面
  6
CONTINUOUS
 62
    47
 10
115.937392
 20
-70.55233
 11
115.937392
 21
-70.062327
  0
LINE
  8
型材断面
  6
CONTINUOUS
 62
    47
 10
117.287395
 20
-73.73732
 11
117.287395
 21
-73.79681
  0
LINE
  8
型材断面
  6
CONTINUOUS
 10
46.312392
 20
-70.55233
 11
81.787398
 21
-70.55233
  0
LINE
  8
型材断面
  6
CONTINUOUS
 10
47.1874
 20
-70.062327
 11
81.787398
 21
-70.062327
  0
LINE
  8
型材断面
  6
CONTINUOUS
 10
47.1874
 20
-67.562327
 11
81.787398
 21
-67.562327
  0
LINE
  8
型材断面
  6
CONTINUOUS
 10
46.952618
 20
-67.812327
 11
81.787398
 21
-67.812327
  0
LINE
  8
型材断面
  6
CONTINUOUS
 10
46.3124
 20
-74.062403
 11
81.787398
 21
-74.062403
  0
LINE
  8
型材断面
  6
CONTINUOUS
 10
46.302395
 20
-73.812327
 11
81.787398
 21
-73.812327
  0
LINE
  8
型材断面
  6
CONTINUOUS
 10
46.3124
 20
-79.037403
 11
81.787398
 21
-79.037403
  0
LINE
  8
型材断面
  6
CONTINUOUS
 10
47.0624
 20
-79.787403
 11
81.787398
 21
-79.787403
  0
LINE
  8
型材断面
  6
CONTINUOUS
 10
116.512395
 20
-79.787403
 11
81.787398
 21
-79.787403
  0
LINE
  8
型材断面
  6
CONTINUOUS
 10
117.262395
 20
-79.037403
 11
81.787398
 21
-79.037403
  0
LINE
  8
型材断面
  6
CONTINUOUS
 10
117.2724
 20
-73.812327
 11
81.787398
 21
-73.812327
  0
LINE
  8
型材断面
  6
CONTINUOUS
 10
117.262395
 20
-74.062403
 11
81.787398
 21
-74.062403
  0
LINE
  8
型材断面
  6
CONTINUOUS
 10
117.262402
 20
-70.55233
 11
81.787398
 21
-70.55233
  0
LINE
  8
型材断面
  6
CONTINUOUS
 10
116.387395
 20
-70.062327
 11
81.787398
 21
-70.062327
  0
LINE
  8
型材断面
  6
CONTINUOUS
 10
116.387395
 20
-67.562327
 11
81.787398
 21
-67.562327
  0
LINE
  8
型材断面
  6
CONTINUOUS
 10
116.622177
 20
-67.812327
 11
81.787398
 21
-67.812327
  0
ARC
  8
型材断面
  6
DOT
 62
    47
 10
46.312397
 20
-57.737319
 40
0.025002
 50
89.999123
 51
180.0
  0
ARC
  8
型材断面
  6
DOT
 62
    47
 10
46.302398
 20
-57.797321
 40
0.015003
 50
180.0
 51
269.791626
  0
LINE
  8
型材断面
  6
DOT
 62
    47
 10
46.312392
 20
-57.71232
 11
46.312392
 21
-54.55233
  0
LINE
  8
型材断面
  6
DOT
 62
    47
 10
47.637402
 20
-54.55233
 11
47.637402
 21
-54.062327
  0
LINE
  8
型材断面
  6
DOT
 62
    47
 10
46.2874
 20
-57.73732
 11
46.2874
 21
-57.79681
  0
ARC
  8
型材断面
  6
DOT
 62
    47
 10
117.262406
 20
-57.737319
 40
0.025002
 50
0.0
 51
90.000877
  0
ARC
  8
型材断面
  6
DOT
 62
    47
 10
117.272405
 20
-57.797321
 40
0.015003
 50
270.208374
 51
360.0
  0
LINE
  8
型材断面
  6
DOT
 62
    47
 10
117.262402
 20
-57.71232
 11
117.262402
 21
-54.55233
  0
LINE
  8
型材断面
  6
DOT
 62
    47
 10
115.937392
 20
-54.55233
 11
115.937392
 21
-54.062327
  0
LINE
  8
型材断面
  6
DOT
 62
    47
 10
117.287395
 20
-57.73732
 11
117.287395
 21
-57.79681
  0
LINE
  8
型材断面
  6
DOT
 10
46.952618
 20
-51.812327
 11
81.787398
 21
-51.812327
  0
LINE
  8
型材断面
  6
DOT
 10
47.1874
 20
-51.562327
 11
81.787398
 21
-51.562327
  0
LINE
  8
型材断面
  6
DOT
 10
47.1874
 20
-54.062327
 11
81.787398
 21
-54.062327
  0
LINE
  8
型材断面
  6
DOT
 10
46.312392
 20
-54.55233
 11
81.787398
 21
-54.55233
  0
LINE
  8
型材断面
  6
DOT
 10
46.302395
 20
-57.812327
 11
81.787398
 21
-57.812327
  0
LINE
  8
型材断面
  6
DOT
 10
117.2724
 20
-57.812327
 11
81.787398
 21
-57.812327
  0
LINE
  8
型材断面
  6
DOT
 10
117.262402
 20
-54.55233
 11
81.787398
 21
-54.55233
  0
LINE
  8
型材断面
  6
DOT
 10
116.387395
 20
-54.062327
 11
81.787398
 21
-54.062327
  0
LINE
  8
型材断面
  6
DOT
 10
116.622177
 20
-51.812327
 11
81.787398
 21
-51.812327
  0
LINE
  8
型材断面
  6
DOT
 10
116.387395
 20
-51.562327
 11
81.787398
 21
-51.562327
  0
INSERT
  2
*GRP_0012
  8
型材断面
  6
DOT
 10
0.0
 20
0.0
  0
INSERT
  2
*GRP_0013
  8
型材断面
  6
DOT
 10
0.0
 20
0.0
  0
LINE
  8
型材断面
  6
DASHDOT
 10
-95.755937
 20
-5.629618
 11
-30.755937
 21
-5.629618
  0
LINE
  8
型材断面
  6
DASHDOT
 10
-95.755937
 20
59.370383
 11
-30.755937
 21
59.370383
  0
LINE
  8
型材断面
  6
CONTINUOUS
 10
-62.630937
 20
-7.964397
 11
-62.630937
 21
-4.214397
  0
LINE
  8
型材断面
  6
CONTINUOUS
 10
-63.880937
 20
-7.964397
 11
-63.880937
 21
-4.214397
  0
LINE
  8
型材断面
  6
CONTINUOUS
 10
-28.421158
 20
26.245383
 11
-32.171158
 21
26.245383
  0
LINE
  8
型材断面
  6
CONTINUOUS
 10
-28.421158
 20
27.495383
 11
-32.171158
 21
27.495383
  0
LINE
  8
型材断面
  6
CONTINUOUS
 10
-63.880937
 20
61.705163
 11
-63.880937
 21
57.955163
  0
LINE
  8
型材断面
  6
CONTINUOUS
 10
-62.630937
 20
61.705163
 11
-62.630937
 21
57.955163
  0
LINE
  8
型材断面
  6
CONTINUOUS
 10
-28.77471
 20
-7.964402
 11
-28.421165
 21
-7.61084
  0
LINE
  8
型材断面
  6
CONTINUOUS
 10
-27.781167
 20
-8.604388
 11
-28.597935
 21
-7.787618
  0
LINE
  8
型材断面
  6
CONTINUOUS
 10
-32.52472
 20
-4.214402
 11
-28.774715
 21
-7.964397
  0
LINE
  8
型材断面
  6
CONTINUOUS
 10
-32.171165
 20
-3.860847
 11
-28.421158
 21
-7.610848
  0
LINE
  8
型材断面
  6
CONTINUOUS
 10
-32.171158
 20
26.245383
 11
-32.171158
 21
-3.86084
  0
LINE
  8
型材断面
  6
CONTINUOUS
 10
-32.171158
 20
-3.86084
 11
-32.524715
 21
-4.214397
  0
LINE
  8
型材断面
  6
CONTINUOUS
 10
-62.630937
 20
-4.214397
 11
-32.524715
 21
-4.214397
  0
LINE
  8
型材断面
  6
CONTINUOUS
 10
-28.77471
 20
61.705168
 11
-28.421165
 21
61.351605
  0
LINE
  8
型材断面
  6
CONTINUOUS
 10
-27.781167
 20
62.345153
 11
-28.597935
 21
61.528383
  0
LINE
  8
型材断面
  6
CONTINUOUS
 10
-32.171165
 20
57.601613
 11
-28.421158
 21
61.351613
  0
LINE
  8
型材断面
  6
CONTINUOUS
 10
-28.421158
 20
-7.610848
 11
-28.421158
 21
61.351613
  0
LINE
  8
型材断面
  6
CONTINUOUS
 10
-32.52472
 20
57.955168
 11
-28.774715
 21
61.705163
  0
LINE
  8
型材断面
  6
CONTINUOUS
 10
-32.171158
 20
27.495383
 11
-32.171158
 21
57.601605
  0
LINE
  8
型材断面
  6
CONTINUOUS
 10
-32.171158
 20
57.601605
 11
-32.524715
 21
57.955163
  0
LINE
  8
型材断面
  6
CONTINUOUS
 10
-62.630937
 20
57.955163
 11
-32.524715
 21
57.955163
  0
LINE
  8
型材断面
  6
CONTINUOUS
 10
-98.730707
 20
26.870383
 11
-98.730707
 21
-8.604388
  0
LINE
  8
型材断面
  6
CONTINUOUS
 10
-98.730707
 20
26.870383
 11
-98.730707
 21
62.345153
  0
LINE
  8
型材断面
  6
CONTINUOUS
 10
-98.090718
 20
26.245383
 11
-94.340718
 21
26.245383
  0
LINE
  8
型材断面
  6
CONTINUOUS
 10
-98.090718
 20
27.495383
 11
-94.340718
 21
27.495383
  0
LINE
  8
型材断面
  6
CONTINUOUS
 10
-97.737165
 20
-7.964402
 11
-98.09071
 21
-7.61084
  0
LINE
  8
型材断面
  6
CONTINUOUS
 10
-98.730707
 20
-8.604388
 11
-97.91394
 21
-7.787618
  0
LINE
  8
型材断面
  6
CONTINUOUS
 10
-93.987155
 20
-4.214402
 11
-97.73716
 21
-7.964397
  0
LINE
  8
型材断面
  6
CONTINUOUS
 10
-94.34071
 20
-3.860847
 11
-98.090718
 21
-7.610848
  0
LINE
  8
型材断面
  6
CONTINUOUS
 10
-94.340718
 20
26.245383
 11
-94.340718
 21
-3.86084
  0
LINE
  8
型材断面
  6
CONTINUOUS
 10
-94.340718
 20
-3.86084
 11
-93.98716
 21
-4.214397
  0
LINE
  8
型材断面
  6
CONTINUOUS
 10
-97.737165
 20
61.705168
 11
-98.09071
 21
61.351605
  0
LINE
  8
型材断面
  6
CONTINUOUS
 10
-98.730707
 20
62.345153
 11
-97.91394
 21
61.528383
  0
LINE
  8
型材断面
  6
CONTINUOUS
 10
-94.34071
 20
57.601613
 11
-98.090718
 21
61.351613
  0
LINE
  8
型材断面
  6
CONTINUOUS
 10
-98.090718
 20
-7.610848
 11
-98.090718
 21
61.351613
  0
LINE
  8
型材断面
  6
CONTINUOUS
 10
-93.987155
 20
57.955168
 11
-97.73716
 21
61.705163
  0
LINE
  8
型材断面
  6
CONTINUOUS
 10
-94.340718
 20
27.495383
 11
-94.340718
 21
57.601605
  0
LINE
  8
型材断面
  6
CONTINUOUS
 10
-94.340718
 20
57.601605
 11
-93.98716
 21
57.955163
  0
LINE
  8
型材断面
  6
CONTINUOUS
 10
-63.880937
 20
-4.214397
 11
-93.98715
 21
-4.214397
  0
LINE
  8
型材断面
  6
CONTINUOUS
 10
-28.774715
 20
-7.964397
 11
-97.73716
 21
-7.964397
  0
LINE
  8
型材断面
  6
CONTINUOUS
 10
-63.880937
 20
57.955163
 11
-93.98715
 21
57.955163
  0
LINE
  8
型材断面
  6
CONTINUOUS
 10
-28.774715
 20
61.705163
 11
-97.73716
 21
61.705163
  0
LINE
  8
ガラス
  6
CONTINUOUS
 10
103.304785
 20
10.557477
 11
167.304785
 21
10.557477
  0
LINE
  8
ガラス
  6
CONTINUOUS
 10
167.304785
 20
74.557477
 11
167.304785
 21
10.557477
  0
LINE
  8
ガラス
  6
CONTINUOUS
 10
103.304785
 20
10.557477
 11
103.304785
 21
74.557477
  0
LINE
  8
ガラス
  6
CONTINUOUS
 10
167.304785
 20
74.557477
 11
103.304785
 21
74.557477
  0
TEXT
  7
TextStyle03
  8
文字
  6
CONTINUOUS
 10
-22.075
 20
13.075
  1
ﾊﾞﾗﾝｽｽﾃｰ
 40
3.0
 72
     5
 11
-8.7625
 21
13.075
  0
TEXT
  7
TextStyle03
  8
文字
  6
CONTINUOUS
 10
9.175
 20
-14.975
  1
は排水穴位置を示す
 40
3.0
 72
     5
 11
39.175
 21
-14.975
  0
TEXT
  7
TextStyle03
  8
文字
  6
CONTINUOUS
 10
9.175
 20
-22.825
  1
はケーシング位置を示す
 40
3.0
 72
     5
 11
45.925
 21
-22.825
  0
TEXT
  7
TextStyle03
  8
文字
  6
CONTINUOUS
 10
9.175
 20
-26.2
  1
４ヶ所中1ヶ所に設定
 40
3.0
 72
     5
 11
40.8625
 21
-26.2
  0
TEXT
  7
TextStyle03
  8
文字
  6
CONTINUOUS
 10
-71.55
 20
73.125
  1
可動装置側
 40
3.0
 72
     5
 11
-55.05
 21
73.125
  0
TEXT
  7
TextStyle03
  8
文字
  6
CONTINUOUS
 10
-71.55
 20
-22.575
  1
可動装置側
 40
3.0
 72
     5
 11
-55.05
 21
-22.575
  0
TEXT
  7
TextStyle03
  8
文字
  6
CONTINUOUS
 10
-110.25
 20
86.3
  1
アンカーピッチ
 40
3.0
 72
     5
 11
-87.0
 21
86.3
  0
TEXT
  7
TextStyle03
  8
文字
  6
CONTINUOUS
 10
-127.25
 20
-16.5
  1
アンカーピッチ
 40
3.0
 50
90.0
 72
     5
 11
-127.25
 21
6.75
  0
TEXT
  7
TextStyle03
  8
文字
  6
CONTINUOUS
 10
3.575
 20
-33.35
  1
アンカー数量　８ヶ所
 40
3.0
 72
     5
 11
36.95
 21
-33.35
  0
TEXT
  7
TextStyle03
  8
文字
  6
CONTINUOUS
 10
60.4
 20
96.85
  1
ＮＳコード：ＮＳＦＺ
 40
5.0
 72
     5
 11
116.025
 21
96.85
  0
TEXT
  7
TextStyle03
  8
文字
  6
CONTINUOUS
 10
146.1
 20
18.8
  1
網入り6.8t
 40
3.0
 72
     5
 11
162.7875
 21
18.8
  0
TEXT
  7
TextStyle03
  8
文字
  6
CONTINUOUS
 10
152.725
 20
13.55
  1
×１枚
 40
3.0
 72
     5
 11
162.475
 21
13.55
  0
TEXT
  7
TextStyle03
  8
文字
  6
CONTINUOUS
 10
3.55
 20
-40.175
  1
アームユニット数　２ヶ所
 40
3.0
 72
     5
 11
43.675
 21
-40.175
  0
LINE
  8
文字
  6
CONTINUOUS
 10
-10.100935
 20
-67.562327
 11
-25.92588
 21
-67.562327
  0
LINE
  8
文字
  6
CONTINUOUS
 10
-10.100935
 20
-79.037403
 11
-25.828258
 21
-79.037403
  0
LINE
  8
文字
  6
CONTINUOUS
 10
134.140265
 20
-67.562327
 11
118.31532
 21
-67.562327
  0
LINE
  8
文字
  6
CONTINUOUS
 10
134.140265
 20
-79.037403
 11
118.41294
 21
-79.037403
  0
TEXT
  7
TextStyle03
  8
文字
  6
CONTINUOUS
 10
60.175
 20
119.5
  1
シリーズ：ＴＦ２Ｆ
 40
5.0
 72
     5
 11
110.175
 21
119.5
  0
TEXT
  7
TextStyle03
  8
文字
  6
CONTINUOUS
 10
60.175
 20
113.875
  1
　　　　　（上下可動）1300×1300タイプ
 40
5.0
 72
     5
 11
166.425
 21
113.875
  0
TEXT
  7
TextStyle03
  8
文字
  6
CONTINUOUS
 10
60.175
 20
108.25
  1
図面名　：外観姿図
 40
5.0
 72
     5
 11
110.175
 21
108.25
  0
TEXT
  7
TextStyle03
  8
文字
  6
CONTINUOUS
 10
60.175
 20
102.625
  1
　　　　　　
 40
5.0
 72
     5
 11
93.3
 21
102.625
  0
INSERT
  2
*DIM_0002
  8
寸法
  6
CONTINUOUS
 10
0.0
 20
0.0
  0
INSERT
  2
*DIM_0003
  8
寸法
  6
CONTINUOUS
 10
0.0
 20
0.0
  0
INSERT
  2
*DIM_0004
  8
寸法
  6
CONTINUOUS
 10
0.0
 20
0.0
  0
INSERT
  2
*GRP_0005
  8
寸法
  6
CONTINUOUS
 10
0.0
 20
0.0
  0
INSERT
  2
*DIM_0006
  8
寸法
  6
CONTINUOUS
 10
0.0
 20
0.0
  0
INSERT
  2
*DIM_0007
  8
寸法
  6
CONTINUOUS
 10
0.0
 20
0.0
  0
INSERT
  2
*DIM_0008
  8
寸法
  6
CONTINUOUS
 10
0.0
 20
0.0
  0
INSERT
  2
*DIM_0009
  8
寸法
  6
CONTINUOUS
 10
0.0
 20
0.0
  0
INSERT
  2
*DIM_0010
  8
寸法
  6
CONTINUOUS
 10
0.0
 20
0.0
  0
INSERT
  2
*DIM_0011
  8
寸法
  6
CONTINUOUS
 10
0.0
 20
0.0
  0
INSERT
  2
*DIM_0026
  8
寸法
  6
CONTINUOUS
 10
0.0
 20
0.0
  0
INSERT
  2
*DIM_0027
  8
寸法
  6
CONTINUOUS
 10
0.0
 20
0.0
  0
INSERT
  2
*DIM_0028
  8
寸法
  6
CONTINUOUS
 10
0.0
 20
0.0
  0
LINE
  8
別途部材
  6
CONTINUOUS
 62
    47
 10
-98.090718
 20
-67.712327
 11
-98.090718
 21
-67.812327
  0
ARC
  8
別途部材
  6
CONTINUOUS
 62
    47
 10
-97.940717
 20
-67.712325
 40
0.15
 50
90.0
 51
180.0
  0
LINE
  8
別途部材
  6
CONTINUOUS
 62
    47
 10
-97.940718
 20
-67.562327
 11
-94.390718
 21
-67.562327
  0
LINE
  8
別途部材
  6
CONTINUOUS
 62
    47
 10
-97.855935
 20
-70.062327
 11
-97.855935
 21
-67.812327
  0
LINE
  8
別途部材
  6
CONTINUOUS
 62
    47
 10
-28.421158
 20
-67.712327
 11
-28.421158
 21
-67.812327
  0
ARC
  8
別途部材
  6
CONTINUOUS
 62
    47
 10
-28.571154
 20
-67.712325
 40
0.15
 50
0.0
 51
90.0
  0
LINE
  8
別途部材
  6
CONTINUOUS
 62
    47
 10
-28.571158
 20
-67.562327
 11
-32.121158
 21
-67.562327
  0
LINE
  8
別途部材
  6
CONTINUOUS
 62
    47
 10
-28.65594
 20
-70.062327
 11
-28.65594
 21
-67.812327
  0
LINE
  8
別途部材
  6
CONTINUOUS
 62
    47
 10
46.952618
 20
-67.712327
 11
46.952618
 21
-67.812327
  0
ARC
  8
別途部材
  6
CONTINUOUS
 62
    47
 10
47.10262
 20
-67.712325
 40
0.15
 50
90.0
 51
180.0
  0
LINE
  8
別途部材
  6
CONTINUOUS
 62
    47
 10
47.102618
 20
-67.562327
 11
50.652618
 21
-67.562327
  0
LINE
  8
別途部材
  6
CONTINUOUS
 62
    47
 10
47.1874
 20
-70.062327
 11
47.1874
 21
-67.812327
  0
LINE
  8
別途部材
  6
CONTINUOUS
 62
    47
 10
116.622177
 20
-67.712327
 11
116.622177
 21
-67.812327
  0
ARC
  8
別途部材
  6
CONTINUOUS
 62
    47
 10
116.472183
 20
-67.712325
 40
0.15
 50
0.0
 51
90.0
  0
LINE
  8
別途部材
  6
CONTINUOUS
 62
    47
 10
116.472178
 20
-67.562327
 11
112.922178
 21
-67.562327
  0
LINE
  8
別途部材
  6
CONTINUOUS
 62
    47
 10
116.387395
 20
-70.062327
 11
116.387395
 21
-67.812327
  0
LINE
  8
別途部材
  6
DOT
 62
    47
 10
46.952618
 20
-51.712327
 11
46.952618
 21
-51.812327
  0
ARC
  8
別途部材
  6
DOT
 62
    47
 10
47.10262
 20
-51.712325
 40
0.15
 50
90.0
 51
180.0
  0
LINE
  8
別途部材
  6
DOT
 62
    47
 10
47.102618
 20
-51.562327
 11
50.652618
 21
-51.562327
  0
LINE
  8
別途部材
  6
DOT
 62
    47
 10
47.1874
 20
-54.062327
 11
47.1874
 21
-51.812327
  0
LINE
  8
別途部材
  6
DOT
 62
    47
 10
116.622177
 20
-51.712327
 11
116.622177
 21
-51.812327
  0
ARC
  8
別途部材
  6
DOT
 62
    47
 10
116.472183
 20
-51.712325
 40
0.15
 50
0.0
 51
90.0
  0
LINE
  8
別途部材
  6
DOT
 62
    47
 10
116.472178
 20
-51.562327
 11
112.922178
 21
-51.562327
  0
LINE
  8
別途部材
  6
DOT
 62
    47
 10
116.387395
 20
-54.062327
 11
116.387395
 21
-51.812327
  0
LINE
  8
曲げ物
  6
CONTINUOUS
 10
-60.512087
 20
29.599835
 11
-66.055055
 21
24.056868
  0
LINE
  8
曲げ物
  6
CONTINUOUS
 10
-61.567292
 20
27.29567
 11
-63.750888
 21
25.112075
  0
LINE
  8
曲げ物
  6
CONTINUOUS
 10
-62.816252
 20
28.54463
 11
-64.999848
 21
26.361035
  0
ENDSEC
  0
EOF
