  0
SECTION
  2
HEADER
  9
$EXTMIN
 10
-210.0
 20
-148.5
  9
$EXTMAX
 10
210.0
 20
148.5
  9
$PDMODE
 70
    32
  9
$PDSIZE
 40
1.5
  9
$LTSCALE
 40
10.0
  0
ENDSEC
  0
SECTION
  2
TABLES
  0
TABLE
  2
LTYPE
 70
    15
  0
LTYPE
  2
CONTINUOUS
 70
    64
  3
実線
 72
    65
 73
     0
 40
0.0
  0
LTYPE
  2
DASHED
 70
    64
  3
破線A
 72
    65
 73
     2
 40
0.6
 49
0.4
 49
-0.2
  0
LTYPE
  2
DASHEDX2
 70
    64
  3
破線B
 72
    65
 73
     2
 40
1.3
 49
0.9
 49
-0.4
  0
LTYPE
  2
DASHDOT
 70
    64
  3
１点鎖線A
 72
    65
 73
     4
 40
0.5375
 49
0.375
 49
-0.05
 49
0.0625
 49
-0.05
  0
LTYPE
  2
DASHDOTX2
 70
    64
  3
１点鎖線B
 72
    65
 73
     4
 40
1.075
 49
0.75
 49
-0.1
 49
0.125
 49
-0.1
  0
LTYPE
  2
DIVIDE2
 70
    64
  3
２点鎖線A
 72
    65
 73
     6
 40
0.5125
 49
0.3
 49
-0.0375
 49
0.05
 49
-0.0375
 49
0.05
 49
-0.0375
  0
LTYPE
  2
DIVIDE
 70
    64
  3
２点鎖線B
 72
    65
 73
     6
 40
1.05
 49
0.55
 49
-0.1
 49
0.1
 49
-0.1
 49
0.1
 49
-0.1
  0
LTYPE
  2
DOT
 70
    64
  3
点線A
 72
    65
 73
     2
 40
0.1125
 49
0.0625
 49
-0.05
  0
LTYPE
  2
DOTX2
 70
    64
  3
点線B
 72
    65
 73
     2
 40
0.275
 49
0.15
 49
-0.125
  0
LTYPE
  2
CONTINUOUS
 70
    64
  3
実線
 72
    65
 73
     0
 40
0.0
  0
LTYPE
  2
CONTINUOUS
 70
    64
  3
実線
 72
    65
 73
     0
 40
0.0
  0
LTYPE
  2
CONTINUOUS
 70
    64
  3
実線
 72
    65
 73
     0
 40
0.0
  0
LTYPE
  2
CONTINUOUS
 70
    64
  3
実線
 72
    65
 73
     0
 40
0.0
  0
LTYPE
  2
CONTINUOUS
 70
    64
  3
実線
 72
    65
 73
     0
 40
0.0
  0
LTYPE
  2
CONTINUOUS
 70
    64
  3
実線
 72
    65
 73
     0
 40
0.0
  0
ENDTAB
  0
TABLE
  2
LAYER
 70
    34
  0
LAYER
  2
通り芯
 70
     0
 62
    15
  6
CONTINUOUS
  0
LAYER
  2
補助線
 70
     0
 62
    16
  6
DOT
  0
LAYER
  2
躯体
 70
     0
 62
    31
  6
CONTINUOUS
  0
LAYER
  2
型材
 70
     0
 62
    32
  6
CONTINUOUS
  0
LAYER
  2
型材断面
 70
     0
 62
    47
  6
CONTINUOUS
  0
LAYER
  2
ガラス
 70
     0
 62
    48
  6
CONTINUOUS
  0
LAYER
  2
ゴム等
 70
     0
 62
    63
  6
CONTINUOUS
  0
LAYER
  2
ボルト／ビス
 70
     0
 62
    64
  6
CONTINUOUS
  0
LAYER
  2
文字
 70
     0
 62
    79
  6
CONTINUOUS
  0
LAYER
  2
寸法
 70
     0
 62
    80
  6
CONTINUOUS
  0
LAYER
  2
ﾊｯﾁﾝｸﾞ
 70
     0
 62
    95
  6
CONTINUOUS
  0
LAYER
  2
別途部材
 70
     0
 62
    96
  6
CONTINUOUS
  0
LAYER
  2
曲げ物
 70
     0
 62
   111
  6
CONTINUOUS
  0
LAYER
  2
鉄骨等
 70
     0
 62
   112
  6
CONTINUOUS
  0
LAYER
  2
St
 70
     0
 62
   127
  6
CONTINUOUS
  0
LAYER
  2
その他部品等
 70
     0
 62
   128
  6
CONTINUOUS
  0
LAYER
  2
ｶﾞｽｹｯﾄ
 70
     0
 62
   143
  6
CONTINUOUS
  0
LAYER
  2
ｽｹｯﾁ
 70
     0
 62
    14
  6
CONTINUOUS
  0
LAYER
  2
0
 70
     0
 62
    17
  6
CONTINUOUS
  0
LAYER
  2
1
 70
     0
 62
    30
  6
CONTINUOUS
  0
LAYER
  2
4
 70
     0
 62
    33
  6
CONTINUOUS
  0
LAYER
  2
ﾚｲﾔ3
 70
     0
 62
    46
  6
CONTINUOUS
  0
LAYER
  2
外形線
 70
     0
 62
    49
  6
CONTINUOUS
  0
LAYER
  2
部品
 70
     0
 62
    14
  6
CONTINUOUS
  0
LAYER
  2
サッシ芯
 70
     0
 62
    17
  6
DASHDOTX2
  0
LAYER
  2
寸法線
 70
     0
 62
    62
  6
CONTINUOUS
  0
LAYER
  2
姿図外形線
 70
     0
 62
    65
  6
CONTINUOUS
  0
LAYER
  2
姿補助線
 70
     0
 62
    30
  6
CONTINUOUS
  0
LAYER
  2
透視線
 70
     0
 62
    78
  6
DOT
  0
LAYER
  2
用紙
 70
     0
 62
    81
  6
CONTINUOUS
  0
LAYER
  2
実線図枠
 70
     0
 62
    94
  6
CONTINUOUS
  0
LAYER
  2
補助図枠
 70
     0
 62
    97
  6
CONTINUOUS
  0
LAYER
  2
建具記号
 70
     0
 62
   110
  6
CONTINUOUS
  0
LAYER
  2
補助文字
 70
     0
 62
   113
  6
CONTINUOUS
  0
ENDTAB
  0
TABLE
  2
STYLE
 70
    10
  0
STYLE
  2
STANDARD
 70
     0
 40
1.0
 41
1.0
 42
1.0
 50
0.0
 71
     0
  3
TXT
  4
BIGFONT
  0
STYLE
  2
TATE
 70
     4
 40
1.0
 41
1.0
 42
1.0
 50
0.0
 71
     0
  3
TXT
  4
BIGFONT
  0
STYLE
  2
TextStyle03
 70
     0
 40
1.0
 41
1.0
 42
1.0
 50
0.0
 71
     0
  3
MONOTXT
  4
BIGFONT
  0
STYLE
  2
TextStyle04
 70
     0
 40
1.0
 41
1.0
 42
1.0
 50
0.0
 71
     0
  3
MONOTXT
  4
BIGFONT
  0
STYLE
  2
TextStyle05
 70
     0
 40
1.0
 41
1.0
 42
1.0
 50
0.0
 71
     0
  3
MONOTXT
  4
BIGFONT
  0
STYLE
  2
TextStyle06
 70
     0
 40
1.0
 41
1.0
 42
1.0
 50
0.0
 71
     0
  3
MONOTXT
  4
BIGFONT
  0
STYLE
  2
TextStyle07
 70
     0
 40
1.0
 41
1.0
 42
1.0
 50
0.0
 71
     0
  3
MONOTXT
  4
BIGFONT
  0
STYLE
  2
TextStyle08
 70
     0
 40
1.0
 41
1.0
 42
1.0
 50
0.0
 71
     0
  3
MONOTXT
  4
BIGFONT
  0
STYLE
  2
TextStyle09
 70
     0
 40
1.0
 41
1.0
 42
1.0
 50
0.0
 71
     0
  3
MONOTXT
  4
BIGFONT
  0
STYLE
  2
TextStyle10
 70
     0
 40
1.0
 41
1.0
 42
1.0
 50
0.0
 71
     0
  3
MONOTXT
  4
BIGFONT
  0
ENDTAB
  0
ENDSEC
  0
SECTION
  2
BLOCKS
  0
BLOCK
  2
*GRP_0001
 70
    65
 10
0.0
 20
0.0
  0
LINE
  8
型材断面
  6
CONTINUOUS
 10
195.0
 20
133.5
 11
195.0
 21
-133.5
  0
LINE
  8
型材断面
  6
CONTINUOUS
 10
195.0
 20
-133.5
 11
-185.0
 21
-133.5
  0
LINE
  8
型材断面
  6
CONTINUOUS
 10
-185.0
 20
-133.5
 11
-185.0
 21
133.5
  0
LINE
  8
型材断面
  6
CONTINUOUS
 10
195.0
 20
133.5
 11
-185.0
 21
133.5
  0
LINE
  8
型材断面
  6
CONTINUOUS
 10
145.0
 20
-133.5
 11
145.0
 21
-118.5
  0
LINE
  8
型材断面
  6
CONTINUOUS
 10
195.0
 20
-118.5
 11
145.0
 21
-118.5
  0
ENDBLK
  0
BLOCK
  2
*DIM_0002
 70
    65
 10
0.0
 20
0.0
  0
LINE
  8
寸法
  6
BYBLOCK
 62
     0
 10
-92.435405
 20
-26.094458
 11
-62.435405
 21
-26.094458
  0
POINT
  8
寸法
 62
     0
 10
-92.435405
 20
-26.094458
  0
POINT
  8
寸法
 62
     0
 10
-62.435405
 20
-26.094458
  0
TEXT
  7
TextStyle03
  8
寸法
  6
CONTINUOUS
 62
     0
 10
-88.325
 20
-25.725
  1
呼称寸法　600
 40
3.0
 72
     5
 11
-66.575
 21
-25.725
  0
ENDBLK
  0
BLOCK
  2
*DIM_0003
 70
    65
 10
0.0
 20
0.0
  0
LINE
  8
寸法
  6
BYBLOCK
 62
     0
 10
-61.435402
 20
1.691987
 11
-40.885975
 21
1.691987
  0
LINE
  8
寸法
  6
BYBLOCK
 62
     0
 10
-53.411528
 20
7.241987
 11
-40.885975
 21
7.241987
  0
LINE
  8
寸法
  6
BYBLOCK
 62
     0
 10
-40.885975
 20
1.691987
 11
-40.885975
 21
7.241987
  0
POINT
  8
寸法
 62
     0
 10
-40.885975
 20
1.691987
  0
POINT
  8
寸法
 62
     0
 10
-40.885975
 20
7.241987
  0
TEXT
  7
TextStyle03
  8
寸法
  6
CONTINUOUS
 62
     0
 10
-41.3
 20
2.0125
  1
111
 40
3.0
 50
90.0
 72
     5
 11
-41.3
 21
6.8875
  0
ENDBLK
  0
BLOCK
  2
*DIM_0004
 70
    65
 10
0.0
 20
0.0
  0
LINE
  8
寸法
  6
BYBLOCK
 62
     0
 10
-61.435402
 20
31.691993
 11
-40.885975
 21
31.691993
  0
LINE
  8
寸法
  6
BYBLOCK
 62
     0
 10
-53.411528
 20
26.141993
 11
-40.885975
 21
26.141993
  0
LINE
  8
寸法
  6
BYBLOCK
 62
     0
 10
-40.885975
 20
31.691993
 11
-40.885975
 21
26.141993
  0
POINT
  8
寸法
 62
     0
 10
-40.885975
 20
31.691993
  0
POINT
  8
寸法
 62
     0
 10
-40.885975
 20
26.141993
  0
TEXT
  7
TextStyle03
  8
寸法
  6
CONTINUOUS
 62
     0
 10
-41.3
 20
26.4625
  1
111
 40
3.0
 50
90.0
 72
     5
 11
-41.3
 21
31.3375
  0
ENDBLK
  0
BLOCK
  2
*DIM_0005
 70
    65
 10
0.0
 20
0.0
  0
LINE
  8
寸法
  6
CONTINUOUS
 62
     0
 10
-67.435405
 20
32.691987
 11
-67.435405
 21
52.642592
  0
LINE
  8
寸法
  6
CONTINUOUS
 62
     0
 10
-87.435405
 20
32.691987
 11
-87.435405
 21
52.642592
  0
LINE
  8
寸法
  6
CONTINUOUS
 62
     0
 10
-67.435405
 20
52.642592
 11
-87.435405
 21
52.642592
  0
POINT
  8
寸法
 62
     0
 10
-67.435405
 20
52.642592
 50
-270.0
  0
POINT
  8
寸法
 62
     0
 10
-87.435405
 20
52.642592
 50
-270.0
  0
TEXT
  7
TextStyle03
  8
寸法
  6
CONTINUOUS
 62
     0
 10
-79.9125
 20
53.05
  1
400
 40
3.0
 72
     5
 11
-75.0375
 21
53.05
  0
ENDBLK
  0
BLOCK
  2
*GRP_0006
 70
    65
 10
0.0
 20
0.0
  0
POLYLINE
  8
寸法
  6
CONTINUOUS
 62
     0
 66
     1
  0
VERTEX
  8
寸法
 10
-64.771885
 20
14.188283
  0
VERTEX
  8
寸法
 10
-61.09069
 20
10.507087
  0
VERTEX
  8
寸法
 10
-38.248113
 20
10.507087
  0
SEQEND
  0
ENDBLK
  0
BLOCK
  2
*DIM_0007
 70
    65
 10
0.0
 20
0.0
  0
LINE
  8
寸法
  6
BYBLOCK
 62
     0
 10
170.304785
 20
74.557477
 11
179.967098
 21
74.557477
  0
LINE
  8
寸法
  6
BYBLOCK
 62
     0
 10
170.304785
 20
45.557477
 11
179.967098
 21
45.557477
  0
LINE
  8
寸法
  6
BYBLOCK
 62
     0
 10
179.967098
 20
74.557477
 11
179.967098
 21
45.557477
  0
POINT
  8
寸法
 62
     0
 10
179.967098
 20
74.557477
  0
POINT
  8
寸法
 62
     0
 10
179.967098
 20
45.557477
  0
TEXT
  7
TextStyle03
  8
寸法
  6
CONTINUOUS
 62
     0
 10
179.575
 20
57.6125
  1
580
 40
3.0
 50
90.0
 72
     5
 11
179.575
 21
62.4875
  0
ENDBLK
  0
BLOCK
  2
*DIM_0008
 70
    65
 10
0.0
 20
0.0
  0
LINE
  8
寸法
  6
BYBLOCK
 62
     0
 10
138.304785
 20
77.557477
 11
138.304785
 21
85.30483
  0
LINE
  8
寸法
  6
BYBLOCK
 62
     0
 10
167.304785
 20
77.557477
 11
167.304785
 21
85.30483
  0
LINE
  8
寸法
  6
BYBLOCK
 62
     0
 10
138.304785
 20
85.30483
 11
167.304785
 21
85.30483
  0
POINT
  8
寸法
 62
     0
 10
138.304785
 20
85.30483
  0
POINT
  8
寸法
 62
     0
 10
167.304785
 20
85.30483
  0
TEXT
  7
TextStyle03
  8
寸法
  6
CONTINUOUS
 62
     0
 10
150.3625
 20
85.675
  1
580
 40
3.0
 72
     5
 11
155.2375
 21
85.675
  0
ENDBLK
  0
BLOCK
  2
*DIM_0009
 70
    65
 10
0.0
 20
0.0
  0
LINE
  8
寸法
  6
CONTINUOUS
 10
-41.807528
 20
-61.318297
 11
-41.807528
 21
-72.793372
  0
POINT
  8
寸法
 10
-41.807528
 20
-61.318297
  0
POINT
  8
寸法
 10
-41.807528
 20
-72.793372
  0
TEXT
  7
TextStyle03
  8
寸法
  6
CONTINUOUS
 10
-42.225
 20
-71.2
  1
229.5
 40
3.0
 50
90.0
 72
     5
 11
-42.225
 21
-62.95
  0
ENDBLK
  0
BLOCK
  2
*GRP_0010
 70
    65
 10
0.0
 20
0.0
  0
LINE
  8
補助線
  6
BYBLOCK
 62
    64
 10
46.87312
 20
-69.61181
 11
47.078095
 21
-69.754935
  0
LINE
  8
補助線
  6
BYBLOCK
 62
    64
 10
47.04717
 20
-69.580885
 11
46.904045
 21
-69.78586
  0
LINE
  8
補助線
  6
BYBLOCK
 62
    64
 10
38.879
 20
-64.030008
 11
38.674022
 21
-63.886882
  0
LINE
  8
補助線
  6
BYBLOCK
 62
    64
 10
38.848072
 20
-63.855955
 11
38.70495
 21
-64.060933
  0
LINE
  8
補助線
  6
BYBLOCK
 62
    64
 10
30.679897
 20
-58.305085
 11
30.47492
 21
-58.161963
  0
LINE
  8
補助線
  6
BYBLOCK
 62
    64
 10
30.64897
 20
-58.131035
 11
30.505847
 21
-58.336013
  0
LINE
  8
型材断面
  6
CONTINUOUS
 10
48.10118
 20
-68.944733
 11
48.28674
 21
-69.989033
  0
LINE
  8
型材断面
  6
CONTINUOUS
 10
48.28674
 20
-69.989033
 11
47.714248
 21
-70.808945
  0
LINE
  8
型材断面
  6
CONTINUOUS
 10
47.714248
 20
-70.808945
 11
46.669947
 21
-70.994505
  0
LINE
  8
型材断面
  6
CONTINUOUS
 10
39.062755
 20
-63.548495
 11
38.49026
 21
-64.368405
  0
LINE
  8
型材断面
  6
CONTINUOUS
 10
30.883067
 20
-56.92239
 11
29.838767
 21
-57.107953
  0
LINE
  8
型材断面
  6
CONTINUOUS
 10
29.838767
 20
-57.107953
 11
29.266275
 21
-57.927862
  0
LINE
  8
型材断面
  6
CONTINUOUS
 10
29.266275
 20
-57.927862
 11
29.45184
 21
-58.972165
  0
LINE
  8
型材断面
  6
CONTINUOUS
 10
48.10118
 20
-68.944733
 11
30.883082
 21
-56.922387
  0
LINE
  8
型材断面
  6
CONTINUOUS
 10
46.669947
 20
-70.994505
 11
29.451835
 21
-58.972155
  0
LINE
  8
ボルト／ビス
  6
CONTINUOUS
 62
    64
 10
47.24003
 20
-69.304673
 11
47.435782
 21
-69.72302
  0
LINE
  8
ボルト／ビス
  6
CONTINUOUS
 62
    64
 10
47.24003
 20
-69.304673
 11
46.779855
 21
-69.265028
  0
LINE
  8
ボルト／ビス
  6
CONTINUOUS
 62
    64
 10
46.711185
 20
-70.062072
 11
47.17136
 21
-70.101717
  0
LINE
  8
ボルト／ビス
  6
CONTINUOUS
 62
    64
 10
46.711185
 20
-70.062072
 11
46.515432
 21
-69.643725
  0
CIRCLE
  8
ボルト／ビス
  6
CONTINUOUS
 62
    64
 10
46.975607
 20
-69.683373
 40
0.4
  0
LINE
  8
ボルト／ビス
  6
CONTINUOUS
 62
    64
 10
46.779855
 20
-69.265028
 11
46.515432
 21
-69.643725
  0
LINE
  8
ボルト／ビス
  6
CONTINUOUS
 62
    64
 10
47.435782
 20
-69.72302
 11
47.17136
 21
-70.101717
  0
LINE
  8
ボルト／ビス
  6
CONTINUOUS
 62
    64
 10
39.040935
 20
-63.579745
 11
38.580758
 21
-63.540097
  0
LINE
  8
ボルト／ビス
  6
CONTINUOUS
 62
    64
 10
39.040935
 20
-63.579745
 11
39.236687
 21
-63.99809
  0
LINE
  8
ボルト／ビス
  6
CONTINUOUS
 62
    64
 10
38.512088
 20
-64.337143
 11
38.316335
 21
-63.918797
  0
LINE
  8
ボルト／ビス
  6
CONTINUOUS
 62
    64
 10
38.512088
 20
-64.337143
 11
38.972263
 21
-64.37679
  0
CIRCLE
  8
ボルト／ビス
  6
CONTINUOUS
 62
    64
 10
38.77651
 20
-63.958445
 40
0.4
  0
LINE
  8
ボルト／ビス
  6
CONTINUOUS
 62
    64
 10
39.236687
 20
-63.99809
 11
38.972263
 21
-64.37679
  0
LINE
  8
ボルト／ビス
  6
CONTINUOUS
 62
    64
 10
38.580758
 20
-63.540097
 11
38.316335
 21
-63.918797
  0
LINE
  8
ボルト／ビス
  6
CONTINUOUS
 62
    64
 10
30.84183
 20
-57.854825
 11
30.381655
 21
-57.815178
  0
LINE
  8
ボルト／ビス
  6
CONTINUOUS
 62
    64
 10
30.84183
 20
-57.854825
 11
31.037582
 21
-58.273172
  0
LINE
  8
ボルト／ビス
  6
CONTINUOUS
 62
    64
 10
30.312988
 20
-58.612225
 11
30.117235
 21
-58.193877
  0
LINE
  8
ボルト／ビス
  6
CONTINUOUS
 62
    64
 10
30.312988
 20
-58.612225
 11
30.773163
 21
-58.65187
  0
CIRCLE
  8
ボルト／ビス
  6
CONTINUOUS
 62
    64
 10
30.577407
 20
-58.233525
 40
0.4
  0
LINE
  8
ボルト／ビス
  6
CONTINUOUS
 62
    64
 10
31.037582
 20
-58.273172
 11
30.773163
 21
-58.65187
  0
LINE
  8
ボルト／ビス
  6
CONTINUOUS
 62
    64
 10
30.381655
 20
-57.815178
 11
30.117235
 21
-58.193877
  0
ENDBLK
  0
BLOCK
  2
*GRP_0011
 70
    65
 10
0.0
 20
0.0
  0
LINE
  8
補助線
  6
BYBLOCK
 62
    64
 10
30.6799
 20
-69.61181
 11
30.474925
 21
-69.754935
  0
LINE
  8
補助線
  6
BYBLOCK
 62
    64
 10
30.50585
 20
-69.580885
 11
30.648975
 21
-69.78586
  0
LINE
  8
補助線
  6
BYBLOCK
 62
    64
 10
38.67402
 20
-64.030008
 11
38.878997
 21
-63.886882
  0
LINE
  8
補助線
  6
BYBLOCK
 62
    64
 10
38.704947
 20
-63.855955
 11
38.84807
 21
-64.060933
  0
LINE
  8
補助線
  6
BYBLOCK
 62
    64
 10
46.873122
 20
-58.305085
 11
47.0781
 21
-58.161963
  0
LINE
  8
補助線
  6
BYBLOCK
 62
    64
 10
46.90405
 20
-58.131035
 11
47.047172
 21
-58.336013
  0
LINE
  8
型材断面
  6
CONTINUOUS
 10
29.45184
 20
-68.944733
 11
29.26628
 21
-69.989033
  0
LINE
  8
型材断面
  6
CONTINUOUS
 10
29.26628
 20
-69.989033
 11
29.838773
 21
-70.808945
  0
LINE
  8
型材断面
  6
CONTINUOUS
 10
29.838773
 20
-70.808945
 11
30.883072
 21
-70.994505
  0
LINE
  8
型材断面
  6
CONTINUOUS
 10
38.490265
 20
-63.548495
 11
39.06276
 21
-64.368405
  0
LINE
  8
型材断面
  6
CONTINUOUS
 10
46.669953
 20
-56.92239
 11
47.714252
 21
-57.107953
  0
LINE
  8
型材断面
  6
CONTINUOUS
 10
47.714252
 20
-57.107953
 11
48.286745
 21
-57.927862
  0
LINE
  8
型材断面
  6
CONTINUOUS
 10
48.286745
 20
-57.927862
 11
48.10118
 21
-58.972165
  0
LINE
  8
型材断面
  6
CONTINUOUS
 10
29.45184
 20
-68.944733
 11
46.669938
 21
-56.922387
  0
LINE
  8
型材断面
  6
CONTINUOUS
 10
30.883072
 20
-70.994505
 11
48.101185
 21
-58.972155
  0
LINE
  8
ボルト／ビス
  6
CONTINUOUS
 62
    64
 10
30.31299
 20
-69.304673
 11
30.117238
 21
-69.72302
  0
LINE
  8
ボルト／ビス
  6
CONTINUOUS
 62
    64
 10
30.31299
 20
-69.304673
 11
30.773165
 21
-69.265028
  0
LINE
  8
ボルト／ビス
  6
CONTINUOUS
 62
    64
 10
30.841835
 20
-70.062072
 11
30.38166
 21
-70.101717
  0
LINE
  8
ボルト／ビス
  6
CONTINUOUS
 62
    64
 10
30.841835
 20
-70.062072
 11
31.037587
 21
-69.643725
  0
CIRCLE
  8
ボルト／ビス
  6
CONTINUOUS
 62
    64
 10
30.577412
 20
-69.683373
 40
0.4
  0
LINE
  8
ボルト／ビス
  6
CONTINUOUS
 62
    64
 10
30.773165
 20
-69.265028
 11
31.037587
 21
-69.643725
  0
LINE
  8
ボルト／ビス
  6
CONTINUOUS
 62
    64
 10
30.117238
 20
-69.72302
 11
30.38166
 21
-70.101717
  0
LINE
  8
ボルト／ビス
  6
CONTINUOUS
 62
    64
 10
38.512085
 20
-63.579745
 11
38.972263
 21
-63.540097
  0
LINE
  8
ボルト／ビス
  6
CONTINUOUS
 62
    64
 10
38.512085
 20
-63.579745
 11
38.316332
 21
-63.99809
  0
LINE
  8
ボルト／ビス
  6
CONTINUOUS
 62
    64
 10
39.040933
 20
-64.337143
 11
39.236685
 21
-63.918797
  0
LINE
  8
ボルト／ビス
  6
CONTINUOUS
 62
    64
 10
39.040933
 20
-64.337143
 11
38.580758
 21
-64.37679
  0
CIRCLE
  8
ボルト／ビス
  6
CONTINUOUS
 62
    64
 10
38.77651
 20
-63.958445
 40
0.4
  0
LINE
  8
ボルト／ビス
  6
CONTINUOUS
 62
    64
 10
38.316332
 20
-63.99809
 11
38.580758
 21
-64.37679
  0
LINE
  8
ボルト／ビス
  6
CONTINUOUS
 62
    64
 10
38.972263
 20
-63.540097
 11
39.236685
 21
-63.918797
  0
LINE
  8
ボルト／ビス
  6
CONTINUOUS
 62
    64
 10
46.71119
 20
-57.854825
 11
47.171365
 21
-57.815178
  0
LINE
  8
ボルト／ビス
  6
CONTINUOUS
 62
    64
 10
46.71119
 20
-57.854825
 11
46.515438
 21
-58.273172
  0
LINE
  8
ボルト／ビス
  6
CONTINUOUS
 62
    64
 10
47.240033
 20
-58.612225
 11
47.435785
 21
-58.193877
  0
LINE
  8
ボルト／ビス
  6
CONTINUOUS
 62
    64
 10
47.240033
 20
-58.612225
 11
46.779858
 21
-58.65187
  0
CIRCLE
  8
ボルト／ビス
  6
CONTINUOUS
 62
    64
 10
46.975612
 20
-58.233525
 40
0.4
  0
LINE
  8
ボルト／ビス
  6
CONTINUOUS
 62
    64
 10
46.515438
 20
-58.273172
 11
46.779858
 21
-58.65187
  0
LINE
  8
ボルト／ビス
  6
CONTINUOUS
 62
    64
 10
47.171365
 20
-57.815178
 11
47.435785
 21
-58.193877
  0
ENDBLK
  0
BLOCK
  2
*DIM_0012
 70
    65
 10
0.0
 20
0.0
  0
LINE
  8
寸法
  6
BYBLOCK
 62
     0
 10
71.82847
 20
-61.318297
 11
71.82847
 21
-72.793372
  0
POINT
  8
寸法
 62
     0
 10
71.82847
 20
-61.318297
  0
POINT
  8
寸法
 62
     0
 10
71.82847
 20
-72.793372
  0
TEXT
  7
TextStyle03
  8
寸法
  6
CONTINUOUS
 62
     0
 10
76.85
 20
-71.3
  1
229.5
 40
3.0
 50
90.0
 72
     5
 11
76.85
 21
-63.05
  0
ENDBLK
  0
BLOCK
  2
*DIM_0013
 70
    65
 10
0.0
 20
0.0
  0
LINE
  8
寸法
  6
BYBLOCK
 62
     0
 10
57.160385
 20
-53.818297
 11
71.82847
 21
-53.818297
  0
LINE
  8
寸法
  6
BYBLOCK
 62
     0
 10
71.82847
 20
-61.318297
 11
71.82847
 21
-53.818297
  0
POINT
  8
寸法
 62
     0
 10
71.82847
 20
-61.318297
  0
POINT
  8
寸法
 62
     0
 10
71.82847
 20
-53.818297
  0
TEXT
  7
TextStyle03
  8
寸法
  6
CONTINUOUS
 62
     0
 10
71.25
 20
-52.2
  1
上昇87以上
 40
3.0
 50
90.0
 72
     5
 11
71.25
 21
-35.7
  0
ENDBLK
  0
ENDSEC
  0
SECTION
  2
ENTITIES
  0
POLYLINE
  8
通り芯
  6
CONTINUOUS
 66
     1
 70
     1
  0
VERTEX
  8
通り芯
 10
-210.0
 20
-148.5
  0
VERTEX
  8
通り芯
 10
210.0
 20
-148.5
  0
VERTEX
  8
通り芯
 10
210.0
 20
148.5
  0
VERTEX
  8
通り芯
 10
-210.0
 20
148.5
  0
SEQEND
  0
INSERT
  2
*GRP_0001
  8
型材断面
  6
CONTINUOUS
 10
0.0
 20
0.0
  0
LINE
  8
型材断面
  6
DASHDOT
 10
-92.435405
 20
-77.76228
 11
-92.435405
 21
31.69199
  0
LINE
  8
型材断面
  6
DASHDOT
 10
-77.435405
 20
-77.76228
 11
-77.435405
 21
31.69199
  0
LINE
  8
型材断面
  6
DASHDOT
 10
-62.435405
 20
-77.76228
 11
-62.435405
 21
31.69199
  0
LINE
  8
型材断面
  6
DASHDOT
 10
-92.435405
 20
16.69199
 11
-62.435405
 21
16.69199
  0
LINE
  8
型材断面
  6
CONTINUOUS
 10
-100.459278
 20
7.241987
 11
-104.345038
 21
8.136073
  0
LINE
  8
型材断面
  6
CONTINUOUS
 10
-100.459278
 20
7.241987
 11
-104.345038
 21
6.347903
  0
LINE
  8
型材断面
  6
CONTINUOUS
 10
-104.345038
 20
6.347903
 11
-104.345038
 21
8.136073
  0
LINE
  8
型材断面
  6
CONTINUOUS
 10
-100.459278
 20
16.69199
 11
-104.345038
 21
14.448545
  0
LINE
  8
型材断面
  6
CONTINUOUS
 10
-100.459278
 20
16.69199
 11
-104.345038
 21
18.935435
  0
LINE
  8
型材断面
  6
CONTINUOUS
 10
-104.345038
 20
18.935435
 11
-104.345038
 21
14.448545
  0
LINE
  8
型材断面
  6
CONTINUOUS
 10
-100.459278
 20
26.141993
 11
-104.345038
 21
25.247907
  0
LINE
  8
型材断面
  6
CONTINUOUS
 10
-100.459278
 20
26.141993
 11
-104.345038
 21
27.036077
  0
LINE
  8
型材断面
  6
CONTINUOUS
 10
-104.345038
 20
27.036077
 11
-104.345038
 21
25.247907
  0
LINE
  8
型材断面
  6
CONTINUOUS
 10
-54.411528
 20
7.241987
 11
-50.525767
 21
8.136073
  0
LINE
  8
型材断面
  6
CONTINUOUS
 10
-54.411528
 20
7.241987
 11
-50.525767
 21
6.347903
  0
LINE
  8
型材断面
  6
CONTINUOUS
 10
-50.525767
 20
6.347903
 11
-50.525767
 21
8.136073
  0
LINE
  8
型材断面
  6
CONTINUOUS
 10
-54.411528
 20
16.69199
 11
-50.525767
 21
14.448545
  0
LINE
  8
型材断面
  6
CONTINUOUS
 10
-54.411528
 20
16.69199
 11
-50.525767
 21
18.935435
  0
LINE
  8
型材断面
  6
CONTINUOUS
 10
-50.525767
 20
18.935435
 11
-50.525767
 21
14.448545
  0
LINE
  8
型材断面
  6
CONTINUOUS
 10
-54.411528
 20
26.141993
 11
-50.525767
 21
25.247907
  0
LINE
  8
型材断面
  6
CONTINUOUS
 10
-54.411528
 20
26.141993
 11
-50.525767
 21
27.036077
  0
LINE
  8
型材断面
  6
CONTINUOUS
 10
-50.525767
 20
27.036077
 11
-50.525767
 21
25.247907
  0
LINE
  8
型材断面
  6
CONTINUOUS
 10
-77.435405
 20
39.715863
 11
-79.67885
 21
43.601622
  0
LINE
  8
型材断面
  6
CONTINUOUS
 10
-77.435405
 20
39.715863
 11
-75.19196
 21
43.601622
  0
LINE
  8
型材断面
  6
CONTINUOUS
 10
-75.19196
 20
43.601622
 11
-79.67885
 21
43.601622
  0
LINE
  8
型材断面
  6
CONTINUOUS
 10
-77.435405
 20
-6.331887
 11
-79.67885
 21
-10.217648
  0
LINE
  8
型材断面
  6
CONTINUOUS
 10
-77.435405
 20
-6.331887
 11
-75.19196
 21
-10.217648
  0
LINE
  8
型材断面
  6
CONTINUOUS
 10
-75.19196
 20
-10.217648
 11
-79.67885
 21
-10.217648
  0
LINE
  8
型材断面
  6
DOT
 10
-66.771885
 20
1.69199
 11
-66.771885
 21
31.691993
  0
LINE
  8
型材断面
  6
DOT
 10
-64.771885
 20
1.69199
 11
-64.771885
 21
31.691993
  0
LINE
  8
型材断面
  6
CONTINUOUS
 10
-35.48472
 20
-6.182028
 11
-37.728165
 21
-10.067788
  0
LINE
  8
型材断面
  6
CONTINUOUS
 10
-35.48472
 20
-6.182028
 11
-33.241275
 21
-10.067788
  0
LINE
  8
型材断面
  6
CONTINUOUS
 10
-33.241275
 20
-10.067788
 11
-37.728165
 21
-10.067788
  0
LINE
  8
型材断面
  6
CONTINUOUS
 10
-35.48472
 20
-13.871575
 11
-34.590635
 21
-17.757335
  0
LINE
  8
型材断面
  6
CONTINUOUS
 10
-35.48472
 20
-13.871575
 11
-36.378805
 21
-17.757335
  0
LINE
  8
型材断面
  6
CONTINUOUS
 10
-36.378805
 20
-17.757335
 11
-34.590635
 21
-17.757335
  0
LINE
  8
型材断面
  6
CONTINUOUS
 10
-44.5186
 20
-11.47568
 11
8.13808
 21
-11.47568
  0
LINE
  8
型材断面
  6
CONTINUOUS
 10
-44.5186
 20
-22.675673
 11
8.13808
 21
-22.675673
  0
LINE
  8
型材断面
  6
CONTINUOUS
 10
-44.5186
 20
-29.515618
 11
8.13808
 21
-29.515618
  0
POLYLINE
  8
型材断面
  6
CONTINUOUS
 66
     1
 70
     1
  0
VERTEX
  8
型材断面
 10
-68.075518
 20
-11.538357
  0
VERTEX
  8
型材断面
 10
-86.63073
 20
-11.538357
  0
VERTEX
  8
型材断面
 10
-86.63073
 20
-16.330393
  0
VERTEX
  8
型材断面
 10
-68.075518
 20
-16.330393
  0
SEQEND
  0
POLYLINE
  8
型材断面
  6
CONTINUOUS
 66
     1
 70
     1
  0
VERTEX
  8
型材断面
 10
-68.075518
 20
49.54706
  0
VERTEX
  8
型材断面
 10
-86.63073
 20
49.54706
  0
VERTEX
  8
型材断面
 10
-86.63073
 20
44.755025
  0
VERTEX
  8
型材断面
 10
-68.075518
 20
44.755025
  0
SEQEND
  0
LINE
  8
型材断面
  6
CONTINUOUS
 10
-77.435405
 20
-1.28278
 11
-95.410175
 21
-1.28278
  0
LINE
  8
型材断面
  6
CONTINUOUS
 10
-77.435405
 20
34.66676
 11
-95.410175
 21
34.66676
  0
LINE
  8
型材断面
  6
CONTINUOUS
 10
-59.460635
 20
16.69199
 11
-59.460635
 21
34.66676
  0
LINE
  8
型材断面
  6
CONTINUOUS
 10
-77.435405
 20
34.66676
 11
-59.460635
 21
34.66676
  0
LINE
  8
型材断面
  6
CONTINUOUS
 10
-59.460635
 20
16.69199
 11
-59.460635
 21
-1.28278
  0
LINE
  8
型材断面
  6
CONTINUOUS
 10
-77.435405
 20
-1.28278
 11
-59.460635
 21
-1.28278
  0
LINE
  8
型材断面
  6
CONTINUOUS
 10
-44.5186
 20
-36.355562
 11
8.13808
 21
-36.355562
  0
LINE
  8
型材断面
  6
CONTINUOUS
 10
-60.100625
 20
-61.568297
 11
-77.435405
 21
-61.568297
  0
LINE
  8
型材断面
  6
CONTINUOUS
 10
-77.435405
 20
-61.318297
 11
-60.335408
 21
-61.318297
  0
LINE
  8
型材断面
  6
CONTINUOUS
 10
-77.435405
 20
-63.818297
 11
-60.335408
 21
-63.818297
  0
ARC
  8
型材断面
  6
CONTINUOUS
 62
    47
 10
-59.460401
 20
-67.493291
 40
0.025002
 50
0.0
 51
90.000877
  0
ARC
  8
型材断面
  6
CONTINUOUS
 62
    47
 10
-59.450402
 20
-67.553294
 40
0.015003
 50
270.208374
 51
360.0
  0
LINE
  8
型材断面
  6
CONTINUOUS
 62
    47
 10
-59.510408
 20
-67.818372
 11
-60.785628
 21
-67.818372
  0
LINE
  8
型材断面
  6
CONTINUOUS
 10
-77.435405
 20
-67.818372
 11
-59.460408
 21
-67.818372
  0
LINE
  8
型材断面
  6
CONTINUOUS
 10
-77.435405
 20
-72.793372
 11
-59.460408
 21
-72.793372
  0
LINE
  8
型材断面
  6
CONTINUOUS
 10
-77.435405
 20
-73.543372
 11
-60.210408
 21
-73.543372
  0
LINE
  8
型材断面
  6
CONTINUOUS
 62
    47
 10
-59.4604
 20
-67.46829
 11
-59.4604
 21
-64.3083
  0
LINE
  8
型材断面
  6
CONTINUOUS
 10
-77.435405
 20
-64.3083
 11
-59.4604
 21
-64.3083
  0
LINE
  8
型材断面
  6
CONTINUOUS
 62
    47
 10
-59.460408
 20
-67.818372
 11
-59.460408
 21
-72.793372
  0
LINE
  8
型材断面
  6
CONTINUOUS
 62
    47
 10
-60.210408
 20
-73.543372
 11
-60.210408
 21
-72.793372
  0
LINE
  8
型材断面
  6
CONTINUOUS
 62
    47
 10
-60.78541
 20
-64.3083
 11
-60.78541
 21
-63.818297
  0
LINE
  8
型材断面
  6
CONTINUOUS
 10
-94.770185
 20
-61.568297
 11
-77.435405
 21
-61.568297
  0
LINE
  8
型材断面
  6
CONTINUOUS
 10
-77.435405
 20
-61.318297
 11
-94.535402
 21
-61.318297
  0
LINE
  8
型材断面
  6
CONTINUOUS
 10
-77.435405
 20
-63.818297
 11
-94.535402
 21
-63.818297
  0
ARC
  8
型材断面
  6
CONTINUOUS
 62
    47
 10
-95.410409
 20
-67.493291
 40
0.025002
 50
89.999123
 51
180.0
  0
ARC
  8
型材断面
  6
CONTINUOUS
 62
    47
 10
-95.420408
 20
-67.553294
 40
0.015003
 50
180.0
 51
269.791626
  0
LINE
  8
型材断面
  6
CONTINUOUS
 62
    47
 10
-95.360402
 20
-67.818372
 11
-94.085182
 21
-67.818372
  0
LINE
  8
型材断面
  6
CONTINUOUS
 10
-77.435405
 20
-67.818372
 11
-95.410402
 21
-67.818372
  0
LINE
  8
型材断面
  6
CONTINUOUS
 10
-77.435405
 20
-72.793372
 11
-95.410402
 21
-72.793372
  0
LINE
  8
型材断面
  6
CONTINUOUS
 10
-77.435405
 20
-73.543372
 11
-94.660402
 21
-73.543372
  0
LINE
  8
型材断面
  6
CONTINUOUS
 62
    47
 10
-95.41041
 20
-67.46829
 11
-95.41041
 21
-64.3083
  0
LINE
  8
型材断面
  6
CONTINUOUS
 10
-77.435405
 20
-64.3083
 11
-95.41041
 21
-64.3083
  0
LINE
  8
型材断面
  6
CONTINUOUS
 62
    47
 10
-95.410402
 20
-67.818372
 11
-95.410402
 21
-72.793372
  0
LINE
  8
型材断面
  6
CONTINUOUS
 62
    47
 10
-94.660402
 20
-73.543372
 11
-94.660402
 21
-72.793372
  0
LINE
  8
型材断面
  6
CONTINUOUS
 62
    47
 10
-94.0854
 20
-64.3083
 11
-94.0854
 21
-63.818297
  0
LINE
  8
型材断面
  6
CONTINUOUS
 10
-77.435405
 20
-67.568297
 11
-59.450403
 21
-67.568297
  0
LINE
  8
型材断面
  6
CONTINUOUS
 62
    47
 10
-59.435408
 20
-67.49329
 11
-59.435408
 21
-67.55278
  0
LINE
  8
型材断面
  6
CONTINUOUS
 62
    47
 10
-95.435402
 20
-67.49329
 11
-95.435402
 21
-67.55278
  0
LINE
  8
型材断面
  6
CONTINUOUS
 10
-77.435405
 20
-67.568297
 11
-95.420407
 21
-67.568297
  0
LINE
  8
型材断面
  6
CONTINUOUS
 10
54.310383
 20
-61.568297
 11
36.975603
 21
-61.568297
  0
LINE
  8
型材断面
  6
CONTINUOUS
 10
36.975603
 20
-61.318297
 11
54.0756
 21
-61.318297
  0
LINE
  8
型材断面
  6
CONTINUOUS
 10
36.975603
 20
-63.818297
 11
54.0756
 21
-63.818297
  0
ARC
  8
型材断面
  6
CONTINUOUS
 62
    47
 10
54.950607
 20
-67.493291
 40
0.025002
 50
0.0
 51
90.000877
  0
ARC
  8
型材断面
  6
CONTINUOUS
 62
    47
 10
54.960606
 20
-67.553294
 40
0.015003
 50
270.208374
 51
360.0
  0
LINE
  8
型材断面
  6
CONTINUOUS
 62
    47
 10
54.9006
 20
-67.818372
 11
53.62538
 21
-67.818372
  0
LINE
  8
型材断面
  6
CONTINUOUS
 10
36.975603
 20
-67.818372
 11
54.9506
 21
-67.818372
  0
LINE
  8
型材断面
  6
CONTINUOUS
 10
36.975603
 20
-72.793372
 11
54.9506
 21
-72.793372
  0
LINE
  8
型材断面
  6
CONTINUOUS
 10
36.975603
 20
-73.543372
 11
54.2006
 21
-73.543372
  0
LINE
  8
型材断面
  6
CONTINUOUS
 62
    47
 10
54.950607
 20
-67.46829
 11
54.950607
 21
-64.3083
  0
LINE
  8
型材断面
  6
CONTINUOUS
 10
36.975603
 20
-64.3083
 11
54.950607
 21
-64.3083
  0
LINE
  8
型材断面
  6
CONTINUOUS
 62
    47
 10
54.9506
 20
-67.818372
 11
54.9506
 21
-72.793372
  0
LINE
  8
型材断面
  6
CONTINUOUS
 62
    47
 10
54.2006
 20
-73.543372
 11
54.2006
 21
-72.793372
  0
LINE
  8
型材断面
  6
CONTINUOUS
 62
    47
 10
53.625598
 20
-64.3083
 11
53.625598
 21
-63.818297
  0
LINE
  8
型材断面
  6
CONTINUOUS
 10
19.640822
 20
-61.568297
 11
36.975603
 21
-61.568297
  0
LINE
  8
型材断面
  6
CONTINUOUS
 10
36.975603
 20
-61.318297
 11
19.875605
 21
-61.318297
  0
LINE
  8
型材断面
  6
CONTINUOUS
 10
36.975603
 20
-63.818297
 11
19.875605
 21
-63.818297
  0
ARC
  8
型材断面
  6
CONTINUOUS
 62
    47
 10
19.000598
 20
-67.493291
 40
0.025002
 50
89.999123
 51
180.0
  0
ARC
  8
型材断面
  6
CONTINUOUS
 62
    47
 10
18.9906
 20
-67.553294
 40
0.015003
 50
180.0
 51
269.791626
  0
LINE
  8
型材断面
  6
CONTINUOUS
 62
    47
 10
19.050605
 20
-67.818372
 11
20.325825
 21
-67.818372
  0
LINE
  8
型材断面
  6
CONTINUOUS
 10
36.975603
 20
-67.818372
 11
19.000605
 21
-67.818372
  0
LINE
  8
型材断面
  6
CONTINUOUS
 10
36.975603
 20
-72.793372
 11
19.000605
 21
-72.793372
  0
LINE
  8
型材断面
  6
CONTINUOUS
 10
36.975603
 20
-73.543372
 11
19.750605
 21
-73.543372
  0
LINE
  8
型材断面
  6
CONTINUOUS
 62
    47
 10
19.000598
 20
-67.46829
 11
19.000598
 21
-64.3083
  0
LINE
  8
型材断面
  6
CONTINUOUS
 10
36.975603
 20
-64.3083
 11
19.000598
 21
-64.3083
  0
LINE
  8
型材断面
  6
CONTINUOUS
 62
    47
 10
19.000605
 20
-67.818372
 11
19.000605
 21
-72.793372
  0
LINE
  8
型材断面
  6
CONTINUOUS
 62
    47
 10
19.750605
 20
-73.543372
 11
19.750605
 21
-72.793372
  0
LINE
  8
型材断面
  6
CONTINUOUS
 62
    47
 10
20.325607
 20
-64.3083
 11
20.325607
 21
-63.818297
  0
LINE
  8
型材断面
  6
CONTINUOUS
 10
36.975603
 20
-67.568297
 11
54.960605
 21
-67.568297
  0
LINE
  8
型材断面
  6
CONTINUOUS
 62
    47
 10
54.9756
 20
-67.49329
 11
54.9756
 21
-67.55278
  0
LINE
  8
型材断面
  6
CONTINUOUS
 62
    47
 10
18.975605
 20
-67.49329
 11
18.975605
 21
-67.55278
  0
LINE
  8
型材断面
  6
CONTINUOUS
 10
36.975603
 20
-67.568297
 11
18.9906
 21
-67.568297
  0
LINE
  8
型材断面
  6
DOT
 10
54.310383
 20
-54.068297
 11
36.975603
 21
-54.068297
  0
LINE
  8
型材断面
  6
DOT
 10
36.975603
 20
-53.818297
 11
54.0756
 21
-53.818297
  0
LINE
  8
型材断面
  6
DOT
 10
36.975603
 20
-56.318297
 11
54.0756
 21
-56.318297
  0
ARC
  8
型材断面
  6
DOT
 62
    47
 10
54.950607
 20
-59.993291
 40
0.025002
 50
0.0
 51
90.000877
  0
ARC
  8
型材断面
  6
DOT
 62
    47
 10
54.960606
 20
-60.053293
 40
0.015003
 50
270.208374
 51
360.0
  0
LINE
  8
型材断面
  6
DOT
 62
    47
 10
54.950607
 20
-59.96829
 11
54.950607
 21
-56.8083
  0
LINE
  8
型材断面
  6
DOT
 10
36.975603
 20
-56.8083
 11
54.950607
 21
-56.8083
  0
LINE
  8
型材断面
  6
DOT
 62
    47
 10
53.625598
 20
-56.8083
 11
53.625598
 21
-56.318297
  0
LINE
  8
型材断面
  6
DOT
 10
19.640822
 20
-54.068297
 11
36.975603
 21
-54.068297
  0
LINE
  8
型材断面
  6
DOT
 10
36.975603
 20
-53.818297
 11
19.875605
 21
-53.818297
  0
LINE
  8
型材断面
  6
DOT
 10
36.975603
 20
-56.318297
 11
19.875605
 21
-56.318297
  0
ARC
  8
型材断面
  6
DOT
 62
    47
 10
19.000598
 20
-59.993291
 40
0.025002
 50
89.999123
 51
180.0
  0
ARC
  8
型材断面
  6
DOT
 62
    47
 10
18.990599
 20
-60.053293
 40
0.015003
 50
180.0
 51
269.791626
  0
LINE
  8
型材断面
  6
DOT
 62
    47
 10
19.000598
 20
-59.96829
 11
19.000598
 21
-56.8083
  0
LINE
  8
型材断面
  6
DOT
 10
36.975603
 20
-56.8083
 11
19.000598
 21
-56.8083
  0
LINE
  8
型材断面
  6
DOT
 62
    47
 10
20.325607
 20
-56.8083
 11
20.325607
 21
-56.318297
  0
LINE
  8
型材断面
  6
DOT
 10
36.975603
 20
-60.068297
 11
54.960605
 21
-60.068297
  0
LINE
  8
型材断面
  6
DOT
 62
    47
 10
54.9756
 20
-59.99329
 11
54.9756
 21
-60.05278
  0
LINE
  8
型材断面
  6
DOT
 62
    47
 10
18.975605
 20
-59.99329
 11
18.975605
 21
-60.05278
  0
LINE
  8
型材断面
  6
DOT
 10
36.975603
 20
-60.068297
 11
18.9906
 21
-60.068297
  0
INSERT
  2
*GRP_0010
  8
型材断面
  6
CONTINUOUS
 10
0.0
 20
0.0
  0
INSERT
  2
*GRP_0011
  8
型材断面
  6
CONTINUOUS
 10
0.0
 20
0.0
  0
LINE
  8
型材断面
  6
DASHDOT
 10
-92.435405
 20
1.69199
 11
-62.435405
 21
1.69199
  0
LINE
  8
型材断面
  6
DASHDOT
 10
-92.435405
 20
31.69199
 11
-62.435405
 21
31.69199
  0
LINE
  8
型材断面
  6
CONTINUOUS
 10
-76.810405
 20
3.10721
 11
-76.810405
 21
-0.64279
  0
LINE
  8
型材断面
  6
CONTINUOUS
 10
-78.060405
 20
3.10721
 11
-78.060405
 21
-0.64279
  0
LINE
  8
型材断面
  6
CONTINUOUS
 10
-63.850635
 20
16.066987
 11
-60.100635
 21
16.06699
  0
LINE
  8
型材断面
  6
CONTINUOUS
 10
-63.850635
 20
17.316987
 11
-60.100635
 21
17.31699
  0
LINE
  8
型材断面
  6
CONTINUOUS
 10
-78.06041
 20
30.27677
 11
-78.060405
 21
34.02677
  0
LINE
  8
型材断面
  6
CONTINUOUS
 10
-76.81041
 20
30.27677
 11
-76.810405
 21
34.02677
  0
LINE
  8
型材断面
  6
CONTINUOUS
 10
-60.454177
 20
-0.642792
 11
-60.100633
 21
-0.289232
  0
LINE
  8
型材断面
  6
CONTINUOUS
 10
-59.460635
 20
-1.28278
 11
-60.277402
 21
-0.46601
  0
LINE
  8
型材断面
  6
CONTINUOUS
 10
-63.850633
 20
3.46076
 11
-64.204183
 21
3.10721
  0
LINE
  8
型材断面
  6
CONTINUOUS
 10
-64.204187
 20
3.107208
 11
-60.454183
 21
-0.64279
  0
LINE
  8
型材断面
  6
CONTINUOUS
 10
-63.850633
 20
3.46076
 11
-60.100625
 21
-0.28924
  0
LINE
  8
型材断面
  6
CONTINUOUS
 10
-63.850625
 20
16.067052
 11
-63.850625
 21
3.460767
  0
LINE
  8
型材断面
  6
CONTINUOUS
 10
-76.810445
 20
3.10721
 11
-64.204183
 21
3.10721
  0
LINE
  8
型材断面
  6
CONTINUOUS
 10
-60.454177
 20
34.026772
 11
-60.100633
 21
33.673213
  0
LINE
  8
型材断面
  6
CONTINUOUS
 10
-59.460635
 20
34.66676
 11
-60.277402
 21
33.84999
  0
LINE
  8
型材断面
  6
CONTINUOUS
 10
-63.850633
 20
29.92322
 11
-64.204183
 21
30.27677
  0
LINE
  8
型材断面
  6
CONTINUOUS
 10
-64.204187
 20
30.276772
 11
-60.454183
 21
34.02677
  0
LINE
  8
型材断面
  6
CONTINUOUS
 10
-63.850633
 20
29.92322
 11
-60.100625
 21
33.67322
  0
LINE
  8
型材断面
  6
CONTINUOUS
 10
-60.100625
 20
-0.28924
 11
-60.100625
 21
33.67322
  0
LINE
  8
型材断面
  6
CONTINUOUS
 10
-63.850625
 20
17.317052
 11
-63.850625
 21
29.923213
  0
LINE
  8
型材断面
  6
CONTINUOUS
 10
-76.81041
 20
30.27677
 11
-64.204183
 21
30.27677
  0
LINE
  8
型材断面
  6
CONTINUOUS
 10
-95.410175
 20
16.69199
 11
-95.410175
 21
34.66676
  0
LINE
  8
型材断面
  6
CONTINUOUS
 10
-95.410175
 20
16.69199
 11
-95.410175
 21
-1.28278
  0
LINE
  8
型材断面
  6
CONTINUOUS
 10
-91.020175
 20
16.066987
 11
-94.770175
 21
16.06699
  0
LINE
  8
型材断面
  6
CONTINUOUS
 10
-91.020175
 20
17.316987
 11
-94.770175
 21
17.31699
  0
LINE
  8
型材断面
  6
CONTINUOUS
 10
-94.416633
 20
-0.642792
 11
-94.770178
 21
-0.289232
  0
LINE
  8
型材断面
  6
CONTINUOUS
 10
-95.410175
 20
-1.28278
 11
-94.593408
 21
-0.46601
  0
LINE
  8
型材断面
  6
CONTINUOUS
 10
-91.020178
 20
3.46076
 11
-90.666627
 21
3.10721
  0
LINE
  8
型材断面
  6
CONTINUOUS
 10
-90.666622
 20
3.107208
 11
-94.416627
 21
-0.64279
  0
LINE
  8
型材断面
  6
CONTINUOUS
 10
-91.020178
 20
3.46076
 11
-94.770185
 21
-0.28924
  0
LINE
  8
型材断面
  6
CONTINUOUS
 10
-91.020185
 20
16.067052
 11
-91.020185
 21
3.460767
  0
LINE
  8
型材断面
  6
CONTINUOUS
 10
-94.416633
 20
34.026772
 11
-94.770178
 21
33.673213
  0
LINE
  8
型材断面
  6
CONTINUOUS
 10
-95.410175
 20
34.66676
 11
-94.593408
 21
33.84999
  0
LINE
  8
型材断面
  6
CONTINUOUS
 10
-91.020178
 20
29.92322
 11
-90.666627
 21
30.27677
  0
LINE
  8
型材断面
  6
CONTINUOUS
 10
-90.666622
 20
30.276772
 11
-94.416627
 21
34.02677
  0
LINE
  8
型材断面
  6
CONTINUOUS
 10
-91.020178
 20
29.92322
 11
-94.770185
 21
33.67322
  0
LINE
  8
型材断面
  6
CONTINUOUS
 10
-94.770185
 20
-0.28924
 11
-94.770185
 21
33.67322
  0
LINE
  8
型材断面
  6
CONTINUOUS
 10
-91.020185
 20
17.317052
 11
-91.020185
 21
29.923213
  0
LINE
  8
型材断面
  6
CONTINUOUS
 10
-78.060445
 20
3.10721
 11
-90.66662
 21
3.10721
  0
LINE
  8
型材断面
  6
CONTINUOUS
 10
-60.454183
 20
-0.64279
 11
-94.416627
 21
-0.64279
  0
LINE
  8
型材断面
  6
CONTINUOUS
 10
-78.06041
 20
30.27677
 11
-90.66662
 21
30.27677
  0
LINE
  8
型材断面
  6
CONTINUOUS
 10
-60.454183
 20
34.02677
 11
-94.416627
 21
34.02677
  0
LINE
  8
ガラス
  6
CONTINUOUS
 10
138.304785
 20
45.557477
 11
167.304785
 21
45.557477
  0
LINE
  8
ガラス
  6
CONTINUOUS
 10
167.304785
 20
74.557477
 11
167.304785
 21
45.557477
  0
LINE
  8
ガラス
  6
CONTINUOUS
 10
167.304785
 20
74.557477
 11
138.304785
 21
74.557477
  0
LINE
  8
ガラス
  6
CONTINUOUS
 10
138.304785
 20
45.557477
 11
138.304785
 21
74.557477
  0
TEXT
  7
TextStyle03
  8
文字
  6
CONTINUOUS
 10
-98.825
 20
58.075
  1
アンカーピッチ
 40
3.0
 72
     5
 11
-75.575
 21
58.075
  0
TEXT
  7
TextStyle03
  8
文字
  6
CONTINUOUS
 10
-37.5
 20
9.075
  1
ﾊﾞﾗﾝｽｽﾃｰ
 40
3.0
 72
     5
 11
-24.1875
 21
9.075
  0
TEXT
  7
TextStyle03
  8
文字
  6
CONTINUOUS
 10
-31.2
 20
-9.725
  1
は排水穴位置を示す
 40
3.0
 72
     5
 11
-1.2
 21
-9.725
  0
TEXT
  7
TextStyle03
  8
文字
  6
CONTINUOUS
 10
-31.2
 20
-17.575
  1
はケーシング位置を示す
 40
3.0
 72
     5
 11
5.55
 21
-17.575
  0
TEXT
  7
TextStyle03
  8
文字
  6
CONTINUOUS
 10
-31.2
 20
-20.95
  1
４ヶ所中1ヶ所に設定
 40
3.0
 72
     5
 11
0.4875
 21
-20.95
  0
TEXT
  7
TextStyle03
  8
文字
  6
CONTINUOUS
 10
-36.8
 20
-28.1
  1
アンカー数量　４ヶ所
 40
3.0
 72
     5
 11
-3.425
 21
-28.1
  0
TEXT
  7
TextStyle03
  8
文字
  6
CONTINUOUS
 10
-85.65
 20
-15.325
  1
可動装置側
 40
3.0
 72
     5
 11
-69.15
 21
-15.325
  0
TEXT
  7
TextStyle03
  8
文字
  6
CONTINUOUS
 10
-85.65
 20
45.75
  1
可動装置側
 40
3.0
 72
     5
 11
-69.15
 21
45.75
  0
TEXT
  7
TextStyle03
  8
文字
  6
CONTINUOUS
 10
61.175
 20
96.85
  1
ＮＳコード：ＮＳＦＺ
 40
5.0
 72
     5
 11
116.8
 21
96.85
  0
TEXT
  7
TextStyle03
  8
文字
  6
CONTINUOUS
 10
146.1
 20
53.8
  1
網入り6.8t
 40
3.0
 72
     5
 11
162.7875
 21
53.8
  0
TEXT
  7
TextStyle03
  8
文字
  6
CONTINUOUS
 10
152.725
 20
48.55
  1
×１枚
 40
3.0
 72
     5
 11
162.475
 21
48.55
  0
TEXT
  7
TextStyle03
  8
文字
  6
CONTINUOUS
 10
-36.85
 20
-34.95
  1
アームユニット数　２ヶ所
 40
3.0
 72
     5
 11
3.275
 21
-34.95
  0
LINE
  8
文字
  6
CONTINUOUS
 10
-41.807528
 20
-61.318297
 11
-57.632473
 21
-61.318297
  0
LINE
  8
文字
  6
CONTINUOUS
 10
-41.807528
 20
-72.793372
 11
-57.53485
 21
-72.793372
  0
LINE
  8
文字
  6
CONTINUOUS
 10
71.82847
 20
-61.318297
 11
56.003525
 21
-61.318297
  0
LINE
  8
文字
  6
CONTINUOUS
 10
71.82847
 20
-72.793372
 11
56.101145
 21
-72.793372
  0
TEXT
  7
TextStyle03
  8
文字
  6
CONTINUOUS
 10
60.95
 20
119.5
  1
シリーズ：ＴＦ２Ｆ
 40
5.0
 72
     5
 11
110.95
 21
119.5
  0
TEXT
  7
TextStyle03
  8
文字
  6
CONTINUOUS
 10
60.95
 20
113.875
  1
　　　　　（上下可動）600×600タイプ
 40
5.0
 72
     5
 11
161.575
 21
113.875
  0
TEXT
  7
TextStyle03
  8
文字
  6
CONTINUOUS
 10
60.95
 20
108.25
  1
図面名　：外観姿図
 40
5.0
 72
     5
 11
110.95
 21
108.25
  0
TEXT
  7
TextStyle03
  8
文字
  6
CONTINUOUS
 10
60.95
 20
102.625
  1
　　　　　　
 40
5.0
 72
     5
 11
94.075
 21
102.625
  0
INSERT
  2
*DIM_0002
  8
寸法
  6
CONTINUOUS
 10
0.0
 20
0.0
  0
INSERT
  2
*DIM_0003
  8
寸法
  6
CONTINUOUS
 10
0.0
 20
0.0
  0
INSERT
  2
*DIM_0004
  8
寸法
  6
CONTINUOUS
 10
0.0
 20
0.0
  0
INSERT
  2
*DIM_0005
  8
寸法
  6
CONTINUOUS
 10
0.0
 20
0.0
  0
INSERT
  2
*GRP_0006
  8
寸法
  6
CONTINUOUS
 10
0.0
 20
0.0
  0
INSERT
  2
*DIM_0007
  8
寸法
  6
CONTINUOUS
 10
0.0
 20
0.0
  0
INSERT
  2
*DIM_0008
  8
寸法
  6
CONTINUOUS
 10
0.0
 20
0.0
  0
INSERT
  2
*DIM_0009
  8
寸法
  6
CONTINUOUS
 10
0.0
 20
0.0
  0
INSERT
  2
*DIM_0012
  8
寸法
  6
CONTINUOUS
 10
0.0
 20
0.0
  0
INSERT
  2
*DIM_0013
  8
寸法
  6
CONTINUOUS
 10
0.0
 20
0.0
  0
LINE
  8
別途部材
  6
CONTINUOUS
 62
    47
 10
-60.100625
 20
-61.468297
 11
-60.100625
 21
-61.568297
  0
ARC
  8
別途部材
  6
CONTINUOUS
 62
    47
 10
-60.250624
 20
-61.468298
 40
0.15
 50
0.0
 51
90.0
  0
LINE
  8
別途部材
  6
CONTINUOUS
 62
    47
 10
-60.250625
 20
-61.318297
 11
-63.800625
 21
-61.318297
  0
LINE
  8
別途部材
  6
CONTINUOUS
 62
    47
 10
-60.335408
 20
-63.818297
 11
-60.335408
 21
-61.568297
  0
LINE
  8
別途部材
  6
CONTINUOUS
 62
    47
 10
-94.770185
 20
-61.468297
 11
-94.770185
 21
-61.568297
  0
ARC
  8
別途部材
  6
CONTINUOUS
 62
    47
 10
-94.620186
 20
-61.468298
 40
0.15
 50
90.0
 51
180.0
  0
LINE
  8
別途部材
  6
CONTINUOUS
 62
    47
 10
-94.620185
 20
-61.318297
 11
-91.070185
 21
-61.318297
  0
LINE
  8
別途部材
  6
CONTINUOUS
 62
    47
 10
-94.535402
 20
-63.818297
 11
-94.535402
 21
-61.568297
  0
LINE
  8
別途部材
  6
CONTINUOUS
 62
    47
 10
54.310383
 20
-61.468297
 11
54.310383
 21
-61.568297
  0
ARC
  8
別途部材
  6
CONTINUOUS
 62
    47
 10
54.160384
 20
-61.468298
 40
0.15
 50
0.0
 51
90.0
  0
LINE
  8
別途部材
  6
CONTINUOUS
 62
    47
 10
54.160383
 20
-61.318297
 11
50.610383
 21
-61.318297
  0
LINE
  8
別途部材
  6
CONTINUOUS
 62
    47
 10
54.0756
 20
-63.818297
 11
54.0756
 21
-61.568297
  0
LINE
  8
別途部材
  6
CONTINUOUS
 62
    47
 10
19.640822
 20
-61.468297
 11
19.640822
 21
-61.568297
  0
ARC
  8
別途部材
  6
CONTINUOUS
 62
    47
 10
19.790822
 20
-61.468298
 40
0.15
 50
90.0
 51
180.0
  0
LINE
  8
別途部材
  6
CONTINUOUS
 62
    47
 10
19.790822
 20
-61.318297
 11
23.340822
 21
-61.318297
  0
LINE
  8
別途部材
  6
CONTINUOUS
 62
    47
 10
19.875605
 20
-63.818297
 11
19.875605
 21
-61.568297
  0
LINE
  8
別途部材
  6
DOT
 62
    47
 10
54.310383
 20
-53.968297
 11
54.310383
 21
-54.068297
  0
ARC
  8
別途部材
  6
DOT
 62
    47
 10
54.160384
 20
-53.968297
 40
0.15
 50
0.0
 51
90.0
  0
LINE
  8
別途部材
  6
DOT
 62
    47
 10
54.160383
 20
-53.818297
 11
50.610383
 21
-53.818297
  0
LINE
  8
別途部材
  6
DOT
 62
    47
 10
54.0756
 20
-56.318297
 11
54.0756
 21
-54.068297
  0
LINE
  8
別途部材
  6
DOT
 62
    47
 10
19.640822
 20
-53.968297
 11
19.640822
 21
-54.068297
  0
ARC
  8
別途部材
  6
DOT
 62
    47
 10
19.790821
 20
-53.968297
 40
0.15
 50
90.0
 51
180.0
  0
LINE
  8
別途部材
  6
DOT
 62
    47
 10
19.790822
 20
-53.818297
 11
23.340822
 21
-53.818297
  0
LINE
  8
別途部材
  6
DOT
 62
    47
 10
19.875605
 20
-56.318297
 11
19.875605
 21
-54.068297
  0
LINE
  8
曲げ物
  6
CONTINUOUS
 10
-74.611275
 20
19.493035
 11
-80.154242
 21
13.950067
  0
LINE
  8
曲げ物
  6
CONTINUOUS
 10
-75.66648
 20
17.18887
 11
-77.850075
 21
15.005275
  0
LINE
  8
曲げ物
  6
CONTINUOUS
 10
-76.91544
 20
18.43783
 11
-79.099035
 21
16.254235
  0
ENDSEC
  0
EOF
