  0
SECTION
  2
HEADER
  9
$EXTMIN
 10
-210.0
 20
-148.5
  9
$EXTMAX
 10
210.0
 20
148.5
  9
$PDMODE
 70
    32
  9
$PDSIZE
 40
1.5
  9
$LTSCALE
 40
10.0
  0
ENDSEC
  0
SECTION
  2
TABLES
  0
TABLE
  2
LTYPE
 70
    15
  0
LTYPE
  2
CONTINUOUS
 70
    64
  3
実線
 72
    65
 73
     0
 40
0.0
  0
LTYPE
  2
DASHED
 70
    64
  3
破線A
 72
    65
 73
     2
 40
0.6
 49
0.4
 49
-0.2
  0
LTYPE
  2
DASHEDX2
 70
    64
  3
破線B
 72
    65
 73
     2
 40
1.3
 49
0.9
 49
-0.4
  0
LTYPE
  2
DASHDOT
 70
    64
  3
１点鎖線A
 72
    65
 73
     4
 40
0.5375
 49
0.375
 49
-0.05
 49
0.0625
 49
-0.05
  0
LTYPE
  2
DASHDOTX2
 70
    64
  3
１点鎖線B
 72
    65
 73
     4
 40
1.075
 49
0.75
 49
-0.1
 49
0.125
 49
-0.1
  0
LTYPE
  2
DIVIDE2
 70
    64
  3
２点鎖線A
 72
    65
 73
     6
 40
0.5125
 49
0.3
 49
-0.0375
 49
0.05
 49
-0.0375
 49
0.05
 49
-0.0375
  0
LTYPE
  2
DIVIDE
 70
    64
  3
２点鎖線B
 72
    65
 73
     6
 40
1.05
 49
0.55
 49
-0.1
 49
0.1
 49
-0.1
 49
0.1
 49
-0.1
  0
LTYPE
  2
DOT
 70
    64
  3
点線A
 72
    65
 73
     2
 40
0.1125
 49
0.0625
 49
-0.05
  0
LTYPE
  2
DOTX2
 70
    64
  3
点線B
 72
    65
 73
     2
 40
0.275
 49
0.15
 49
-0.125
  0
LTYPE
  2
CONTINUOUS
 70
    64
  3
実線
 72
    65
 73
     0
 40
0.0
  0
LTYPE
  2
CONTINUOUS
 70
    64
  3
実線
 72
    65
 73
     0
 40
0.0
  0
LTYPE
  2
CONTINUOUS
 70
    64
  3
実線
 72
    65
 73
     0
 40
0.0
  0
LTYPE
  2
CONTINUOUS
 70
    64
  3
実線
 72
    65
 73
     0
 40
0.0
  0
LTYPE
  2
CONTINUOUS
 70
    64
  3
実線
 72
    65
 73
     0
 40
0.0
  0
LTYPE
  2
CONTINUOUS
 70
    64
  3
実線
 72
    65
 73
     0
 40
0.0
  0
ENDTAB
  0
TABLE
  2
LAYER
 70
    34
  0
LAYER
  2
通り芯
 70
     0
 62
    15
  6
CONTINUOUS
  0
LAYER
  2
補助線
 70
     0
 62
    16
  6
DOT
  0
LAYER
  2
躯体
 70
     0
 62
    31
  6
CONTINUOUS
  0
LAYER
  2
型材
 70
     0
 62
    32
  6
CONTINUOUS
  0
LAYER
  2
型材断面
 70
     0
 62
    47
  6
CONTINUOUS
  0
LAYER
  2
ガラス
 70
     0
 62
    48
  6
CONTINUOUS
  0
LAYER
  2
ゴム等
 70
     0
 62
    63
  6
CONTINUOUS
  0
LAYER
  2
ボルト／ビス
 70
     0
 62
    64
  6
CONTINUOUS
  0
LAYER
  2
文字
 70
     0
 62
    79
  6
CONTINUOUS
  0
LAYER
  2
寸法
 70
     0
 62
    80
  6
CONTINUOUS
  0
LAYER
  2
ﾊｯﾁﾝｸﾞ
 70
     0
 62
    95
  6
CONTINUOUS
  0
LAYER
  2
別途部材
 70
     0
 62
    96
  6
CONTINUOUS
  0
LAYER
  2
曲げ物
 70
     0
 62
   111
  6
CONTINUOUS
  0
LAYER
  2
鉄骨等
 70
     0
 62
   112
  6
CONTINUOUS
  0
LAYER
  2
St
 70
     0
 62
   127
  6
CONTINUOUS
  0
LAYER
  2
その他部品等
 70
     0
 62
   128
  6
CONTINUOUS
  0
LAYER
  2
ｶﾞｽｹｯﾄ
 70
     0
 62
   143
  6
CONTINUOUS
  0
LAYER
  2
ｽｹｯﾁ
 70
     0
 62
    14
  6
CONTINUOUS
  0
LAYER
  2
0
 70
     0
 62
    17
  6
CONTINUOUS
  0
LAYER
  2
1
 70
     0
 62
    30
  6
CONTINUOUS
  0
LAYER
  2
4
 70
     0
 62
    33
  6
CONTINUOUS
  0
LAYER
  2
ﾚｲﾔ3
 70
     0
 62
    46
  6
CONTINUOUS
  0
LAYER
  2
外形線
 70
     0
 62
    49
  6
CONTINUOUS
  0
LAYER
  2
部品
 70
     0
 62
    14
  6
CONTINUOUS
  0
LAYER
  2
サッシ芯
 70
     0
 62
    17
  6
DASHDOTX2
  0
LAYER
  2
寸法線
 70
     0
 62
    62
  6
CONTINUOUS
  0
LAYER
  2
姿図外形線
 70
     0
 62
    65
  6
CONTINUOUS
  0
LAYER
  2
姿補助線
 70
     0
 62
    30
  6
CONTINUOUS
  0
LAYER
  2
透視線
 70
     0
 62
    78
  6
DOT
  0
LAYER
  2
用紙
 70
     0
 62
    81
  6
CONTINUOUS
  0
LAYER
  2
実線図枠
 70
     0
 62
    94
  6
CONTINUOUS
  0
LAYER
  2
補助図枠
 70
     0
 62
    97
  6
CONTINUOUS
  0
LAYER
  2
建具記号
 70
     0
 62
   110
  6
CONTINUOUS
  0
LAYER
  2
補助文字
 70
     0
 62
   113
  6
CONTINUOUS
  0
ENDTAB
  0
TABLE
  2
STYLE
 70
    10
  0
STYLE
  2
STANDARD
 70
     0
 40
1.0
 41
1.0
 42
1.0
 50
0.0
 71
     0
  3
TXT
  4
BIGFONT
  0
STYLE
  2
TATE
 70
     4
 40
1.0
 41
1.0
 42
1.0
 50
0.0
 71
     0
  3
TXT
  4
BIGFONT
  0
STYLE
  2
TextStyle03
 70
     0
 40
1.0
 41
1.0
 42
1.0
 50
0.0
 71
     0
  3
MONOTXT
  4
BIGFONT
  0
STYLE
  2
TextStyle04
 70
     0
 40
1.0
 41
1.0
 42
1.0
 50
0.0
 71
     0
  3
MONOTXT
  4
BIGFONT
  0
STYLE
  2
TextStyle05
 70
     0
 40
1.0
 41
1.0
 42
1.0
 50
0.0
 71
     0
  3
MONOTXT
  4
BIGFONT
  0
STYLE
  2
TextStyle06
 70
     0
 40
1.0
 41
1.0
 42
1.0
 50
0.0
 71
     0
  3
MONOTXT
  4
BIGFONT
  0
STYLE
  2
TextStyle07
 70
     0
 40
1.0
 41
1.0
 42
1.0
 50
0.0
 71
     0
  3
MONOTXT
  4
BIGFONT
  0
STYLE
  2
TextStyle08
 70
     0
 40
1.0
 41
1.0
 42
1.0
 50
0.0
 71
     0
  3
MONOTXT
  4
BIGFONT
  0
STYLE
  2
TextStyle09
 70
     0
 40
1.0
 41
1.0
 42
1.0
 50
0.0
 71
     0
  3
MONOTXT
  4
BIGFONT
  0
STYLE
  2
TextStyle10
 70
     0
 40
1.0
 41
1.0
 42
1.0
 50
0.0
 71
     0
  3
MONOTXT
  4
BIGFONT
  0
ENDTAB
  0
ENDSEC
  0
SECTION
  2
BLOCKS
  0
BLOCK
  2
*HAT_0001
 70
    65
 10
0.0
 20
0.0
  0
LINE
  8
ゴム等
 10
-26.45
 20
15.5
 11
-25.975
 21
16.025
  0
LINE
  8
ゴム等
 10
-24.95
 20
17.0
 11
-24.95
 21
17.0
  0
LINE
  8
ゴム等
 10
-29.15
 20
13.75
 11
-28.475
 21
14.45
  0
LINE
  8
ゴム等
 10
-27.425
 20
15.5
 11
-25.975
 21
16.925
  0
LINE
  8
ゴム等
 10
-25.925
 20
17.0
 11
-24.95
 21
17.95
  0
LINE
  8
ゴム等
 10
-30.125
 20
13.75
 11
-28.975
 21
14.9
  0
LINE
  8
ゴム等
 10
-28.375
 20
15.5
 11
-25.625
 21
18.25
  0
LINE
  8
ゴム等
 10
-31.025
 20
13.75
 11
-26.525
 21
18.25
  0
LINE
  8
ゴム等
 10
-31.7
 20
14.05
 11
-27.5
 21
18.275
  0
LINE
  8
ゴム等
 10
-31.475
 20
15.2
 11
-28.1
 21
18.55
  0
LINE
  8
ゴム等
 10
-32.125
 20
15.5
 11
-28.85
 21
18.8
  0
LINE
  8
ゴム等
 10
-33.05
 20
15.5
 11
-29.6
 21
18.95
  0
LINE
  8
ゴム等
 10
-33.475
 20
16.025
 11
-30.5
 21
19.0
  0
LINE
  8
ゴム等
 10
-33.475
 20
17.0
 11
-31.55
 21
18.875
  0
LINE
  8
ゴム等
 10
-33.475
 20
17.95
 11
-32.875
 21
18.5
  0
ENDBLK
  0
BLOCK
  2
*HAT_0002
 70
    65
 10
0.0
 20
0.0
  0
LINE
  8
St
  6
DOT
 10
-25.825
 20
33.125
 11
-26.125
 21
33.4
  0
LINE
  8
St
  6
DOT
 10
-25.825
 20
32.425
 11
-26.825
 21
33.4
  0
LINE
  8
St
  6
DOT
 10
-25.825
 20
31.7
 11
-27.5
 21
33.4
  0
LINE
  8
St
  6
DOT
 10
-25.825
 20
31.0
 11
-28.225
 21
33.4
  0
LINE
  8
St
  6
DOT
 10
-25.825
 20
30.275
 11
-28.925
 21
33.4
  0
LINE
  8
St
  6
DOT
 10
-25.825
 20
29.575
 11
-29.65
 21
33.4
  0
LINE
  8
St
  6
DOT
 10
-25.825
 20
28.9
 11
-30.35
 21
33.4
  0
LINE
  8
St
  6
DOT
 10
-25.825
 20
28.175
 11
-31.075
 21
33.4
  0
LINE
  8
St
  6
DOT
 10
-25.825
 20
27.475
 11
-31.75
 21
33.4
  0
LINE
  8
St
  6
DOT
 10
-26.45
 20
27.4
 11
-32.45
 21
33.4
  0
LINE
  8
St
  6
DOT
 10
-27.175
 20
27.4
 11
-33.175
 21
33.4
  0
LINE
  8
St
  6
DOT
 10
-27.875
 20
27.4
 11
-33.875
 21
33.4
  0
LINE
  8
St
  6
DOT
 10
-28.6
 20
27.4
 11
-34.6
 21
33.4
  0
LINE
  8
St
  6
DOT
 10
-29.3
 20
27.4
 11
-35.3
 21
33.4
  0
LINE
  8
St
  6
DOT
 10
-29.975
 20
27.4
 11
-35.975
 21
33.4
  0
LINE
  8
St
  6
DOT
 10
-30.7
 20
27.4
 11
-36.7
 21
33.4
  0
LINE
  8
St
  6
DOT
 10
-31.4
 20
27.4
 11
-37.4
 21
33.4
  0
LINE
  8
St
  6
DOT
 10
-32.125
 20
27.4
 11
-38.125
 21
33.4
  0
LINE
  8
St
  6
DOT
 10
-32.825
 20
27.4
 11
-38.825
 21
33.4
  0
LINE
  8
St
  6
DOT
 10
-33.55
 20
27.4
 11
-39.5
 21
33.4
  0
LINE
  8
St
  6
DOT
 10
-34.225
 20
27.4
 11
-39.775
 21
32.9
  0
LINE
  8
St
  6
DOT
 10
-34.925
 20
27.4
 11
-39.925
 21
32.375
  0
LINE
  8
St
  6
DOT
 10
-35.65
 20
27.4
 11
-40.025
 21
31.775
  0
LINE
  8
St
  6
DOT
 10
-36.35
 20
27.4
 11
-40.1
 21
31.15
  0
LINE
  8
St
  6
DOT
 10
-37.075
 20
27.4
 11
-40.175
 21
30.55
  0
LINE
  8
St
  6
DOT
 10
-37.75
 20
27.4
 11
-40.15
 21
29.8
  0
LINE
  8
St
  6
DOT
 10
-38.45
 20
27.4
 11
-40.075
 21
29.0
  0
LINE
  8
St
  6
DOT
 10
-39.175
 20
27.4
 11
-39.775
 21
28.0
  0
ENDBLK
  0
BLOCK
  2
*HAT_0003
 70
    65
 10
0.0
 20
0.0
  0
LINE
  8
St
  6
DOT
 10
-11.75
 20
33.575
 11
-12.65
 21
34.475
  0
LINE
  8
St
  6
DOT
 10
-11.75
 20
32.15
 11
-13.25
 21
33.65
  0
LINE
  8
St
  6
DOT
 10
-11.75
 20
30.775
 11
-14.425
 21
33.425
  0
LINE
  8
St
  6
DOT
 10
-11.75
 20
29.35
 11
-15.85
 21
33.425
  0
LINE
  8
St
  6
DOT
 10
-11.75
 20
27.925
 11
-17.275
 21
33.425
  0
LINE
  8
St
  6
DOT
 10
-11.75
 20
26.5
 11
-18.65
 21
33.425
  0
LINE
  8
St
  6
DOT
 10
-13.025
 20
26.375
 11
-13.25
 21
26.6
  0
LINE
  8
St
  6
DOT
 10
-14.075
 20
27.425
 11
-20.075
 21
33.425
  0
LINE
  8
St
  6
DOT
 10
-15.5
 20
27.425
 11
-21.5
 21
33.425
  0
LINE
  8
St
  6
DOT
 10
-16.925
 20
27.425
 11
-22.925
 21
33.425
  0
LINE
  8
St
  6
DOT
 10
-18.325
 20
27.425
 11
-24.325
 21
33.425
  0
LINE
  8
St
  6
DOT
 10
-19.75
 20
27.425
 11
-25.675
 21
33.35
  0
LINE
  8
St
  6
DOT
 10
-21.175
 20
27.425
 11
-25.675
 21
31.925
  0
LINE
  8
St
  6
DOT
 10
-22.55
 20
27.425
 11
-25.675
 21
30.5
  0
LINE
  8
St
  6
DOT
 10
-23.975
 20
27.425
 11
-25.675
 21
29.075
  0
LINE
  8
St
  6
DOT
 10
-25.4
 20
27.425
 11
-25.675
 21
27.7
  0
ENDBLK
  0
BLOCK
  2
*HAT_0004
 70
    65
 10
0.0
 20
0.0
  0
LINE
  8
St
  6
DOT
 10
-25.825
 20
-6.35
 11
-26.125
 21
-6.1
  0
LINE
  8
St
  6
DOT
 10
-25.825
 20
-7.075
 11
-26.825
 21
-6.1
  0
LINE
  8
St
  6
DOT
 10
-25.825
 20
-7.775
 11
-27.5
 21
-6.1
  0
LINE
  8
St
  6
DOT
 10
-25.825
 20
-8.5
 11
-28.225
 21
-6.1
  0
LINE
  8
St
  6
DOT
 10
-25.825
 20
-9.2
 11
-28.925
 21
-6.1
  0
LINE
  8
St
  6
DOT
 10
-25.825
 20
-9.925
 11
-29.65
 21
-6.1
  0
LINE
  8
St
  6
DOT
 10
-25.825
 20
-10.6
 11
-30.35
 21
-6.1
  0
LINE
  8
St
  6
DOT
 10
-25.825
 20
-11.3
 11
-31.075
 21
-6.1
  0
LINE
  8
St
  6
DOT
 10
-25.825
 20
-12.025
 11
-31.75
 21
-6.1
  0
LINE
  8
St
  6
DOT
 10
-26.45
 20
-12.1
 11
-32.45
 21
-6.1
  0
LINE
  8
St
  6
DOT
 10
-27.175
 20
-12.1
 11
-33.175
 21
-6.1
  0
LINE
  8
St
  6
DOT
 10
-27.875
 20
-12.1
 11
-33.875
 21
-6.1
  0
LINE
  8
St
  6
DOT
 10
-28.6
 20
-12.1
 11
-34.6
 21
-6.1
  0
LINE
  8
St
  6
DOT
 10
-29.3
 20
-12.1
 11
-35.3
 21
-6.1
  0
LINE
  8
St
  6
DOT
 10
-29.975
 20
-12.1
 11
-35.975
 21
-6.1
  0
LINE
  8
St
  6
DOT
 10
-30.7
 20
-12.1
 11
-36.7
 21
-6.1
  0
LINE
  8
St
  6
DOT
 10
-31.4
 20
-12.1
 11
-37.4
 21
-6.1
  0
LINE
  8
St
  6
DOT
 10
-32.125
 20
-12.1
 11
-38.125
 21
-6.1
  0
LINE
  8
St
  6
DOT
 10
-32.825
 20
-12.1
 11
-38.825
 21
-6.1
  0
LINE
  8
St
  6
DOT
 10
-33.55
 20
-12.1
 11
-39.5
 21
-6.1
  0
LINE
  8
St
  6
DOT
 10
-34.225
 20
-12.1
 11
-39.775
 21
-6.575
  0
LINE
  8
St
  6
DOT
 10
-34.925
 20
-12.1
 11
-39.925
 21
-7.1
  0
LINE
  8
St
  6
DOT
 10
-35.65
 20
-12.1
 11
-40.025
 21
-7.7
  0
LINE
  8
St
  6
DOT
 10
-36.35
 20
-12.1
 11
-40.1
 21
-8.35
  0
LINE
  8
St
  6
DOT
 10
-37.075
 20
-12.1
 11
-40.175
 21
-8.95
  0
LINE
  8
St
  6
DOT
 10
-37.75
 20
-12.1
 11
-40.15
 21
-9.7
  0
LINE
  8
St
  6
DOT
 10
-38.45
 20
-12.1
 11
-40.075
 21
-10.475
  0
LINE
  8
St
  6
DOT
 10
-39.175
 20
-12.1
 11
-39.775
 21
-11.5
  0
ENDBLK
  0
BLOCK
  2
*HAT_0005
 70
    65
 10
0.0
 20
0.0
  0
LINE
  8
St
  6
DOT
 10
-11.75
 20
-5.9
 11
-12.65
 21
-5.0
  0
LINE
  8
St
  6
DOT
 10
-11.75
 20
-7.325
 11
-13.25
 21
-5.825
  0
LINE
  8
St
  6
DOT
 10
-11.75
 20
-8.725
 11
-14.425
 21
-6.05
  0
LINE
  8
St
  6
DOT
 10
-11.75
 20
-10.15
 11
-15.85
 21
-6.05
  0
LINE
  8
St
  6
DOT
 10
-11.75
 20
-11.575
 11
-17.275
 21
-6.05
  0
LINE
  8
St
  6
DOT
 10
-11.75
 20
-13.0
 11
-18.65
 21
-6.05
  0
LINE
  8
St
  6
DOT
 10
-13.025
 20
-13.1
 11
-13.25
 21
-12.875
  0
LINE
  8
St
  6
DOT
 10
-14.075
 20
-12.05
 11
-20.075
 21
-6.05
  0
LINE
  8
St
  6
DOT
 10
-15.5
 20
-12.05
 11
-21.5
 21
-6.05
  0
LINE
  8
St
  6
DOT
 10
-16.925
 20
-12.05
 11
-22.925
 21
-6.05
  0
LINE
  8
St
  6
DOT
 10
-18.325
 20
-12.05
 11
-24.325
 21
-6.05
  0
LINE
  8
St
  6
DOT
 10
-19.75
 20
-12.05
 11
-25.675
 21
-6.125
  0
LINE
  8
St
  6
DOT
 10
-21.175
 20
-12.05
 11
-25.675
 21
-7.55
  0
LINE
  8
St
  6
DOT
 10
-22.55
 20
-12.05
 11
-25.675
 21
-8.975
  0
LINE
  8
St
  6
DOT
 10
-23.975
 20
-12.05
 11
-25.675
 21
-10.4
  0
LINE
  8
St
  6
DOT
 10
-25.4
 20
-12.05
 11
-25.675
 21
-11.8
  0
ENDBLK
  0
BLOCK
  2
*HAT_0006
 70
    65
 10
0.0
 20
0.0
  0
LINE
  8
型材断面
  6
DOT
 10
-39.0
 20
-37.6
 11
-38.575
 21
-37.175
  0
LINE
  8
型材断面
  6
DOT
 10
-40.425
 20
-37.6
 11
-38.575
 21
-35.775
  0
LINE
  8
型材断面
  6
DOT
 10
-41.825
 20
-37.6
 11
-38.575
 21
-34.35
  0
LINE
  8
型材断面
  6
DOT
 10
-43.25
 20
-37.6
 11
-38.575
 21
-32.95
  0
LINE
  8
型材断面
  6
DOT
 10
-43.575
 20
-36.525
 11
-39.65
 21
-32.6
  0
LINE
  8
型材断面
  6
DOT
 10
-43.575
 20
-35.125
 11
-41.075
 21
-32.6
  0
LINE
  8
型材断面
  6
DOT
 10
-43.575
 20
-33.7
 11
-42.475
 21
-32.6
  0
ENDBLK
  0
BLOCK
  2
*HAT_0007
 70
    65
 10
0.0
 20
0.0
  0
LINE
  8
型材断面
  6
DOT
 10
-25.35
 20
46.5
 11
-25.35
 21
46.5
  0
LINE
  8
型材断面
  6
DOT
 10
-26.75
 20
46.5
 11
-25.35
 21
47.925
  0
LINE
  8
型材断面
  6
DOT
 10
-28.175
 20
46.5
 11
-25.35
 21
49.325
  0
LINE
  8
型材断面
  6
DOT
 10
-29.575
 20
46.5
 11
-25.35
 21
50.75
  0
LINE
  8
型材断面
  6
DOT
 10
-30.35
 20
47.15
 11
-26.0
 21
51.5
  0
LINE
  8
型材断面
  6
DOT
 10
-30.35
 20
48.575
 11
-27.4
 21
51.5
  0
LINE
  8
型材断面
  6
DOT
 10
-30.35
 20
49.975
 11
-28.825
 21
51.5
  0
LINE
  8
型材断面
  6
DOT
 10
-30.35
 20
51.4
 11
-30.225
 21
51.5
  0
ENDBLK
  0
BLOCK
  2
*HAT_0008
 70
    65
 10
0.0
 20
0.0
  0
LINE
  8
ﾊｯﾁﾝｸﾞ
 10
-1.525
 20
69.375
 11
-0.7
 21
70.2
  0
LINE
  8
ﾊｯﾁﾝｸﾞ
 10
-2.95
 20
69.375
 11
-0.7
 21
71.625
  0
LINE
  8
ﾊｯﾁﾝｸﾞ
 10
-4.35
 20
69.375
 11
-0.7
 21
73.05
  0
LINE
  8
ﾊｯﾁﾝｸﾞ
 10
-4.725
 20
70.475
 11
-0.7
 21
74.45
  0
LINE
  8
ﾊｯﾁﾝｸﾞ
 10
-4.725
 20
71.85
 11
-1.8
 21
74.775
  0
LINE
  8
ﾊｯﾁﾝｸﾞ
 10
-4.725
 20
73.275
 11
-3.175
 21
74.775
  0
LINE
  8
ﾊｯﾁﾝｸﾞ
 10
-4.725
 20
74.7
 11
-4.6
 21
74.775
  0
LINE
  8
ﾊｯﾁﾝｸﾞ
 10
-4.725
 20
69.5
 11
-4.65
 21
69.375
  0
LINE
  8
ﾊｯﾁﾝｸﾞ
 10
-4.725
 20
70.875
 11
-3.225
 21
69.375
  0
LINE
  8
ﾊｯﾁﾝｸﾞ
 10
-4.725
 20
72.3
 11
-1.8
 21
69.375
  0
LINE
  8
ﾊｯﾁﾝｸﾞ
 10
-4.725
 20
73.725
 11
-0.7
 21
69.725
  0
LINE
  8
ﾊｯﾁﾝｸﾞ
 10
-4.375
 20
74.775
 11
-0.7
 21
71.15
  0
LINE
  8
ﾊｯﾁﾝｸﾞ
 10
-2.95
 20
74.775
 11
-0.7
 21
72.525
  0
LINE
  8
ﾊｯﾁﾝｸﾞ
 10
-1.575
 20
74.775
 11
-0.7
 21
73.95
  0
ENDBLK
  0
BLOCK
  2
*HAT_0009
 70
    65
 10
0.0
 20
0.0
  0
LINE
  8
その他部品等
 10
-95.075
 20
-83.675
 11
-94.15
 21
-82.7
  0
LINE
  8
その他部品等
 10
-97.225
 20
-83.675
 11
-94.15
 21
-80.6
  0
LINE
  8
その他部品等
 10
-99.325
 20
-83.65
 11
-95.3
 21
-79.675
  0
LINE
  8
その他部品等
 10
-101.225
 20
-83.45
 11
-97.45
 21
-79.675
  0
LINE
  8
その他部品等
 10
-101.225
 20
-81.35
 11
-99.55
 21
-79.675
  0
LINE
  8
その他部品等
 10
-101.225
 20
-81.925
 11
-99.5
 21
-83.65
  0
LINE
  8
その他部品等
 10
-101.225
 20
-79.825
 11
-97.4
 21
-83.65
  0
LINE
  8
その他部品等
 10
-99.275
 20
-79.675
 11
-95.275
 21
-83.65
  0
LINE
  8
その他部品等
 10
-97.15
 20
-79.675
 11
-94.15
 21
-82.675
  0
LINE
  8
その他部品等
 10
-95.05
 20
-79.675
 11
-94.15
 21
-80.575
  0
ENDBLK
  0
BLOCK
  2
*HAT_0010
 70
    65
 10
0.0
 20
0.0
  0
LINE
  8
その他部品等
 10
-42.1
 20
-45.5
 11
-40.45
 21
-43.825
  0
LINE
  8
その他部品等
 10
-44.525
 20
-45.85
 11
-40.45
 21
-41.725
  0
LINE
  8
その他部品等
 10
-44.65
 20
-43.825
 11
-40.45
 21
-39.625
  0
LINE
  8
その他部品等
 10
-44.65
 20
-41.675
 11
-41.3
 21
-38.35
  0
LINE
  8
その他部品等
 10
-44.65
 20
-39.575
 11
-43.4
 21
-38.35
  0
LINE
  8
その他部品等
 10
-44.65
 20
-45.35
 11
-44.2
 21
-45.775
  0
LINE
  8
その他部品等
 10
-44.65
 20
-43.225
 11
-42.35
 21
-45.5
  0
LINE
  8
その他部品等
 10
-44.65
 20
-41.125
 11
-40.475
 21
-45.275
  0
LINE
  8
その他部品等
 10
-44.65
 20
-38.975
 11
-40.45
 21
-43.175
  0
LINE
  8
その他部品等
 10
-43.175
 20
-38.35
 11
-40.45
 21
-41.075
  0
LINE
  8
その他部品等
 10
-41.05
 20
-38.35
 11
-40.45
 21
-38.95
  0
ENDBLK
  0
BLOCK
  2
*HAT_0011
 70
    65
 10
0.0
 20
0.0
  0
LINE
  8
その他部品等
 10
-27.3
 20
-35.775
 11
-26.025
 21
-34.5
  0
LINE
  8
その他部品等
 10
-30.225
 20
-37.3
 11
-27.45
 21
-34.5
  0
LINE
  8
その他部品等
 10
-31.7
 20
-37.35
 11
-28.85
 21
-34.5
  0
LINE
  8
その他部品等
 10
-33.1
 20
-37.35
 11
-30.25
 21
-34.5
  0
LINE
  8
その他部品等
 10
-34.525
 20
-37.35
 11
-31.675
 21
-34.5
  0
LINE
  8
その他部品等
 10
-35.925
 20
-37.35
 11
-33.075
 21
-34.5
  0
LINE
  8
その他部品等
 10
-36.325
 20
-36.325
 11
-34.5
 21
-34.5
  0
LINE
  8
その他部品等
 10
-36.325
 20
-34.925
 11
-35.9
 21
-34.5
  0
LINE
  8
その他部品等
 10
-36.35
 20
-37.1
 11
-36.1
 21
-37.35
  0
LINE
  8
その他部品等
 10
-36.35
 20
-35.7
 11
-34.7
 21
-37.35
  0
LINE
  8
その他部品等
 10
-36.125
 20
-34.5
 11
-33.275
 21
-37.35
  0
LINE
  8
その他部品等
 10
-34.725
 20
-34.5
 11
-31.875
 21
-37.35
  0
LINE
  8
その他部品等
 10
-33.3
 20
-34.5
 11
-30.45
 21
-37.35
  0
LINE
  8
その他部品等
 10
-31.9
 20
-34.5
 11
-29.5
 21
-36.9
  0
LINE
  8
その他部品等
 10
-30.475
 20
-34.5
 11
-28.55
 21
-36.425
  0
LINE
  8
その他部品等
 10
-29.075
 20
-34.5
 11
-27.625
 21
-35.95
  0
LINE
  8
その他部品等
 10
-27.65
 20
-34.5
 11
-26.7
 21
-35.45
  0
LINE
  8
その他部品等
 10
-26.25
 20
-34.5
 11
-25.775
 21
-34.975
  0
ENDBLK
  0
BLOCK
  2
*GRP_0001
 70
    65
 10
0.0
 20
0.0
  0
LINE
  8
型材断面
  6
CONTINUOUS
 10
195.0
 20
133.5
 11
195.0
 21
-133.5
  0
LINE
  8
型材断面
  6
CONTINUOUS
 10
195.0
 20
-133.5
 11
-185.0
 21
-133.5
  0
LINE
  8
型材断面
  6
CONTINUOUS
 10
-185.0
 20
-133.5
 11
-185.0
 21
133.5
  0
LINE
  8
型材断面
  6
CONTINUOUS
 10
195.0
 20
133.5
 11
-185.0
 21
133.5
  0
LINE
  8
型材断面
  6
CONTINUOUS
 10
145.0
 20
-133.5
 11
145.0
 21
-118.5
  0
LINE
  8
型材断面
  6
CONTINUOUS
 10
195.0
 20
-118.5
 11
145.0
 21
-118.5
  0
ENDBLK
  0
BLOCK
  2
*GRP_0002
 70
    65
 10
0.0
 20
0.0
  0
INSERT
  2
*GRP_0015
  8
型材断面
  6
CONTINUOUS
 10
0.0
 20
0.0
  0
INSERT
  2
*GRP_0016
  8
ボルト／ビス
  6
CONTINUOUS
 10
0.0
 20
0.0
  0
INSERT
  2
*GRP_0017
  8
ボルト／ビス
  6
CONTINUOUS
 10
0.0
 20
0.0
  0
INSERT
  2
*GRP_0018
  8
ボルト／ビス
  6
CONTINUOUS
 10
0.0
 20
0.0
  0
INSERT
  2
*GRP_0019
  8
ボルト／ビス
  6
CONTINUOUS
 10
0.0
 20
0.0
  0
INSERT
  2
*GRP_0020
  8
別途部材
  6
CONTINUOUS
 10
0.0
 20
0.0
  0
INSERT
  2
*GRP_0021
  8
St
  6
CONTINUOUS
 10
0.0
 20
0.0
  0
INSERT
  2
*GRP_0022
  8
St
  6
CONTINUOUS
 10
0.0
 20
0.0
  0
INSERT
  2
*GRP_0023
  8
St
  6
CONTINUOUS
 10
0.0
 20
0.0
  0
LINE
  8
St
  6
CONTINUOUS
 10
-23.722368
 20
30.419982
 11
-11.82237
 21
30.419982
  0
INSERT
  2
*GRP_0024
  8
St
  6
CONTINUOUS
 10
0.0
 20
0.0
  0
INSERT
  2
*GRP_0025
  8
St
  6
CONTINUOUS
 10
0.0
 20
0.0
  0
ENDBLK
  0
BLOCK
  2
*GRP_0003
 70
    65
 10
0.0
 20
0.0
  0
INSERT
  2
*GRP_0026
  8
型材断面
  6
CONTINUOUS
 10
0.0
 20
0.0
  0
INSERT
  2
*GRP_0027
  8
ボルト／ビス
  6
CONTINUOUS
 10
0.0
 20
0.0
  0
INSERT
  2
*GRP_0028
  8
ボルト／ビス
  6
CONTINUOUS
 10
0.0
 20
0.0
  0
INSERT
  2
*GRP_0029
  8
ボルト／ビス
  6
CONTINUOUS
 10
0.0
 20
0.0
  0
INSERT
  2
*GRP_0030
  8
ボルト／ビス
  6
CONTINUOUS
 10
0.0
 20
0.0
  0
INSERT
  2
*GRP_0031
  8
別途部材
  6
CONTINUOUS
 10
0.0
 20
0.0
  0
INSERT
  2
*GRP_0032
  8
St
  6
CONTINUOUS
 10
0.0
 20
0.0
  0
INSERT
  2
*GRP_0033
  8
St
  6
CONTINUOUS
 10
0.0
 20
0.0
  0
INSERT
  2
*GRP_0034
  8
St
  6
CONTINUOUS
 10
0.0
 20
0.0
  0
LINE
  8
St
  6
CONTINUOUS
 10
-23.722368
 20
-9.080765
 11
-11.82237
 21
-9.080765
  0
INSERT
  2
*GRP_0035
  8
St
  6
CONTINUOUS
 10
0.0
 20
0.0
  0
INSERT
  2
*GRP_0036
  8
St
  6
CONTINUOUS
 10
0.0
 20
0.0
  0
ENDBLK
  0
BLOCK
  2
*GRP_0004
 70
    65
 10
0.0
 20
0.0
  0
ARC
  8
型材断面
  6
CONTINUOUS
 62
    47
 10
-22.675707
 20
19.144984
 40
0.15
 50
90.0
 51
180.0
  0
LINE
  8
型材断面
  6
CONTINUOUS
 62
    47
 10
-22.82571
 20
19.144982
 11
-22.82571
 21
18.44498
  0
LINE
  8
型材断面
  6
CONTINUOUS
 62
    47
 10
-22.67571
 20
18.29498
 11
-14.075708
 21
18.29498
  0
ARC
  8
型材断面
  6
CONTINUOUS
 62
    47
 10
-22.675707
 20
18.444984
 40
0.15
 50
180.0
 51
270.0
  0
ARC
  8
型材断面
  6
CONTINUOUS
 62
    47
 10
-14.075707
 20
42.044984
 40
0.5
 50
0.0
 51
90.0
  0
ARC
  8
型材断面
  6
CONTINUOUS
 62
    47
 10
-22.675707
 20
41.694984
 40
0.15
 50
180.0
 51
270.0
  0
LINE
  8
型材断面
  6
CONTINUOUS
 62
    47
 10
-22.82571
 20
41.69498
 11
-22.82571
 21
42.394982
  0
LINE
  8
型材断面
  6
CONTINUOUS
 62
    47
 10
-22.67571
 20
42.544982
 11
-14.075708
 21
42.544982
  0
ARC
  8
型材断面
  6
CONTINUOUS
 62
    47
 10
-22.675707
 20
42.394984
 40
0.15
 50
90.0
 51
180.0
  0
LINE
  8
型材断面
  6
CONTINUOUS
 62
    47
 10
-14.57571
 20
19.294982
 11
-14.57571
 21
41.54498
  0
LINE
  8
型材断面
  6
CONTINUOUS
 62
    47
 10
-13.575708
 20
18.79498
 11
-13.575708
 21
42.04498
  0
ARC
  8
型材断面
  6
CONTINUOUS
 62
    47
 10
-14.075707
 20
18.794984
 40
0.5
 50
270.0
 51
360.0
  0
LINE
  8
型材断面
  6
CONTINUOUS
 62
    47
 10
-18.075708
 20
19.294982
 11
-14.57571
 21
19.294982
  0
LINE
  8
型材断面
  6
CONTINUOUS
 62
    47
 10
-18.075708
 20
41.54498
 11
-14.57571
 21
41.54498
  0
ARC
  8
型材断面
  6
CONTINUOUS
 62
    47
 10
-18.175707
 20
41.444984
 40
0.1
 50
233.914192
 51
360.0
  0
LINE
  8
型材断面
  6
CONTINUOUS
 62
    47
 10
-18.075708
 20
41.444982
 11
-18.075708
 21
41.54498
  0
LINE
  8
型材断面
  6
CONTINUOUS
 62
    47
 10
-22.67571
 20
41.54498
 11
-18.482693
 21
41.54498
  0
LINE
  8
型材断面
  6
CONTINUOUS
 62
    47
 10
-18.234608
 20
41.364168
 11
-18.482693
 21
41.54498
  0
ARC
  8
型材断面
  6
CONTINUOUS
 62
    47
 10
-18.175707
 20
19.394986
 40
0.1
 50
0.0
 51
126.085808
  0
LINE
  8
型材断面
  6
CONTINUOUS
 62
    47
 10
-18.075708
 20
19.394982
 11
-18.075708
 21
19.294985
  0
LINE
  8
型材断面
  6
CONTINUOUS
 62
    47
 10
-18.234608
 20
19.4758
 11
-18.482693
 21
19.294985
  0
LINE
  8
型材断面
  6
CONTINUOUS
 62
    47
 10
-22.67571
 20
19.294982
 11
-18.482695
 21
19.294982
  0
ENDBLK
  0
BLOCK
  2
*GRP_0005
 70
    65
 10
0.0
 20
0.0
  0
ARC
  8
型材断面
  6
CONTINUOUS
 62
    47
 10
-22.675707
 20
-20.355765
 40
0.15
 50
90.0
 51
180.0
  0
LINE
  8
型材断面
  6
CONTINUOUS
 62
    47
 10
-22.82571
 20
-20.355768
 11
-22.82571
 21
-21.055768
  0
LINE
  8
型材断面
  6
CONTINUOUS
 62
    47
 10
-22.67571
 20
-21.205768
 11
-14.075708
 21
-21.205768
  0
ARC
  8
型材断面
  6
CONTINUOUS
 62
    47
 10
-22.675707
 20
-21.055765
 40
0.15
 50
180.0
 51
270.0
  0
ARC
  8
型材断面
  6
CONTINUOUS
 62
    47
 10
-14.075707
 20
2.544235
 40
0.5
 50
0.0
 51
90.0
  0
ARC
  8
型材断面
  6
CONTINUOUS
 62
    47
 10
-22.675707
 20
2.194235
 40
0.15
 50
180.0
 51
270.0
  0
LINE
  8
型材断面
  6
CONTINUOUS
 62
    47
 10
-22.82571
 20
2.194232
 11
-22.82571
 21
2.894232
  0
LINE
  8
型材断面
  6
CONTINUOUS
 62
    47
 10
-22.67571
 20
3.044232
 11
-14.075708
 21
3.044232
  0
ARC
  8
型材断面
  6
CONTINUOUS
 62
    47
 10
-22.675707
 20
2.894235
 40
0.15
 50
90.0
 51
180.0
  0
LINE
  8
型材断面
  6
CONTINUOUS
 62
    47
 10
-14.57571
 20
-20.205768
 11
-14.57571
 21
2.044232
  0
LINE
  8
型材断面
  6
CONTINUOUS
 62
    47
 10
-13.575708
 20
-20.70577
 11
-13.575708
 21
2.54423
  0
ARC
  8
型材断面
  6
CONTINUOUS
 62
    47
 10
-14.075707
 20
-20.705765
 40
0.5
 50
270.0
 51
360.0
  0
LINE
  8
型材断面
  6
CONTINUOUS
 62
    47
 10
-18.075708
 20
-20.205768
 11
-14.57571
 21
-20.205768
  0
LINE
  8
型材断面
  6
CONTINUOUS
 62
    47
 10
-18.075708
 20
2.044232
 11
-14.57571
 21
2.044232
  0
ARC
  8
型材断面
  6
CONTINUOUS
 62
    47
 10
-18.175707
 20
1.944235
 40
0.1
 50
233.914192
 51
360.0
  0
LINE
  8
型材断面
  6
CONTINUOUS
 62
    47
 10
-18.075708
 20
1.944235
 11
-18.075708
 21
2.044232
  0
LINE
  8
型材断面
  6
CONTINUOUS
 62
    47
 10
-22.67571
 20
2.044232
 11
-18.482693
 21
2.044232
  0
LINE
  8
型材断面
  6
CONTINUOUS
 62
    47
 10
-18.234608
 20
1.863417
 11
-18.482693
 21
2.044232
  0
ARC
  8
型材断面
  6
CONTINUOUS
 62
    47
 10
-18.175707
 20
-20.105763
 40
0.1
 50
0.0
 51
126.085808
  0
LINE
  8
型材断面
  6
CONTINUOUS
 62
    47
 10
-18.075708
 20
-20.105765
 11
-18.075708
 21
-20.205763
  0
LINE
  8
型材断面
  6
CONTINUOUS
 62
    47
 10
-18.234608
 20
-20.02495
 11
-18.482693
 21
-20.205763
  0
LINE
  8
型材断面
  6
CONTINUOUS
 62
    47
 10
-22.67571
 20
-20.205768
 11
-18.482695
 21
-20.205768
  0
ENDBLK
  0
BLOCK
  2
*GRP_0006
 70
    65
 10
0.0
 20
0.0
  0
LINE
  8
型材断面
  6
CONTINUOUS
 10
-37.825702
 20
-41.832805
 11
-37.975702
 21
-41.682805
  0
LINE
  8
型材断面
  6
CONTINUOUS
 10
-37.825702
 20
-41.832805
 11
-37.975702
 21
-41.982805
  0
LINE
  8
型材断面
  6
CONTINUOUS
 62
    47
 10
-102.07576
 20
-83.653895
 11
-101.17576
 21
-83.653895
  0
LINE
  8
型材断面
  6
CONTINUOUS
 10
-101.175753
 20
-79.653895
 11
-101.17576
 21
-83.653895
  0
LINE
  8
型材断面
  6
CONTINUOUS
 10
-101.175753
 20
-78.903895
 11
-101.175705
 21
-54.439737
  0
LINE
  8
型材断面
  6
CONTINUOUS
 62
    47
 10
-102.07576
 20
-83.653895
 11
-102.0757
 21
-53.653895
  0
LINE
  8
型材断面
  6
CONTINUOUS
 10
-95.612035
 20
-53.682775
 11
-101.175705
 21
-54.439737
  0
LINE
  8
型材断面
  6
CONTINUOUS
 10
-65.62882
 20
-49.603427
 11
-94.868875
 21
-53.581668
  0
LINE
  8
型材断面
  6
CONTINUOUS
 10
-64.885665
 20
-49.50232
 11
-37.825702
 21
-45.82069
  0
LINE
  8
型材断面
  6
CONTINUOUS
 10
-102.0757
 20
-53.653895
 11
-37.975702
 21
-44.932805
  0
LINE
  8
型材断面
  6
CONTINUOUS
 10
-37.075702
 20
-39.082805
 11
-37.975702
 21
-39.082805
  0
LINE
  8
型材断面
  6
CONTINUOUS
 10
-37.975702
 20
-44.932805
 11
-37.975702
 21
-41.982805
  0
LINE
  8
型材断面
  6
CONTINUOUS
 10
-37.975702
 20
-41.682805
 11
-37.975702
 21
-39.082805
  0
LINE
  8
型材断面
  6
CONTINUOUS
 10
-94.745063
 20
-54.473113
 11
-92.8624
 21
-54.21697
  0
LINE
  8
型材断面
  6
CONTINUOUS
 10
-92.8624
 20
-54.21697
 11
-92.75922
 21
-54.959845
  0
LINE
  8
型材断面
  6
CONTINUOUS
 10
-92.75922
 20
-54.959845
 11
-95.38504
 21
-55.3171
  0
LINE
  8
型材断面
  6
CONTINUOUS
 10
-65.510527
 20
-50.495615
 11
-67.393188
 21
-50.75176
  0
LINE
  8
型材断面
  6
CONTINUOUS
 10
-67.393188
 20
-50.75176
 11
-67.29415
 21
-51.495197
  0
LINE
  8
型材断面
  6
CONTINUOUS
 10
-67.29415
 20
-51.495197
 11
-64.66833
 21
-51.137943
  0
LINE
  8
型材断面
  6
CONTINUOUS
 10
-94.744232
 20
-54.473
 11
-94.86805
 21
-53.581555
  0
LINE
  8
型材断面
  6
CONTINUOUS
 10
-95.384213
 20
-55.316987
 11
-95.611208
 21
-53.682662
  0
LINE
  8
型材断面
  6
CONTINUOUS
 10
-65.510527
 20
-50.495615
 11
-65.629373
 21
-49.603503
  0
LINE
  8
型材断面
  6
CONTINUOUS
 10
-64.66833
 20
-51.137943
 11
-64.886215
 21
-49.502395
  0
LINE
  8
型材断面
  6
CONTINUOUS
 10
-39.715405
 20
-47.743
 11
-39.816513
 21
-46.999842
  0
LINE
  8
型材断面
  6
CONTINUOUS
 62
    47
 10
-37.075702
 20
-39.082805
 11
-37.075702
 21
-47.383855
  0
LINE
  8
型材断面
  6
CONTINUOUS
 10
-39.715405
 20
-47.743
 11
-37.075702
 21
-47.383855
  0
LINE
  8
型材断面
  6
CONTINUOUS
 10
-39.816513
 20
-46.999842
 11
-37.825702
 21
-46.728985
  0
LINE
  8
型材断面
  6
CONTINUOUS
 10
-37.825702
 20
-45.82069
 11
-37.825702
 21
-46.728985
  0
LINE
  8
型材断面
  6
CONTINUOUS
 10
-99.52575
 20
-77.653895
 11
-100.27575
 21
-77.653895
  0
LINE
  8
型材断面
  6
CONTINUOUS
 10
-100.27575
 20
-78.903895
 11
-100.27575
 21
-77.653895
  0
LINE
  8
型材断面
  6
CONTINUOUS
 10
-99.52575
 20
-79.153895
 11
-99.52575
 21
-77.653895
  0
ARC
  8
型材断面
  6
CONTINUOUS
 10
-100.025756
 20
-79.153896
 40
0.5
 50
-90.0
 51
0.0
  0
LINE
  8
型材断面
  6
CONTINUOUS
 10
-100.27575
 20
-78.903895
 11
-101.175753
 21
-78.903895
  0
LINE
  8
型材断面
  6
CONTINUOUS
 10
-100.025748
 20
-79.653895
 11
-101.175753
 21
-79.653895
  0
ENDBLK
  0
BLOCK
  2
*GRP_0007
 70
    65
 10
0.0
 20
0.0
  0
LINE
  8
ゴム等
  6
CONTINUOUS
 10
-31.2985
 20
13.769238
 11
-28.7985
 21
13.769238
  0
LINE
  8
ゴム等
  6
CONTINUOUS
 10
-28.7985
 20
14.769238
 11
-28.7985
 21
15.519238
  0
LINE
  8
ゴム等
  6
CONTINUOUS
 10
-31.2985
 20
14.769238
 11
-31.2985
 21
15.519238
  0
LINE
  8
ゴム等
  6
CONTINUOUS
 10
-33.2985
 20
15.519238
 11
-31.2985
 21
15.519238
  0
LINE
  8
ゴム等
  6
CONTINUOUS
 10
-28.7985
 20
15.519238
 11
-25.7985
 21
15.519238
  0
LINE
  8
ゴム等
  6
CONTINUOUS
 10
-25.7985
 20
15.519238
 11
-25.7985
 21
17.019238
  0
LINE
  8
ゴム等
  6
CONTINUOUS
 10
-24.798502
 20
17.019238
 11
-25.7985
 21
17.019238
  0
LINE
  8
ゴム等
  6
CONTINUOUS
 10
-24.798502
 20
17.019238
 11
-24.798502
 21
18.269238
  0
ARC
  8
ゴム等
  6
CONTINUOUS
 10
-30.298496
 20
12.644236
 40
6.375
 50
61.927513
 51
118.072487
  0
LINE
  8
ゴム等
  6
CONTINUOUS
 10
-24.798502
 20
18.269238
 11
-27.2985
 21
18.269238
  0
LINE
  8
ゴム等
  6
CONTINUOUS
 10
-33.2985
 20
15.519238
 11
-33.2985
 21
18.269238
  0
LINE
  8
ゴム等
  6
CONTINUOUS
 10
-28.7985
 20
13.769238
 11
-28.34847
 21
14.367385
  0
ARC
  8
ゴム等
  6
CONTINUOUS
 10
-28.548496
 20
14.519236
 40
0.25
 50
322.618449
 51
450.0
  0
LINE
  8
ゴム等
  6
CONTINUOUS
 10
-28.7985
 20
14.769238
 11
-28.548502
 21
14.769238
  0
LINE
  8
ゴム等
  6
CONTINUOUS
 10
-31.2985
 20
13.769238
 11
-31.74853
 21
14.367385
  0
ARC
  8
ゴム等
  6
CONTINUOUS
 10
-31.548496
 20
14.519236
 40
0.25
 50
90.0
 51
217.381551
  0
LINE
  8
ゴム等
  6
CONTINUOUS
 10
-31.2985
 20
14.769238
 11
-31.548502
 21
14.769238
  0
INSERT
  2
*HAT_0001
  8
ゴム等
 10
0.0
 20
0.0
  0
ENDBLK
  0
BLOCK
  2
*GRP_0008
 70
    65
 10
0.0
 20
0.0
  0
LINE
  8
ボルト／ビス
  6
CONTINUOUS
 62
    64
 10
-37.975702
 20
-40.082802
 11
-38.499788
 21
-40.128655
  0
ARC
  8
ボルト／ビス
  6
CONTINUOUS
 62
    64
 10
-38.425705
 20
-40.975421
 40
0.85
 50
94.999989
 51
180.0
  0
LINE
  8
ボルト／ビス
  6
CONTINUOUS
 62
    64
 10
-39.275702
 20
-40.97542
 11
-39.275702
 21
-41.832805
  0
LINE
  8
ボルト／ビス
  6
CONTINUOUS
 62
    64
 10
-37.975702
 20
-43.582805
 11
-38.499788
 21
-43.536955
  0
ARC
  8
ボルト／ビス
  6
CONTINUOUS
 62
    64
 10
-38.425705
 20
-42.690188
 40
0.85
 50
180.0
 51
265.000011
  0
LINE
  8
ボルト／ビス
  6
CONTINUOUS
 62
    64
 10
-39.275702
 20
-42.69019
 11
-39.275702
 21
-41.832805
  0
LINE
  8
ボルト／ビス
  6
CONTINUOUS
 62
    64
 10
-39.08325
 20
-40.634485
 11
-39.204332
 21
-40.634485
  0
LINE
  8
ボルト／ビス
  6
CONTINUOUS
 62
    64
 10
-38.75821
 20
-41.482805
 11
-38.75821
 21
-41.832805
  0
LINE
  8
ボルト／ビス
  6
CONTINUOUS
 62
    64
 10
-39.08325
 20
-41.282802
 11
-39.08325
 21
-40.634485
  0
LINE
  8
ボルト／ビス
  6
CONTINUOUS
 62
    64
 10
-38.75821
 20
-41.482805
 11
-38.88325
 21
-41.482805
  0
ARC
  8
ボルト／ビス
  6
CONTINUOUS
 62
    64
 10
-38.883252
 20
-41.282804
 40
0.2
 50
180.0
 51
270.0
  0
LINE
  8
ボルト／ビス
  6
CONTINUOUS
 62
    64
 10
-39.08325
 20
-43.031125
 11
-39.204332
 21
-43.031125
  0
LINE
  8
ボルト／ビス
  6
CONTINUOUS
 62
    64
 10
-38.75821
 20
-42.182802
 11
-38.75821
 21
-41.832805
  0
LINE
  8
ボルト／ビス
  6
CONTINUOUS
 62
    64
 10
-39.08325
 20
-42.382805
 11
-39.08325
 21
-43.031125
  0
LINE
  8
ボルト／ビス
  6
CONTINUOUS
 62
    64
 10
-38.75821
 20
-42.182802
 11
-38.88325
 21
-42.182802
  0
ARC
  8
ボルト／ビス
  6
CONTINUOUS
 62
    64
 10
-38.883252
 20
-42.382804
 40
0.2
 50
90.0
 51
180.0
  0
LINE
  8
ボルト／ビス
  6
CONTINUOUS
 62
    64
 10
-37.975702
 20
-40.082802
 11
-37.975702
 21
-43.582805
  0
LINE
  8
ボルト／ビス
  6
CONTINUOUS
 62
    64
 10
-40.261398
 20
-41.832805
 11
-32.850457
 21
-41.832805
  0
LINE
  8
ボルト／ビス
  6
CONTINUOUS
 62
    64
 10
-35.225702
 20
-40.832802
 11
-34.975702
 21
-41.082805
  0
LINE
  8
ボルト／ビス
  6
CONTINUOUS
 62
    64
 10
-35.225702
 20
-42.832805
 11
-34.975702
 21
-42.582805
  0
LINE
  8
ボルト／ビス
  6
CONTINUOUS
 62
    64
 10
-35.225702
 20
-40.832802
 11
-35.225702
 21
-42.832805
  0
LINE
  8
ボルト／ビス
  6
CONTINUOUS
 62
    64
 10
-34.975702
 20
-41.082805
 11
-34.975702
 21
-42.582805
  0
LINE
  8
ボルト／ビス
  6
CONTINUOUS
 62
    64
 10
-37.975702
 20
-41.082805
 11
-34.975702
 21
-41.082805
  0
LINE
  8
ボルト／ビス
  6
CONTINUOUS
 62
    64
 10
-37.975702
 20
-42.582805
 11
-34.975702
 21
-42.582805
  0
LINE
  8
ボルト／ビス
  6
CONTINUOUS
 62
    64
 10
-37.975702
 20
-42.832805
 11
-35.225702
 21
-42.832805
  0
LINE
  8
ボルト／ビス
  6
CONTINUOUS
 62
    64
 10
-37.975702
 20
-40.832802
 11
-35.225702
 21
-40.832802
  0
ENDBLK
  0
BLOCK
  2
*GRP_0009
 70
    65
 10
0.0
 20
0.0
  0
LINE
  8
ボルト／ビス
  6
CONTINUOUS
 62
    64
 10
-34.625715
 20
-59.208078
 11
-34.398063
 21
-59.83354
  0
ARC
  8
ボルト／ビス
  6
CONTINUOUS
 62
    64
 10
-32.578629
 20
-58.895345
 40
2.047085
 50
152.722034
 51
180.0
  0
LINE
  8
ボルト／ビス
  6
CONTINUOUS
 62
    64
 10
-34.625715
 20
-52.953448
 11
-34.398063
 21
-52.327985
  0
ARC
  8
ボルト／ビス
  6
CONTINUOUS
 62
    64
 10
-32.578629
 20
-53.266178
 40
2.047085
 50
180.0
 51
207.277966
  0
ARC
  8
ボルト／ビス
  6
CONTINUOUS
 62
    64
 10
-26.778848
 20
-56.080762
 40
7.846866
 50
166.165046
 51
193.834954
  0
LINE
  8
ボルト／ビス
  6
CONTINUOUS
 62
    64
 10
-32.050713
 20
-59.83354
 11
-34.398063
 21
-59.83354
  0
LINE
  8
ボルト／ビス
  6
CONTINUOUS
 62
    64
 10
-32.050713
 20
-52.327985
 11
-34.398063
 21
-52.327985
  0
LINE
  8
ボルト／ビス
  6
CONTINUOUS
 62
    64
 10
-34.625715
 20
-52.953448
 11
-34.625715
 21
-59.208078
  0
LINE
  8
ボルト／ビス
  6
CONTINUOUS
 62
    64
 10
-34.398063
 20
-54.204373
 11
-32.050713
 21
-54.204373
  0
LINE
  8
ボルト／ビス
  6
CONTINUOUS
 62
    64
 10
-34.398063
 20
-57.957153
 11
-32.050713
 21
-57.957153
  0
LINE
  8
ボルト／ビス
  6
CONTINUOUS
 62
    64
 10
-32.050713
 20
-52.327985
 11
-32.050713
 21
-59.83354
  0
LINE
  8
ボルト／ビス
  6
CONTINUOUS
 62
    64
 10
-31.150713
 20
-60.455763
 11
-30.650715
 21
-60.455763
  0
LINE
  8
ボルト／ビス
  6
CONTINUOUS
 62
    64
 10
-31.150713
 20
-51.705763
 11
-30.650715
 21
-51.705763
  0
LINE
  8
ボルト／ビス
  6
CONTINUOUS
 62
    64
 10
-31.150713
 20
-60.455763
 11
-31.150713
 21
-51.705763
  0
LINE
  8
ボルト／ビス
  6
CONTINUOUS
 62
    64
 10
-30.650715
 20
-60.455763
 11
-30.650715
 21
-51.705763
  0
LINE
  8
ボルト／ビス
  6
CONTINUOUS
 62
    64
 10
-32.050713
 20
-56.08076
 11
-31.150713
 21
-56.08076
  0
LINE
  8
ボルト／ビス
  6
CONTINUOUS
 62
    64
 10
-32.050713
 20
-52.130763
 11
-31.150713
 21
-52.130763
  0
LINE
  8
ボルト／ビス
  6
CONTINUOUS
 62
    64
 10
-32.050713
 20
-60.030763
 11
-31.150713
 21
-60.030763
  0
LINE
  8
ボルト／ビス
  6
CONTINUOUS
 62
    64
 10
-32.050713
 20
-52.130763
 11
-32.050713
 21
-60.030763
  0
LINE
  8
ボルト／ビス
  6
CONTINUOUS
 62
    64
 10
-37.125713
 20
-56.08076
 11
-17.050713
 21
-56.08076
  0
LINE
  8
ボルト／ビス
  6
CONTINUOUS
 62
    64
 10
-19.550715
 20
-54.480763
 11
-19.550715
 21
-57.680763
  0
LINE
  8
ボルト／ビス
  6
CONTINUOUS
 62
    64
 10
-20.150715
 20
-54.080763
 11
-19.550715
 21
-54.480763
  0
LINE
  8
ボルト／ビス
  6
CONTINUOUS
 62
    64
 10
-20.150715
 20
-58.080763
 11
-19.550715
 21
-57.680763
  0
LINE
  8
ボルト／ビス
  6
CONTINUOUS
 62
    64
 10
-19.550715
 20
-54.480763
 11
-19.550715
 21
-57.680763
  0
LINE
  8
ボルト／ビス
  6
CONTINUOUS
 62
    64
 10
-20.150715
 20
-54.080763
 11
-20.150715
 21
-58.080763
  0
LINE
  8
ボルト／ビス
  6
CONTINUOUS
 62
    64
 10
-30.650715
 20
-54.080763
 11
-20.150715
 21
-54.080763
  0
LINE
  8
ボルト／ビス
  6
CONTINUOUS
 62
    64
 10
-30.650715
 20
-58.080763
 11
-20.150715
 21
-58.080763
  0
LINE
  8
ボルト／ビス
  6
CONTINUOUS
 62
    64
 10
-30.650715
 20
-54.480763
 11
-19.550715
 21
-54.480763
  0
LINE
  8
ボルト／ビス
  6
CONTINUOUS
 62
    64
 10
-30.650715
 20
-57.680763
 11
-19.550715
 21
-57.680763
  0
ENDBLK
  0
BLOCK
  2
*GRP_0010
 70
    65
 10
0.0
 20
0.0
  0
LINE
  8
ボルト／ビス
  6
CONTINUOUS
 62
    64
 10
-23.475713
 20
-59.208072
 11
-23.70336
 21
-59.833535
  0
ARC
  8
ボルト／ビス
  6
CONTINUOUS
 62
    64
 10
-25.522795
 20
-58.895344
 40
2.047085
 50
0.0
 51
27.277966
  0
LINE
  8
ボルト／ビス
  6
CONTINUOUS
 62
    64
 10
-23.475713
 20
-52.953445
 11
-23.70336
 21
-52.327982
  0
ARC
  8
ボルト／ビス
  6
CONTINUOUS
 62
    64
 10
-25.522795
 20
-53.266176
 40
2.047085
 50
332.722034
 51
360.0
  0
ARC
  8
ボルト／ビス
  6
CONTINUOUS
 62
    64
 10
-31.322576
 20
-56.08076
 40
7.846866
 50
346.165046
 51
373.834954
  0
LINE
  8
ボルト／ビス
  6
CONTINUOUS
 62
    64
 10
-26.050713
 20
-59.833535
 11
-23.70336
 21
-59.833535
  0
LINE
  8
ボルト／ビス
  6
CONTINUOUS
 62
    64
 10
-26.050713
 20
-52.327982
 11
-23.70336
 21
-52.327982
  0
LINE
  8
ボルト／ビス
  6
CONTINUOUS
 62
    64
 10
-23.475713
 20
-52.953445
 11
-23.475713
 21
-59.208072
  0
LINE
  8
ボルト／ビス
  6
CONTINUOUS
 62
    64
 10
-23.70336
 20
-54.20437
 11
-26.050713
 21
-54.20437
  0
LINE
  8
ボルト／ビス
  6
CONTINUOUS
 62
    64
 10
-23.70336
 20
-57.957147
 11
-26.050713
 21
-57.957147
  0
LINE
  8
ボルト／ビス
  6
CONTINUOUS
 62
    64
 10
-26.050713
 20
-52.327982
 11
-26.050713
 21
-59.833535
  0
LINE
  8
ボルト／ビス
  6
CONTINUOUS
 62
    64
 10
-26.950713
 20
-60.455757
 11
-27.450713
 21
-60.455757
  0
LINE
  8
ボルト／ビス
  6
CONTINUOUS
 62
    64
 10
-26.950713
 20
-51.70576
 11
-27.450713
 21
-51.70576
  0
LINE
  8
ボルト／ビス
  6
CONTINUOUS
 62
    64
 10
-26.950713
 20
-60.455757
 11
-26.950713
 21
-51.70576
  0
LINE
  8
ボルト／ビス
  6
CONTINUOUS
 62
    64
 10
-27.450713
 20
-60.455757
 11
-27.450713
 21
-51.70576
  0
LINE
  8
ボルト／ビス
  6
CONTINUOUS
 62
    64
 10
-26.050713
 20
-56.080757
 11
-26.950713
 21
-56.080757
  0
LINE
  8
ボルト／ビス
  6
CONTINUOUS
 62
    64
 10
-26.050713
 20
-52.130757
 11
-26.950713
 21
-52.130757
  0
LINE
  8
ボルト／ビス
  6
CONTINUOUS
 62
    64
 10
-26.050713
 20
-60.03076
 11
-26.950713
 21
-60.03076
  0
LINE
  8
ボルト／ビス
  6
CONTINUOUS
 62
    64
 10
-26.050713
 20
-52.130757
 11
-26.050713
 21
-60.03076
  0
ENDBLK
  0
BLOCK
  2
*GRP_0011
 70
    65
 10
0.0
 20
0.0
  0
LINE
  8
ボルト／ビス
  6
CONTINUOUS
 62
    64
 10
-30.292267
 20
-40.530768
 11
-30.338118
 21
-41.054847
  0
ARC
  8
ボルト／ビス
  6
CONTINUOUS
 62
    64
 10
-31.184882
 20
-40.980765
 40
0.85
 50
270.0
 51
355.000011
  0
LINE
  8
ボルト／ビス
  6
CONTINUOUS
 62
    64
 10
-31.184883
 20
-41.830765
 11
-32.042267
 21
-41.830765
  0
LINE
  8
ボルト／ビス
  6
CONTINUOUS
 62
    64
 10
-33.79227
 20
-40.530768
 11
-33.746418
 21
-41.054847
  0
ARC
  8
ボルト／ビス
  6
CONTINUOUS
 62
    64
 10
-32.899649
 20
-40.980765
 40
0.85
 50
184.999989
 51
270.0
  0
LINE
  8
ボルト／ビス
  6
CONTINUOUS
 62
    64
 10
-32.899652
 20
-41.830765
 11
-32.042267
 21
-41.830765
  0
LINE
  8
ボルト／ビス
  6
CONTINUOUS
 62
    64
 10
-30.843948
 20
-41.638315
 11
-30.843948
 21
-41.759395
  0
LINE
  8
ボルト／ビス
  6
CONTINUOUS
 62
    64
 10
-31.69227
 20
-41.313273
 11
-32.042267
 21
-41.313273
  0
LINE
  8
ボルト／ビス
  6
CONTINUOUS
 62
    64
 10
-31.492267
 20
-41.638315
 11
-30.843948
 21
-41.638315
  0
LINE
  8
ボルト／ビス
  6
CONTINUOUS
 62
    64
 10
-31.69227
 20
-41.313273
 11
-31.69227
 21
-41.438313
  0
ARC
  8
ボルト／ビス
  6
CONTINUOUS
 62
    64
 10
-31.492266
 20
-41.438312
 40
0.2
 50
180.0
 51
270.0
  0
LINE
  8
ボルト／ビス
  6
CONTINUOUS
 62
    64
 10
-33.240588
 20
-41.638315
 11
-33.240588
 21
-41.759395
  0
LINE
  8
ボルト／ビス
  6
CONTINUOUS
 62
    64
 10
-32.392267
 20
-41.313273
 11
-32.042267
 21
-41.313273
  0
LINE
  8
ボルト／ビス
  6
CONTINUOUS
 62
    64
 10
-32.59227
 20
-41.638315
 11
-33.240588
 21
-41.638315
  0
LINE
  8
ボルト／ビス
  6
CONTINUOUS
 62
    64
 10
-32.392267
 20
-41.313273
 11
-32.392267
 21
-41.438313
  0
ARC
  8
ボルト／ビス
  6
CONTINUOUS
 62
    64
 10
-32.592266
 20
-41.438312
 40
0.2
 50
270.0
 51
360.0
  0
LINE
  8
ボルト／ビス
  6
CONTINUOUS
 62
    64
 10
-30.292267
 20
-40.530768
 11
-33.79227
 21
-40.530768
  0
LINE
  8
ボルト／ビス
  6
CONTINUOUS
 62
    64
 10
-31.042267
 20
-35.780765
 11
-31.292267
 21
-35.530765
  0
LINE
  8
ボルト／ビス
  6
CONTINUOUS
 62
    64
 10
-33.04227
 20
-35.780765
 11
-32.792267
 21
-35.530765
  0
LINE
  8
ボルト／ビス
  6
CONTINUOUS
 62
    64
 10
-31.042267
 20
-35.780765
 11
-33.04227
 21
-35.780765
  0
LINE
  8
ボルト／ビス
  6
CONTINUOUS
 62
    64
 10
-31.292267
 20
-35.530765
 11
-32.792267
 21
-35.530765
  0
LINE
  8
ボルト／ビス
  6
CONTINUOUS
 62
    64
 10
-32.042267
 20
-42.81646
 11
-32.042267
 21
-34.743328
  0
LINE
  8
ボルト／ビス
  6
CONTINUOUS
 62
    64
 10
-31.042267
 20
-40.530768
 11
-31.042267
 21
-35.780765
  0
LINE
  8
ボルト／ビス
  6
CONTINUOUS
 62
    64
 10
-33.04227
 20
-40.530768
 11
-33.04227
 21
-35.780765
  0
LINE
  8
ボルト／ビス
  6
CONTINUOUS
 62
    64
 10
-32.792267
 20
-40.530768
 11
-32.792267
 21
-35.530765
  0
LINE
  8
ボルト／ビス
  6
CONTINUOUS
 62
    64
 10
-31.292267
 20
-40.530768
 11
-31.292267
 21
-35.530765
  0
ENDBLK
  0
BLOCK
  2
*GRP_0012
 70
    65
 10
0.0
 20
0.0
  0
LINE
  8
ボルト／ビス
  6
CONTINUOUS
 62
    64
 10
-3.800702
 20
-39.930768
 11
-3.846555
 21
-40.454847
  0
ARC
  8
ボルト／ビス
  6
CONTINUOUS
 62
    64
 10
-4.693319
 20
-40.380765
 40
0.85
 50
270.0
 51
355.000011
  0
LINE
  8
ボルト／ビス
  6
CONTINUOUS
 62
    64
 10
-4.69332
 20
-41.230765
 11
-5.550705
 21
-41.230765
  0
LINE
  8
ボルト／ビス
  6
CONTINUOUS
 62
    64
 10
-7.300705
 20
-39.930768
 11
-7.254855
 21
-40.454847
  0
ARC
  8
ボルト／ビス
  6
CONTINUOUS
 62
    64
 10
-6.408085
 20
-40.380765
 40
0.85
 50
184.999989
 51
270.0
  0
LINE
  8
ボルト／ビス
  6
CONTINUOUS
 62
    64
 10
-6.40809
 20
-41.230765
 11
-5.550705
 21
-41.230765
  0
LINE
  8
ボルト／ビス
  6
CONTINUOUS
 62
    64
 10
-4.352385
 20
-41.038315
 11
-4.352385
 21
-41.159395
  0
LINE
  8
ボルト／ビス
  6
CONTINUOUS
 62
    64
 10
-5.200705
 20
-40.713273
 11
-5.550705
 21
-40.713273
  0
LINE
  8
ボルト／ビス
  6
CONTINUOUS
 62
    64
 10
-5.000702
 20
-41.038315
 11
-4.352385
 21
-41.038315
  0
LINE
  8
ボルト／ビス
  6
CONTINUOUS
 62
    64
 10
-5.200705
 20
-40.713273
 11
-5.200705
 21
-40.838313
  0
ARC
  8
ボルト／ビス
  6
CONTINUOUS
 62
    64
 10
-5.000702
 20
-40.838312
 40
0.2
 50
180.0
 51
270.0
  0
LINE
  8
ボルト／ビス
  6
CONTINUOUS
 62
    64
 10
-6.749025
 20
-41.038315
 11
-6.749025
 21
-41.159395
  0
LINE
  8
ボルト／ビス
  6
CONTINUOUS
 62
    64
 10
-5.900702
 20
-40.713273
 11
-5.550705
 21
-40.713273
  0
LINE
  8
ボルト／ビス
  6
CONTINUOUS
 62
    64
 10
-6.100705
 20
-41.038315
 11
-6.749025
 21
-41.038315
  0
LINE
  8
ボルト／ビス
  6
CONTINUOUS
 62
    64
 10
-5.900702
 20
-40.713273
 11
-5.900702
 21
-40.838313
  0
ARC
  8
ボルト／ビス
  6
CONTINUOUS
 62
    64
 10
-6.100702
 20
-40.838312
 40
0.2
 50
270.0
 51
360.0
  0
LINE
  8
ボルト／ビス
  6
CONTINUOUS
 62
    64
 10
-3.800702
 20
-39.930768
 11
-7.300705
 21
-39.930768
  0
LINE
  8
ボルト／ビス
  6
CONTINUOUS
 62
    64
 10
-4.550702
 20
-35.180765
 11
-4.800705
 21
-34.930765
  0
LINE
  8
ボルト／ビス
  6
CONTINUOUS
 62
    64
 10
-6.550705
 20
-35.180765
 11
-6.300705
 21
-34.930765
  0
LINE
  8
ボルト／ビス
  6
CONTINUOUS
 62
    64
 10
-4.550702
 20
-35.180765
 11
-6.550705
 21
-35.180765
  0
LINE
  8
ボルト／ビス
  6
CONTINUOUS
 62
    64
 10
-4.800705
 20
-34.930765
 11
-6.300705
 21
-34.930765
  0
LINE
  8
ボルト／ビス
  6
CONTINUOUS
 62
    64
 10
-5.550705
 20
-42.21646
 11
-5.550705
 21
-34.143328
  0
LINE
  8
ボルト／ビス
  6
CONTINUOUS
 62
    64
 10
-4.550702
 20
-39.930768
 11
-4.550702
 21
-35.180765
  0
LINE
  8
ボルト／ビス
  6
CONTINUOUS
 62
    64
 10
-6.550705
 20
-39.930768
 11
-6.550705
 21
-35.180765
  0
LINE
  8
ボルト／ビス
  6
CONTINUOUS
 62
    64
 10
-6.300705
 20
-39.930768
 11
-6.300705
 21
-34.930765
  0
LINE
  8
ボルト／ビス
  6
CONTINUOUS
 62
    64
 10
-4.800705
 20
-39.930768
 11
-4.800705
 21
-34.930765
  0
ENDBLK
  0
BLOCK
  2
*GRP_0013
 70
    65
 10
0.0
 20
0.0
  0
LINE
  8
St
  6
CONTINUOUS
 10
-27.450713
 20
-44.977285
 11
-29.050713
 21
-46.57729
  0
LINE
  8
St
  6
CONTINUOUS
 10
-27.450713
 20
-44.623728
 11
-29.050713
 21
-46.223733
  0
ARC
  8
St
  6
CONTINUOUS
 62
   127
 10
-27.450719
 20
-39.930771
 40
1.6
 50
90.0
 51
180.0
  0
LINE
  8
St
  6
CONTINUOUS
 10
-8.83347
 20
-38.330765
 11
-10.433468
 21
-39.930768
  0
LINE
  8
St
  6
CONTINUOUS
 10
-9.187022
 20
-38.330765
 11
-10.78702
 21
-39.930768
  0
LINE
  8
St
  6
CONTINUOUS
 10
-23.154205
 20
-38.330765
 11
-24.754202
 21
-39.930768
  0
LINE
  8
St
  6
CONTINUOUS
 10
-23.50776
 20
-38.330765
 11
-25.107758
 21
-39.930768
  0
LINE
  8
St
  6
CONTINUOUS
 10
-4.2007
 20
-38.330765
 11
-4.2007
 21
-39.930768
  0
LINE
  8
St
  6
CONTINUOUS
 62
   127
 10
-4.2007
 20
-38.330765
 11
-36.325702
 21
-38.330765
  0
LINE
  8
St
  6
CONTINUOUS
 10
-36.325702
 20
-38.330765
 11
-36.325702
 21
-39.930768
  0
LINE
  8
St
  6
CONTINUOUS
 62
   127
 10
-4.2007
 20
-39.930768
 11
-36.325702
 21
-39.930768
  0
LINE
  8
St
  6
CONTINUOUS
 10
-31.150702
 20
-38.330765
 11
-31.150702
 21
-39.930768
  0
LINE
  8
St
  6
CONTINUOUS
 10
-32.9007
 20
-38.330765
 11
-32.9007
 21
-39.930768
  0
LINE
  8
St
  6
CONTINUOUS
 10
-6.425702
 20
-38.330765
 11
-6.425702
 21
-39.930768
  0
LINE
  8
St
  6
CONTINUOUS
 10
-4.675705
 20
-38.330765
 11
-4.675705
 21
-39.930768
  0
LINE
  8
St
  6
CONTINUOUS
 10
-32.0257
 20
-40.844312
 11
-32.0257
 21
-37.515783
  0
LINE
  8
St
  6
CONTINUOUS
 10
-5.550705
 20
-40.844312
 11
-5.550705
 21
-37.515783
  0
LINE
  8
St
  6
CONTINUOUS
 10
-4.675705
 20
-38.730767
 11
-6.425702
 21
-38.730767
  0
LINE
  8
St
  6
CONTINUOUS
 10
-4.675705
 20
-39.130765
 11
-6.425702
 21
-39.130765
  0
LINE
  8
St
  6
CONTINUOUS
 10
-4.675705
 20
-39.530765
 11
-6.425702
 21
-39.530765
  0
LINE
  8
St
  6
CONTINUOUS
 10
-31.150702
 20
-38.730767
 11
-32.9007
 21
-38.730767
  0
LINE
  8
St
  6
CONTINUOUS
 10
-31.150702
 20
-39.130765
 11
-32.9007
 21
-39.130765
  0
LINE
  8
St
  6
CONTINUOUS
 10
-31.150702
 20
-39.530765
 11
-32.9007
 21
-39.530765
  0
LINE
  8
St
  6
CONTINUOUS
 10
-27.450713
 20
-58.580757
 11
-29.050713
 21
-58.580757
  0
LINE
  8
St
  6
CONTINUOUS
 10
-27.450713
 20
-53.580755
 11
-29.050713
 21
-53.580755
  0
LINE
  8
St
  6
CONTINUOUS
 62
   127
 10
-27.850713
 20
-53.580755
 11
-27.850713
 21
-58.580757
  0
LINE
  8
St
  6
CONTINUOUS
 62
   127
 10
-28.25071
 20
-53.580755
 11
-28.25071
 21
-58.580757
  0
LINE
  8
St
  6
CONTINUOUS
 62
   127
 10
-28.650713
 20
-53.580755
 11
-28.650713
 21
-58.580757
  0
LINE
  8
St
  6
CONTINUOUS
 10
-25.88659
 20
-56.080757
 11
-30.760508
 21
-56.080757
  0
LINE
  8
St
  6
CONTINUOUS
 10
-27.450713
 20
-63.730765
 11
-29.050713
 21
-63.730765
  0
LINE
  8
St
  6
CONTINUOUS
 62
   127
 10
-29.050713
 20
-39.930768
 11
-29.050713
 21
-63.730765
  0
LINE
  8
St
  6
CONTINUOUS
 62
   127
 10
-27.450713
 20
-39.930768
 11
-27.450713
 21
-63.730765
  0
ENDBLK
  0
BLOCK
  2
*GRP_0014
 70
    65
 10
0.0
 20
0.0
  0
ARC
  8
St
  6
CONTINUOUS
 62
   127
 10
-30.65072
 20
-66.730762
 40
1.6
 50
-90.0
 51
0.0
  0
LINE
  8
St
  6
CONTINUOUS
 10
-72.871518
 20
-66.730765
 11
-74.471515
 21
-68.330765
  0
LINE
  8
St
  6
CONTINUOUS
 10
-73.225075
 20
-66.730765
 11
-74.825072
 21
-68.330765
  0
LINE
  8
St
  6
CONTINUOUS
 10
-26.627153
 20
-55.830763
 11
-32.951523
 21
-55.830763
  0
LINE
  8
St
  6
CONTINUOUS
 10
-29.050713
 20
-58.330765
 11
-30.650715
 21
-58.330765
  0
LINE
  8
St
  6
CONTINUOUS
 10
-29.050713
 20
-53.330763
 11
-30.650715
 21
-53.330763
  0
LINE
  8
St
  6
CONTINUOUS
 62
   127
 10
-29.450715
 20
-53.330763
 11
-29.450715
 21
-58.330765
  0
LINE
  8
St
  6
CONTINUOUS
 62
   127
 10
-29.850715
 20
-53.330763
 11
-29.850715
 21
-58.330765
  0
LINE
  8
St
  6
CONTINUOUS
 62
   127
 10
-30.250713
 20
-53.330763
 11
-30.250713
 21
-58.330765
  0
LINE
  8
St
  6
CONTINUOUS
 62
   127
 10
-30.650715
 20
-66.730765
 11
-79.050713
 21
-66.730765
  0
LINE
  8
St
  6
CONTINUOUS
 10
-79.050713
 20
-66.730765
 11
-79.050713
 21
-68.330765
  0
LINE
  8
St
  6
CONTINUOUS
 62
   127
 10
-30.650715
 20
-68.330765
 11
-79.050713
 21
-68.330765
  0
LINE
  8
St
  6
CONTINUOUS
 62
   127
 10
-54.93331
 20
-69.628457
 11
-54.93331
 21
-69.628453
  0
LINE
  8
St
  6
CONTINUOUS
 10
-49.050713
 20
-64.698797
 11
-49.050713
 21
-70.438097
  0
LINE
  8
St
  6
CONTINUOUS
 10
-44.050713
 20
-66.730765
 11
-44.050713
 21
-68.330765
  0
LINE
  8
St
  6
CONTINUOUS
 10
-54.05071
 20
-66.730765
 11
-54.05071
 21
-68.330765
  0
LINE
  8
St
  6
CONTINUOUS
 62
   127
 10
-54.05071
 20
-67.130765
 11
-44.050713
 21
-67.130765
  0
LINE
  8
St
  6
CONTINUOUS
 62
   127
 10
-54.05071
 20
-67.530763
 11
-44.050713
 21
-67.530763
  0
LINE
  8
St
  6
CONTINUOUS
 62
   127
 10
-54.05071
 20
-67.930765
 11
-44.050713
 21
-67.930765
  0
LINE
  8
St
  6
CONTINUOUS
 10
-61.55071
 20
-66.730765
 11
-61.55071
 21
-68.330765
  0
LINE
  8
St
  6
CONTINUOUS
 10
-66.550713
 20
-66.730765
 11
-66.550713
 21
-68.330765
  0
LINE
  8
St
  6
CONTINUOUS
 10
-61.55071
 20
-67.130765
 11
-66.550713
 21
-67.130765
  0
LINE
  8
St
  6
CONTINUOUS
 10
-61.55071
 20
-67.530763
 11
-66.550713
 21
-67.530763
  0
LINE
  8
St
  6
CONTINUOUS
 10
-61.55071
 20
-67.930765
 11
-66.550713
 21
-67.930765
  0
LINE
  8
St
  6
CONTINUOUS
 10
-64.050713
 20
-64.698797
 11
-64.050713
 21
-70.438097
  0
LINE
  8
St
  6
CONTINUOUS
 10
-41.24823
 20
-68.330765
 11
-39.648232
 21
-66.730765
  0
LINE
  8
St
  6
CONTINUOUS
 10
-41.601787
 20
-68.330765
 11
-40.00179
 21
-66.730765
  0
LINE
  8
St
  6
CONTINUOUS
 10
-30.650715
 20
-51.206605
 11
-29.050713
 21
-49.6066
  0
LINE
  8
St
  6
CONTINUOUS
 10
-30.650715
 20
-50.853047
 11
-29.050713
 21
-49.253042
  0
LINE
  8
St
  6
CONTINUOUS
 10
-30.650715
 20
-48.330763
 11
-29.050713
 21
-48.330763
  0
LINE
  8
St
  6
CONTINUOUS
 62
   127
 10
-29.050713
 20
-66.730765
 11
-29.050713
 21
-48.330763
  0
LINE
  8
St
  6
CONTINUOUS
 62
   127
 10
-30.650715
 20
-66.730765
 11
-30.650715
 21
-48.330763
  0
ENDBLK
  0
BLOCK
  2
*GRP_0015
 70
    65
 10
0.0
 20
0.0
  0
LINE
  8
型材断面
  6
CONTINUOUS
 10
-2.17237
 20
30.419982
 11
-2.17237
 21
41.31998
  0
LINE
  8
型材断面
  6
CONTINUOUS
 10
-2.17237
 20
41.31998
 11
-8.97237
 21
41.31998
  0
LINE
  8
型材断面
  6
CONTINUOUS
 10
-8.97237
 20
30.419982
 11
-8.97237
 21
41.31998
  0
LINE
  8
型材断面
  6
CONTINUOUS
 10
-2.17237
 20
30.419982
 11
-2.17237
 21
19.519985
  0
LINE
  8
型材断面
  6
CONTINUOUS
 10
-2.17237
 20
19.519985
 11
-8.97237
 21
19.519985
  0
LINE
  8
型材断面
  6
CONTINUOUS
 10
-8.97237
 20
30.419982
 11
-8.97237
 21
19.519985
  0
ARC
  8
型材断面
  6
CONTINUOUS
 10
-3.072376
 20
40.41999
 40
2.5
 50
0.0
 51
90.0
  0
LINE
  8
型材断面
  6
CONTINUOUS
 10
-0.57237
 20
40.41998
 11
-0.57237
 21
20.419985
  0
ARC
  8
型材断面
  6
CONTINUOUS
 10
-3.072376
 20
20.419992
 40
2.5
 50
-90.0
 51
0.0
  0
LINE
  8
型材断面
  6
CONTINUOUS
 10
-8.07237
 20
17.919985
 11
-3.07237
 21
17.919985
  0
LINE
  8
型材断面
  6
CONTINUOUS
 10
-10.57237
 20
30.419982
 11
-10.57237
 21
20.419985
  0
ARC
  8
型材断面
  6
CONTINUOUS
 10
-8.072377
 20
20.419992
 40
2.5
 50
180.0
 51
270.0
  0
LINE
  8
型材断面
  6
CONTINUOUS
 10
-10.57237
 20
30.419982
 11
-10.57237
 21
40.41998
  0
LINE
  8
型材断面
  6
CONTINUOUS
 10
-8.07237
 20
42.919982
 11
-3.07237
 21
42.919982
  0
ARC
  8
型材断面
  6
CONTINUOUS
 10
-8.072377
 20
40.41999
 40
2.5
 50
90.0
 51
180.0
  0
LINE
  8
型材断面
  6
CONTINUOUS
 10
-10.57237
 20
30.419982
 11
-0.57237
 21
30.419982
  0
ENDBLK
  0
BLOCK
  2
*GRP_0016
 70
    65
 10
0.0
 20
0.0
  0
LINE
  8
ボルト／ビス
  6
CONTINUOUS
 10
-25.72237
 20
33.569982
 11
-23.722368
 21
33.569982
  0
LINE
  8
ボルト／ビス
  6
CONTINUOUS
 10
-23.722368
 20
33.569982
 11
-23.722368
 21
27.269982
  0
LINE
  8
ボルト／ビス
  6
CONTINUOUS
 10
-23.722368
 20
27.269982
 11
-25.72237
 21
27.269982
  0
LINE
  8
ボルト／ビス
  6
CONTINUOUS
 10
-25.72237
 20
33.569982
 11
-25.72237
 21
27.269982
  0
LINE
  8
ボルト／ビス
  6
CONTINUOUS
 10
-25.222368
 20
33.569982
 11
-25.222368
 21
27.269982
  0
LINE
  8
ボルト／ビス
  6
CONTINUOUS
 10
-24.72237
 20
33.569982
 11
-24.72237
 21
27.269982
  0
LINE
  8
ボルト／ビス
  6
CONTINUOUS
 10
-24.22237
 20
33.569982
 11
-24.22237
 21
27.269982
  0
ENDBLK
  0
BLOCK
  2
*GRP_0017
 70
    65
 10
0.0
 20
0.0
  0
LINE
  8
ボルト／ビス
  6
CONTINUOUS
 10
0.67763
 20
37.41998
 11
-0.57237
 21
37.41998
  0
LINE
  8
ボルト／ビス
  6
CONTINUOUS
 10
-0.57237
 20
37.41998
 11
-0.57237
 21
23.419982
  0
LINE
  8
ボルト／ビス
  6
CONTINUOUS
 10
-0.57237
 20
23.419982
 11
0.67763
 21
23.419982
  0
LINE
  8
ボルト／ビス
  6
CONTINUOUS
 10
0.67763
 20
37.41998
 11
0.67763
 21
23.419982
  0
LINE
  8
ボルト／ビス
  6
CONTINUOUS
 10
0.67763
 20
30.419982
 11
-0.57237
 21
30.419982
  0
LINE
  8
ボルト／ビス
  6
CONTINUOUS
 10
0.67763
 20
34.169982
 11
-0.57237
 21
34.169982
  0
LINE
  8
ボルト／ビス
  6
CONTINUOUS
 10
0.67763
 20
26.669982
 11
-0.57237
 21
26.669982
  0
ENDBLK
  0
BLOCK
  2
*GRP_0018
 70
    65
 10
0.0
 20
0.0
  0
LINE
  8
ボルト／ビス
  6
CONTINUOUS
 10
-10.57237
 20
37.41998
 11
-11.82237
 21
37.41998
  0
LINE
  8
ボルト／ビス
  6
CONTINUOUS
 10
-11.82237
 20
37.41998
 11
-11.82237
 21
23.419982
  0
LINE
  8
ボルト／ビス
  6
CONTINUOUS
 10
-11.82237
 20
23.419982
 11
-10.57237
 21
23.419982
  0
LINE
  8
ボルト／ビス
  6
CONTINUOUS
 10
-10.57237
 20
37.41998
 11
-10.57237
 21
23.419982
  0
LINE
  8
ボルト／ビス
  6
CONTINUOUS
 10
-10.57237
 20
30.419982
 11
-11.82237
 21
30.419982
  0
LINE
  8
ボルト／ビス
  6
CONTINUOUS
 10
-10.57237
 20
34.169982
 11
-11.82237
 21
34.169982
  0
LINE
  8
ボルト／ビス
  6
CONTINUOUS
 10
-10.57237
 20
26.669982
 11
-11.82237
 21
26.669982
  0
ENDBLK
  0
BLOCK
  2
*GRP_0019
 70
    65
 10
0.0
 20
0.0
  0
LINE
  8
ボルト／ビス
  6
CONTINUOUS
 10
1.37763
 20
35.038782
 11
1.37763
 21
25.80118
  0
LINE
  8
ボルト／ビス
  6
CONTINUOUS
 10
5.377633
 20
26.57098
 11
5.097448
 21
25.80118
  0
ARC
  8
ボルト／ビス
  6
CONTINUOUS
 10
2.858144
 20
26.955885
 40
2.519484
 50
0.0
 51
27.277991
  0
LINE
  8
ボルト／ビス
  6
CONTINUOUS
 10
5.377633
 20
34.268982
 11
5.097448
 21
35.038782
  0
ARC
  8
ボルト／ビス
  6
CONTINUOUS
 10
2.858144
 20
33.884088
 40
2.519484
 50
332.722009
 51
360.0
  0
ARC
  8
ボルト／ビス
  6
CONTINUOUS
 10
-4.280029
 20
30.419986
 40
9.657657
 50
346.165012
 51
373.834988
  0
LINE
  8
ボルト／ビス
  6
CONTINUOUS
 10
5.377633
 20
34.268982
 11
5.377633
 21
26.57098
  0
LINE
  8
ボルト／ビス
  6
CONTINUOUS
 10
1.37763
 20
35.038782
 11
5.097448
 21
35.038782
  0
LINE
  8
ボルト／ビス
  6
CONTINUOUS
 10
1.37763
 20
32.729383
 11
5.09745
 21
32.729383
  0
LINE
  8
ボルト／ビス
  6
CONTINUOUS
 10
1.37763
 20
28.11058
 11
5.097448
 21
28.11058
  0
LINE
  8
ボルト／ビス
  6
CONTINUOUS
 10
1.37763
 20
25.80118
 11
5.097448
 21
25.80118
  0
LINE
  8
ボルト／ビス
  6
CONTINUOUS
 10
0.67763
 20
36.819985
 11
0.67763
 21
24.019982
  0
LINE
  8
ボルト／ビス
  6
CONTINUOUS
 10
1.37763
 20
36.819985
 11
1.37763
 21
24.019982
  0
LINE
  8
ボルト／ビス
  6
CONTINUOUS
 10
0.67763
 20
24.019982
 11
1.37763
 21
24.019982
  0
LINE
  8
ボルト／ビス
  6
CONTINUOUS
 10
0.67763
 20
36.819985
 11
1.37763
 21
36.819985
  0
ARC
  8
ボルト／ビス
  6
CONTINUOUS
 10
6.752626
 20
30.419989
 40
3.625001
 50
180.0
 51
180.0
  0
ARC
  8
ボルト／ビス
  6
CONTINUOUS
 10
6.752626
 20
30.419989
 40
3.625001
 50
270.0
 51
450.0
  0
LINE
  8
ボルト／ビス
  6
CONTINUOUS
 10
6.75263
 20
34.044985
 11
5.377633
 21
34.044985
  0
LINE
  8
ボルト／ビス
  6
CONTINUOUS
 10
6.75263
 20
26.794982
 11
5.377633
 21
26.794982
  0
LINE
  8
ボルト／ビス
  6
CONTINUOUS
 10
5.377633
 20
30.419982
 11
0.67763
 21
30.419982
  0
ENDBLK
  0
BLOCK
  2
*GRP_0020
 70
    65
 10
0.0
 20
0.0
  0
ARC
  8
別途部材
  6
CONTINUOUS
 10
-18.572369
 20
21.419984
 40
1.25
 50
11.536959
 51
168.463041
  0
LINE
  8
別途部材
  6
CONTINUOUS
 10
-20.572368
 20
30.419982
 11
-20.572368
 21
28.044985
  0
LINE
  8
別途部材
  6
CONTINUOUS
 10
-20.572368
 20
28.044985
 11
-20.82237
 21
28.294985
  0
LINE
  8
別途部材
  6
CONTINUOUS
 10
-20.82237
 20
30.419982
 11
-20.82237
 21
28.294985
  0
LINE
  8
別途部材
  6
CONTINUOUS
 10
-20.32237
 20
28.044985
 11
-20.572368
 21
28.044985
  0
LINE
  8
別途部材
  6
CONTINUOUS
 10
-17.347623
 20
21.669985
 11
-17.347623
 21
30.419982
  0
LINE
  8
別途部材
  6
CONTINUOUS
 10
-19.797115
 20
21.669985
 11
-19.797115
 21
30.419982
  0
LINE
  8
別途部材
  6
CONTINUOUS
 10
-16.57237
 20
30.419982
 11
-16.57237
 21
28.044985
  0
LINE
  8
別途部材
  6
CONTINUOUS
 10
-16.57237
 20
28.044985
 11
-16.32237
 21
28.294985
  0
LINE
  8
別途部材
  6
CONTINUOUS
 10
-16.32237
 20
30.419982
 11
-16.32237
 21
28.294985
  0
LINE
  8
別途部材
  6
CONTINUOUS
 10
-16.822368
 20
28.044985
 11
-16.57237
 21
28.044985
  0
LINE
  8
別途部材
  6
CONTINUOUS
 10
-19.797115
 20
21.669985
 11
-20.07237
 21
21.669985
  0
LINE
  8
別途部材
  6
CONTINUOUS
 10
-20.32237
 20
21.919985
 11
-20.32237
 21
30.419982
  0
ARC
  8
別途部材
  6
CONTINUOUS
 10
-20.072369
 20
21.919984
 40
0.25
 50
180.0
 51
270.0
  0
LINE
  8
別途部材
  6
CONTINUOUS
 10
-17.347623
 20
21.669985
 11
-17.07237
 21
21.669985
  0
LINE
  8
別途部材
  6
CONTINUOUS
 10
-16.822368
 20
21.919985
 11
-16.822368
 21
30.419982
  0
ARC
  8
別途部材
  6
CONTINUOUS
 10
-17.072369
 20
21.919984
 40
0.25
 50
270.0
 51
360.0
  0
ARC
  8
別途部材
  6
CONTINUOUS
 10
-18.572369
 20
39.419984
 40
1.25
 50
191.536959
 51
348.463041
  0
LINE
  8
別途部材
  6
CONTINUOUS
 10
-20.572368
 20
30.419982
 11
-20.572368
 21
32.794985
  0
LINE
  8
別途部材
  6
CONTINUOUS
 10
-20.572368
 20
32.794985
 11
-20.82237
 21
32.544985
  0
LINE
  8
別途部材
  6
CONTINUOUS
 10
-20.82237
 20
30.419982
 11
-20.82237
 21
32.544985
  0
LINE
  8
別途部材
  6
CONTINUOUS
 10
-20.32237
 20
32.794985
 11
-20.572368
 21
32.794985
  0
LINE
  8
別途部材
  6
CONTINUOUS
 10
-17.347623
 20
39.169985
 11
-17.347623
 21
30.419982
  0
LINE
  8
別途部材
  6
CONTINUOUS
 10
-19.797115
 20
39.169985
 11
-19.797115
 21
30.419982
  0
LINE
  8
別途部材
  6
CONTINUOUS
 10
-16.57237
 20
30.419982
 11
-16.57237
 21
32.794985
  0
LINE
  8
別途部材
  6
CONTINUOUS
 10
-16.57237
 20
32.794985
 11
-16.32237
 21
32.544985
  0
LINE
  8
別途部材
  6
CONTINUOUS
 10
-16.32237
 20
30.419982
 11
-16.32237
 21
32.544985
  0
LINE
  8
別途部材
  6
CONTINUOUS
 10
-16.822368
 20
32.794985
 11
-16.57237
 21
32.794985
  0
LINE
  8
別途部材
  6
CONTINUOUS
 10
-19.797115
 20
39.169985
 11
-20.07237
 21
39.169985
  0
LINE
  8
別途部材
  6
CONTINUOUS
 10
-20.32237
 20
38.919985
 11
-20.32237
 21
30.419982
  0
ARC
  8
別途部材
  6
CONTINUOUS
 10
-20.072369
 20
38.919984
 40
0.25
 50
90.0
 51
180.0
  0
LINE
  8
別途部材
  6
CONTINUOUS
 10
-17.347623
 20
39.169985
 11
-17.07237
 21
39.169985
  0
LINE
  8
別途部材
  6
CONTINUOUS
 10
-16.822368
 20
38.919985
 11
-16.822368
 21
30.419982
  0
ARC
  8
別途部材
  6
CONTINUOUS
 10
-17.072369
 20
38.919984
 40
0.25
 50
0.0
 51
90.0
  0
ENDBLK
  0
BLOCK
  2
*GRP_0021
 70
    65
 10
0.0
 20
0.0
  0
LINE
  8
ボルト／ビス
  6
CONTINUOUS
 10
-16.072368
 20
26.533232
 11
-16.072368
 21
34.306735
  0
LINE
  8
ボルト／ビス
  6
CONTINUOUS
 10
-15.57237
 20
26.533232
 11
-15.57237
 21
34.306735
  0
LINE
  8
ボルト／ビス
  6
CONTINUOUS
 10
-15.57237
 20
34.306735
 11
-16.072368
 21
34.306735
  0
LINE
  8
ボルト／ビス
  6
CONTINUOUS
 10
-15.57237
 20
26.533232
 11
-16.072368
 21
26.533232
  0
INSERT
  2
*GRP_0037
  8
ボルト／ビス
  6
CONTINUOUS
 10
0.0
 20
0.0
  0
LINE
  8
ボルト／ビス
  6
CONTINUOUS
 10
-30.57237
 20
31.669985
 11
-30.322368
 21
31.919982
  0
LINE
  8
ボルト／ビス
  6
CONTINUOUS
 10
-30.57237
 20
29.169985
 11
-30.322368
 21
28.919982
  0
LINE
  8
ボルト／ビス
  6
CONTINUOUS
 10
-30.57237
 20
29.169985
 11
-30.57237
 21
31.669985
  0
LINE
  8
ボルト／ビス
  6
CONTINUOUS
 10
-30.322368
 20
28.919982
 11
-30.322368
 21
31.919982
  0
LINE
  8
ボルト／ビス
  6
CONTINUOUS
 10
-30.57237
 20
29.169985
 11
-16.072368
 21
29.169985
  0
LINE
  8
ボルト／ビス
  6
CONTINUOUS
 10
-30.322368
 20
28.919982
 11
-16.072368
 21
28.919982
  0
LINE
  8
ボルト／ビス
  6
CONTINUOUS
 10
-30.322368
 20
31.919982
 11
-16.072368
 21
31.919982
  0
LINE
  8
ボルト／ビス
  6
CONTINUOUS
 10
-30.57237
 20
31.669985
 11
-16.072368
 21
31.669985
  0
ENDBLK
  0
BLOCK
  2
*GRP_0022
 70
    65
 10
0.0
 20
0.0
  0
LINE
  8
補助線
  6
BYBLOCK
 62
     0
 10
-32.573505
 20
38.594982
 11
-32.573505
 21
22.244982
  0
LINE
  8
St
  6
DOT
 10
-34.073505
 20
37.946975
 11
-34.073505
 21
22.89299
  0
LINE
  8
St
  6
DOT
 10
-31.073505
 20
37.946975
 11
-31.073505
 21
22.89299
  0
LINE
  8
St
  6
DOT
 10
-32.573505
 20
31.919982
 11
-25.87237
 21
31.919982
  0
LINE
  8
St
  6
DOT
 10
-32.573505
 20
28.919982
 11
-25.87237
 21
28.919982
  0
INSERT
  2
*HAT_0002
  8
St
 10
0.0
 20
0.0
  0
ARC
  8
St
  6
CONTINUOUS
 10
-32.573507
 20
30.419983
 40
7.675
 50
26.791052
 51
333.208948
  0
LINE
  8
St
  6
CONTINUOUS
 10
-25.72237
 20
26.960568
 11
-25.72237
 21
33.8794
  0
LINE
  8
St
  6
DOT
 10
-39.637897
 20
33.419982
 11
-25.72237
 21
33.419982
  0
LINE
  8
St
  6
DOT
 10
-39.637897
 20
27.419982
 11
-25.72237
 21
27.419982
  0
ENDBLK
  0
BLOCK
  2
*GRP_0023
 70
    65
 10
0.0
 20
0.0
  0
LINE
  8
St
  6
CONTINUOUS
 10
-20.82237
 20
24.169985
 11
-20.82237
 21
36.669985
  0
LINE
  8
St
  6
CONTINUOUS
 10
-20.82237
 20
36.669985
 11
-23.722368
 21
36.669985
  0
LINE
  8
St
  6
CONTINUOUS
 10
-23.722368
 20
36.669985
 11
-23.722368
 21
24.169985
  0
LINE
  8
St
  6
CONTINUOUS
 10
-20.82237
 20
24.169985
 11
-23.722368
 21
24.169985
  0
ENDBLK
  0
BLOCK
  2
*GRP_0024
 70
    65
 10
0.0
 20
0.0
  0
LINE
  8
St
  6
CONTINUOUS
 10
-25.72237
 20
27.094985
 11
-25.72237
 21
33.744985
  0
LINE
  8
St
  6
DASHDOT
 10
-9.99607
 20
30.419982
 11
-27.548297
 21
30.419982
  0
LINE
  8
St
  6
CONTINUOUS
 10
-20.82237
 20
25.669985
 11
-20.82237
 21
30.419982
  0
LINE
  8
St
  6
CONTINUOUS
 10
-20.82237
 20
35.169985
 11
-20.82237
 21
30.419982
  0
LINE
  8
St
  6
CONTINUOUS
 10
-20.82237
 20
33.744985
 11
-25.72237
 21
33.744985
  0
LINE
  8
St
  6
CONTINUOUS
 10
-20.82237
 20
27.094985
 11
-25.72237
 21
27.094985
  0
LINE
  8
St
  6
CONTINUOUS
 10
-20.82237
 20
25.669985
 11
-11.82237
 21
25.669985
  0
LINE
  8
St
  6
CONTINUOUS
 10
-11.82237
 20
25.669985
 11
-11.82237
 21
35.169985
  0
LINE
  8
St
  6
CONTINUOUS
 10
-20.82237
 20
35.169985
 11
-11.82237
 21
35.169985
  0
LINE
  8
St
  6
DOT
 10
-11.82237
 20
34.469982
 11
-13.32237
 21
34.469982
  0
LINE
  8
St
  6
DOT
 10
-13.32237
 20
34.469982
 11
-13.32237
 21
26.369982
  0
LINE
  8
St
  6
DOT
 10
-11.82237
 20
26.369982
 11
-13.32237
 21
26.369982
  0
LINE
  8
St
  6
DOT
 10
-25.72237
 20
27.419982
 11
-13.32237
 21
27.419982
  0
LINE
  8
St
  6
DOT
 10
-25.72237
 20
33.419982
 11
-13.32237
 21
33.419982
  0
INSERT
  2
*HAT_0003
  8
St
 10
0.0
 20
0.0
  0
ENDBLK
  0
BLOCK
  2
*GRP_0025
 70
    65
 10
0.0
 20
0.0
  0
LINE
  8
St
  6
CONTINUOUS
 10
-37.572368
 20
33.419988
 11
-37.572368
 21
27.419988
  0
LINE
  8
St
  6
CONTINUOUS
 10
-37.1557
 20
27.419988
 11
-37.1557
 21
33.419988
  0
LINE
  8
St
  6
CONTINUOUS
 10
-36.739035
 20
27.419988
 11
-36.739035
 21
33.419988
  0
LINE
  8
St
  6
CONTINUOUS
 10
-36.322368
 20
27.419988
 11
-36.322368
 21
33.419988
  0
LINE
  8
St
  6
CONTINUOUS
 10
-35.905703
 20
27.419988
 11
-35.905703
 21
33.419988
  0
LINE
  8
St
  6
CONTINUOUS
 10
-35.489033
 20
27.419988
 11
-35.489033
 21
33.419988
  0
LINE
  8
St
  6
CONTINUOUS
 10
-35.072365
 20
27.419988
 11
-35.072365
 21
33.419988
  0
LINE
  8
St
  6
CONTINUOUS
 10
-34.6557
 20
27.419988
 11
-34.6557
 21
33.419988
  0
LINE
  8
St
  6
CONTINUOUS
 10
-25.072368
 20
27.419988
 11
-25.072368
 21
33.419988
  0
LINE
  8
St
  6
CONTINUOUS
 10
-25.9057
 20
27.419988
 11
-25.9057
 21
33.419988
  0
LINE
  8
St
  6
CONTINUOUS
 10
-26.322368
 20
27.419988
 11
-26.322368
 21
33.419988
  0
LINE
  8
St
  6
CONTINUOUS
 10
-26.739033
 20
27.419988
 11
-26.739033
 21
33.419988
  0
LINE
  8
St
  6
CONTINUOUS
 10
-27.572365
 20
27.419988
 11
-27.572365
 21
33.419988
  0
LINE
  8
St
  6
CONTINUOUS
 10
-28.405703
 20
27.419988
 11
-28.405703
 21
33.419988
  0
LINE
  8
St
  6
CONTINUOUS
 10
-30.072368
 20
27.419988
 11
-30.072368
 21
33.419988
  0
LINE
  8
St
  6
CONTINUOUS
 10
-34.239033
 20
27.419988
 11
-34.239033
 21
33.419988
  0
LINE
  8
St
  6
CONTINUOUS
 10
-33.4057
 20
27.419988
 11
-33.4057
 21
33.419988
  0
LINE
  8
St
  6
CONTINUOUS
 10
-32.989035
 20
27.419988
 11
-32.989035
 21
33.419988
  0
LINE
  8
St
  6
CONTINUOUS
 10
-32.572368
 20
27.419988
 11
-32.572368
 21
33.419988
  0
LINE
  8
St
  6
CONTINUOUS
 10
-32.155703
 20
27.419988
 11
-32.155703
 21
33.419988
  0
LINE
  8
St
  6
CONTINUOUS
 10
-31.739033
 20
27.419988
 11
-31.739033
 21
33.419988
  0
LINE
  8
St
  6
CONTINUOUS
 10
-31.322365
 20
27.419988
 11
-31.322365
 21
33.419988
  0
LINE
  8
St
  6
CONTINUOUS
 10
-30.9057
 20
27.419988
 11
-30.9057
 21
33.419988
  0
LINE
  8
St
  6
CONTINUOUS
 10
-30.489033
 20
27.419988
 11
-30.489033
 21
33.419988
  0
LINE
  8
St
  6
CONTINUOUS
 10
-33.822368
 20
27.419988
 11
-33.822368
 21
33.419988
  0
LINE
  8
St
  6
CONTINUOUS
 10
-29.6557
 20
27.419988
 11
-29.6557
 21
33.419988
  0
LINE
  8
St
  6
CONTINUOUS
 10
-29.239035
 20
27.419988
 11
-29.239035
 21
33.419988
  0
LINE
  8
St
  6
CONTINUOUS
 10
-28.822368
 20
27.419988
 11
-28.822368
 21
33.419988
  0
LINE
  8
St
  6
CONTINUOUS
 10
-27.989033
 20
27.419988
 11
-27.989033
 21
33.419988
  0
LINE
  8
St
  6
CONTINUOUS
 10
-27.1557
 20
27.419988
 11
-27.1557
 21
33.419988
  0
LINE
  8
St
  6
CONTINUOUS
 10
-25.489035
 20
27.419988
 11
-25.489035
 21
33.419988
  0
LINE
  8
St
  6
CONTINUOUS
 10
-13.32237
 20
34.419988
 11
-11.82237
 21
34.419988
  0
LINE
  8
St
  6
CONTINUOUS
 10
-13.32237
 20
34.419988
 11
-13.32237
 21
26.419985
  0
LINE
  8
St
  6
CONTINUOUS
 10
-13.32237
 20
26.419985
 11
-11.82237
 21
26.419985
  0
LINE
  8
St
  6
CONTINUOUS
 10
-11.82237
 20
34.419988
 11
-11.82237
 21
26.419985
  0
LINE
  8
St
  6
CONTINUOUS
 10
-37.572368
 20
27.419988
 11
-13.32237
 21
27.419988
  0
LINE
  8
St
  6
CONTINUOUS
 10
-37.572368
 20
33.419988
 11
-13.32237
 21
33.419988
  0
LINE
  8
St
  6
DASHDOT
 10
-37.572368
 20
30.419988
 11
6.376492
 21
30.419988
  0
LINE
  8
St
  6
CONTINUOUS
 10
-11.82237
 20
33.869988
 11
0.676492
 21
33.869988
  0
LINE
  8
St
  6
CONTINUOUS
 10
0.676492
 20
33.869988
 11
0.676492
 21
26.969988
  0
LINE
  8
St
  6
CONTINUOUS
 10
-11.82237
 20
26.969988
 11
0.676492
 21
26.969988
  0
LINE
  8
St
  6
CONTINUOUS
 10
6.376492
 20
32.219988
 11
6.126492
 21
32.919988
  0
LINE
  8
St
  6
CONTINUOUS
 10
6.126492
 20
32.419985
 11
0.676492
 21
32.419985
  0
LINE
  8
St
  6
CONTINUOUS
 10
6.126492
 20
32.919988
 11
0.676492
 21
32.919988
  0
LINE
  8
St
  6
CONTINUOUS
 10
6.376492
 20
32.219988
 11
6.376492
 21
30.419988
  0
LINE
  8
St
  6
CONTINUOUS
 10
6.126492
 20
32.919988
 11
6.126492
 21
30.419988
  0
LINE
  8
St
  6
CONTINUOUS
 10
6.376492
 20
28.619988
 11
6.126492
 21
27.919985
  0
LINE
  8
St
  6
CONTINUOUS
 10
6.126492
 20
28.419988
 11
0.676492
 21
28.419988
  0
LINE
  8
St
  6
CONTINUOUS
 10
6.126492
 20
27.919985
 11
0.676492
 21
27.919985
  0
LINE
  8
St
  6
CONTINUOUS
 10
6.376492
 20
28.619988
 11
6.376492
 21
30.419988
  0
LINE
  8
St
  6
CONTINUOUS
 10
6.126492
 20
27.919985
 11
6.126492
 21
30.419988
  0
ENDBLK
  0
BLOCK
  2
*GRP_0026
 70
    65
 10
0.0
 20
0.0
  0
LINE
  8
型材断面
  6
CONTINUOUS
 10
-2.17237
 20
-9.080765
 11
-2.17237
 21
1.819232
  0
LINE
  8
型材断面
  6
CONTINUOUS
 10
-2.17237
 20
1.819232
 11
-8.97237
 21
1.819232
  0
LINE
  8
型材断面
  6
CONTINUOUS
 10
-8.97237
 20
-9.080765
 11
-8.97237
 21
1.819232
  0
LINE
  8
型材断面
  6
CONTINUOUS
 10
-2.17237
 20
-9.080765
 11
-2.17237
 21
-19.980763
  0
LINE
  8
型材断面
  6
CONTINUOUS
 10
-2.17237
 20
-19.980763
 11
-8.97237
 21
-19.980763
  0
LINE
  8
型材断面
  6
CONTINUOUS
 10
-8.97237
 20
-9.080765
 11
-8.97237
 21
-19.980763
  0
ARC
  8
型材断面
  6
CONTINUOUS
 10
-3.072376
 20
0.919241
 40
2.5
 50
0.0
 51
90.0
  0
LINE
  8
型材断面
  6
CONTINUOUS
 10
-0.57237
 20
0.919232
 11
-0.57237
 21
-19.080763
  0
ARC
  8
型材断面
  6
CONTINUOUS
 10
-3.072376
 20
-19.080757
 40
2.5
 50
-90.0
 51
0.0
  0
LINE
  8
型材断面
  6
CONTINUOUS
 10
-8.07237
 20
-21.580765
 11
-3.07237
 21
-21.580765
  0
LINE
  8
型材断面
  6
CONTINUOUS
 10
-10.57237
 20
-9.080765
 11
-10.57237
 21
-19.080763
  0
ARC
  8
型材断面
  6
CONTINUOUS
 10
-8.072377
 20
-19.080757
 40
2.5
 50
180.0
 51
270.0
  0
LINE
  8
型材断面
  6
CONTINUOUS
 10
-10.57237
 20
-9.080765
 11
-10.57237
 21
0.919232
  0
LINE
  8
型材断面
  6
CONTINUOUS
 10
-8.07237
 20
3.419232
 11
-3.07237
 21
3.419232
  0
ARC
  8
型材断面
  6
CONTINUOUS
 10
-8.072377
 20
0.919241
 40
2.5
 50
90.0
 51
180.0
  0
LINE
  8
型材断面
  6
CONTINUOUS
 10
-10.57237
 20
-9.080765
 11
-0.57237
 21
-9.080765
  0
ENDBLK
  0
BLOCK
  2
*GRP_0027
 70
    65
 10
0.0
 20
0.0
  0
LINE
  8
ボルト／ビス
  6
CONTINUOUS
 10
-25.72237
 20
-5.930765
 11
-23.722368
 21
-5.930765
  0
LINE
  8
ボルト／ビス
  6
CONTINUOUS
 10
-23.722368
 20
-5.930765
 11
-23.722368
 21
-12.230765
  0
LINE
  8
ボルト／ビス
  6
CONTINUOUS
 10
-23.722368
 20
-12.230765
 11
-25.72237
 21
-12.230765
  0
LINE
  8
ボルト／ビス
  6
CONTINUOUS
 10
-25.72237
 20
-5.930765
 11
-25.72237
 21
-12.230765
  0
LINE
  8
ボルト／ビス
  6
CONTINUOUS
 10
-25.222368
 20
-5.930765
 11
-25.222368
 21
-12.230765
  0
LINE
  8
ボルト／ビス
  6
CONTINUOUS
 10
-24.72237
 20
-5.930765
 11
-24.72237
 21
-12.230765
  0
LINE
  8
ボルト／ビス
  6
CONTINUOUS
 10
-24.22237
 20
-5.930765
 11
-24.22237
 21
-12.230765
  0
ENDBLK
  0
BLOCK
  2
*GRP_0028
 70
    65
 10
0.0
 20
0.0
  0
LINE
  8
ボルト／ビス
  6
CONTINUOUS
 10
0.67763
 20
-2.080768
 11
-0.57237
 21
-2.080768
  0
LINE
  8
ボルト／ビス
  6
CONTINUOUS
 10
-0.57237
 20
-2.080768
 11
-0.57237
 21
-16.080768
  0
LINE
  8
ボルト／ビス
  6
CONTINUOUS
 10
-0.57237
 20
-16.080768
 11
0.67763
 21
-16.080768
  0
LINE
  8
ボルト／ビス
  6
CONTINUOUS
 10
0.67763
 20
-2.080768
 11
0.67763
 21
-16.080768
  0
LINE
  8
ボルト／ビス
  6
CONTINUOUS
 10
0.67763
 20
-9.080765
 11
-0.57237
 21
-9.080765
  0
LINE
  8
ボルト／ビス
  6
CONTINUOUS
 10
0.67763
 20
-5.330765
 11
-0.57237
 21
-5.330765
  0
LINE
  8
ボルト／ビス
  6
CONTINUOUS
 10
0.67763
 20
-12.830765
 11
-0.57237
 21
-12.830765
  0
ENDBLK
  0
BLOCK
  2
*GRP_0029
 70
    65
 10
0.0
 20
0.0
  0
LINE
  8
ボルト／ビス
  6
CONTINUOUS
 10
-10.57237
 20
-2.080768
 11
-11.82237
 21
-2.080768
  0
LINE
  8
ボルト／ビス
  6
CONTINUOUS
 10
-11.82237
 20
-2.080768
 11
-11.82237
 21
-16.080768
  0
LINE
  8
ボルト／ビス
  6
CONTINUOUS
 10
-11.82237
 20
-16.080768
 11
-10.57237
 21
-16.080768
  0
LINE
  8
ボルト／ビス
  6
CONTINUOUS
 10
-10.57237
 20
-2.080768
 11
-10.57237
 21
-16.080768
  0
LINE
  8
ボルト／ビス
  6
CONTINUOUS
 10
-10.57237
 20
-9.080765
 11
-11.82237
 21
-9.080765
  0
LINE
  8
ボルト／ビス
  6
CONTINUOUS
 10
-10.57237
 20
-5.330765
 11
-11.82237
 21
-5.330765
  0
LINE
  8
ボルト／ビス
  6
CONTINUOUS
 10
-10.57237
 20
-12.830765
 11
-11.82237
 21
-12.830765
  0
ENDBLK
  0
BLOCK
  2
*GRP_0030
 70
    65
 10
0.0
 20
0.0
  0
LINE
  8
ボルト／ビス
  6
CONTINUOUS
 10
1.37763
 20
-4.461965
 11
1.37763
 21
-13.69957
  0
LINE
  8
ボルト／ビス
  6
CONTINUOUS
 10
5.377633
 20
-12.92977
 11
5.097448
 21
-13.69957
  0
ARC
  8
ボルト／ビス
  6
CONTINUOUS
 10
2.858144
 20
-12.544864
 40
2.519484
 50
0.0
 51
27.277991
  0
LINE
  8
ボルト／ビス
  6
CONTINUOUS
 10
5.377633
 20
-5.231765
 11
5.097448
 21
-4.461965
  0
ARC
  8
ボルト／ビス
  6
CONTINUOUS
 10
2.858144
 20
-5.616661
 40
2.519484
 50
332.722009
 51
360.0
  0
ARC
  8
ボルト／ビス
  6
CONTINUOUS
 10
-4.280029
 20
-9.080762
 40
9.657657
 50
346.165012
 51
373.834988
  0
LINE
  8
ボルト／ビス
  6
CONTINUOUS
 10
5.377633
 20
-5.231765
 11
5.377633
 21
-12.92977
  0
LINE
  8
ボルト／ビス
  6
CONTINUOUS
 10
1.37763
 20
-4.461965
 11
5.097448
 21
-4.461965
  0
LINE
  8
ボルト／ビス
  6
CONTINUOUS
 10
1.37763
 20
-6.771365
 11
5.09745
 21
-6.771365
  0
LINE
  8
ボルト／ビス
  6
CONTINUOUS
 10
1.37763
 20
-11.39017
 11
5.097448
 21
-11.39017
  0
LINE
  8
ボルト／ビス
  6
CONTINUOUS
 10
1.37763
 20
-13.69957
 11
5.097448
 21
-13.69957
  0
LINE
  8
ボルト／ビス
  6
CONTINUOUS
 10
0.67763
 20
-2.680765
 11
0.67763
 21
-15.480768
  0
LINE
  8
ボルト／ビス
  6
CONTINUOUS
 10
1.37763
 20
-2.680765
 11
1.37763
 21
-15.480768
  0
LINE
  8
ボルト／ビス
  6
CONTINUOUS
 10
0.67763
 20
-15.480768
 11
1.37763
 21
-15.480768
  0
LINE
  8
ボルト／ビス
  6
CONTINUOUS
 10
0.67763
 20
-2.680765
 11
1.37763
 21
-2.680765
  0
ARC
  8
ボルト／ビス
  6
CONTINUOUS
 10
6.752626
 20
-9.08076
 40
3.625001
 50
180.0
 51
180.0
  0
ARC
  8
ボルト／ビス
  6
CONTINUOUS
 10
6.752626
 20
-9.08076
 40
3.625001
 50
270.0
 51
450.0
  0
LINE
  8
ボルト／ビス
  6
CONTINUOUS
 10
6.75263
 20
-5.455765
 11
5.377633
 21
-5.455765
  0
LINE
  8
ボルト／ビス
  6
CONTINUOUS
 10
6.75263
 20
-12.705768
 11
5.377633
 21
-12.705768
  0
LINE
  8
ボルト／ビス
  6
CONTINUOUS
 10
5.377633
 20
-9.080765
 11
0.67763
 21
-9.080765
  0
ENDBLK
  0
BLOCK
  2
*GRP_0031
 70
    65
 10
0.0
 20
0.0
  0
ARC
  8
別途部材
  6
CONTINUOUS
 10
-18.572369
 20
-18.080765
 40
1.25
 50
11.536959
 51
168.463041
  0
LINE
  8
別途部材
  6
CONTINUOUS
 10
-20.572368
 20
-9.080765
 11
-20.572368
 21
-11.455765
  0
LINE
  8
別途部材
  6
CONTINUOUS
 10
-20.572368
 20
-11.455765
 11
-20.82237
 21
-11.205763
  0
LINE
  8
別途部材
  6
CONTINUOUS
 10
-20.82237
 20
-9.080765
 11
-20.82237
 21
-11.205763
  0
LINE
  8
別途部材
  6
CONTINUOUS
 10
-20.32237
 20
-11.455765
 11
-20.572368
 21
-11.455765
  0
LINE
  8
別途部材
  6
CONTINUOUS
 10
-17.347623
 20
-17.830765
 11
-17.347623
 21
-9.080765
  0
LINE
  8
別途部材
  6
CONTINUOUS
 10
-19.797115
 20
-17.830765
 11
-19.797115
 21
-9.080765
  0
LINE
  8
別途部材
  6
CONTINUOUS
 10
-16.57237
 20
-9.080765
 11
-16.57237
 21
-11.455765
  0
LINE
  8
別途部材
  6
CONTINUOUS
 10
-16.57237
 20
-11.455765
 11
-16.32237
 21
-11.205763
  0
LINE
  8
別途部材
  6
CONTINUOUS
 10
-16.32237
 20
-9.080765
 11
-16.32237
 21
-11.205763
  0
LINE
  8
別途部材
  6
CONTINUOUS
 10
-16.822368
 20
-11.455765
 11
-16.57237
 21
-11.455765
  0
LINE
  8
別途部材
  6
CONTINUOUS
 10
-19.797115
 20
-17.830765
 11
-20.07237
 21
-17.830765
  0
LINE
  8
別途部材
  6
CONTINUOUS
 10
-20.32237
 20
-17.580763
 11
-20.32237
 21
-9.080765
  0
ARC
  8
別途部材
  6
CONTINUOUS
 10
-20.072369
 20
-17.580765
 40
0.25
 50
180.0
 51
270.0
  0
LINE
  8
別途部材
  6
CONTINUOUS
 10
-17.347623
 20
-17.830765
 11
-17.07237
 21
-17.830765
  0
LINE
  8
別途部材
  6
CONTINUOUS
 10
-16.822368
 20
-17.580763
 11
-16.822368
 21
-9.080765
  0
ARC
  8
別途部材
  6
CONTINUOUS
 10
-17.072369
 20
-17.580765
 40
0.25
 50
270.0
 51
360.0
  0
ARC
  8
別途部材
  6
CONTINUOUS
 10
-18.572369
 20
-0.080765
 40
1.25
 50
191.536959
 51
348.463041
  0
LINE
  8
別途部材
  6
CONTINUOUS
 10
-20.572368
 20
-9.080765
 11
-20.572368
 21
-6.705763
  0
LINE
  8
別途部材
  6
CONTINUOUS
 10
-20.572368
 20
-6.705763
 11
-20.82237
 21
-6.955765
  0
LINE
  8
別途部材
  6
CONTINUOUS
 10
-20.82237
 20
-9.080765
 11
-20.82237
 21
-6.955765
  0
LINE
  8
別途部材
  6
CONTINUOUS
 10
-20.32237
 20
-6.705763
 11
-20.572368
 21
-6.705763
  0
LINE
  8
別途部材
  6
CONTINUOUS
 10
-17.347623
 20
-0.330763
 11
-17.347623
 21
-9.080765
  0
LINE
  8
別途部材
  6
CONTINUOUS
 10
-19.797115
 20
-0.330763
 11
-19.797115
 21
-9.080765
  0
LINE
  8
別途部材
  6
CONTINUOUS
 10
-16.57237
 20
-9.080765
 11
-16.57237
 21
-6.705763
  0
LINE
  8
別途部材
  6
CONTINUOUS
 10
-16.57237
 20
-6.705763
 11
-16.32237
 21
-6.955765
  0
LINE
  8
別途部材
  6
CONTINUOUS
 10
-16.32237
 20
-9.080765
 11
-16.32237
 21
-6.955765
  0
LINE
  8
別途部材
  6
CONTINUOUS
 10
-16.822368
 20
-6.705763
 11
-16.57237
 21
-6.705763
  0
LINE
  8
別途部材
  6
CONTINUOUS
 10
-19.797115
 20
-0.330763
 11
-20.07237
 21
-0.330763
  0
LINE
  8
別途部材
  6
CONTINUOUS
 10
-20.32237
 20
-0.580765
 11
-20.32237
 21
-9.080765
  0
ARC
  8
別途部材
  6
CONTINUOUS
 10
-20.072369
 20
-0.580765
 40
0.25
 50
90.0
 51
180.0
  0
LINE
  8
別途部材
  6
CONTINUOUS
 10
-17.347623
 20
-0.330763
 11
-17.07237
 21
-0.330763
  0
LINE
  8
別途部材
  6
CONTINUOUS
 10
-16.822368
 20
-0.580765
 11
-16.822368
 21
-9.080765
  0
ARC
  8
別途部材
  6
CONTINUOUS
 10
-17.072369
 20
-0.580765
 40
0.25
 50
0.0
 51
90.0
  0
ENDBLK
  0
BLOCK
  2
*GRP_0032
 70
    65
 10
0.0
 20
0.0
  0
LINE
  8
ボルト／ビス
  6
CONTINUOUS
 10
-16.072368
 20
-12.967518
 11
-16.072368
 21
-5.194015
  0
LINE
  8
ボルト／ビス
  6
CONTINUOUS
 10
-15.57237
 20
-12.967518
 11
-15.57237
 21
-5.194015
  0
LINE
  8
ボルト／ビス
  6
CONTINUOUS
 10
-15.57237
 20
-5.194015
 11
-16.072368
 21
-5.194015
  0
LINE
  8
ボルト／ビス
  6
CONTINUOUS
 10
-15.57237
 20
-12.967518
 11
-16.072368
 21
-12.967518
  0
INSERT
  2
*GRP_0038
  8
ボルト／ビス
  6
CONTINUOUS
 10
0.0
 20
0.0
  0
LINE
  8
ボルト／ビス
  6
CONTINUOUS
 10
-30.57237
 20
-7.830763
 11
-30.322368
 21
-7.580765
  0
LINE
  8
ボルト／ビス
  6
CONTINUOUS
 10
-30.57237
 20
-10.330765
 11
-30.322368
 21
-10.580765
  0
LINE
  8
ボルト／ビス
  6
CONTINUOUS
 10
-30.57237
 20
-10.330765
 11
-30.57237
 21
-7.830763
  0
LINE
  8
ボルト／ビス
  6
CONTINUOUS
 10
-30.322368
 20
-10.580765
 11
-30.322368
 21
-7.580765
  0
LINE
  8
ボルト／ビス
  6
CONTINUOUS
 10
-30.57237
 20
-10.330765
 11
-16.072368
 21
-10.330765
  0
LINE
  8
ボルト／ビス
  6
CONTINUOUS
 10
-30.322368
 20
-10.580765
 11
-16.072368
 21
-10.580765
  0
LINE
  8
ボルト／ビス
  6
CONTINUOUS
 10
-30.322368
 20
-7.580765
 11
-16.072368
 21
-7.580765
  0
LINE
  8
ボルト／ビス
  6
CONTINUOUS
 10
-30.57237
 20
-7.830763
 11
-16.072368
 21
-7.830763
  0
ENDBLK
  0
BLOCK
  2
*GRP_0033
 70
    65
 10
0.0
 20
0.0
  0
LINE
  8
補助線
  6
BYBLOCK
 62
     0
 10
-32.573505
 20
-0.905765
 11
-32.573505
 21
-17.255765
  0
LINE
  8
St
  6
DOT
 10
-34.073505
 20
-1.553773
 11
-34.073505
 21
-16.607758
  0
LINE
  8
St
  6
DOT
 10
-31.073505
 20
-1.553773
 11
-31.073505
 21
-16.607758
  0
LINE
  8
St
  6
DOT
 10
-32.573505
 20
-7.580765
 11
-25.87237
 21
-7.580765
  0
LINE
  8
St
  6
DOT
 10
-32.573505
 20
-10.580765
 11
-25.87237
 21
-10.580765
  0
INSERT
  2
*HAT_0004
  8
St
 10
0.0
 20
0.0
  0
ARC
  8
St
  6
CONTINUOUS
 10
-32.573507
 20
-9.080765
 40
7.675
 50
26.791052
 51
333.208948
  0
LINE
  8
St
  6
CONTINUOUS
 10
-25.72237
 20
-12.540182
 11
-25.72237
 21
-5.62135
  0
LINE
  8
St
  6
DOT
 10
-39.637897
 20
-6.080765
 11
-25.72237
 21
-6.080765
  0
LINE
  8
St
  6
DOT
 10
-39.637897
 20
-12.080765
 11
-25.72237
 21
-12.080765
  0
ENDBLK
  0
BLOCK
  2
*GRP_0034
 70
    65
 10
0.0
 20
0.0
  0
LINE
  8
St
  6
CONTINUOUS
 10
-20.82237
 20
-15.330763
 11
-20.82237
 21
-2.830765
  0
LINE
  8
St
  6
CONTINUOUS
 10
-20.82237
 20
-2.830765
 11
-23.722368
 21
-2.830765
  0
LINE
  8
St
  6
CONTINUOUS
 10
-23.722368
 20
-2.830765
 11
-23.722368
 21
-15.330763
  0
LINE
  8
St
  6
CONTINUOUS
 10
-20.82237
 20
-15.330763
 11
-23.722368
 21
-15.330763
  0
ENDBLK
  0
BLOCK
  2
*GRP_0035
 70
    65
 10
0.0
 20
0.0
  0
LINE
  8
St
  6
CONTINUOUS
 10
-25.72237
 20
-12.405763
 11
-25.72237
 21
-5.755765
  0
LINE
  8
St
  6
DASHDOT
 10
-9.99607
 20
-9.080765
 11
-27.548297
 21
-9.080765
  0
LINE
  8
St
  6
CONTINUOUS
 10
-20.82237
 20
-13.830763
 11
-20.82237
 21
-9.080765
  0
LINE
  8
St
  6
CONTINUOUS
 10
-20.82237
 20
-4.330765
 11
-20.82237
 21
-9.080765
  0
LINE
  8
St
  6
CONTINUOUS
 10
-20.82237
 20
-5.755765
 11
-25.72237
 21
-5.755765
  0
LINE
  8
St
  6
CONTINUOUS
 10
-20.82237
 20
-12.405763
 11
-25.72237
 21
-12.405763
  0
LINE
  8
St
  6
CONTINUOUS
 10
-20.82237
 20
-13.830763
 11
-11.82237
 21
-13.830763
  0
LINE
  8
St
  6
CONTINUOUS
 10
-11.82237
 20
-13.830763
 11
-11.82237
 21
-4.330765
  0
LINE
  8
St
  6
CONTINUOUS
 10
-20.82237
 20
-4.330765
 11
-11.82237
 21
-4.330765
  0
LINE
  8
St
  6
DOT
 10
-11.82237
 20
-5.030765
 11
-13.32237
 21
-5.030765
  0
LINE
  8
St
  6
DOT
 10
-13.32237
 20
-5.030765
 11
-13.32237
 21
-13.130765
  0
LINE
  8
St
  6
DOT
 10
-11.82237
 20
-13.130765
 11
-13.32237
 21
-13.130765
  0
LINE
  8
St
  6
DOT
 10
-25.72237
 20
-12.080765
 11
-13.32237
 21
-12.080765
  0
LINE
  8
St
  6
DOT
 10
-25.72237
 20
-6.080765
 11
-13.32237
 21
-6.080765
  0
INSERT
  2
*HAT_0005
  8
St
 10
0.0
 20
0.0
  0
ENDBLK
  0
BLOCK
  2
*GRP_0036
 70
    65
 10
0.0
 20
0.0
  0
LINE
  8
St
  6
CONTINUOUS
 10
-37.572368
 20
-6.080763
 11
-37.572368
 21
-12.080763
  0
LINE
  8
St
  6
CONTINUOUS
 10
-37.1557
 20
-12.080763
 11
-37.1557
 21
-6.080763
  0
LINE
  8
St
  6
CONTINUOUS
 10
-36.739035
 20
-12.080763
 11
-36.739035
 21
-6.080763
  0
LINE
  8
St
  6
CONTINUOUS
 10
-36.322368
 20
-12.080763
 11
-36.322368
 21
-6.080763
  0
LINE
  8
St
  6
CONTINUOUS
 10
-35.905703
 20
-12.080763
 11
-35.905703
 21
-6.080763
  0
LINE
  8
St
  6
CONTINUOUS
 10
-35.489033
 20
-12.080763
 11
-35.489033
 21
-6.080763
  0
LINE
  8
St
  6
CONTINUOUS
 10
-35.072365
 20
-12.080763
 11
-35.072365
 21
-6.080763
  0
LINE
  8
St
  6
CONTINUOUS
 10
-34.6557
 20
-12.080763
 11
-34.6557
 21
-6.080763
  0
LINE
  8
St
  6
CONTINUOUS
 10
-25.072368
 20
-12.080763
 11
-25.072368
 21
-6.080763
  0
LINE
  8
St
  6
CONTINUOUS
 10
-25.9057
 20
-12.080763
 11
-25.9057
 21
-6.080763
  0
LINE
  8
St
  6
CONTINUOUS
 10
-26.322368
 20
-12.080763
 11
-26.322368
 21
-6.080763
  0
LINE
  8
St
  6
CONTINUOUS
 10
-26.739033
 20
-12.080763
 11
-26.739033
 21
-6.080763
  0
LINE
  8
St
  6
CONTINUOUS
 10
-27.572365
 20
-12.080763
 11
-27.572365
 21
-6.080763
  0
LINE
  8
St
  6
CONTINUOUS
 10
-28.405703
 20
-12.080763
 11
-28.405703
 21
-6.080763
  0
LINE
  8
St
  6
CONTINUOUS
 10
-30.072368
 20
-12.080763
 11
-30.072368
 21
-6.080763
  0
LINE
  8
St
  6
CONTINUOUS
 10
-34.239033
 20
-12.080763
 11
-34.239033
 21
-6.080763
  0
LINE
  8
St
  6
CONTINUOUS
 10
-33.4057
 20
-12.080763
 11
-33.4057
 21
-6.080763
  0
LINE
  8
St
  6
CONTINUOUS
 10
-32.989035
 20
-12.080763
 11
-32.989035
 21
-6.080763
  0
LINE
  8
St
  6
CONTINUOUS
 10
-32.572368
 20
-12.080763
 11
-32.572368
 21
-6.080763
  0
LINE
  8
St
  6
CONTINUOUS
 10
-32.155703
 20
-12.080763
 11
-32.155703
 21
-6.080763
  0
LINE
  8
St
  6
CONTINUOUS
 10
-31.739033
 20
-12.080763
 11
-31.739033
 21
-6.080763
  0
LINE
  8
St
  6
CONTINUOUS
 10
-31.322365
 20
-12.080763
 11
-31.322365
 21
-6.080763
  0
LINE
  8
St
  6
CONTINUOUS
 10
-30.9057
 20
-12.080763
 11
-30.9057
 21
-6.080763
  0
LINE
  8
St
  6
CONTINUOUS
 10
-30.489033
 20
-12.080763
 11
-30.489033
 21
-6.080763
  0
LINE
  8
St
  6
CONTINUOUS
 10
-33.822368
 20
-12.080763
 11
-33.822368
 21
-6.080763
  0
LINE
  8
St
  6
CONTINUOUS
 10
-29.6557
 20
-12.080763
 11
-29.6557
 21
-6.080763
  0
LINE
  8
St
  6
CONTINUOUS
 10
-29.239035
 20
-12.080763
 11
-29.239035
 21
-6.080763
  0
LINE
  8
St
  6
CONTINUOUS
 10
-28.822368
 20
-12.080763
 11
-28.822368
 21
-6.080763
  0
LINE
  8
St
  6
CONTINUOUS
 10
-27.989033
 20
-12.080763
 11
-27.989033
 21
-6.080763
  0
LINE
  8
St
  6
CONTINUOUS
 10
-27.1557
 20
-12.080763
 11
-27.1557
 21
-6.080763
  0
LINE
  8
St
  6
CONTINUOUS
 10
-25.489035
 20
-12.080763
 11
-25.489035
 21
-6.080763
  0
LINE
  8
St
  6
CONTINUOUS
 10
-13.32237
 20
-5.08076
 11
-11.82237
 21
-5.08076
  0
LINE
  8
St
  6
CONTINUOUS
 10
-13.32237
 20
-5.08076
 11
-13.32237
 21
-13.080763
  0
LINE
  8
St
  6
CONTINUOUS
 10
-13.32237
 20
-13.080763
 11
-11.82237
 21
-13.080763
  0
LINE
  8
St
  6
CONTINUOUS
 10
-11.82237
 20
-5.08076
 11
-11.82237
 21
-13.080763
  0
LINE
  8
St
  6
CONTINUOUS
 10
-37.572368
 20
-12.080763
 11
-13.32237
 21
-12.080763
  0
LINE
  8
St
  6
CONTINUOUS
 10
-37.572368
 20
-6.080763
 11
-13.32237
 21
-6.080763
  0
LINE
  8
St
  6
DASHDOT
 10
-37.572368
 20
-9.080763
 11
6.376492
 21
-9.080763
  0
LINE
  8
St
  6
CONTINUOUS
 10
-11.82237
 20
-5.630763
 11
0.676492
 21
-5.630763
  0
LINE
  8
St
  6
CONTINUOUS
 10
0.676492
 20
-5.630763
 11
0.676492
 21
-12.530763
  0
LINE
  8
St
  6
CONTINUOUS
 10
-11.82237
 20
-12.530763
 11
0.676492
 21
-12.530763
  0
LINE
  8
St
  6
CONTINUOUS
 10
6.376492
 20
-7.280763
 11
6.126492
 21
-6.58076
  0
LINE
  8
St
  6
CONTINUOUS
 10
6.126492
 20
-7.080763
 11
0.676492
 21
-7.080763
  0
LINE
  8
St
  6
CONTINUOUS
 10
6.126492
 20
-6.58076
 11
0.676492
 21
-6.58076
  0
LINE
  8
St
  6
CONTINUOUS
 10
6.376492
 20
-7.280763
 11
6.376492
 21
-9.080763
  0
LINE
  8
St
  6
CONTINUOUS
 10
6.126492
 20
-6.58076
 11
6.126492
 21
-9.080763
  0
LINE
  8
St
  6
CONTINUOUS
 10
6.376492
 20
-10.880763
 11
6.126492
 21
-11.580763
  0
LINE
  8
St
  6
CONTINUOUS
 10
6.126492
 20
-11.08076
 11
0.676492
 21
-11.08076
  0
LINE
  8
St
  6
CONTINUOUS
 10
6.126492
 20
-11.580763
 11
0.676492
 21
-11.580763
  0
LINE
  8
St
  6
CONTINUOUS
 10
6.376492
 20
-10.880763
 11
6.376492
 21
-9.080763
  0
LINE
  8
St
  6
CONTINUOUS
 10
6.126492
 20
-11.580763
 11
6.126492
 21
-9.080763
  0
ENDBLK
  0
BLOCK
  2
*GRP_0037
 70
    65
 10
0.0
 20
0.0
  0
LINE
  8
ボルト／ビス
  6
CONTINUOUS
 10
-13.57237
 20
32.825612
 11
-13.747485
 21
33.306738
  0
ARC
  8
ボルト／ビス
  6
CONTINUOUS
 10
-15.147046
 20
32.585048
 40
1.574676
 50
332.721967
 51
360.0
  0
ARC
  8
ボルト／ビス
  6
CONTINUOUS
 10
-19.608404
 20
30.419984
 40
6.036034
 50
346.165002
 51
373.834985
  0
LINE
  8
ボルト／ビス
  6
CONTINUOUS
 10
-13.57237
 20
28.014358
 11
-13.747485
 21
27.533232
  0
ARC
  8
ボルト／ビス
  6
CONTINUOUS
 10
-15.147046
 20
28.254921
 40
1.574676
 50
0.0
 51
27.278033
  0
LINE
  8
ボルト／ビス
  6
CONTINUOUS
 10
-13.57237
 20
32.825612
 11
-13.57237
 21
28.014358
  0
LINE
  8
ボルト／ビス
  6
CONTINUOUS
 10
-13.747485
 20
27.533232
 11
-15.57237
 21
27.533232
  0
LINE
  8
ボルト／ビス
  6
CONTINUOUS
 10
-13.747485
 20
28.976607
 11
-15.57237
 21
28.976607
  0
LINE
  8
ボルト／ビス
  6
CONTINUOUS
 10
-13.747485
 20
33.306738
 11
-15.57237
 21
33.306738
  0
LINE
  8
ボルト／ビス
  6
CONTINUOUS
 10
-13.747485
 20
31.863357
 11
-15.57237
 21
31.863357
  0
LINE
  8
ボルト／ビス
  6
CONTINUOUS
 10
-15.57237
 20
27.533232
 11
-15.57237
 21
33.306738
  0
ENDBLK
  0
BLOCK
  2
*GRP_0038
 70
    65
 10
0.0
 20
0.0
  0
LINE
  8
ボルト／ビス
  6
CONTINUOUS
 10
-13.57237
 20
-6.675137
 11
-13.747485
 21
-6.194013
  0
ARC
  8
ボルト／ビス
  6
CONTINUOUS
 10
-15.147046
 20
-6.915701
 40
1.574676
 50
332.721967
 51
360.0
  0
ARC
  8
ボルト／ビス
  6
CONTINUOUS
 10
-19.608404
 20
-9.080764
 40
6.036034
 50
346.165002
 51
373.834985
  0
LINE
  8
ボルト／ビス
  6
CONTINUOUS
 10
-13.57237
 20
-11.48639
 11
-13.747485
 21
-11.967515
  0
ARC
  8
ボルト／ビス
  6
CONTINUOUS
 10
-15.147046
 20
-11.245828
 40
1.574676
 50
0.0
 51
27.278033
  0
LINE
  8
ボルト／ビス
  6
CONTINUOUS
 10
-13.57237
 20
-6.675137
 11
-13.57237
 21
-11.48639
  0
LINE
  8
ボルト／ビス
  6
CONTINUOUS
 10
-13.747485
 20
-11.967515
 11
-15.57237
 21
-11.967515
  0
LINE
  8
ボルト／ビス
  6
CONTINUOUS
 10
-13.747485
 20
-10.52414
 11
-15.57237
 21
-10.52414
  0
LINE
  8
ボルト／ビス
  6
CONTINUOUS
 10
-13.747485
 20
-6.194013
 11
-15.57237
 21
-6.194013
  0
LINE
  8
ボルト／ビス
  6
CONTINUOUS
 10
-13.747485
 20
-7.63739
 11
-15.57237
 21
-7.63739
  0
LINE
  8
ボルト／ビス
  6
CONTINUOUS
 10
-15.57237
 20
-11.967515
 11
-15.57237
 21
-6.194013
  0
ENDBLK
  0
BLOCK
  2
*DIM_0039
 70
    65
 10
0.0
 20
0.0
  0
LINE
  8
寸法
  6
BYBLOCK
 62
     0
 10
-45.575702
 20
-45.830765
 11
-164.550443
 21
-45.830765
  0
LINE
  8
寸法
  6
BYBLOCK
 62
     0
 10
-164.550443
 20
-38.330765
 11
-164.550443
 21
-45.830765
  0
POINT
  8
寸法
 62
     0
 10
-164.550443
 20
-45.830765
  0
TEXT
  7
TextStyle03
  8
寸法
  6
CONTINUOUS
 62
     0
 10
-164.925
 20
-43.69375
  1
15
 40
3.0
 50
90.0
 72
     5
 11
-164.925
 21
-40.50625
  0
ENDBLK
  0
BLOCK
  2
*DIM_0040
 70
    65
 10
0.0
 20
0.0
  0
LINE
  8
寸法
  6
BYBLOCK
 62
     0
 10
-103.0757
 20
-53.653895
 11
-164.550443
 21
-53.653895
  0
LINE
  8
寸法
  6
BYBLOCK
 62
     0
 10
-164.550443
 20
-45.830765
 11
-164.550443
 21
-53.653895
  0
POINT
  8
寸法
 62
     0
 10
-164.550443
 20
-53.653895
  0
TEXT
  7
TextStyle03
  8
寸法
  6
CONTINUOUS
 62
     0
 10
-164.925
 20
-53.03125
  1
15.7
 40
3.0
 50
90.0
 72
     5
 11
-164.925
 21
-46.46875
  0
ENDBLK
  0
BLOCK
  2
*DIM_0041
 70
    65
 10
0.0
 20
0.0
  0
LINE
  8
寸法
  6
BYBLOCK
 62
     0
 10
-103.07576
 20
-83.653895
 11
-164.550443
 21
-83.653895
  0
LINE
  8
寸法
  6
BYBLOCK
 62
     0
 10
-164.550443
 20
-53.653895
 11
-164.550443
 21
-83.653895
  0
POINT
  8
寸法
 62
     0
 10
-164.550443
 20
-83.653895
  0
TEXT
  7
TextStyle03
  8
寸法
  6
CONTINUOUS
 62
     0
 10
-164.925
 20
-70.26875
  1
60
 40
3.0
 50
90.0
 72
     5
 11
-164.925
 21
-67.08125
  0
ENDBLK
  0
BLOCK
  2
*DIM_0042
 70
    65
 10
0.0
 20
0.0
  0
LINE
  8
寸法
  6
BYBLOCK
 62
     0
 10
-45.075702
 20
11.419238
 11
-156.012565
 21
11.419238
  0
LINE
  8
寸法
  6
BYBLOCK
 62
     0
 10
-156.012565
 20
13.919982
 11
-156.012565
 21
11.419238
  0
POINT
  8
寸法
 62
     0
 10
-156.012565
 20
11.419238
  0
TEXT
  7
TextStyle03
  8
寸法
  6
CONTINUOUS
 62
     0
 10
-156.375
 20
11.9
  1
5
 40
3.0
 50
90.0
 72
     5
 11
-156.375
 21
13.4
  0
ENDBLK
  0
BLOCK
  2
*DIM_0043
 70
    65
 10
0.0
 20
0.0
  0
LINE
  8
寸法
  6
BYBLOCK
 62
     0
 10
-46.575702
 20
-38.330765
 11
-156.012565
 21
-38.330765
  0
LINE
  8
寸法
  6
BYBLOCK
 62
     0
 10
-156.012565
 20
11.419238
 11
-156.012565
 21
-38.330765
  0
POINT
  8
寸法
 62
     0
 10
-156.012565
 20
-38.330765
  0
TEXT
  7
TextStyle03
  8
寸法
  6
CONTINUOUS
 62
     0
 10
-156.375
 20
-16.75625
  1
99.5
 40
3.0
 50
90.0
 72
     5
 11
-156.375
 21
-10.19375
  0
ENDBLK
  0
BLOCK
  2
*DIM_0044
 70
    65
 10
0.0
 20
0.0
  0
LINE
  8
寸法
  6
BYBLOCK
 62
     0
 10
-15.075705
 20
-68.330765
 11
60.614732
 21
-68.330765
  0
LINE
  8
寸法
  6
BYBLOCK
 62
     0
 10
-2.325702
 20
-38.330765
 11
60.614732
 21
-38.330765
  0
LINE
  8
寸法
  6
BYBLOCK
 62
     0
 10
60.614732
 20
-68.330765
 11
60.614732
 21
-38.330765
  0
POINT
  8
寸法
 62
     0
 10
60.614732
 20
-68.330765
  0
POINT
  8
寸法
 62
     0
 10
60.614732
 20
-38.330765
  0
TEXT
  7
TextStyle03
  8
寸法
  6
CONTINUOUS
 62
     0
 10
60.225
 20
-54.94375
  1
60
 40
3.0
 50
90.0
 72
     5
 11
60.225
 21
-51.75625
  0
ENDBLK
  0
BLOCK
  2
*DIM_0045
 70
    65
 10
0.0
 20
0.0
  0
LINE
  8
寸法
  6
BYBLOCK
 62
     0
 10
14.924295
 20
-34.480765
 11
60.614732
 21
-34.480765
  0
LINE
  8
寸法
  6
BYBLOCK
 62
     0
 10
60.614732
 20
-38.330765
 11
60.614732
 21
-34.480765
  0
POINT
  8
寸法
 62
     0
 10
60.614732
 20
-34.480765
  0
TEXT
  7
TextStyle03
  8
寸法
  6
CONTINUOUS
 62
     0
 10
63.6
 20
-38.8625
  1
7.7
 40
3.0
 50
90.0
 72
     5
 11
63.6
 21
-33.9875
  0
ENDBLK
  0
BLOCK
  2
*DIM_0046
 70
    65
 10
0.0
 20
0.0
  0
LINE
  8
寸法
  6
BYBLOCK
 62
     0
 10
14.924295
 20
-26.080765
 11
60.614732
 21
-26.080765
  0
LINE
  8
寸法
  6
BYBLOCK
 62
     0
 10
60.614732
 20
-34.480765
 11
60.614732
 21
-26.080765
  0
POINT
  8
寸法
 62
     0
 10
60.614732
 20
-26.080765
  0
TEXT
  7
TextStyle03
  8
寸法
  6
CONTINUOUS
 62
     0
 10
60.225
 20
-33.58125
  1
16.8
 40
3.0
 50
90.0
 72
     5
 11
60.225
 21
-27.01875
  0
ENDBLK
  0
BLOCK
  2
*DIM_0047
 70
    65
 10
0.0
 20
0.0
  0
LINE
  8
寸法
  6
BYBLOCK
 62
     0
 10
7.376492
 20
-9.080763
 11
60.614732
 21
-9.080763
  0
LINE
  8
寸法
  6
BYBLOCK
 62
     0
 10
60.614732
 20
-26.080765
 11
60.614732
 21
-9.080763
  0
POINT
  8
寸法
 62
     0
 10
60.614732
 20
-9.080763
  0
TEXT
  7
TextStyle03
  8
寸法
  6
CONTINUOUS
 62
     0
 10
60.225
 20
-19.19375
  1
34
 40
3.0
 50
90.0
 72
     5
 11
60.225
 21
-16.00625
  0
ENDBLK
  0
BLOCK
  2
*DIM_0048
 70
    65
 10
0.0
 20
0.0
  0
LINE
  8
寸法
  6
BYBLOCK
 62
     0
 10
7.376492
 20
30.419988
 11
60.614732
 21
30.419988
  0
LINE
  8
寸法
  6
BYBLOCK
 62
     0
 10
60.614732
 20
-9.080763
 11
60.614732
 21
30.419988
  0
POINT
  8
寸法
 62
     0
 10
60.614732
 20
30.419988
  0
TEXT
  7
TextStyle03
  8
寸法
  6
CONTINUOUS
 62
     0
 10
60.225
 20
9.05625
  1
79
 40
3.0
 50
90.0
 72
     5
 11
60.225
 21
12.24375
  0
ENDBLK
  0
BLOCK
  2
*GRP_0049
 70
    65
 10
0.0
 20
0.0
  0
POLYLINE
  8
寸法
  6
BYBLOCK
 62
     0
 66
     1
  0
VERTEX
  8
寸法
 10
-44.575702
 20
36.51389
  0
VERTEX
  8
寸法
 10
-47.136335
 20
33.953255
  0
VERTEX
  8
寸法
 10
-49.444445
 20
33.953255
  0
SEQEND
  0
ENDBLK
  0
BLOCK
  2
*GRP_0050
 70
    65
 10
0.0
 20
0.0
  0
POLYLINE
  8
寸法
  6
BYBLOCK
 62
     0
 66
     1
  0
VERTEX
  8
寸法
 10
-27.0
 20
16.875
  0
VERTEX
  8
寸法
 10
-21.339142
 20
11.214142
  0
VERTEX
  8
寸法
 10
-16.795455
 20
11.214142
  0
SEQEND
  0
ENDBLK
  0
BLOCK
  2
*GRP_0051
 70
    65
 10
0.0
 20
0.0
  0
POLYLINE
  8
寸法
  6
BYBLOCK
 62
     0
 66
     1
  0
VERTEX
  8
寸法
 10
-15.290153
 20
18.29498
  0
VERTEX
  8
寸法
 10
-12.370187
 20
15.375015
  0
VERTEX
  8
寸法
 10
-0.73712
 20
15.375015
  0
SEQEND
  0
ENDBLK
  0
BLOCK
  2
*GRP_0052
 70
    65
 10
0.0
 20
0.0
  0
POLYLINE
  8
寸法
  6
BYBLOCK
 62
     0
 66
     1
  0
VERTEX
  8
寸法
 10
-44.575702
 20
1.007942
  0
VERTEX
  8
寸法
 10
-48.929825
 20
-3.34618
  0
VERTEX
  8
寸法
 10
-51.1
 20
-3.34618
  0
SEQEND
  0
ENDBLK
  0
BLOCK
  2
*GRP_0053
 70
    65
 10
0.0
 20
0.0
  0
POLYLINE
  8
寸法
  6
BYBLOCK
 62
     0
 66
     1
  0
VERTEX
  8
寸法
 10
-18.667118
 20
-39.930768
  0
VERTEX
  8
寸法
 10
-9.535693
 20
-49.062193
  0
VERTEX
  8
寸法
 10
16.377325
 20
-49.062193
  0
SEQEND
  0
ENDBLK
  0
BLOCK
  2
*GRP_0054
 70
    65
 10
0.0
 20
0.0
  0
POLYLINE
  8
寸法
  6
BYBLOCK
 62
     0
 66
     1
  0
VERTEX
  8
寸法
 10
-102.075723
 20
-64.807997
  0
VERTEX
  8
寸法
 10
-107.283443
 20
-70.015718
  0
VERTEX
  8
寸法
 10
-115.717613
 20
-70.015718
  0
SEQEND
  0
ENDBLK
  0
BLOCK
  2
*GRP_0055
 70
    65
 10
0.0
 20
0.0
  0
POLYLINE
  8
寸法
  6
BYBLOCK
 62
     0
 66
     1
  0
VERTEX
  8
寸法
 10
-44.425702
 20
-35.580768
  0
VERTEX
  8
寸法
 10
-52.346045
 20
-27.660425
  0
VERTEX
  8
寸法
 10
-58.454348
 20
-27.660425
  0
SEQEND
  0
ENDBLK
  0
BLOCK
  2
*GRP_0056
 70
    65
 10
0.0
 20
0.0
  0
POLYLINE
  8
ガラス
  6
CONTINUOUS
 66
     1
 70
     4
  0
VERTEX
  8
ガラス
 10
-23.9
 20
-30.85
 70
     8
  0
VERTEX
  8
ガラス
 10
-23.85
 20
-30.825
 70
     8
  0
VERTEX
  8
ガラス
 10
-23.8
 20
-30.825
 70
     8
  0
VERTEX
  8
ガラス
 10
-23.75
 20
-30.8
 70
     8
  0
VERTEX
  8
ガラス
 10
-23.7
 20
-30.8
 70
     8
  0
VERTEX
  8
ガラス
 10
-23.675
 20
-30.775
 70
     8
  0
VERTEX
  8
ガラス
 10
-23.625
 20
-30.775
 70
     8
  0
VERTEX
  8
ガラス
 10
-23.575
 20
-30.775
 70
     8
  0
VERTEX
  8
ガラス
 10
-23.525
 20
-30.75
 70
     8
  0
VERTEX
  8
ガラス
 10
-23.5
 20
-30.75
 70
     8
  0
VERTEX
  8
ガラス
 10
-23.45
 20
-30.75
 70
     8
  0
VERTEX
  8
ガラス
 10
-23.4
 20
-30.725
 70
     8
  0
VERTEX
  8
ガラス
 10
-23.35
 20
-30.725
 70
     8
  0
VERTEX
  8
ガラス
 10
-23.325
 20
-30.725
 70
     8
  0
VERTEX
  8
ガラス
 10
-23.275
 20
-30.725
 70
     8
  0
VERTEX
  8
ガラス
 10
-23.225
 20
-30.725
 70
     8
  0
VERTEX
  8
ガラス
 10
-23.175
 20
-30.725
 70
     8
  0
VERTEX
  8
ガラス
 10
-23.15
 20
-30.725
 70
     8
  0
VERTEX
  8
ガラス
 10
-23.1
 20
-30.725
 70
     8
  0
VERTEX
  8
ガラス
 10
-23.05
 20
-30.725
 70
     8
  0
VERTEX
  8
ガラス
 10
-23.025
 20
-30.75
 70
     8
  0
VERTEX
  8
ガラス
 10
-22.975
 20
-30.75
 70
     8
  0
VERTEX
  8
ガラス
 10
-22.95
 20
-30.75
 70
     8
  0
VERTEX
  8
ガラス
 10
-22.9
 20
-30.775
 70
     8
  0
VERTEX
  8
ガラス
 10
-22.85
 20
-30.8
 70
     8
  0
VERTEX
  8
ガラス
 10
-22.825
 20
-30.8
 70
     8
  0
VERTEX
  8
ガラス
 10
-22.775
 20
-30.825
 70
     8
  0
VERTEX
  8
ガラス
 10
-22.75
 20
-30.85
 70
     8
  0
VERTEX
  8
ガラス
 10
-22.7
 20
-30.875
 70
     8
  0
VERTEX
  8
ガラス
 10
-22.675
 20
-30.9
 70
     8
  0
VERTEX
  8
ガラス
 10
-22.625
 20
-30.925
 70
     8
  0
VERTEX
  8
ガラス
 10
-22.6
 20
-30.95
 70
     8
  0
VERTEX
  8
ガラス
 10
-22.575
 20
-30.975
 70
     8
  0
VERTEX
  8
ガラス
 10
-22.525
 20
-31.0
 70
     8
  0
VERTEX
  8
ガラス
 10
-22.5
 20
-31.025
 70
     8
  0
VERTEX
  8
ガラス
 10
-22.45
 20
-31.05
 70
     8
  0
VERTEX
  8
ガラス
 10
-22.425
 20
-31.075
 70
     8
  0
VERTEX
  8
ガラス
 10
-22.375
 20
-31.1
 70
     8
  0
VERTEX
  8
ガラス
 10
-22.35
 20
-31.15
 70
     8
  0
VERTEX
  8
ガラス
 10
-22.325
 20
-31.175
 70
     8
  0
VERTEX
  8
ガラス
 10
-22.275
 20
-31.2
 70
     8
  0
SEQEND
  0
POLYLINE
  8
ガラス
  6
CONTINUOUS
 66
     1
 70
     4
  0
VERTEX
  8
ガラス
 10
-22.275
 20
-31.2
 70
     8
  0
VERTEX
  8
ガラス
 10
-22.3
 20
-31.2
 70
     8
  0
VERTEX
  8
ガラス
 10
-22.35
 20
-31.225
 70
     8
  0
VERTEX
  8
ガラス
 10
-22.375
 20
-31.225
 70
     8
  0
VERTEX
  8
ガラス
 10
-22.4
 20
-31.225
 70
     8
  0
VERTEX
  8
ガラス
 10
-22.425
 20
-31.25
 70
     8
  0
VERTEX
  8
ガラス
 10
-22.45
 20
-31.25
 70
     8
  0
VERTEX
  8
ガラス
 10
-22.5
 20
-31.25
 70
     8
  0
VERTEX
  8
ガラス
 10
-22.525
 20
-31.275
 70
     8
  0
VERTEX
  8
ガラス
 10
-22.55
 20
-31.275
 70
     8
  0
VERTEX
  8
ガラス
 10
-22.575
 20
-31.275
 70
     8
  0
VERTEX
  8
ガラス
 10
-22.6
 20
-31.3
 70
     8
  0
VERTEX
  8
ガラス
 10
-22.625
 20
-31.3
 70
     8
  0
VERTEX
  8
ガラス
 10
-22.675
 20
-31.3
 70
     8
  0
VERTEX
  8
ガラス
 10
-22.7
 20
-31.325
 70
     8
  0
VERTEX
  8
ガラス
 10
-22.725
 20
-31.325
 70
     8
  0
VERTEX
  8
ガラス
 10
-22.75
 20
-31.325
 70
     8
  0
VERTEX
  8
ガラス
 10
-22.775
 20
-31.35
 70
     8
  0
VERTEX
  8
ガラス
 10
-22.8
 20
-31.35
 70
     8
  0
VERTEX
  8
ガラス
 10
-22.85
 20
-31.375
 70
     8
  0
VERTEX
  8
ガラス
 10
-22.875
 20
-31.375
 70
     8
  0
VERTEX
  8
ガラス
 10
-22.9
 20
-31.4
 70
     8
  0
VERTEX
  8
ガラス
 10
-22.925
 20
-31.4
 70
     8
  0
VERTEX
  8
ガラス
 10
-22.95
 20
-31.425
 70
     8
  0
VERTEX
  8
ガラス
 10
-22.975
 20
-31.425
 70
     8
  0
VERTEX
  8
ガラス
 10
-23.0
 20
-31.45
 70
     8
  0
VERTEX
  8
ガラス
 10
-23.025
 20
-31.45
 70
     8
  0
VERTEX
  8
ガラス
 10
-23.05
 20
-31.475
 70
     8
  0
VERTEX
  8
ガラス
 10
-23.075
 20
-31.475
 70
     8
  0
VERTEX
  8
ガラス
 10
-23.125
 20
-31.5
 70
     8
  0
VERTEX
  8
ガラス
 10
-23.15
 20
-31.525
 70
     8
  0
VERTEX
  8
ガラス
 10
-23.175
 20
-31.525
 70
     8
  0
VERTEX
  8
ガラス
 10
-23.2
 20
-31.55
 70
     8
  0
VERTEX
  8
ガラス
 10
-23.225
 20
-31.55
 70
     8
  0
VERTEX
  8
ガラス
 10
-23.25
 20
-31.575
 70
     8
  0
VERTEX
  8
ガラス
 10
-23.275
 20
-31.6
 70
     8
  0
VERTEX
  8
ガラス
 10
-23.3
 20
-31.6
 70
     8
  0
VERTEX
  8
ガラス
 10
-23.325
 20
-31.625
 70
     8
  0
VERTEX
  8
ガラス
 10
-23.35
 20
-31.625
 70
     8
  0
VERTEX
  8
ガラス
 10
-23.375
 20
-31.65
 70
     8
  0
VERTEX
  8
ガラス
 10
-23.4
 20
-31.675
 70
     8
  0
SEQEND
  0
ARC
  8
ガラス
  6
CONTINUOUS
 10
-23.637589
 20
-31.243545
 40
0.477567
 50
120.563758
 51
300.563758
  0
ENDBLK
  0
BLOCK
  2
*GRP_0057
 70
    65
 10
0.0
 20
0.0
  0
POLYLINE
  8
ガラス
  6
CONTINUOUS
 66
     1
 70
     4
  0
VERTEX
  8
ガラス
 10
-15.45
 20
-30.85
 70
     8
  0
VERTEX
  8
ガラス
 10
-15.4
 20
-30.825
 70
     8
  0
VERTEX
  8
ガラス
 10
-15.375
 20
-30.825
 70
     8
  0
VERTEX
  8
ガラス
 10
-15.325
 20
-30.8
 70
     8
  0
VERTEX
  8
ガラス
 10
-15.275
 20
-30.8
 70
     8
  0
VERTEX
  8
ガラス
 10
-15.225
 20
-30.8
 70
     8
  0
VERTEX
  8
ガラス
 10
-15.175
 20
-30.775
 70
     8
  0
VERTEX
  8
ガラス
 10
-15.15
 20
-30.775
 70
     8
  0
VERTEX
  8
ガラス
 10
-15.1
 20
-30.75
 70
     8
  0
VERTEX
  8
ガラス
 10
-15.05
 20
-30.75
 70
     8
  0
VERTEX
  8
ガラス
 10
-15.0
 20
-30.75
 70
     8
  0
VERTEX
  8
ガラス
 10
-14.95
 20
-30.725
 70
     8
  0
VERTEX
  8
ガラス
 10
-14.925
 20
-30.725
 70
     8
  0
VERTEX
  8
ガラス
 10
-14.875
 20
-30.725
 70
     8
  0
VERTEX
  8
ガラス
 10
-14.825
 20
-30.725
 70
     8
  0
VERTEX
  8
ガラス
 10
-14.8
 20
-30.725
 70
     8
  0
VERTEX
  8
ガラス
 10
-14.75
 20
-30.725
 70
     8
  0
VERTEX
  8
ガラス
 10
-14.7
 20
-30.725
 70
     8
  0
VERTEX
  8
ガラス
 10
-14.675
 20
-30.725
 70
     8
  0
VERTEX
  8
ガラス
 10
-14.625
 20
-30.725
 70
     8
  0
VERTEX
  8
ガラス
 10
-14.575
 20
-30.75
 70
     8
  0
VERTEX
  8
ガラス
 10
-14.55
 20
-30.75
 70
     8
  0
VERTEX
  8
ガラス
 10
-14.5
 20
-30.775
 70
     8
  0
VERTEX
  8
ガラス
 10
-14.45
 20
-30.775
 70
     8
  0
VERTEX
  8
ガラス
 10
-14.425
 20
-30.8
 70
     8
  0
VERTEX
  8
ガラス
 10
-14.375
 20
-30.8
 70
     8
  0
VERTEX
  8
ガラス
 10
-14.35
 20
-30.825
 70
     8
  0
VERTEX
  8
ガラス
 10
-14.3
 20
-30.85
 70
     8
  0
VERTEX
  8
ガラス
 10
-14.275
 20
-30.875
 70
     8
  0
VERTEX
  8
ガラス
 10
-14.225
 20
-30.9
 70
     8
  0
VERTEX
  8
ガラス
 10
-14.2
 20
-30.925
 70
     8
  0
VERTEX
  8
ガラス
 10
-14.15
 20
-30.95
 70
     8
  0
VERTEX
  8
ガラス
 10
-14.125
 20
-30.975
 70
     8
  0
VERTEX
  8
ガラス
 10
-14.1
 20
-31.0
 70
     8
  0
VERTEX
  8
ガラス
 10
-14.05
 20
-31.025
 70
     8
  0
VERTEX
  8
ガラス
 10
-14.025
 20
-31.05
 70
     8
  0
VERTEX
  8
ガラス
 10
-13.975
 20
-31.075
 70
     8
  0
VERTEX
  8
ガラス
 10
-13.95
 20
-31.1
 70
     8
  0
VERTEX
  8
ガラス
 10
-13.9
 20
-31.15
 70
     8
  0
VERTEX
  8
ガラス
 10
-13.875
 20
-31.175
 70
     8
  0
VERTEX
  8
ガラス
 10
-13.85
 20
-31.2
 70
     8
  0
SEQEND
  0
POLYLINE
  8
ガラス
  6
CONTINUOUS
 66
     1
 70
     4
  0
VERTEX
  8
ガラス
 10
-13.85
 20
-31.2
 70
     8
  0
VERTEX
  8
ガラス
 10
-13.875
 20
-31.2
 70
     8
  0
VERTEX
  8
ガラス
 10
-13.9
 20
-31.225
 70
     8
  0
VERTEX
  8
ガラス
 10
-13.925
 20
-31.225
 70
     8
  0
VERTEX
  8
ガラス
 10
-13.95
 20
-31.225
 70
     8
  0
VERTEX
  8
ガラス
 10
-14.0
 20
-31.25
 70
     8
  0
VERTEX
  8
ガラス
 10
-14.025
 20
-31.25
 70
     8
  0
VERTEX
  8
ガラス
 10
-14.05
 20
-31.25
 70
     8
  0
VERTEX
  8
ガラス
 10
-14.075
 20
-31.275
 70
     8
  0
VERTEX
  8
ガラス
 10
-14.1
 20
-31.275
 70
     8
  0
VERTEX
  8
ガラス
 10
-14.15
 20
-31.275
 70
     8
  0
VERTEX
  8
ガラス
 10
-14.175
 20
-31.3
 70
     8
  0
VERTEX
  8
ガラス
 10
-14.2
 20
-31.3
 70
     8
  0
VERTEX
  8
ガラス
 10
-14.225
 20
-31.3
 70
     8
  0
VERTEX
  8
ガラス
 10
-14.25
 20
-31.325
 70
     8
  0
VERTEX
  8
ガラス
 10
-14.275
 20
-31.325
 70
     8
  0
VERTEX
  8
ガラス
 10
-14.325
 20
-31.35
 70
     8
  0
VERTEX
  8
ガラス
 10
-14.35
 20
-31.35
 70
     8
  0
VERTEX
  8
ガラス
 10
-14.375
 20
-31.35
 70
     8
  0
VERTEX
  8
ガラス
 10
-14.4
 20
-31.375
 70
     8
  0
VERTEX
  8
ガラス
 10
-14.425
 20
-31.375
 70
     8
  0
VERTEX
  8
ガラス
 10
-14.45
 20
-31.4
 70
     8
  0
VERTEX
  8
ガラス
 10
-14.475
 20
-31.4
 70
     8
  0
VERTEX
  8
ガラス
 10
-14.5
 20
-31.425
 70
     8
  0
VERTEX
  8
ガラス
 10
-14.55
 20
-31.425
 70
     8
  0
VERTEX
  8
ガラス
 10
-14.575
 20
-31.45
 70
     8
  0
VERTEX
  8
ガラス
 10
-14.6
 20
-31.45
 70
     8
  0
VERTEX
  8
ガラス
 10
-14.625
 20
-31.475
 70
     8
  0
VERTEX
  8
ガラス
 10
-14.65
 20
-31.475
 70
     8
  0
VERTEX
  8
ガラス
 10
-14.675
 20
-31.5
 70
     8
  0
VERTEX
  8
ガラス
 10
-14.7
 20
-31.525
 70
     8
  0
VERTEX
  8
ガラス
 10
-14.725
 20
-31.525
 70
     8
  0
VERTEX
  8
ガラス
 10
-14.75
 20
-31.55
 70
     8
  0
VERTEX
  8
ガラス
 10
-14.775
 20
-31.55
 70
     8
  0
VERTEX
  8
ガラス
 10
-14.8
 20
-31.575
 70
     8
  0
VERTEX
  8
ガラス
 10
-14.825
 20
-31.6
 70
     8
  0
VERTEX
  8
ガラス
 10
-14.85
 20
-31.6
 70
     8
  0
VERTEX
  8
ガラス
 10
-14.9
 20
-31.625
 70
     8
  0
VERTEX
  8
ガラス
 10
-14.925
 20
-31.625
 70
     8
  0
VERTEX
  8
ガラス
 10
-14.95
 20
-31.65
 70
     8
  0
VERTEX
  8
ガラス
 10
-14.975
 20
-31.675
 70
     8
  0
SEQEND
  0
ARC
  8
ガラス
  6
CONTINUOUS
 10
-15.198505
 20
-31.244563
 40
0.477567
 50
120.563758
 51
300.563758
  0
ENDBLK
  0
BLOCK
  2
*GRP_0058
 70
    65
 10
0.0
 20
0.0
  0
POLYLINE
  8
ガラス
  6
CONTINUOUS
 66
     1
 70
     4
  0
VERTEX
  8
ガラス
 10
-7.125
 20
-30.9
 70
     8
  0
VERTEX
  8
ガラス
 10
-7.075
 20
-30.9
 70
     8
  0
VERTEX
  8
ガラス
 10
-7.025
 20
-30.875
 70
     8
  0
VERTEX
  8
ガラス
 10
-6.975
 20
-30.875
 70
     8
  0
VERTEX
  8
ガラス
 10
-6.95
 20
-30.85
 70
     8
  0
VERTEX
  8
ガラス
 10
-6.9
 20
-30.85
 70
     8
  0
VERTEX
  8
ガラス
 10
-6.85
 20
-30.825
 70
     8
  0
VERTEX
  8
ガラス
 10
-6.8
 20
-30.825
 70
     8
  0
VERTEX
  8
ガラス
 10
-6.75
 20
-30.825
 70
     8
  0
VERTEX
  8
ガラス
 10
-6.725
 20
-30.8
 70
     8
  0
VERTEX
  8
ガラス
 10
-6.675
 20
-30.8
 70
     8
  0
VERTEX
  8
ガラス
 10
-6.625
 20
-30.8
 70
     8
  0
VERTEX
  8
ガラス
 10
-6.575
 20
-30.775
 70
     8
  0
VERTEX
  8
ガラス
 10
-6.55
 20
-30.775
 70
     8
  0
VERTEX
  8
ガラス
 10
-6.5
 20
-30.775
 70
     8
  0
VERTEX
  8
ガラス
 10
-6.45
 20
-30.775
 70
     8
  0
VERTEX
  8
ガラス
 10
-6.425
 20
-30.775
 70
     8
  0
VERTEX
  8
ガラス
 10
-6.375
 20
-30.775
 70
     8
  0
VERTEX
  8
ガラス
 10
-6.325
 20
-30.775
 70
     8
  0
VERTEX
  8
ガラス
 10
-6.3
 20
-30.8
 70
     8
  0
VERTEX
  8
ガラス
 10
-6.25
 20
-30.8
 70
     8
  0
VERTEX
  8
ガラス
 10
-6.2
 20
-30.8
 70
     8
  0
VERTEX
  8
ガラス
 10
-6.175
 20
-30.825
 70
     8
  0
VERTEX
  8
ガラス
 10
-6.125
 20
-30.825
 70
     8
  0
VERTEX
  8
ガラス
 10
-6.1
 20
-30.85
 70
     8
  0
VERTEX
  8
ガラス
 10
-6.05
 20
-30.875
 70
     8
  0
VERTEX
  8
ガラス
 10
-6.025
 20
-30.875
 70
     8
  0
VERTEX
  8
ガラス
 10
-5.975
 20
-30.9
 70
     8
  0
VERTEX
  8
ガラス
 10
-5.95
 20
-30.925
 70
     8
  0
VERTEX
  8
ガラス
 10
-5.9
 20
-30.95
 70
     8
  0
VERTEX
  8
ガラス
 10
-5.875
 20
-30.975
 70
     8
  0
VERTEX
  8
ガラス
 10
-5.825
 20
-31.0
 70
     8
  0
VERTEX
  8
ガラス
 10
-5.8
 20
-31.025
 70
     8
  0
VERTEX
  8
ガラス
 10
-5.75
 20
-31.05
 70
     8
  0
VERTEX
  8
ガラス
 10
-5.725
 20
-31.075
 70
     8
  0
VERTEX
  8
ガラス
 10
-5.675
 20
-31.1
 70
     8
  0
VERTEX
  8
ガラス
 10
-5.65
 20
-31.125
 70
     8
  0
VERTEX
  8
ガラス
 10
-5.625
 20
-31.175
 70
     8
  0
VERTEX
  8
ガラス
 10
-5.575
 20
-31.2
 70
     8
  0
VERTEX
  8
ガラス
 10
-5.55
 20
-31.225
 70
     8
  0
VERTEX
  8
ガラス
 10
-5.5
 20
-31.25
 70
     8
  0
SEQEND
  0
POLYLINE
  8
ガラス
  6
CONTINUOUS
 66
     1
 70
     4
  0
VERTEX
  8
ガラス
 10
-5.5
 20
-31.25
 70
     8
  0
VERTEX
  8
ガラス
 10
-5.55
 20
-31.275
 70
     8
  0
VERTEX
  8
ガラス
 10
-5.575
 20
-31.275
 70
     8
  0
VERTEX
  8
ガラス
 10
-5.6
 20
-31.275
 70
     8
  0
VERTEX
  8
ガラス
 10
-5.625
 20
-31.275
 70
     8
  0
VERTEX
  8
ガラス
 10
-5.65
 20
-31.3
 70
     8
  0
VERTEX
  8
ガラス
 10
-5.675
 20
-31.3
 70
     8
  0
VERTEX
  8
ガラス
 10
-5.725
 20
-31.3
 70
     8
  0
VERTEX
  8
ガラス
 10
-5.75
 20
-31.325
 70
     8
  0
VERTEX
  8
ガラス
 10
-5.775
 20
-31.325
 70
     8
  0
VERTEX
  8
ガラス
 10
-5.8
 20
-31.325
 70
     8
  0
VERTEX
  8
ガラス
 10
-5.825
 20
-31.35
 70
     8
  0
VERTEX
  8
ガラス
 10
-5.875
 20
-31.35
 70
     8
  0
VERTEX
  8
ガラス
 10
-5.9
 20
-31.375
 70
     8
  0
VERTEX
  8
ガラス
 10
-5.925
 20
-31.375
 70
     8
  0
VERTEX
  8
ガラス
 10
-5.95
 20
-31.375
 70
     8
  0
VERTEX
  8
ガラス
 10
-5.975
 20
-31.4
 70
     8
  0
VERTEX
  8
ガラス
 10
-6.0
 20
-31.4
 70
     8
  0
VERTEX
  8
ガラス
 10
-6.05
 20
-31.425
 70
     8
  0
VERTEX
  8
ガラス
 10
-6.075
 20
-31.425
 70
     8
  0
VERTEX
  8
ガラス
 10
-6.1
 20
-31.425
 70
     8
  0
VERTEX
  8
ガラス
 10
-6.125
 20
-31.45
 70
     8
  0
VERTEX
  8
ガラス
 10
-6.15
 20
-31.45
 70
     8
  0
VERTEX
  8
ガラス
 10
-6.175
 20
-31.475
 70
     8
  0
VERTEX
  8
ガラス
 10
-6.2
 20
-31.475
 70
     8
  0
VERTEX
  8
ガラス
 10
-6.225
 20
-31.5
 70
     8
  0
VERTEX
  8
ガラス
 10
-6.25
 20
-31.5
 70
     8
  0
VERTEX
  8
ガラス
 10
-6.3
 20
-31.525
 70
     8
  0
VERTEX
  8
ガラス
 10
-6.325
 20
-31.55
 70
     8
  0
VERTEX
  8
ガラス
 10
-6.35
 20
-31.55
 70
     8
  0
VERTEX
  8
ガラス
 10
-6.375
 20
-31.575
 70
     8
  0
VERTEX
  8
ガラス
 10
-6.4
 20
-31.575
 70
     8
  0
VERTEX
  8
ガラス
 10
-6.425
 20
-31.6
 70
     8
  0
VERTEX
  8
ガラス
 10
-6.45
 20
-31.625
 70
     8
  0
VERTEX
  8
ガラス
 10
-6.475
 20
-31.625
 70
     8
  0
VERTEX
  8
ガラス
 10
-6.5
 20
-31.65
 70
     8
  0
VERTEX
  8
ガラス
 10
-6.525
 20
-31.65
 70
     8
  0
VERTEX
  8
ガラス
 10
-6.55
 20
-31.675
 70
     8
  0
VERTEX
  8
ガラス
 10
-6.575
 20
-31.7
 70
     8
  0
VERTEX
  8
ガラス
 10
-6.6
 20
-31.7
 70
     8
  0
VERTEX
  8
ガラス
 10
-6.625
 20
-31.725
 70
     8
  0
SEQEND
  0
ARC
  8
ガラス
  6
CONTINUOUS
 10
-6.86573
 20
-31.299748
 40
0.477567
 50
120.563758
 51
300.563758
  0
ENDBLK
  0
BLOCK
  2
*GRP_0059
 70
    65
 10
0.0
 20
0.0
  0
POLYLINE
  8
ガラス
  6
CONTINUOUS
 66
     1
 70
     4
  0
VERTEX
  8
ガラス
 10
-27.55
 20
-31.35
 70
     8
  0
VERTEX
  8
ガラス
 10
-27.5
 20
-31.325
 70
     8
  0
VERTEX
  8
ガラス
 10
-27.45
 20
-31.325
 70
     8
  0
VERTEX
  8
ガラス
 10
-27.4
 20
-31.3
 70
     8
  0
VERTEX
  8
ガラス
 10
-27.35
 20
-31.3
 70
     8
  0
VERTEX
  8
ガラス
 10
-27.325
 20
-31.275
 70
     8
  0
VERTEX
  8
ガラス
 10
-27.275
 20
-31.275
 70
     8
  0
VERTEX
  8
ガラス
 10
-27.225
 20
-31.275
 70
     8
  0
VERTEX
  8
ガラス
 10
-27.175
 20
-31.25
 70
     8
  0
VERTEX
  8
ガラス
 10
-27.125
 20
-31.25
 70
     8
  0
VERTEX
  8
ガラス
 10
-27.1
 20
-31.25
 70
     8
  0
VERTEX
  8
ガラス
 10
-27.05
 20
-31.225
 70
     8
  0
VERTEX
  8
ガラス
 10
-27.0
 20
-31.225
 70
     8
  0
VERTEX
  8
ガラス
 10
-26.95
 20
-31.225
 70
     8
  0
VERTEX
  8
ガラス
 10
-26.925
 20
-31.225
 70
     8
  0
VERTEX
  8
ガラス
 10
-26.875
 20
-31.225
 70
     8
  0
VERTEX
  8
ガラス
 10
-26.825
 20
-31.225
 70
     8
  0
VERTEX
  8
ガラス
 10
-26.8
 20
-31.225
 70
     8
  0
VERTEX
  8
ガラス
 10
-26.75
 20
-31.225
 70
     8
  0
VERTEX
  8
ガラス
 10
-26.7
 20
-31.225
 70
     8
  0
VERTEX
  8
ガラス
 10
-26.675
 20
-31.25
 70
     8
  0
VERTEX
  8
ガラス
 10
-26.625
 20
-31.25
 70
     8
  0
VERTEX
  8
ガラス
 10
-26.575
 20
-31.25
 70
     8
  0
VERTEX
  8
ガラス
 10
-26.55
 20
-31.275
 70
     8
  0
VERTEX
  8
ガラス
 10
-26.5
 20
-31.3
 70
     8
  0
VERTEX
  8
ガラス
 10
-26.475
 20
-31.3
 70
     8
  0
VERTEX
  8
ガラス
 10
-26.425
 20
-31.325
 70
     8
  0
VERTEX
  8
ガラス
 10
-26.4
 20
-31.35
 70
     8
  0
VERTEX
  8
ガラス
 10
-26.35
 20
-31.375
 70
     8
  0
VERTEX
  8
ガラス
 10
-26.325
 20
-31.4
 70
     8
  0
VERTEX
  8
ガラス
 10
-26.275
 20
-31.425
 70
     8
  0
VERTEX
  8
ガラス
 10
-26.25
 20
-31.45
 70
     8
  0
VERTEX
  8
ガラス
 10
-26.2
 20
-31.475
 70
     8
  0
VERTEX
  8
ガラス
 10
-26.175
 20
-31.5
 70
     8
  0
VERTEX
  8
ガラス
 10
-26.15
 20
-31.525
 70
     8
  0
VERTEX
  8
ガラス
 10
-26.1
 20
-31.55
 70
     8
  0
VERTEX
  8
ガラス
 10
-26.075
 20
-31.575
 70
     8
  0
VERTEX
  8
ガラス
 10
-26.025
 20
-31.6
 70
     8
  0
VERTEX
  8
ガラス
 10
-26.0
 20
-31.625
 70
     8
  0
VERTEX
  8
ガラス
 10
-25.95
 20
-31.675
 70
     8
  0
VERTEX
  8
ガラス
 10
-25.925
 20
-31.7
 70
     8
  0
SEQEND
  0
POLYLINE
  8
ガラス
  6
CONTINUOUS
 66
     1
 70
     4
  0
VERTEX
  8
ガラス
 10
-25.925
 20
-31.7
 70
     8
  0
VERTEX
  8
ガラス
 10
-25.95
 20
-31.7
 70
     8
  0
VERTEX
  8
ガラス
 10
-25.975
 20
-31.725
 70
     8
  0
VERTEX
  8
ガラス
 10
-26.025
 20
-31.725
 70
     8
  0
VERTEX
  8
ガラス
 10
-26.05
 20
-31.725
 70
     8
  0
VERTEX
  8
ガラス
 10
-26.075
 20
-31.725
 70
     8
  0
VERTEX
  8
ガラス
 10
-26.1
 20
-31.75
 70
     8
  0
VERTEX
  8
ガラス
 10
-26.125
 20
-31.75
 70
     8
  0
VERTEX
  8
ガラス
 10
-26.175
 20
-31.75
 70
     8
  0
VERTEX
  8
ガラス
 10
-26.2
 20
-31.775
 70
     8
  0
VERTEX
  8
ガラス
 10
-26.225
 20
-31.775
 70
     8
  0
VERTEX
  8
ガラス
 10
-26.25
 20
-31.775
 70
     8
  0
VERTEX
  8
ガラス
 10
-26.275
 20
-31.8
 70
     8
  0
VERTEX
  8
ガラス
 10
-26.3
 20
-31.8
 70
     8
  0
VERTEX
  8
ガラス
 10
-26.35
 20
-31.825
 70
     8
  0
VERTEX
  8
ガラス
 10
-26.375
 20
-31.825
 70
     8
  0
VERTEX
  8
ガラス
 10
-26.4
 20
-31.825
 70
     8
  0
VERTEX
  8
ガラス
 10
-26.425
 20
-31.85
 70
     8
  0
VERTEX
  8
ガラス
 10
-26.45
 20
-31.85
 70
     8
  0
VERTEX
  8
ガラス
 10
-26.475
 20
-31.875
 70
     8
  0
VERTEX
  8
ガラス
 10
-26.525
 20
-31.875
 70
     8
  0
VERTEX
  8
ガラス
 10
-26.55
 20
-31.9
 70
     8
  0
VERTEX
  8
ガラス
 10
-26.575
 20
-31.9
 70
     8
  0
VERTEX
  8
ガラス
 10
-26.6
 20
-31.925
 70
     8
  0
VERTEX
  8
ガラス
 10
-26.625
 20
-31.925
 70
     8
  0
VERTEX
  8
ガラス
 10
-26.65
 20
-31.95
 70
     8
  0
VERTEX
  8
ガラス
 10
-26.675
 20
-31.95
 70
     8
  0
VERTEX
  8
ガラス
 10
-26.7
 20
-31.975
 70
     8
  0
VERTEX
  8
ガラス
 10
-26.725
 20
-31.975
 70
     8
  0
VERTEX
  8
ガラス
 10
-26.75
 20
-32.0
 70
     8
  0
VERTEX
  8
ガラス
 10
-26.8
 20
-32.0
 70
     8
  0
VERTEX
  8
ガラス
 10
-26.825
 20
-32.025
 70
     8
  0
VERTEX
  8
ガラス
 10
-26.85
 20
-32.05
 70
     8
  0
VERTEX
  8
ガラス
 10
-26.875
 20
-32.05
 70
     8
  0
VERTEX
  8
ガラス
 10
-26.9
 20
-32.075
 70
     8
  0
VERTEX
  8
ガラス
 10
-26.925
 20
-32.075
 70
     8
  0
VERTEX
  8
ガラス
 10
-26.95
 20
-32.1
 70
     8
  0
VERTEX
  8
ガラス
 10
-26.975
 20
-32.125
 70
     8
  0
VERTEX
  8
ガラス
 10
-27.0
 20
-32.125
 70
     8
  0
VERTEX
  8
ガラス
 10
-27.025
 20
-32.15
 70
     8
  0
VERTEX
  8
ガラス
 10
-27.05
 20
-32.175
 70
     8
  0
SEQEND
  0
ARC
  8
ガラス
  6
CONTINUOUS
 10
-27.28379
 20
-31.741219
 40
0.477567
 50
120.563758
 51
300.563758
  0
ENDBLK
  0
BLOCK
  2
*GRP_0060
 70
    65
 10
0.0
 20
0.0
  0
POLYLINE
  8
ガラス
  6
CONTINUOUS
 66
     1
 70
     4
  0
VERTEX
  8
ガラス
 10
-33.875
 20
-32.275
 70
     8
  0
VERTEX
  8
ガラス
 10
-33.85
 20
-32.275
 70
     8
  0
VERTEX
  8
ガラス
 10
-33.8
 20
-32.25
 70
     8
  0
VERTEX
  8
ガラス
 10
-33.75
 20
-32.25
 70
     8
  0
VERTEX
  8
ガラス
 10
-33.7
 20
-32.225
 70
     8
  0
VERTEX
  8
ガラス
 10
-33.65
 20
-32.225
 70
     8
  0
VERTEX
  8
ガラス
 10
-33.625
 20
-32.2
 70
     8
  0
VERTEX
  8
ガラス
 10
-33.575
 20
-32.2
 70
     8
  0
VERTEX
  8
ガラス
 10
-33.525
 20
-32.2
 70
     8
  0
VERTEX
  8
ガラス
 10
-33.475
 20
-32.175
 70
     8
  0
VERTEX
  8
ガラス
 10
-33.425
 20
-32.175
 70
     8
  0
VERTEX
  8
ガラス
 10
-33.4
 20
-32.175
 70
     8
  0
VERTEX
  8
ガラス
 10
-33.35
 20
-32.175
 70
     8
  0
VERTEX
  8
ガラス
 10
-33.3
 20
-32.15
 70
     8
  0
VERTEX
  8
ガラス
 10
-33.275
 20
-32.15
 70
     8
  0
VERTEX
  8
ガラス
 10
-33.225
 20
-32.15
 70
     8
  0
VERTEX
  8
ガラス
 10
-33.175
 20
-32.15
 70
     8
  0
VERTEX
  8
ガラス
 10
-33.125
 20
-32.15
 70
     8
  0
VERTEX
  8
ガラス
 10
-33.1
 20
-32.175
 70
     8
  0
VERTEX
  8
ガラス
 10
-33.05
 20
-32.175
 70
     8
  0
VERTEX
  8
ガラス
 10
-33.025
 20
-32.175
 70
     8
  0
VERTEX
  8
ガラス
 10
-32.975
 20
-32.175
 70
     8
  0
VERTEX
  8
ガラス
 10
-32.925
 20
-32.2
 70
     8
  0
VERTEX
  8
ガラス
 10
-32.9
 20
-32.2
 70
     8
  0
VERTEX
  8
ガラス
 10
-32.85
 20
-32.225
 70
     8
  0
VERTEX
  8
ガラス
 10
-32.825
 20
-32.25
 70
     8
  0
VERTEX
  8
ガラス
 10
-32.775
 20
-32.25
 70
     8
  0
VERTEX
  8
ガラス
 10
-32.75
 20
-32.275
 70
     8
  0
VERTEX
  8
ガラス
 10
-32.7
 20
-32.3
 70
     8
  0
VERTEX
  8
ガラス
 10
-32.675
 20
-32.325
 70
     8
  0
VERTEX
  8
ガラス
 10
-32.625
 20
-32.35
 70
     8
  0
VERTEX
  8
ガラス
 10
-32.6
 20
-32.375
 70
     8
  0
VERTEX
  8
ガラス
 10
-32.55
 20
-32.4
 70
     8
  0
VERTEX
  8
ガラス
 10
-32.525
 20
-32.425
 70
     8
  0
VERTEX
  8
ガラス
 10
-32.475
 20
-32.45
 70
     8
  0
VERTEX
  8
ガラス
 10
-32.45
 20
-32.475
 70
     8
  0
VERTEX
  8
ガラス
 10
-32.425
 20
-32.525
 70
     8
  0
VERTEX
  8
ガラス
 10
-32.375
 20
-32.55
 70
     8
  0
VERTEX
  8
ガラス
 10
-32.35
 20
-32.575
 70
     8
  0
VERTEX
  8
ガラス
 10
-32.3
 20
-32.6
 70
     8
  0
VERTEX
  8
ガラス
 10
-32.275
 20
-32.625
 70
     8
  0
SEQEND
  0
POLYLINE
  8
ガラス
  6
CONTINUOUS
 66
     1
 70
     4
  0
VERTEX
  8
ガラス
 10
-32.275
 20
-32.625
 70
     8
  0
VERTEX
  8
ガラス
 10
-32.3
 20
-32.65
 70
     8
  0
VERTEX
  8
ガラス
 10
-32.325
 20
-32.65
 70
     8
  0
VERTEX
  8
ガラス
 10
-32.35
 20
-32.65
 70
     8
  0
VERTEX
  8
ガラス
 10
-32.4
 20
-32.675
 70
     8
  0
VERTEX
  8
ガラス
 10
-32.425
 20
-32.675
 70
     8
  0
VERTEX
  8
ガラス
 10
-32.45
 20
-32.675
 70
     8
  0
VERTEX
  8
ガラス
 10
-32.475
 20
-32.7
 70
     8
  0
VERTEX
  8
ガラス
 10
-32.5
 20
-32.7
 70
     8
  0
VERTEX
  8
ガラス
 10
-32.55
 20
-32.7
 70
     8
  0
VERTEX
  8
ガラス
 10
-32.575
 20
-32.725
 70
     8
  0
VERTEX
  8
ガラス
 10
-32.6
 20
-32.725
 70
     8
  0
VERTEX
  8
ガラス
 10
-32.625
 20
-32.725
 70
     8
  0
VERTEX
  8
ガラス
 10
-32.65
 20
-32.75
 70
     8
  0
VERTEX
  8
ガラス
 10
-32.675
 20
-32.75
 70
     8
  0
VERTEX
  8
ガラス
 10
-32.725
 20
-32.75
 70
     8
  0
VERTEX
  8
ガラス
 10
-32.75
 20
-32.775
 70
     8
  0
VERTEX
  8
ガラス
 10
-32.775
 20
-32.775
 70
     8
  0
VERTEX
  8
ガラス
 10
-32.8
 20
-32.8
 70
     8
  0
VERTEX
  8
ガラス
 10
-32.825
 20
-32.8
 70
     8
  0
VERTEX
  8
ガラス
 10
-32.85
 20
-32.825
 70
     8
  0
VERTEX
  8
ガラス
 10
-32.875
 20
-32.825
 70
     8
  0
VERTEX
  8
ガラス
 10
-32.925
 20
-32.85
 70
     8
  0
VERTEX
  8
ガラス
 10
-32.95
 20
-32.85
 70
     8
  0
VERTEX
  8
ガラス
 10
-32.975
 20
-32.875
 70
     8
  0
VERTEX
  8
ガラス
 10
-33.0
 20
-32.875
 70
     8
  0
VERTEX
  8
ガラス
 10
-33.025
 20
-32.9
 70
     8
  0
VERTEX
  8
ガラス
 10
-33.05
 20
-32.9
 70
     8
  0
VERTEX
  8
ガラス
 10
-33.075
 20
-32.925
 70
     8
  0
VERTEX
  8
ガラス
 10
-33.1
 20
-32.925
 70
     8
  0
VERTEX
  8
ガラス
 10
-33.125
 20
-32.95
 70
     8
  0
VERTEX
  8
ガラス
 10
-33.15
 20
-32.975
 70
     8
  0
VERTEX
  8
ガラス
 10
-33.175
 20
-32.975
 70
     8
  0
VERTEX
  8
ガラス
 10
-33.225
 20
-33.0
 70
     8
  0
VERTEX
  8
ガラス
 10
-33.25
 20
-33.0
 70
     8
  0
VERTEX
  8
ガラス
 10
-33.275
 20
-33.025
 70
     8
  0
VERTEX
  8
ガラス
 10
-33.3
 20
-33.05
 70
     8
  0
VERTEX
  8
ガラス
 10
-33.325
 20
-33.05
 70
     8
  0
VERTEX
  8
ガラス
 10
-33.35
 20
-33.075
 70
     8
  0
VERTEX
  8
ガラス
 10
-33.375
 20
-33.075
 70
     8
  0
VERTEX
  8
ガラス
 10
-33.4
 20
-33.1
 70
     8
  0
SEQEND
  0
ARC
  8
ガラス
  6
CONTINUOUS
 10
-33.629943
 20
-32.679346
 40
0.477567
 50
120.563758
 51
300.563758
  0
ENDBLK
  0
BLOCK
  2
*GRP_0061
 70
    65
 10
0.0
 20
0.0
  0
POLYLINE
  8
ガラス
  6
CONTINUOUS
 66
     1
 70
     4
  0
VERTEX
  8
ガラス
 10
-40.775
 20
-36.325
 70
     8
  0
VERTEX
  8
ガラス
 10
-40.75
 20
-36.325
 70
     8
  0
VERTEX
  8
ガラス
 10
-40.7
 20
-36.3
 70
     8
  0
VERTEX
  8
ガラス
 10
-40.65
 20
-36.3
 70
     8
  0
VERTEX
  8
ガラス
 10
-40.6
 20
-36.275
 70
     8
  0
VERTEX
  8
ガラス
 10
-40.55
 20
-36.275
 70
     8
  0
VERTEX
  8
ガラス
 10
-40.525
 20
-36.25
 70
     8
  0
VERTEX
  8
ガラス
 10
-40.475
 20
-36.25
 70
     8
  0
VERTEX
  8
ガラス
 10
-40.425
 20
-36.25
 70
     8
  0
VERTEX
  8
ガラス
 10
-40.375
 20
-36.225
 70
     8
  0
VERTEX
  8
ガラス
 10
-40.35
 20
-36.225
 70
     8
  0
VERTEX
  8
ガラス
 10
-40.3
 20
-36.225
 70
     8
  0
VERTEX
  8
ガラス
 10
-40.25
 20
-36.2
 70
     8
  0
VERTEX
  8
ガラス
 10
-40.2
 20
-36.2
 70
     8
  0
VERTEX
  8
ガラス
 10
-40.175
 20
-36.2
 70
     8
  0
VERTEX
  8
ガラス
 10
-40.125
 20
-36.2
 70
     8
  0
VERTEX
  8
ガラス
 10
-40.075
 20
-36.2
 70
     8
  0
VERTEX
  8
ガラス
 10
-40.05
 20
-36.2
 70
     8
  0
VERTEX
  8
ガラス
 10
-40.0
 20
-36.2
 70
     8
  0
VERTEX
  8
ガラス
 10
-39.95
 20
-36.225
 70
     8
  0
VERTEX
  8
ガラス
 10
-39.925
 20
-36.225
 70
     8
  0
VERTEX
  8
ガラス
 10
-39.875
 20
-36.225
 70
     8
  0
VERTEX
  8
ガラス
 10
-39.825
 20
-36.25
 70
     8
  0
VERTEX
  8
ガラス
 10
-39.8
 20
-36.25
 70
     8
  0
VERTEX
  8
ガラス
 10
-39.75
 20
-36.275
 70
     8
  0
VERTEX
  8
ガラス
 10
-39.725
 20
-36.275
 70
     8
  0
VERTEX
  8
ガラス
 10
-39.675
 20
-36.3
 70
     8
  0
VERTEX
  8
ガラス
 10
-39.65
 20
-36.325
 70
     8
  0
VERTEX
  8
ガラス
 10
-39.6
 20
-36.35
 70
     8
  0
VERTEX
  8
ガラス
 10
-39.575
 20
-36.375
 70
     8
  0
VERTEX
  8
ガラス
 10
-39.525
 20
-36.4
 70
     8
  0
VERTEX
  8
ガラス
 10
-39.5
 20
-36.425
 70
     8
  0
VERTEX
  8
ガラス
 10
-39.45
 20
-36.45
 70
     8
  0
VERTEX
  8
ガラス
 10
-39.425
 20
-36.475
 70
     8
  0
VERTEX
  8
ガラス
 10
-39.375
 20
-36.5
 70
     8
  0
VERTEX
  8
ガラス
 10
-39.35
 20
-36.525
 70
     8
  0
VERTEX
  8
ガラス
 10
-39.325
 20
-36.55
 70
     8
  0
VERTEX
  8
ガラス
 10
-39.275
 20
-36.6
 70
     8
  0
VERTEX
  8
ガラス
 10
-39.25
 20
-36.625
 70
     8
  0
VERTEX
  8
ガラス
 10
-39.2
 20
-36.65
 70
     8
  0
VERTEX
  8
ガラス
 10
-39.175
 20
-36.675
 70
     8
  0
SEQEND
  0
POLYLINE
  8
ガラス
  6
CONTINUOUS
 66
     1
 70
     4
  0
VERTEX
  8
ガラス
 10
-39.175
 20
-36.675
 70
     8
  0
VERTEX
  8
ガラス
 10
-39.2
 20
-36.7
 70
     8
  0
VERTEX
  8
ガラス
 10
-39.225
 20
-36.7
 70
     8
  0
VERTEX
  8
ガラス
 10
-39.275
 20
-36.7
 70
     8
  0
VERTEX
  8
ガラス
 10
-39.3
 20
-36.7
 70
     8
  0
VERTEX
  8
ガラス
 10
-39.325
 20
-36.725
 70
     8
  0
VERTEX
  8
ガラス
 10
-39.35
 20
-36.725
 70
     8
  0
VERTEX
  8
ガラス
 10
-39.375
 20
-36.725
 70
     8
  0
VERTEX
  8
ガラス
 10
-39.4
 20
-36.75
 70
     8
  0
VERTEX
  8
ガラス
 10
-39.45
 20
-36.75
 70
     8
  0
VERTEX
  8
ガラス
 10
-39.475
 20
-36.75
 70
     8
  0
VERTEX
  8
ガラス
 10
-39.5
 20
-36.775
 70
     8
  0
VERTEX
  8
ガラス
 10
-39.525
 20
-36.775
 70
     8
  0
VERTEX
  8
ガラス
 10
-39.55
 20
-36.775
 70
     8
  0
VERTEX
  8
ガラス
 10
-39.6
 20
-36.8
 70
     8
  0
VERTEX
  8
ガラス
 10
-39.625
 20
-36.8
 70
     8
  0
VERTEX
  8
ガラス
 10
-39.65
 20
-36.825
 70
     8
  0
VERTEX
  8
ガラス
 10
-39.675
 20
-36.825
 70
     8
  0
VERTEX
  8
ガラス
 10
-39.7
 20
-36.825
 70
     8
  0
VERTEX
  8
ガラス
 10
-39.725
 20
-36.85
 70
     8
  0
VERTEX
  8
ガラス
 10
-39.75
 20
-36.85
 70
     8
  0
VERTEX
  8
ガラス
 10
-39.8
 20
-36.875
 70
     8
  0
VERTEX
  8
ガラス
 10
-39.825
 20
-36.875
 70
     8
  0
VERTEX
  8
ガラス
 10
-39.85
 20
-36.9
 70
     8
  0
VERTEX
  8
ガラス
 10
-39.875
 20
-36.9
 70
     8
  0
VERTEX
  8
ガラス
 10
-39.9
 20
-36.925
 70
     8
  0
VERTEX
  8
ガラス
 10
-39.925
 20
-36.925
 70
     8
  0
VERTEX
  8
ガラス
 10
-39.95
 20
-36.95
 70
     8
  0
VERTEX
  8
ガラス
 10
-39.975
 20
-36.975
 70
     8
  0
VERTEX
  8
ガラス
 10
-40.0
 20
-36.975
 70
     8
  0
VERTEX
  8
ガラス
 10
-40.025
 20
-37.0
 70
     8
  0
VERTEX
  8
ガラス
 10
-40.05
 20
-37.0
 70
     8
  0
VERTEX
  8
ガラス
 10
-40.1
 20
-37.025
 70
     8
  0
VERTEX
  8
ガラス
 10
-40.125
 20
-37.05
 70
     8
  0
VERTEX
  8
ガラス
 10
-40.15
 20
-37.05
 70
     8
  0
VERTEX
  8
ガラス
 10
-40.175
 20
-37.075
 70
     8
  0
VERTEX
  8
ガラス
 10
-40.2
 20
-37.075
 70
     8
  0
VERTEX
  8
ガラス
 10
-40.225
 20
-37.1
 70
     8
  0
VERTEX
  8
ガラス
 10
-40.25
 20
-37.125
 70
     8
  0
VERTEX
  8
ガラス
 10
-40.275
 20
-37.125
 70
     8
  0
VERTEX
  8
ガラス
 10
-40.3
 20
-37.15
 70
     8
  0
SEQEND
  0
ARC
  8
ガラス
  6
CONTINUOUS
 10
-40.531699
 20
-36.723576
 40
0.477567
 50
120.563758
 51
300.563758
  0
ENDBLK
  0
BLOCK
  2
*GRP_0062
 70
    65
 10
0.0
 20
0.0
  0
POLYLINE
  8
ガラス
  6
CONTINUOUS
 66
     1
 70
     4
  0
VERTEX
  8
ガラス
 10
-46.8
 20
-36.875
 70
     8
  0
VERTEX
  8
ガラス
 10
-46.75
 20
-36.875
 70
     8
  0
VERTEX
  8
ガラス
 10
-46.7
 20
-36.85
 70
     8
  0
VERTEX
  8
ガラス
 10
-46.675
 20
-36.85
 70
     8
  0
VERTEX
  8
ガラス
 10
-46.625
 20
-36.825
 70
     8
  0
VERTEX
  8
ガラス
 10
-46.575
 20
-36.825
 70
     8
  0
VERTEX
  8
ガラス
 10
-46.525
 20
-36.8
 70
     8
  0
VERTEX
  8
ガラス
 10
-46.475
 20
-36.8
 70
     8
  0
VERTEX
  8
ガラス
 10
-46.45
 20
-36.8
 70
     8
  0
VERTEX
  8
ガラス
 10
-46.4
 20
-36.775
 70
     8
  0
VERTEX
  8
ガラス
 10
-46.35
 20
-36.775
 70
     8
  0
VERTEX
  8
ガラス
 10
-46.3
 20
-36.775
 70
     8
  0
VERTEX
  8
ガラス
 10
-46.275
 20
-36.75
 70
     8
  0
VERTEX
  8
ガラス
 10
-46.225
 20
-36.75
 70
     8
  0
VERTEX
  8
ガラス
 10
-46.175
 20
-36.75
 70
     8
  0
VERTEX
  8
ガラス
 10
-46.125
 20
-36.75
 70
     8
  0
VERTEX
  8
ガラス
 10
-46.1
 20
-36.75
 70
     8
  0
VERTEX
  8
ガラス
 10
-46.05
 20
-36.75
 70
     8
  0
VERTEX
  8
ガラス
 10
-46.0
 20
-36.75
 70
     8
  0
VERTEX
  8
ガラス
 10
-45.975
 20
-36.775
 70
     8
  0
VERTEX
  8
ガラス
 10
-45.925
 20
-36.775
 70
     8
  0
VERTEX
  8
ガラス
 10
-45.9
 20
-36.775
 70
     8
  0
VERTEX
  8
ガラス
 10
-45.85
 20
-36.8
 70
     8
  0
VERTEX
  8
ガラス
 10
-45.8
 20
-36.8
 70
     8
  0
VERTEX
  8
ガラス
 10
-45.775
 20
-36.825
 70
     8
  0
VERTEX
  8
ガラス
 10
-45.725
 20
-36.85
 70
     8
  0
VERTEX
  8
ガラス
 10
-45.7
 20
-36.85
 70
     8
  0
VERTEX
  8
ガラス
 10
-45.65
 20
-36.875
 70
     8
  0
VERTEX
  8
ガラス
 10
-45.625
 20
-36.9
 70
     8
  0
VERTEX
  8
ガラス
 10
-45.575
 20
-36.925
 70
     8
  0
VERTEX
  8
ガラス
 10
-45.55
 20
-36.95
 70
     8
  0
VERTEX
  8
ガラス
 10
-45.5
 20
-36.975
 70
     8
  0
VERTEX
  8
ガラス
 10
-45.475
 20
-37.0
 70
     8
  0
VERTEX
  8
ガラス
 10
-45.45
 20
-37.025
 70
     8
  0
VERTEX
  8
ガラス
 10
-45.4
 20
-37.05
 70
     8
  0
VERTEX
  8
ガラス
 10
-45.375
 20
-37.075
 70
     8
  0
VERTEX
  8
ガラス
 10
-45.325
 20
-37.1
 70
     8
  0
VERTEX
  8
ガラス
 10
-45.3
 20
-37.15
 70
     8
  0
VERTEX
  8
ガラス
 10
-45.25
 20
-37.175
 70
     8
  0
VERTEX
  8
ガラス
 10
-45.225
 20
-37.2
 70
     8
  0
VERTEX
  8
ガラス
 10
-45.2
 20
-37.225
 70
     8
  0
SEQEND
  0
POLYLINE
  8
ガラス
  6
CONTINUOUS
 66
     1
 70
     4
  0
VERTEX
  8
ガラス
 10
-45.2
 20
-37.225
 70
     8
  0
VERTEX
  8
ガラス
 10
-45.225
 20
-37.25
 70
     8
  0
VERTEX
  8
ガラス
 10
-45.25
 20
-37.25
 70
     8
  0
VERTEX
  8
ガラス
 10
-45.275
 20
-37.25
 70
     8
  0
VERTEX
  8
ガラス
 10
-45.3
 20
-37.275
 70
     8
  0
VERTEX
  8
ガラス
 10
-45.35
 20
-37.275
 70
     8
  0
VERTEX
  8
ガラス
 10
-45.375
 20
-37.275
 70
     8
  0
VERTEX
  8
ガラス
 10
-45.4
 20
-37.275
 70
     8
  0
VERTEX
  8
ガラス
 10
-45.425
 20
-37.3
 70
     8
  0
VERTEX
  8
ガラス
 10
-45.45
 20
-37.3
 70
     8
  0
VERTEX
  8
ガラス
 10
-45.475
 20
-37.3
 70
     8
  0
VERTEX
  8
ガラス
 10
-45.525
 20
-37.325
 70
     8
  0
VERTEX
  8
ガラス
 10
-45.55
 20
-37.325
 70
     8
  0
VERTEX
  8
ガラス
 10
-45.575
 20
-37.35
 70
     8
  0
VERTEX
  8
ガラス
 10
-45.6
 20
-37.35
 70
     8
  0
VERTEX
  8
ガラス
 10
-45.625
 20
-37.35
 70
     8
  0
VERTEX
  8
ガラス
 10
-45.65
 20
-37.375
 70
     8
  0
VERTEX
  8
ガラス
 10
-45.7
 20
-37.375
 70
     8
  0
VERTEX
  8
ガラス
 10
-45.725
 20
-37.4
 70
     8
  0
VERTEX
  8
ガラス
 10
-45.75
 20
-37.4
 70
     8
  0
VERTEX
  8
ガラス
 10
-45.775
 20
-37.4
 70
     8
  0
VERTEX
  8
ガラス
 10
-45.8
 20
-37.425
 70
     8
  0
VERTEX
  8
ガラス
 10
-45.825
 20
-37.425
 70
     8
  0
VERTEX
  8
ガラス
 10
-45.85
 20
-37.45
 70
     8
  0
VERTEX
  8
ガラス
 10
-45.875
 20
-37.45
 70
     8
  0
VERTEX
  8
ガラス
 10
-45.925
 20
-37.475
 70
     8
  0
VERTEX
  8
ガラス
 10
-45.95
 20
-37.475
 70
     8
  0
VERTEX
  8
ガラス
 10
-45.975
 20
-37.5
 70
     8
  0
VERTEX
  8
ガラス
 10
-46.0
 20
-37.525
 70
     8
  0
VERTEX
  8
ガラス
 10
-46.025
 20
-37.525
 70
     8
  0
VERTEX
  8
ガラス
 10
-46.05
 20
-37.55
 70
     8
  0
VERTEX
  8
ガラス
 10
-46.075
 20
-37.55
 70
     8
  0
VERTEX
  8
ガラス
 10
-46.1
 20
-37.575
 70
     8
  0
VERTEX
  8
ガラス
 10
-46.125
 20
-37.6
 70
     8
  0
VERTEX
  8
ガラス
 10
-46.15
 20
-37.6
 70
     8
  0
VERTEX
  8
ガラス
 10
-46.175
 20
-37.625
 70
     8
  0
VERTEX
  8
ガラス
 10
-46.2
 20
-37.625
 70
     8
  0
VERTEX
  8
ガラス
 10
-46.225
 20
-37.65
 70
     8
  0
VERTEX
  8
ガラス
 10
-46.275
 20
-37.675
 70
     8
  0
VERTEX
  8
ガラス
 10
-46.3
 20
-37.675
 70
     8
  0
VERTEX
  8
ガラス
 10
-46.325
 20
-37.7
 70
     8
  0
SEQEND
  0
ARC
  8
ガラス
  6
CONTINUOUS
 10
-46.546749
 20
-37.275416
 40
0.477567
 50
120.563758
 51
300.563758
  0
ENDBLK
  0
BLOCK
  2
*GRP_0063
 70
    65
 10
0.0
 20
0.0
  0
POLYLINE
  8
ガラス
  6
CONTINUOUS
 66
     1
 70
     4
  0
VERTEX
  8
ガラス
 10
-50.475
 20
-40.875
 70
     8
  0
VERTEX
  8
ガラス
 10
-50.45
 20
-40.825
 70
     8
  0
VERTEX
  8
ガラス
 10
-50.45
 20
-40.775
 70
     8
  0
VERTEX
  8
ガラス
 10
-50.425
 20
-40.725
 70
     8
  0
VERTEX
  8
ガラス
 10
-50.4
 20
-40.7
 70
     8
  0
VERTEX
  8
ガラス
 10
-50.4
 20
-40.65
 70
     8
  0
VERTEX
  8
ガラス
 10
-50.375
 20
-40.6
 70
     8
  0
VERTEX
  8
ガラス
 10
-50.35
 20
-40.575
 70
     8
  0
VERTEX
  8
ガラス
 10
-50.35
 20
-40.525
 70
     8
  0
VERTEX
  8
ガラス
 10
-50.325
 20
-40.475
 70
     8
  0
VERTEX
  8
ガラス
 10
-50.3
 20
-40.45
 70
     8
  0
VERTEX
  8
ガラス
 10
-50.275
 20
-40.4
 70
     8
  0
VERTEX
  8
ガラス
 10
-50.25
 20
-40.35
 70
     8
  0
VERTEX
  8
ガラス
 10
-50.25
 20
-40.325
 70
     8
  0
VERTEX
  8
ガラス
 10
-50.225
 20
-40.275
 70
     8
  0
VERTEX
  8
ガラス
 10
-50.2
 20
-40.25
 70
     8
  0
VERTEX
  8
ガラス
 10
-50.175
 20
-40.225
 70
     8
  0
VERTEX
  8
ガラス
 10
-50.15
 20
-40.175
 70
     8
  0
VERTEX
  8
ガラス
 10
-50.125
 20
-40.15
 70
     8
  0
VERTEX
  8
ガラス
 10
-50.1
 20
-40.125
 70
     8
  0
VERTEX
  8
ガラス
 10
-50.075
 20
-40.1
 70
     8
  0
VERTEX
  8
ガラス
 10
-50.025
 20
-40.05
 70
     8
  0
VERTEX
  8
ガラス
 10
-50.0
 20
-40.025
 70
     8
  0
VERTEX
  8
ガラス
 10
-49.975
 20
-40.0
 70
     8
  0
VERTEX
  8
ガラス
 10
-49.925
 20
-39.975
 70
     8
  0
VERTEX
  8
ガラス
 10
-49.9
 20
-39.975
 70
     8
  0
VERTEX
  8
ガラス
 10
-49.85
 20
-39.95
 70
     8
  0
VERTEX
  8
ガラス
 10
-49.825
 20
-39.925
 70
     8
  0
VERTEX
  8
ガラス
 10
-49.775
 20
-39.9
 70
     8
  0
VERTEX
  8
ガラス
 10
-49.75
 20
-39.9
 70
     8
  0
VERTEX
  8
ガラス
 10
-49.7
 20
-39.875
 70
     8
  0
VERTEX
  8
ガラス
 10
-49.65
 20
-39.85
 70
     8
  0
VERTEX
  8
ガラス
 10
-49.625
 20
-39.85
 70
     8
  0
VERTEX
  8
ガラス
 10
-49.575
 20
-39.825
 70
     8
  0
VERTEX
  8
ガラス
 10
-49.525
 20
-39.825
 70
     8
  0
VERTEX
  8
ガラス
 10
-49.5
 20
-39.8
 70
     8
  0
VERTEX
  8
ガラス
 10
-49.45
 20
-39.8
 70
     8
  0
VERTEX
  8
ガラス
 10
-49.4
 20
-39.775
 70
     8
  0
VERTEX
  8
ガラス
 10
-49.35
 20
-39.775
 70
     8
  0
VERTEX
  8
ガラス
 10
-49.3
 20
-39.75
 70
     8
  0
VERTEX
  8
ガラス
 10
-49.275
 20
-39.75
 70
     8
  0
SEQEND
  0
POLYLINE
  8
ガラス
  6
CONTINUOUS
 66
     1
 70
     4
  0
VERTEX
  8
ガラス
 10
-49.275
 20
-39.75
 70
     8
  0
VERTEX
  8
ガラス
 10
-49.275
 20
-39.775
 70
     8
  0
VERTEX
  8
ガラス
 10
-49.275
 20
-39.8
 70
     8
  0
VERTEX
  8
ガラス
 10
-49.3
 20
-39.825
 70
     8
  0
VERTEX
  8
ガラス
 10
-49.3
 20
-39.85
 70
     8
  0
VERTEX
  8
ガラス
 10
-49.325
 20
-39.875
 70
     8
  0
VERTEX
  8
ガラス
 10
-49.325
 20
-39.925
 70
     8
  0
VERTEX
  8
ガラス
 10
-49.325
 20
-39.95
 70
     8
  0
VERTEX
  8
ガラス
 10
-49.35
 20
-39.975
 70
     8
  0
VERTEX
  8
ガラス
 10
-49.35
 20
-40.0
 70
     8
  0
VERTEX
  8
ガラス
 10
-49.375
 20
-40.025
 70
     8
  0
VERTEX
  8
ガラス
 10
-49.375
 20
-40.05
 70
     8
  0
VERTEX
  8
ガラス
 10
-49.375
 20
-40.1
 70
     8
  0
VERTEX
  8
ガラス
 10
-49.4
 20
-40.125
 70
     8
  0
VERTEX
  8
ガラス
 10
-49.4
 20
-40.15
 70
     8
  0
VERTEX
  8
ガラス
 10
-49.4
 20
-40.175
 70
     8
  0
VERTEX
  8
ガラス
 10
-49.425
 20
-40.2
 70
     8
  0
VERTEX
  8
ガラス
 10
-49.425
 20
-40.225
 70
     8
  0
VERTEX
  8
ガラス
 10
-49.425
 20
-40.275
 70
     8
  0
VERTEX
  8
ガラス
 10
-49.45
 20
-40.3
 70
     8
  0
VERTEX
  8
ガラス
 10
-49.45
 20
-40.325
 70
     8
  0
VERTEX
  8
ガラス
 10
-49.45
 20
-40.35
 70
     8
  0
VERTEX
  8
ガラス
 10
-49.45
 20
-40.375
 70
     8
  0
VERTEX
  8
ガラス
 10
-49.475
 20
-40.425
 70
     8
  0
VERTEX
  8
ガラス
 10
-49.475
 20
-40.45
 70
     8
  0
VERTEX
  8
ガラス
 10
-49.475
 20
-40.475
 70
     8
  0
VERTEX
  8
ガラス
 10
-49.475
 20
-40.5
 70
     8
  0
VERTEX
  8
ガラス
 10
-49.475
 20
-40.525
 70
     8
  0
VERTEX
  8
ガラス
 10
-49.5
 20
-40.575
 70
     8
  0
VERTEX
  8
ガラス
 10
-49.5
 20
-40.6
 70
     8
  0
VERTEX
  8
ガラス
 10
-49.5
 20
-40.625
 70
     8
  0
VERTEX
  8
ガラス
 10
-49.5
 20
-40.65
 70
     8
  0
VERTEX
  8
ガラス
 10
-49.5
 20
-40.7
 70
     8
  0
VERTEX
  8
ガラス
 10
-49.5
 20
-40.725
 70
     8
  0
VERTEX
  8
ガラス
 10
-49.5
 20
-40.75
 70
     8
  0
VERTEX
  8
ガラス
 10
-49.5
 20
-40.775
 70
     8
  0
VERTEX
  8
ガラス
 10
-49.5
 20
-40.8
 70
     8
  0
VERTEX
  8
ガラス
 10
-49.525
 20
-40.85
 70
     8
  0
VERTEX
  8
ガラス
 10
-49.525
 20
-40.875
 70
     8
  0
VERTEX
  8
ガラス
 10
-49.525
 20
-40.9
 70
     8
  0
VERTEX
  8
ガラス
 10
-49.525
 20
-40.925
 70
     8
  0
SEQEND
  0
ARC
  8
ガラス
  6
CONTINUOUS
 10
-49.983068
 20
-40.887405
 40
0.477567
 50
176.001233
 51
356.001233
  0
ENDBLK
  0
BLOCK
  2
*GRP_0064
 70
    65
 10
0.0
 20
0.0
  0
POLYLINE
  8
寸法
  6
BYBLOCK
 62
     0
 66
     1
  0
VERTEX
  8
寸法
 10
-28.095423
 20
-36.175075
  0
VERTEX
  8
寸法
 10
-5.115172
 20
-59.155325
  0
VERTEX
  8
寸法
 10
16.480302
 20
-59.155325
  0
SEQEND
  0
ENDBLK
  0
BLOCK
  2
*GRP_0065
 70
    65
 10
0.0
 20
0.0
  0
POLYLINE
  8
ガラス
  6
CONTINUOUS
 66
     1
 70
     4
  0
VERTEX
  8
ガラス
 10
-17.875
 20
54.425
 70
     8
  0
VERTEX
  8
ガラス
 10
-17.85
 20
54.475
 70
     8
  0
VERTEX
  8
ガラス
 10
-17.825
 20
54.5
 70
     8
  0
VERTEX
  8
ガラス
 10
-17.775
 20
54.525
 70
     8
  0
VERTEX
  8
ガラス
 10
-17.75
 20
54.575
 70
     8
  0
VERTEX
  8
ガラス
 10
-17.725
 20
54.6
 70
     8
  0
VERTEX
  8
ガラス
 10
-17.675
 20
54.625
 70
     8
  0
VERTEX
  8
ガラス
 10
-17.65
 20
54.65
 70
     8
  0
VERTEX
  8
ガラス
 10
-17.625
 20
54.7
 70
     8
  0
VERTEX
  8
ガラス
 10
-17.6
 20
54.725
 70
     8
  0
VERTEX
  8
ガラス
 10
-17.55
 20
54.75
 70
     8
  0
VERTEX
  8
ガラス
 10
-17.525
 20
54.775
 70
     8
  0
VERTEX
  8
ガラス
 10
-17.475
 20
54.8
 70
     8
  0
VERTEX
  8
ガラス
 10
-17.45
 20
54.825
 70
     8
  0
VERTEX
  8
ガラス
 10
-17.425
 20
54.85
 70
     8
  0
VERTEX
  8
ガラス
 10
-17.375
 20
54.875
 70
     8
  0
VERTEX
  8
ガラス
 10
-17.35
 20
54.9
 70
     8
  0
VERTEX
  8
ガラス
 10
-17.3
 20
54.925
 70
     8
  0
VERTEX
  8
ガラス
 10
-17.275
 20
54.95
 70
     8
  0
VERTEX
  8
ガラス
 10
-17.225
 20
54.975
 70
     8
  0
VERTEX
  8
ガラス
 10
-17.2
 20
54.975
 70
     8
  0
VERTEX
  8
ガラス
 10
-17.15
 20
55.0
 70
     8
  0
VERTEX
  8
ガラス
 10
-17.125
 20
55.0
 70
     8
  0
VERTEX
  8
ガラス
 10
-17.075
 20
55.0
 70
     8
  0
VERTEX
  8
ガラス
 10
-17.025
 20
55.025
 70
     8
  0
VERTEX
  8
ガラス
 10
-17.0
 20
55.025
 70
     8
  0
VERTEX
  8
ガラス
 10
-16.95
 20
55.025
 70
     8
  0
VERTEX
  8
ガラス
 10
-16.9
 20
55.025
 70
     8
  0
VERTEX
  8
ガラス
 10
-16.875
 20
55.025
 70
     8
  0
VERTEX
  8
ガラス
 10
-16.825
 20
55.025
 70
     8
  0
VERTEX
  8
ガラス
 10
-16.775
 20
55.025
 70
     8
  0
VERTEX
  8
ガラス
 10
-16.725
 20
55.025
 70
     8
  0
VERTEX
  8
ガラス
 10
-16.7
 20
55.025
 70
     8
  0
VERTEX
  8
ガラス
 10
-16.65
 20
55.025
 70
     8
  0
VERTEX
  8
ガラス
 10
-16.6
 20
55.025
 70
     8
  0
VERTEX
  8
ガラス
 10
-16.55
 20
55.025
 70
     8
  0
VERTEX
  8
ガラス
 10
-16.5
 20
55.0
 70
     8
  0
VERTEX
  8
ガラス
 10
-16.45
 20
55.0
 70
     8
  0
VERTEX
  8
ガラス
 10
-16.425
 20
55.0
 70
     8
  0
VERTEX
  8
ガラス
 10
-16.375
 20
54.975
 70
     8
  0
VERTEX
  8
ガラス
 10
-16.325
 20
54.975
 70
     8
  0
SEQEND
  0
POLYLINE
  8
ガラス
  6
CONTINUOUS
 66
     1
 70
     4
  0
VERTEX
  8
ガラス
 10
-16.325
 20
54.975
 70
     8
  0
VERTEX
  8
ガラス
 10
-16.35
 20
54.95
 70
     8
  0
VERTEX
  8
ガラス
 10
-16.375
 20
54.925
 70
     8
  0
VERTEX
  8
ガラス
 10
-16.375
 20
54.925
 70
     8
  0
VERTEX
  8
ガラス
 10
-16.4
 20
54.9
 70
     8
  0
VERTEX
  8
ガラス
 10
-16.425
 20
54.875
 70
     8
  0
VERTEX
  8
ガラス
 10
-16.45
 20
54.85
 70
     8
  0
VERTEX
  8
ガラス
 10
-16.475
 20
54.825
 70
     8
  0
VERTEX
  8
ガラス
 10
-16.5
 20
54.8
 70
     8
  0
VERTEX
  8
ガラス
 10
-16.525
 20
54.775
 70
     8
  0
VERTEX
  8
ガラス
 10
-16.525
 20
54.75
 70
     8
  0
VERTEX
  8
ガラス
 10
-16.55
 20
54.725
 70
     8
  0
VERTEX
  8
ガラス
 10
-16.575
 20
54.7
 70
     8
  0
VERTEX
  8
ガラス
 10
-16.6
 20
54.675
 70
     8
  0
VERTEX
  8
ガラス
 10
-16.625
 20
54.65
 70
     8
  0
VERTEX
  8
ガラス
 10
-16.625
 20
54.65
 70
     8
  0
VERTEX
  8
ガラス
 10
-16.65
 20
54.625
 70
     8
  0
VERTEX
  8
ガラス
 10
-16.675
 20
54.6
 70
     8
  0
VERTEX
  8
ガラス
 10
-16.7
 20
54.575
 70
     8
  0
VERTEX
  8
ガラス
 10
-16.7
 20
54.55
 70
     8
  0
VERTEX
  8
ガラス
 10
-16.725
 20
54.525
 70
     8
  0
VERTEX
  8
ガラス
 10
-16.75
 20
54.5
 70
     8
  0
VERTEX
  8
ガラス
 10
-16.75
 20
54.475
 70
     8
  0
VERTEX
  8
ガラス
 10
-16.775
 20
54.45
 70
     8
  0
VERTEX
  8
ガラス
 10
-16.8
 20
54.425
 70
     8
  0
VERTEX
  8
ガラス
 10
-16.8
 20
54.4
 70
     8
  0
VERTEX
  8
ガラス
 10
-16.825
 20
54.375
 70
     8
  0
VERTEX
  8
ガラス
 10
-16.85
 20
54.35
 70
     8
  0
VERTEX
  8
ガラス
 10
-16.85
 20
54.3
 70
     8
  0
VERTEX
  8
ガラス
 10
-16.875
 20
54.275
 70
     8
  0
VERTEX
  8
ガラス
 10
-16.9
 20
54.25
 70
     8
  0
VERTEX
  8
ガラス
 10
-16.9
 20
54.225
 70
     8
  0
VERTEX
  8
ガラス
 10
-16.925
 20
54.2
 70
     8
  0
VERTEX
  8
ガラス
 10
-16.925
 20
54.175
 70
     8
  0
VERTEX
  8
ガラス
 10
-16.95
 20
54.15
 70
     8
  0
VERTEX
  8
ガラス
 10
-16.975
 20
54.125
 70
     8
  0
VERTEX
  8
ガラス
 10
-16.975
 20
54.1
 70
     8
  0
VERTEX
  8
ガラス
 10
-17.0
 20
54.075
 70
     8
  0
VERTEX
  8
ガラス
 10
-17.0
 20
54.05
 70
     8
  0
VERTEX
  8
ガラス
 10
-17.025
 20
54.025
 70
     8
  0
VERTEX
  8
ガラス
 10
-17.025
 20
54.0
 70
     8
  0
SEQEND
  0
ARC
  8
ガラス
  6
CONTINUOUS
 10
-17.445008
 20
54.220936
 40
0.477567
 50
152.447188
 51
332.447188
  0
ENDBLK
  0
BLOCK
  2
*GRP_0066
 70
    65
 10
0.0
 20
0.0
  0
POLYLINE
  8
ガラス
  6
CONTINUOUS
 66
     1
 70
     4
  0
VERTEX
  8
ガラス
 10
-21.2
 20
52.1
 70
     8
  0
VERTEX
  8
ガラス
 10
-21.15
 20
52.15
 70
     8
  0
VERTEX
  8
ガラス
 10
-21.125
 20
52.175
 70
     8
  0
VERTEX
  8
ガラス
 10
-21.1
 20
52.225
 70
     8
  0
VERTEX
  8
ガラス
 10
-21.075
 20
52.25
 70
     8
  0
VERTEX
  8
ガラス
 10
-21.025
 20
52.275
 70
     8
  0
VERTEX
  8
ガラス
 10
-21.0
 20
52.3
 70
     8
  0
VERTEX
  8
ガラス
 10
-20.975
 20
52.35
 70
     8
  0
VERTEX
  8
ガラス
 10
-20.925
 20
52.375
 70
     8
  0
VERTEX
  8
ガラス
 10
-20.9
 20
52.4
 70
     8
  0
VERTEX
  8
ガラス
 10
-20.875
 20
52.425
 70
     8
  0
VERTEX
  8
ガラス
 10
-20.825
 20
52.475
 70
     8
  0
VERTEX
  8
ガラス
 10
-20.8
 20
52.5
 70
     8
  0
VERTEX
  8
ガラス
 10
-20.775
 20
52.525
 70
     8
  0
VERTEX
  8
ガラス
 10
-20.725
 20
52.55
 70
     8
  0
VERTEX
  8
ガラス
 10
-20.7
 20
52.575
 70
     8
  0
VERTEX
  8
ガラス
 10
-20.65
 20
52.6
 70
     8
  0
VERTEX
  8
ガラス
 10
-20.625
 20
52.6
 70
     8
  0
VERTEX
  8
ガラス
 10
-20.575
 20
52.625
 70
     8
  0
VERTEX
  8
ガラス
 10
-20.55
 20
52.65
 70
     8
  0
VERTEX
  8
ガラス
 10
-20.5
 20
52.65
 70
     8
  0
VERTEX
  8
ガラス
 10
-20.475
 20
52.675
 70
     8
  0
VERTEX
  8
ガラス
 10
-20.425
 20
52.675
 70
     8
  0
VERTEX
  8
ガラス
 10
-20.375
 20
52.7
 70
     8
  0
VERTEX
  8
ガラス
 10
-20.35
 20
52.7
 70
     8
  0
VERTEX
  8
ガラス
 10
-20.3
 20
52.7
 70
     8
  0
VERTEX
  8
ガラス
 10
-20.25
 20
52.7
 70
     8
  0
VERTEX
  8
ガラス
 10
-20.225
 20
52.725
 70
     8
  0
VERTEX
  8
ガラス
 10
-20.175
 20
52.725
 70
     8
  0
VERTEX
  8
ガラス
 10
-20.125
 20
52.725
 70
     8
  0
VERTEX
  8
ガラス
 10
-20.1
 20
52.725
 70
     8
  0
VERTEX
  8
ガラス
 10
-20.05
 20
52.725
 70
     8
  0
VERTEX
  8
ガラス
 10
-20.0
 20
52.7
 70
     8
  0
VERTEX
  8
ガラス
 10
-19.95
 20
52.7
 70
     8
  0
VERTEX
  8
ガラス
 10
-19.9
 20
52.7
 70
     8
  0
VERTEX
  8
ガラス
 10
-19.875
 20
52.7
 70
     8
  0
VERTEX
  8
ガラス
 10
-19.825
 20
52.7
 70
     8
  0
VERTEX
  8
ガラス
 10
-19.775
 20
52.675
 70
     8
  0
VERTEX
  8
ガラス
 10
-19.725
 20
52.675
 70
     8
  0
VERTEX
  8
ガラス
 10
-19.675
 20
52.675
 70
     8
  0
VERTEX
  8
ガラス
 10
-19.625
 20
52.65
 70
     8
  0
SEQEND
  0
POLYLINE
  8
ガラス
  6
CONTINUOUS
 66
     1
 70
     4
  0
VERTEX
  8
ガラス
 10
-19.625
 20
52.65
 70
     8
  0
VERTEX
  8
ガラス
 10
-19.65
 20
52.65
 70
     8
  0
VERTEX
  8
ガラス
 10
-19.675
 20
52.625
 70
     8
  0
VERTEX
  8
ガラス
 10
-19.7
 20
52.6
 70
     8
  0
VERTEX
  8
ガラス
 10
-19.725
 20
52.575
 70
     8
  0
VERTEX
  8
ガラス
 10
-19.75
 20
52.55
 70
     8
  0
VERTEX
  8
ガラス
 10
-19.75
 20
52.525
 70
     8
  0
VERTEX
  8
ガラス
 10
-19.775
 20
52.5
 70
     8
  0
VERTEX
  8
ガラス
 10
-19.8
 20
52.475
 70
     8
  0
VERTEX
  8
ガラス
 10
-19.825
 20
52.45
 70
     8
  0
VERTEX
  8
ガラス
 10
-19.85
 20
52.425
 70
     8
  0
VERTEX
  8
ガラス
 10
-19.875
 20
52.425
 70
     8
  0
VERTEX
  8
ガラス
 10
-19.875
 20
52.4
 70
     8
  0
VERTEX
  8
ガラス
 10
-19.9
 20
52.375
 70
     8
  0
VERTEX
  8
ガラス
 10
-19.925
 20
52.35
 70
     8
  0
VERTEX
  8
ガラス
 10
-19.95
 20
52.325
 70
     8
  0
VERTEX
  8
ガラス
 10
-19.975
 20
52.3
 70
     8
  0
VERTEX
  8
ガラス
 10
-19.975
 20
52.275
 70
     8
  0
VERTEX
  8
ガラス
 10
-20.0
 20
52.25
 70
     8
  0
VERTEX
  8
ガラス
 10
-20.025
 20
52.225
 70
     8
  0
VERTEX
  8
ガラス
 10
-20.05
 20
52.2
 70
     8
  0
VERTEX
  8
ガラス
 10
-20.05
 20
52.175
 70
     8
  0
VERTEX
  8
ガラス
 10
-20.075
 20
52.15
 70
     8
  0
VERTEX
  8
ガラス
 10
-20.1
 20
52.125
 70
     8
  0
VERTEX
  8
ガラス
 10
-20.1
 20
52.1
 70
     8
  0
VERTEX
  8
ガラス
 10
-20.125
 20
52.075
 70
     8
  0
VERTEX
  8
ガラス
 10
-20.15
 20
52.05
 70
     8
  0
VERTEX
  8
ガラス
 10
-20.15
 20
52.025
 70
     8
  0
VERTEX
  8
ガラス
 10
-20.175
 20
52.0
 70
     8
  0
VERTEX
  8
ガラス
 10
-20.175
 20
51.975
 70
     8
  0
VERTEX
  8
ガラス
 10
-20.2
 20
51.95
 70
     8
  0
VERTEX
  8
ガラス
 10
-20.225
 20
51.925
 70
     8
  0
VERTEX
  8
ガラス
 10
-20.225
 20
51.9
 70
     8
  0
VERTEX
  8
ガラス
 10
-20.25
 20
51.85
 70
     8
  0
VERTEX
  8
ガラス
 10
-20.25
 20
51.825
 70
     8
  0
VERTEX
  8
ガラス
 10
-20.275
 20
51.8
 70
     8
  0
VERTEX
  8
ガラス
 10
-20.3
 20
51.775
 70
     8
  0
VERTEX
  8
ガラス
 10
-20.3
 20
51.75
 70
     8
  0
VERTEX
  8
ガラス
 10
-20.325
 20
51.725
 70
     8
  0
VERTEX
  8
ガラス
 10
-20.325
 20
51.7
 70
     8
  0
VERTEX
  8
ガラス
 10
-20.35
 20
51.675
 70
     8
  0
SEQEND
  0
ARC
  8
ガラス
  6
CONTINUOUS
 10
-20.756045
 20
51.90321
 40
0.477567
 50
152.447188
 51
332.447188
  0
ENDBLK
  0
BLOCK
  2
*GRP_0067
 70
    65
 10
0.0
 20
0.0
  0
POLYLINE
  8
ガラス
  6
CONTINUOUS
 66
     1
 70
     4
  0
VERTEX
  8
ガラス
 10
-22.95
 20
47.65
 70
     8
  0
VERTEX
  8
ガラス
 10
-22.925
 20
47.675
 70
     8
  0
VERTEX
  8
ガラス
 10
-22.9
 20
47.7
 70
     8
  0
VERTEX
  8
ガラス
 10
-22.85
 20
47.75
 70
     8
  0
VERTEX
  8
ガラス
 10
-22.825
 20
47.775
 70
     8
  0
VERTEX
  8
ガラス
 10
-22.8
 20
47.8
 70
     8
  0
VERTEX
  8
ガラス
 10
-22.775
 20
47.85
 70
     8
  0
VERTEX
  8
ガラス
 10
-22.725
 20
47.875
 70
     8
  0
VERTEX
  8
ガラス
 10
-22.7
 20
47.9
 70
     8
  0
VERTEX
  8
ガラス
 10
-22.675
 20
47.925
 70
     8
  0
VERTEX
  8
ガラス
 10
-22.625
 20
47.975
 70
     8
  0
VERTEX
  8
ガラス
 10
-22.6
 20
48.0
 70
     8
  0
VERTEX
  8
ガラス
 10
-22.575
 20
48.025
 70
     8
  0
VERTEX
  8
ガラス
 10
-22.525
 20
48.05
 70
     8
  0
VERTEX
  8
ガラス
 10
-22.5
 20
48.075
 70
     8
  0
VERTEX
  8
ガラス
 10
-22.45
 20
48.1
 70
     8
  0
VERTEX
  8
ガラス
 10
-22.425
 20
48.125
 70
     8
  0
VERTEX
  8
ガラス
 10
-22.375
 20
48.15
 70
     8
  0
VERTEX
  8
ガラス
 10
-22.35
 20
48.15
 70
     8
  0
VERTEX
  8
ガラス
 10
-22.3
 20
48.175
 70
     8
  0
VERTEX
  8
ガラス
 10
-22.275
 20
48.2
 70
     8
  0
VERTEX
  8
ガラス
 10
-22.225
 20
48.2
 70
     8
  0
VERTEX
  8
ガラス
 10
-22.2
 20
48.225
 70
     8
  0
VERTEX
  8
ガラス
 10
-22.15
 20
48.225
 70
     8
  0
VERTEX
  8
ガラス
 10
-22.1
 20
48.225
 70
     8
  0
VERTEX
  8
ガラス
 10
-22.075
 20
48.25
 70
     8
  0
VERTEX
  8
ガラス
 10
-22.025
 20
48.25
 70
     8
  0
VERTEX
  8
ガラス
 10
-21.975
 20
48.25
 70
     8
  0
VERTEX
  8
ガラス
 10
-21.95
 20
48.25
 70
     8
  0
VERTEX
  8
ガラス
 10
-21.9
 20
48.25
 70
     8
  0
VERTEX
  8
ガラス
 10
-21.85
 20
48.25
 70
     8
  0
VERTEX
  8
ガラス
 10
-21.8
 20
48.25
 70
     8
  0
VERTEX
  8
ガラス
 10
-21.775
 20
48.25
 70
     8
  0
VERTEX
  8
ガラス
 10
-21.725
 20
48.225
 70
     8
  0
VERTEX
  8
ガラス
 10
-21.675
 20
48.225
 70
     8
  0
VERTEX
  8
ガラス
 10
-21.625
 20
48.225
 70
     8
  0
VERTEX
  8
ガラス
 10
-21.575
 20
48.225
 70
     8
  0
VERTEX
  8
ガラス
 10
-21.55
 20
48.225
 70
     8
  0
VERTEX
  8
ガラス
 10
-21.5
 20
48.2
 70
     8
  0
VERTEX
  8
ガラス
 10
-21.45
 20
48.2
 70
     8
  0
VERTEX
  8
ガラス
 10
-21.4
 20
48.2
 70
     8
  0
SEQEND
  0
POLYLINE
  8
ガラス
  6
CONTINUOUS
 66
     1
 70
     4
  0
VERTEX
  8
ガラス
 10
-21.4
 20
48.2
 70
     8
  0
VERTEX
  8
ガラス
 10
-21.425
 20
48.175
 70
     8
  0
VERTEX
  8
ガラス
 10
-21.45
 20
48.15
 70
     8
  0
VERTEX
  8
ガラス
 10
-21.475
 20
48.125
 70
     8
  0
VERTEX
  8
ガラス
 10
-21.475
 20
48.1
 70
     8
  0
VERTEX
  8
ガラス
 10
-21.5
 20
48.075
 70
     8
  0
VERTEX
  8
ガラス
 10
-21.525
 20
48.05
 70
     8
  0
VERTEX
  8
ガラス
 10
-21.55
 20
48.025
 70
     8
  0
VERTEX
  8
ガラス
 10
-21.575
 20
48.0
 70
     8
  0
VERTEX
  8
ガラス
 10
-21.6
 20
48.0
 70
     8
  0
VERTEX
  8
ガラス
 10
-21.6
 20
47.975
 70
     8
  0
VERTEX
  8
ガラス
 10
-21.625
 20
47.95
 70
     8
  0
VERTEX
  8
ガラス
 10
-21.65
 20
47.925
 70
     8
  0
VERTEX
  8
ガラス
 10
-21.675
 20
47.9
 70
     8
  0
VERTEX
  8
ガラス
 10
-21.7
 20
47.875
 70
     8
  0
VERTEX
  8
ガラス
 10
-21.7
 20
47.85
 70
     8
  0
VERTEX
  8
ガラス
 10
-21.725
 20
47.825
 70
     8
  0
VERTEX
  8
ガラス
 10
-21.75
 20
47.8
 70
     8
  0
VERTEX
  8
ガラス
 10
-21.775
 20
47.775
 70
     8
  0
VERTEX
  8
ガラス
 10
-21.775
 20
47.75
 70
     8
  0
VERTEX
  8
ガラス
 10
-21.8
 20
47.725
 70
     8
  0
VERTEX
  8
ガラス
 10
-21.825
 20
47.7
 70
     8
  0
VERTEX
  8
ガラス
 10
-21.85
 20
47.675
 70
     8
  0
VERTEX
  8
ガラス
 10
-21.85
 20
47.65
 70
     8
  0
VERTEX
  8
ガラス
 10
-21.875
 20
47.625
 70
     8
  0
VERTEX
  8
ガラス
 10
-21.9
 20
47.6
 70
     8
  0
VERTEX
  8
ガラス
 10
-21.9
 20
47.575
 70
     8
  0
VERTEX
  8
ガラス
 10
-21.925
 20
47.55
 70
     8
  0
VERTEX
  8
ガラス
 10
-21.925
 20
47.525
 70
     8
  0
VERTEX
  8
ガラス
 10
-21.95
 20
47.5
 70
     8
  0
VERTEX
  8
ガラス
 10
-21.975
 20
47.475
 70
     8
  0
VERTEX
  8
ガラス
 10
-21.975
 20
47.45
 70
     8
  0
VERTEX
  8
ガラス
 10
-22.0
 20
47.425
 70
     8
  0
VERTEX
  8
ガラス
 10
-22.0
 20
47.4
 70
     8
  0
VERTEX
  8
ガラス
 10
-22.025
 20
47.375
 70
     8
  0
VERTEX
  8
ガラス
 10
-22.05
 20
47.325
 70
     8
  0
VERTEX
  8
ガラス
 10
-22.05
 20
47.3
 70
     8
  0
VERTEX
  8
ガラス
 10
-22.075
 20
47.275
 70
     8
  0
VERTEX
  8
ガラス
 10
-22.075
 20
47.25
 70
     8
  0
VERTEX
  8
ガラス
 10
-22.1
 20
47.225
 70
     8
  0
VERTEX
  8
ガラス
 10
-22.1
 20
47.2
 70
     8
  0
SEQEND
  0
ARC
  8
ガラス
  6
CONTINUOUS
 10
-22.52193
 20
47.43331
 40
0.477567
 50
152.447188
 51
332.447188
  0
ENDBLK
  0
BLOCK
  2
*GRP_0068
 70
    65
 10
0.0
 20
0.0
  0
POLYLINE
  8
ガラス
  6
CONTINUOUS
 66
     1
 70
     4
  0
VERTEX
  8
ガラス
 10
-27.0
 20
47.625
 70
     8
  0
VERTEX
  8
ガラス
 10
-26.95
 20
47.625
 70
     8
  0
VERTEX
  8
ガラス
 10
-26.9
 20
47.625
 70
     8
  0
VERTEX
  8
ガラス
 10
-26.875
 20
47.65
 70
     8
  0
VERTEX
  8
ガラス
 10
-26.825
 20
47.65
 70
     8
  0
VERTEX
  8
ガラス
 10
-26.775
 20
47.675
 70
     8
  0
VERTEX
  8
ガラス
 10
-26.725
 20
47.675
 70
     8
  0
VERTEX
  8
ガラス
 10
-26.675
 20
47.675
 70
     8
  0
VERTEX
  8
ガラス
 10
-26.625
 20
47.7
 70
     8
  0
VERTEX
  8
ガラス
 10
-26.6
 20
47.7
 70
     8
  0
VERTEX
  8
ガラス
 10
-26.55
 20
47.7
 70
     8
  0
VERTEX
  8
ガラス
 10
-26.5
 20
47.7
 70
     8
  0
VERTEX
  8
ガラス
 10
-26.45
 20
47.7
 70
     8
  0
VERTEX
  8
ガラス
 10
-26.425
 20
47.725
 70
     8
  0
VERTEX
  8
ガラス
 10
-26.375
 20
47.725
 70
     8
  0
VERTEX
  8
ガラス
 10
-26.325
 20
47.725
 70
     8
  0
VERTEX
  8
ガラス
 10
-26.3
 20
47.7
 70
     8
  0
VERTEX
  8
ガラス
 10
-26.25
 20
47.7
 70
     8
  0
VERTEX
  8
ガラス
 10
-26.2
 20
47.7
 70
     8
  0
VERTEX
  8
ガラス
 10
-26.175
 20
47.7
 70
     8
  0
VERTEX
  8
ガラス
 10
-26.125
 20
47.675
 70
     8
  0
VERTEX
  8
ガラス
 10
-26.075
 20
47.675
 70
     8
  0
VERTEX
  8
ガラス
 10
-26.05
 20
47.675
 70
     8
  0
VERTEX
  8
ガラス
 10
-26.0
 20
47.65
 70
     8
  0
VERTEX
  8
ガラス
 10
-25.975
 20
47.625
 70
     8
  0
VERTEX
  8
ガラス
 10
-25.925
 20
47.625
 70
     8
  0
VERTEX
  8
ガラス
 10
-25.9
 20
47.6
 70
     8
  0
VERTEX
  8
ガラス
 10
-25.85
 20
47.575
 70
     8
  0
VERTEX
  8
ガラス
 10
-25.825
 20
47.55
 70
     8
  0
VERTEX
  8
ガラス
 10
-25.775
 20
47.525
 70
     8
  0
VERTEX
  8
ガラス
 10
-25.75
 20
47.5
 70
     8
  0
VERTEX
  8
ガラス
 10
-25.7
 20
47.475
 70
     8
  0
VERTEX
  8
ガラス
 10
-25.675
 20
47.45
 70
     8
  0
VERTEX
  8
ガラス
 10
-25.65
 20
47.425
 70
     8
  0
VERTEX
  8
ガラス
 10
-25.6
 20
47.375
 70
     8
  0
VERTEX
  8
ガラス
 10
-25.575
 20
47.35
 70
     8
  0
VERTEX
  8
ガラス
 10
-25.55
 20
47.325
 70
     8
  0
VERTEX
  8
ガラス
 10
-25.5
 20
47.3
 70
     8
  0
VERTEX
  8
ガラス
 10
-25.475
 20
47.275
 70
     8
  0
VERTEX
  8
ガラス
 10
-25.425
 20
47.225
 70
     8
  0
VERTEX
  8
ガラス
 10
-25.4
 20
47.2
 70
     8
  0
SEQEND
  0
POLYLINE
  8
ガラス
  6
CONTINUOUS
 66
     1
 70
     4
  0
VERTEX
  8
ガラス
 10
-25.4
 20
47.2
 70
     8
  0
VERTEX
  8
ガラス
 10
-25.425
 20
47.2
 70
     8
  0
VERTEX
  8
ガラス
 10
-25.45
 20
47.2
 70
     8
  0
VERTEX
  8
ガラス
 10
-25.5
 20
47.175
 70
     8
  0
VERTEX
  8
ガラス
 10
-25.525
 20
47.175
 70
     8
  0
VERTEX
  8
ガラス
 10
-25.55
 20
47.175
 70
     8
  0
VERTEX
  8
ガラス
 10
-25.575
 20
47.15
 70
     8
  0
VERTEX
  8
ガラス
 10
-25.6
 20
47.15
 70
     8
  0
VERTEX
  8
ガラス
 10
-25.65
 20
47.15
 70
     8
  0
VERTEX
  8
ガラス
 10
-25.675
 20
47.15
 70
     8
  0
VERTEX
  8
ガラス
 10
-25.7
 20
47.125
 70
     8
  0
VERTEX
  8
ガラス
 10
-25.725
 20
47.125
 70
     8
  0
VERTEX
  8
ガラス
 10
-25.75
 20
47.125
 70
     8
  0
VERTEX
  8
ガラス
 10
-25.8
 20
47.1
 70
     8
  0
VERTEX
  8
ガラス
 10
-25.825
 20
47.1
 70
     8
  0
VERTEX
  8
ガラス
 10
-25.85
 20
47.1
 70
     8
  0
VERTEX
  8
ガラス
 10
-25.875
 20
47.075
 70
     8
  0
VERTEX
  8
ガラス
 10
-25.9
 20
47.075
 70
     8
  0
VERTEX
  8
ガラス
 10
-25.925
 20
47.075
 70
     8
  0
VERTEX
  8
ガラス
 10
-25.975
 20
47.05
 70
     8
  0
VERTEX
  8
ガラス
 10
-26.0
 20
47.05
 70
     8
  0
VERTEX
  8
ガラス
 10
-26.025
 20
47.025
 70
     8
  0
VERTEX
  8
ガラス
 10
-26.05
 20
47.025
 70
     8
  0
VERTEX
  8
ガラス
 10
-26.075
 20
47.0
 70
     8
  0
VERTEX
  8
ガラス
 10
-26.1
 20
47.0
 70
     8
  0
VERTEX
  8
ガラス
 10
-26.125
 20
46.975
 70
     8
  0
VERTEX
  8
ガラス
 10
-26.175
 20
46.975
 70
     8
  0
VERTEX
  8
ガラス
 10
-26.2
 20
46.95
 70
     8
  0
VERTEX
  8
ガラス
 10
-26.225
 20
46.95
 70
     8
  0
VERTEX
  8
ガラス
 10
-26.25
 20
46.925
 70
     8
  0
VERTEX
  8
ガラス
 10
-26.275
 20
46.925
 70
     8
  0
VERTEX
  8
ガラス
 10
-26.3
 20
46.9
 70
     8
  0
VERTEX
  8
ガラス
 10
-26.325
 20
46.9
 70
     8
  0
VERTEX
  8
ガラス
 10
-26.35
 20
46.875
 70
     8
  0
VERTEX
  8
ガラス
 10
-26.375
 20
46.875
 70
     8
  0
VERTEX
  8
ガラス
 10
-26.4
 20
46.85
 70
     8
  0
VERTEX
  8
ガラス
 10
-26.425
 20
46.825
 70
     8
  0
VERTEX
  8
ガラス
 10
-26.475
 20
46.825
 70
     8
  0
VERTEX
  8
ガラス
 10
-26.5
 20
46.8
 70
     8
  0
VERTEX
  8
ガラス
 10
-26.525
 20
46.8
 70
     8
  0
VERTEX
  8
ガラス
 10
-26.55
 20
46.775
 70
     8
  0
SEQEND
  0
ARC
  8
ガラス
  6
CONTINUOUS
 10
-26.759707
 20
47.207836
 40
0.477567
 50
118.492171
 51
298.492171
  0
ENDBLK
  0
BLOCK
  2
*GRP_0069
 70
    65
 10
0.0
 20
0.0
  0
POLYLINE
  8
ガラス
  6
CONTINUOUS
 66
     1
 70
     4
  0
VERTEX
  8
ガラス
 10
-33.775
 20
47.75
 70
     8
  0
VERTEX
  8
ガラス
 10
-33.725
 20
47.775
 70
     8
  0
VERTEX
  8
ガラス
 10
-33.675
 20
47.775
 70
     8
  0
VERTEX
  8
ガラス
 10
-33.625
 20
47.8
 70
     8
  0
VERTEX
  8
ガラス
 10
-33.6
 20
47.8
 70
     8
  0
VERTEX
  8
ガラス
 10
-33.55
 20
47.8
 70
     8
  0
VERTEX
  8
ガラス
 10
-33.5
 20
47.825
 70
     8
  0
VERTEX
  8
ガラス
 10
-33.45
 20
47.825
 70
     8
  0
VERTEX
  8
ガラス
 10
-33.4
 20
47.825
 70
     8
  0
VERTEX
  8
ガラス
 10
-33.35
 20
47.85
 70
     8
  0
VERTEX
  8
ガラス
 10
-33.325
 20
47.85
 70
     8
  0
VERTEX
  8
ガラス
 10
-33.275
 20
47.85
 70
     8
  0
VERTEX
  8
ガラス
 10
-33.225
 20
47.85
 70
     8
  0
VERTEX
  8
ガラス
 10
-33.175
 20
47.85
 70
     8
  0
VERTEX
  8
ガラス
 10
-33.15
 20
47.85
 70
     8
  0
VERTEX
  8
ガラス
 10
-33.1
 20
47.85
 70
     8
  0
VERTEX
  8
ガラス
 10
-33.05
 20
47.85
 70
     8
  0
VERTEX
  8
ガラス
 10
-33.025
 20
47.85
 70
     8
  0
VERTEX
  8
ガラス
 10
-32.975
 20
47.85
 70
     8
  0
VERTEX
  8
ガラス
 10
-32.925
 20
47.85
 70
     8
  0
VERTEX
  8
ガラス
 10
-32.9
 20
47.825
 70
     8
  0
VERTEX
  8
ガラス
 10
-32.85
 20
47.825
 70
     8
  0
VERTEX
  8
ガラス
 10
-32.825
 20
47.8
 70
     8
  0
VERTEX
  8
ガラス
 10
-32.775
 20
47.8
 70
     8
  0
VERTEX
  8
ガラス
 10
-32.75
 20
47.775
 70
     8
  0
VERTEX
  8
ガラス
 10
-32.7
 20
47.75
 70
     8
  0
VERTEX
  8
ガラス
 10
-32.675
 20
47.75
 70
     8
  0
VERTEX
  8
ガラス
 10
-32.625
 20
47.725
 70
     8
  0
VERTEX
  8
ガラス
 10
-32.6
 20
47.7
 70
     8
  0
VERTEX
  8
ガラス
 10
-32.55
 20
47.675
 70
     8
  0
VERTEX
  8
ガラス
 10
-32.525
 20
47.65
 70
     8
  0
VERTEX
  8
ガラス
 10
-32.475
 20
47.625
 70
     8
  0
VERTEX
  8
ガラス
 10
-32.45
 20
47.6
 70
     8
  0
VERTEX
  8
ガラス
 10
-32.4
 20
47.575
 70
     8
  0
VERTEX
  8
ガラス
 10
-32.375
 20
47.525
 70
     8
  0
VERTEX
  8
ガラス
 10
-32.35
 20
47.5
 70
     8
  0
VERTEX
  8
ガラス
 10
-32.3
 20
47.475
 70
     8
  0
VERTEX
  8
ガラス
 10
-32.275
 20
47.45
 70
     8
  0
VERTEX
  8
ガラス
 10
-32.25
 20
47.4
 70
     8
  0
VERTEX
  8
ガラス
 10
-32.2
 20
47.375
 70
     8
  0
VERTEX
  8
ガラス
 10
-32.175
 20
47.35
 70
     8
  0
SEQEND
  0
POLYLINE
  8
ガラス
  6
CONTINUOUS
 66
     1
 70
     4
  0
VERTEX
  8
ガラス
 10
-32.175
 20
47.35
 70
     8
  0
VERTEX
  8
ガラス
 10
-32.2
 20
47.35
 70
     8
  0
VERTEX
  8
ガラス
 10
-32.225
 20
47.325
 70
     8
  0
VERTEX
  8
ガラス
 10
-32.25
 20
47.325
 70
     8
  0
VERTEX
  8
ガラス
 10
-32.3
 20
47.325
 70
     8
  0
VERTEX
  8
ガラス
 10
-32.325
 20
47.325
 70
     8
  0
VERTEX
  8
ガラス
 10
-32.35
 20
47.3
 70
     8
  0
VERTEX
  8
ガラス
 10
-32.375
 20
47.3
 70
     8
  0
VERTEX
  8
ガラス
 10
-32.4
 20
47.3
 70
     8
  0
VERTEX
  8
ガラス
 10
-32.45
 20
47.275
 70
     8
  0
VERTEX
  8
ガラス
 10
-32.475
 20
47.275
 70
     8
  0
VERTEX
  8
ガラス
 10
-32.5
 20
47.275
 70
     8
  0
VERTEX
  8
ガラス
 10
-32.525
 20
47.275
 70
     8
  0
VERTEX
  8
ガラス
 10
-32.55
 20
47.25
 70
     8
  0
VERTEX
  8
ガラス
 10
-32.6
 20
47.25
 70
     8
  0
VERTEX
  8
ガラス
 10
-32.625
 20
47.25
 70
     8
  0
VERTEX
  8
ガラス
 10
-32.65
 20
47.225
 70
     8
  0
VERTEX
  8
ガラス
 10
-32.675
 20
47.225
 70
     8
  0
VERTEX
  8
ガラス
 10
-32.7
 20
47.2
 70
     8
  0
VERTEX
  8
ガラス
 10
-32.725
 20
47.2
 70
     8
  0
VERTEX
  8
ガラス
 10
-32.775
 20
47.2
 70
     8
  0
VERTEX
  8
ガラス
 10
-32.8
 20
47.175
 70
     8
  0
VERTEX
  8
ガラス
 10
-32.825
 20
47.175
 70
     8
  0
VERTEX
  8
ガラス
 10
-32.85
 20
47.15
 70
     8
  0
VERTEX
  8
ガラス
 10
-32.875
 20
47.15
 70
     8
  0
VERTEX
  8
ガラス
 10
-32.9
 20
47.125
 70
     8
  0
VERTEX
  8
ガラス
 10
-32.925
 20
47.125
 70
     8
  0
VERTEX
  8
ガラス
 10
-32.95
 20
47.1
 70
     8
  0
VERTEX
  8
ガラス
 10
-33.0
 20
47.1
 70
     8
  0
VERTEX
  8
ガラス
 10
-33.025
 20
47.075
 70
     8
  0
VERTEX
  8
ガラス
 10
-33.05
 20
47.075
 70
     8
  0
VERTEX
  8
ガラス
 10
-33.075
 20
47.05
 70
     8
  0
VERTEX
  8
ガラス
 10
-33.1
 20
47.05
 70
     8
  0
VERTEX
  8
ガラス
 10
-33.125
 20
47.025
 70
     8
  0
VERTEX
  8
ガラス
 10
-33.15
 20
47.0
 70
     8
  0
VERTEX
  8
ガラス
 10
-33.175
 20
47.0
 70
     8
  0
VERTEX
  8
ガラス
 10
-33.2
 20
46.975
 70
     8
  0
VERTEX
  8
ガラス
 10
-33.225
 20
46.975
 70
     8
  0
VERTEX
  8
ガラス
 10
-33.25
 20
46.95
 70
     8
  0
VERTEX
  8
ガラス
 10
-33.275
 20
46.95
 70
     8
  0
VERTEX
  8
ガラス
 10
-33.325
 20
46.925
 70
     8
  0
SEQEND
  0
ARC
  8
ガラス
  6
CONTINUOUS
 10
-33.529475
 20
47.355111
 40
0.477567
 50
118.492171
 51
298.492171
  0
ENDBLK
  0
BLOCK
  2
*GRP_0070
 70
    65
 10
0.0
 20
0.0
  0
POLYLINE
  8
ガラス
  6
CONTINUOUS
 66
     1
 70
     4
  0
VERTEX
  8
ガラス
 10
-40.6
 20
47.875
 70
     8
  0
VERTEX
  8
ガラス
 10
-40.55
 20
47.875
 70
     8
  0
VERTEX
  8
ガラス
 10
-40.5
 20
47.9
 70
     8
  0
VERTEX
  8
ガラス
 10
-40.45
 20
47.9
 70
     8
  0
VERTEX
  8
ガラス
 10
-40.4
 20
47.9
 70
     8
  0
VERTEX
  8
ガラス
 10
-40.375
 20
47.925
 70
     8
  0
VERTEX
  8
ガラス
 10
-40.325
 20
47.925
 70
     8
  0
VERTEX
  8
ガラス
 10
-40.275
 20
47.925
 70
     8
  0
VERTEX
  8
ガラス
 10
-40.225
 20
47.95
 70
     8
  0
VERTEX
  8
ガラス
 10
-40.175
 20
47.95
 70
     8
  0
VERTEX
  8
ガラス
 10
-40.15
 20
47.95
 70
     8
  0
VERTEX
  8
ガラス
 10
-40.1
 20
47.95
 70
     8
  0
VERTEX
  8
ガラス
 10
-40.05
 20
47.975
 70
     8
  0
VERTEX
  8
ガラス
 10
-40.0
 20
47.975
 70
     8
  0
VERTEX
  8
ガラス
 10
-39.975
 20
47.975
 70
     8
  0
VERTEX
  8
ガラス
 10
-39.925
 20
47.975
 70
     8
  0
VERTEX
  8
ガラス
 10
-39.875
 20
47.975
 70
     8
  0
VERTEX
  8
ガラス
 10
-39.825
 20
47.975
 70
     8
  0
VERTEX
  8
ガラス
 10
-39.8
 20
47.95
 70
     8
  0
VERTEX
  8
ガラス
 10
-39.75
 20
47.95
 70
     8
  0
VERTEX
  8
ガラス
 10
-39.725
 20
47.95
 70
     8
  0
VERTEX
  8
ガラス
 10
-39.675
 20
47.925
 70
     8
  0
VERTEX
  8
ガラス
 10
-39.625
 20
47.925
 70
     8
  0
VERTEX
  8
ガラス
 10
-39.6
 20
47.9
 70
     8
  0
VERTEX
  8
ガラス
 10
-39.55
 20
47.9
 70
     8
  0
VERTEX
  8
ガラス
 10
-39.525
 20
47.875
 70
     8
  0
VERTEX
  8
ガラス
 10
-39.475
 20
47.85
 70
     8
  0
VERTEX
  8
ガラス
 10
-39.45
 20
47.825
 70
     8
  0
VERTEX
  8
ガラス
 10
-39.4
 20
47.8
 70
     8
  0
VERTEX
  8
ガラス
 10
-39.375
 20
47.775
 70
     8
  0
VERTEX
  8
ガラス
 10
-39.35
 20
47.75
 70
     8
  0
VERTEX
  8
ガラス
 10
-39.3
 20
47.725
 70
     8
  0
VERTEX
  8
ガラス
 10
-39.275
 20
47.7
 70
     8
  0
VERTEX
  8
ガラス
 10
-39.225
 20
47.675
 70
     8
  0
VERTEX
  8
ガラス
 10
-39.2
 20
47.65
 70
     8
  0
VERTEX
  8
ガラス
 10
-39.175
 20
47.625
 70
     8
  0
VERTEX
  8
ガラス
 10
-39.125
 20
47.575
 70
     8
  0
VERTEX
  8
ガラス
 10
-39.1
 20
47.55
 70
     8
  0
VERTEX
  8
ガラス
 10
-39.05
 20
47.525
 70
     8
  0
VERTEX
  8
ガラス
 10
-39.025
 20
47.5
 70
     8
  0
VERTEX
  8
ガラス
 10
-39.0
 20
47.45
 70
     8
  0
SEQEND
  0
POLYLINE
  8
ガラス
  6
CONTINUOUS
 66
     1
 70
     4
  0
VERTEX
  8
ガラス
 10
-39.0
 20
47.45
 70
     8
  0
VERTEX
  8
ガラス
 10
-39.025
 20
47.45
 70
     8
  0
VERTEX
  8
ガラス
 10
-39.05
 20
47.45
 70
     8
  0
VERTEX
  8
ガラス
 10
-39.075
 20
47.425
 70
     8
  0
VERTEX
  8
ガラス
 10
-39.1
 20
47.425
 70
     8
  0
VERTEX
  8
ガラス
 10
-39.15
 20
47.425
 70
     8
  0
VERTEX
  8
ガラス
 10
-39.175
 20
47.425
 70
     8
  0
VERTEX
  8
ガラス
 10
-39.2
 20
47.4
 70
     8
  0
VERTEX
  8
ガラス
 10
-39.225
 20
47.4
 70
     8
  0
VERTEX
  8
ガラス
 10
-39.25
 20
47.4
 70
     8
  0
VERTEX
  8
ガラス
 10
-39.3
 20
47.375
 70
     8
  0
VERTEX
  8
ガラス
 10
-39.325
 20
47.375
 70
     8
  0
VERTEX
  8
ガラス
 10
-39.35
 20
47.375
 70
     8
  0
VERTEX
  8
ガラス
 10
-39.375
 20
47.375
 70
     8
  0
VERTEX
  8
ガラス
 10
-39.4
 20
47.35
 70
     8
  0
VERTEX
  8
ガラス
 10
-39.45
 20
47.35
 70
     8
  0
VERTEX
  8
ガラス
 10
-39.475
 20
47.35
 70
     8
  0
VERTEX
  8
ガラス
 10
-39.5
 20
47.325
 70
     8
  0
VERTEX
  8
ガラス
 10
-39.525
 20
47.325
 70
     8
  0
VERTEX
  8
ガラス
 10
-39.55
 20
47.3
 70
     8
  0
VERTEX
  8
ガラス
 10
-39.575
 20
47.3
 70
     8
  0
VERTEX
  8
ガラス
 10
-39.6
 20
47.3
 70
     8
  0
VERTEX
  8
ガラス
 10
-39.65
 20
47.275
 70
     8
  0
VERTEX
  8
ガラス
 10
-39.675
 20
47.275
 70
     8
  0
VERTEX
  8
ガラス
 10
-39.7
 20
47.25
 70
     8
  0
VERTEX
  8
ガラス
 10
-39.725
 20
47.25
 70
     8
  0
VERTEX
  8
ガラス
 10
-39.75
 20
47.225
 70
     8
  0
VERTEX
  8
ガラス
 10
-39.775
 20
47.225
 70
     8
  0
VERTEX
  8
ガラス
 10
-39.8
 20
47.2
 70
     8
  0
VERTEX
  8
ガラス
 10
-39.825
 20
47.2
 70
     8
  0
VERTEX
  8
ガラス
 10
-39.875
 20
47.175
 70
     8
  0
VERTEX
  8
ガラス
 10
-39.9
 20
47.15
 70
     8
  0
VERTEX
  8
ガラス
 10
-39.925
 20
47.15
 70
     8
  0
VERTEX
  8
ガラス
 10
-39.95
 20
47.125
 70
     8
  0
VERTEX
  8
ガラス
 10
-39.975
 20
47.125
 70
     8
  0
VERTEX
  8
ガラス
 10
-40.0
 20
47.1
 70
     8
  0
VERTEX
  8
ガラス
 10
-40.025
 20
47.1
 70
     8
  0
VERTEX
  8
ガラス
 10
-40.05
 20
47.075
 70
     8
  0
VERTEX
  8
ガラス
 10
-40.075
 20
47.05
 70
     8
  0
VERTEX
  8
ガラス
 10
-40.1
 20
47.05
 70
     8
  0
VERTEX
  8
ガラス
 10
-40.125
 20
47.025
 70
     8
  0
SEQEND
  0
ARC
  8
ガラス
  6
CONTINUOUS
 10
-40.350127
 20
47.463137
 40
0.477567
 50
118.492171
 51
298.492171
  0
ENDBLK
  0
BLOCK
  2
*GRP_0071
 70
    65
 10
0.0
 20
0.0
  0
POLYLINE
  8
ガラス
  6
CONTINUOUS
 66
     1
 70
     4
  0
VERTEX
  8
ガラス
 10
-11.6
 20
57.45
 70
     8
  0
VERTEX
  8
ガラス
 10
-11.575
 20
57.5
 70
     8
  0
VERTEX
  8
ガラス
 10
-11.55
 20
57.525
 70
     8
  0
VERTEX
  8
ガラス
 10
-11.5
 20
57.575
 70
     8
  0
VERTEX
  8
ガラス
 10
-11.475
 20
57.6
 70
     8
  0
VERTEX
  8
ガラス
 10
-11.45
 20
57.625
 70
     8
  0
VERTEX
  8
ガラス
 10
-11.425
 20
57.65
 70
     8
  0
VERTEX
  8
ガラス
 10
-11.375
 20
57.7
 70
     8
  0
VERTEX
  8
ガラス
 10
-11.35
 20
57.725
 70
     8
  0
VERTEX
  8
ガラス
 10
-11.325
 20
57.75
 70
     8
  0
VERTEX
  8
ガラス
 10
-11.275
 20
57.775
 70
     8
  0
VERTEX
  8
ガラス
 10
-11.25
 20
57.825
 70
     8
  0
VERTEX
  8
ガラス
 10
-11.225
 20
57.85
 70
     8
  0
VERTEX
  8
ガラス
 10
-11.175
 20
57.875
 70
     8
  0
VERTEX
  8
ガラス
 10
-11.15
 20
57.9
 70
     8
  0
VERTEX
  8
ガラス
 10
-11.1
 20
57.925
 70
     8
  0
VERTEX
  8
ガラス
 10
-11.075
 20
57.95
 70
     8
  0
VERTEX
  8
ガラス
 10
-11.025
 20
57.95
 70
     8
  0
VERTEX
  8
ガラス
 10
-11.0
 20
57.975
 70
     8
  0
VERTEX
  8
ガラス
 10
-10.95
 20
58.0
 70
     8
  0
VERTEX
  8
ガラス
 10
-10.925
 20
58.0
 70
     8
  0
VERTEX
  8
ガラス
 10
-10.875
 20
58.025
 70
     8
  0
VERTEX
  8
ガラス
 10
-10.85
 20
58.025
 70
     8
  0
VERTEX
  8
ガラス
 10
-10.8
 20
58.05
 70
     8
  0
VERTEX
  8
ガラス
 10
-10.75
 20
58.05
 70
     8
  0
VERTEX
  8
ガラス
 10
-10.725
 20
58.05
 70
     8
  0
VERTEX
  8
ガラス
 10
-10.675
 20
58.05
 70
     8
  0
VERTEX
  8
ガラス
 10
-10.625
 20
58.075
 70
     8
  0
VERTEX
  8
ガラス
 10
-10.6
 20
58.075
 70
     8
  0
VERTEX
  8
ガラス
 10
-10.55
 20
58.075
 70
     8
  0
VERTEX
  8
ガラス
 10
-10.5
 20
58.075
 70
     8
  0
VERTEX
  8
ガラス
 10
-10.45
 20
58.075
 70
     8
  0
VERTEX
  8
ガラス
 10
-10.425
 20
58.05
 70
     8
  0
VERTEX
  8
ガラス
 10
-10.375
 20
58.05
 70
     8
  0
VERTEX
  8
ガラス
 10
-10.325
 20
58.05
 70
     8
  0
VERTEX
  8
ガラス
 10
-10.275
 20
58.05
 70
     8
  0
VERTEX
  8
ガラス
 10
-10.225
 20
58.05
 70
     8
  0
VERTEX
  8
ガラス
 10
-10.2
 20
58.025
 70
     8
  0
VERTEX
  8
ガラス
 10
-10.15
 20
58.025
 70
     8
  0
VERTEX
  8
ガラス
 10
-10.1
 20
58.025
 70
     8
  0
VERTEX
  8
ガラス
 10
-10.05
 20
58.0
 70
     8
  0
SEQEND
  0
POLYLINE
  8
ガラス
  6
CONTINUOUS
 66
     1
 70
     4
  0
VERTEX
  8
ガラス
 10
-10.05
 20
58.0
 70
     8
  0
VERTEX
  8
ガラス
 10
-10.075
 20
58.0
 70
     8
  0
VERTEX
  8
ガラス
 10
-10.1
 20
57.975
 70
     8
  0
VERTEX
  8
ガラス
 10
-10.125
 20
57.95
 70
     8
  0
VERTEX
  8
ガラス
 10
-10.125
 20
57.925
 70
     8
  0
VERTEX
  8
ガラス
 10
-10.15
 20
57.9
 70
     8
  0
VERTEX
  8
ガラス
 10
-10.175
 20
57.875
 70
     8
  0
VERTEX
  8
ガラス
 10
-10.2
 20
57.85
 70
     8
  0
VERTEX
  8
ガラス
 10
-10.225
 20
57.825
 70
     8
  0
VERTEX
  8
ガラス
 10
-10.25
 20
57.8
 70
     8
  0
VERTEX
  8
ガラス
 10
-10.25
 20
57.775
 70
     8
  0
VERTEX
  8
ガラス
 10
-10.275
 20
57.775
 70
     8
  0
VERTEX
  8
ガラス
 10
-10.3
 20
57.75
 70
     8
  0
VERTEX
  8
ガラス
 10
-10.325
 20
57.725
 70
     8
  0
VERTEX
  8
ガラス
 10
-10.35
 20
57.7
 70
     8
  0
VERTEX
  8
ガラス
 10
-10.35
 20
57.675
 70
     8
  0
VERTEX
  8
ガラス
 10
-10.375
 20
57.65
 70
     8
  0
VERTEX
  8
ガラス
 10
-10.4
 20
57.625
 70
     8
  0
VERTEX
  8
ガラス
 10
-10.425
 20
57.6
 70
     8
  0
VERTEX
  8
ガラス
 10
-10.425
 20
57.575
 70
     8
  0
VERTEX
  8
ガラス
 10
-10.45
 20
57.55
 70
     8
  0
VERTEX
  8
ガラス
 10
-10.475
 20
57.525
 70
     8
  0
VERTEX
  8
ガラス
 10
-10.5
 20
57.5
 70
     8
  0
VERTEX
  8
ガラス
 10
-10.5
 20
57.475
 70
     8
  0
VERTEX
  8
ガラス
 10
-10.525
 20
57.45
 70
     8
  0
VERTEX
  8
ガラス
 10
-10.55
 20
57.425
 70
     8
  0
VERTEX
  8
ガラス
 10
-10.55
 20
57.4
 70
     8
  0
VERTEX
  8
ガラス
 10
-10.575
 20
57.375
 70
     8
  0
VERTEX
  8
ガラス
 10
-10.6
 20
57.35
 70
     8
  0
VERTEX
  8
ガラス
 10
-10.6
 20
57.325
 70
     8
  0
VERTEX
  8
ガラス
 10
-10.625
 20
57.3
 70
     8
  0
VERTEX
  8
ガラス
 10
-10.625
 20
57.275
 70
     8
  0
VERTEX
  8
ガラス
 10
-10.65
 20
57.25
 70
     8
  0
VERTEX
  8
ガラス
 10
-10.65
 20
57.2
 70
     8
  0
VERTEX
  8
ガラス
 10
-10.675
 20
57.175
 70
     8
  0
VERTEX
  8
ガラス
 10
-10.7
 20
57.15
 70
     8
  0
VERTEX
  8
ガラス
 10
-10.7
 20
57.125
 70
     8
  0
VERTEX
  8
ガラス
 10
-10.725
 20
57.1
 70
     8
  0
VERTEX
  8
ガラス
 10
-10.725
 20
57.075
 70
     8
  0
VERTEX
  8
ガラス
 10
-10.75
 20
57.05
 70
     8
  0
VERTEX
  8
ガラス
 10
-10.75
 20
57.025
 70
     8
  0
SEQEND
  0
ARC
  8
ガラス
  6
CONTINUOUS
 10
-11.172934
 20
57.252959
 40
0.477567
 50
152.447188
 51
332.447188
  0
ENDBLK
  0
BLOCK
  2
*DIM_0072
 70
    65
 10
0.0
 20
0.0
  0
LINE
  8
寸法
  6
BYBLOCK
 62
     0
 10
-44.575702
 20
47.019985
 11
-44.575702
 21
124.462565
  0
LINE
  8
寸法
  6
BYBLOCK
 62
     0
 10
-14.825708
 20
124.462565
 11
-44.575702
 21
124.462565
  0
POINT
  8
寸法
 62
     0
 10
-14.825708
 20
124.462565
  0
POINT
  8
寸法
 62
     0
 10
-44.575702
 20
124.462565
  0
TEXT
  7
TextStyle03
  8
寸法
  6
CONTINUOUS
 62
     0
 10
-33.00625
 20
124.825
  1
59.5
 40
3.0
 72
     5
 11
-26.44375
 21
124.825
  0
ENDBLK
  0
BLOCK
  2
*DIM_0073
 70
    65
 10
0.0
 20
0.0
  0
LINE
  8
寸法
  6
BYBLOCK
 62
     0
 10
-44.575702
 20
118.496965
 11
-44.575702
 21
118.155853
  0
LINE
  8
寸法
  6
BYBLOCK
 62
     0
 10
13.924295
 20
-23.830763
 11
13.924295
 21
118.155853
  0
LINE
  8
寸法
  6
BYBLOCK
 62
     0
 10
-44.575702
 20
118.155853
 11
13.924295
 21
118.155853
  0
POINT
  8
寸法
 62
     0
 10
-44.575702
 20
118.155853
  0
POINT
  8
寸法
 62
     0
 10
13.924295
 20
118.155853
  0
TEXT
  7
TextStyle03
  8
寸法
  6
CONTINUOUS
 62
     0
 10
-20.7625
 20
118.5
  1
117
 40
3.0
 72
     5
 11
-15.8875
 21
118.5
  0
ENDBLK
  0
BLOCK
  2
*DIM_0074
 70
    65
 10
0.0
 20
0.0
  0
LINE
  8
寸法
  6
BYBLOCK
 62
     0
 10
-24.825677
 20
74.521773
 11
-24.825677
 21
113.156712
  0
LINE
  8
寸法
  6
BYBLOCK
 62
     0
 10
-14.825708
 20
113.156712
 11
-24.825677
 21
113.156712
  0
POINT
  8
寸法
 62
     0
 10
-14.825708
 20
113.156712
  0
POINT
  8
寸法
 62
     0
 10
-24.825677
 20
113.156712
  0
TEXT
  7
TextStyle03
  8
寸法
  6
CONTINUOUS
 62
     0
 10
-21.44375
 20
113.525
  1
20
 40
3.0
 72
     5
 11
-18.25625
 21
113.525
  0
ENDBLK
  0
BLOCK
  2
*DIM_0075
 70
    65
 10
0.0
 20
0.0
  0
LINE
  8
寸法
  6
BYBLOCK
 62
     0
 10
-14.825708
 20
113.156712
 11
13.924295
 21
113.156712
  0
POINT
  8
寸法
 62
     0
 10
-14.825708
 20
113.156712
  0
POINT
  8
寸法
 62
     0
 10
13.924295
 20
113.156712
  0
TEXT
  7
TextStyle03
  8
寸法
  6
CONTINUOUS
 62
     0
 10
-3.75625
 20
113.525
  1
57.5
 40
3.0
 72
     5
 11
2.80625
 21
113.525
  0
ENDBLK
  0
BLOCK
  2
*GRP_0076
 70
    65
 10
0.0
 20
0.0
  0
POLYLINE
  8
寸法
  6
BYBLOCK
 62
     0
 66
     1
  0
VERTEX
  8
寸法
 10
-31.325708
 20
48.819982
  0
VERTEX
  8
寸法
 10
-38.082693
 20
61.280935
  0
VERTEX
  8
寸法
 10
-56.624497
 20
61.280935
  0
SEQEND
  0
ENDBLK
  0
BLOCK
  2
*DIM_0077
 70
    65
 10
0.0
 20
0.0
  0
LINE
  8
寸法
  6
BYBLOCK
 62
     0
 10
-45.075702
 20
46.519982
 11
-156.012565
 21
46.519982
  0
LINE
  8
寸法
  6
BYBLOCK
 62
     0
 10
-43.173417
 20
54.419958
 11
-156.012565
 21
54.419958
  0
LINE
  8
寸法
  6
BYBLOCK
 62
     0
 10
-156.012565
 20
46.519982
 11
-156.012565
 21
54.419958
  0
POINT
  8
寸法
 62
     0
 10
-156.012565
 20
46.519982
  0
POINT
  8
寸法
 62
     0
 10
-156.012565
 20
54.419958
  0
TEXT
  7
TextStyle03
  8
寸法
  6
CONTINUOUS
 62
     0
 10
-156.4
 20
47.16875
  1
15.8
 40
3.0
 50
90.0
 72
     5
 11
-156.4
 21
53.73125
  0
ENDBLK
  0
BLOCK
  2
*DIM_0078
 70
    65
 10
0.0
 20
0.0
  0
LINE
  8
寸法
  6
BYBLOCK
 62
     0
 10
-45.575702
 20
73.269955
 11
-156.012565
 21
73.269955
  0
LINE
  8
寸法
  6
BYBLOCK
 62
     0
 10
-156.012565
 20
54.419958
 11
-156.012565
 21
73.269955
  0
POINT
  8
寸法
 62
     0
 10
-156.012565
 20
73.269955
  0
TEXT
  7
TextStyle03
  8
寸法
  6
CONTINUOUS
 62
     0
 10
-156.4
 20
60.54375
  1
37.7
 40
3.0
 50
90.0
 72
     5
 11
-156.4
 21
67.10625
  0
ENDBLK
  0
BLOCK
  2
*DIM_0079
 70
    65
 10
0.0
 20
0.0
  0
LINE
  8
寸法
  6
BYBLOCK
 62
     0
 10
-42.323417
 20
66.66998
 11
-42.323417
 21
113.156712
  0
LINE
  8
寸法
  6
BYBLOCK
 62
     0
 10
-24.825677
 20
113.156712
 11
-42.323417
 21
113.156712
  0
POINT
  8
寸法
 62
     0
 10
-24.825677
 20
113.156712
  0
POINT
  8
寸法
 62
     0
 10
-42.323417
 20
113.156712
  0
TEXT
  7
TextStyle03
  8
寸法
  6
CONTINUOUS
 62
     0
 10
-35.16875
 20
113.525
  1
35
 40
3.0
 72
     5
 11
-31.98125
 21
113.525
  0
ENDBLK
  0
BLOCK
  2
*DIM_0080
 70
    65
 10
0.0
 20
0.0
  0
LINE
  8
寸法
  6
BYBLOCK
 62
     0
 10
60.614732
 20
53.269982
 11
60.614732
 21
58.26998
  0
POINT
  8
寸法
 62
     0
 10
60.614732
 20
53.269982
  0
POINT
  8
寸法
 62
     0
 10
60.614732
 20
58.26998
  0
TEXT
  7
TextStyle03
  8
寸法
  6
CONTINUOUS
 62
     0
 10
60.225
 20
54.15625
  1
10
 40
3.0
 50
90.0
 72
     5
 11
60.225
 21
57.34375
  0
ENDBLK
  0
BLOCK
  2
*DIM_0081
 70
    65
 10
0.0
 20
0.0
  0
LINE
  8
寸法
  6
BYBLOCK
 62
     0
 10
60.614732
 20
58.26998
 11
60.614732
 21
67.169985
  0
POINT
  8
寸法
 62
     0
 10
60.614732
 20
67.169985
  0
TEXT
  7
TextStyle03
  8
寸法
  6
CONTINUOUS
 62
     0
 10
60.225
 20
59.41875
  1
17.8
 40
3.0
 50
90.0
 72
     5
 11
60.225
 21
65.98125
  0
ENDBLK
  0
BLOCK
  2
*DIM_0082
 70
    65
 10
0.0
 20
0.0
  0
LINE
  8
寸法
  6
BYBLOCK
 62
     0
 10
-1.225627
 20
69.919952
 11
60.614732
 21
69.919952
  0
LINE
  8
寸法
  6
BYBLOCK
 62
     0
 10
60.614732
 20
67.169985
 11
60.614732
 21
69.919952
  0
POINT
  8
寸法
 62
     0
 10
60.614732
 20
69.919952
  0
TEXT
  7
TextStyle03
  8
寸法
  6
CONTINUOUS
 62
     0
 10
63.6
 20
66.0875
  1
5.5
 40
3.0
 50
90.0
 72
     5
 11
63.6
 21
70.9625
  0
ENDBLK
  0
BLOCK
  2
*DIM_0083
 70
    65
 10
0.0
 20
0.0
  0
LINE
  8
寸法
  6
BYBLOCK
 62
     0
 10
-1.725627
 20
73.269953
 11
60.614732
 21
73.269953
  0
LINE
  8
寸法
  6
BYBLOCK
 62
     0
 10
60.614732
 20
69.919952
 11
60.614732
 21
73.269953
  0
POINT
  8
寸法
 62
     0
 10
60.614732
 20
73.269953
  0
TEXT
  7
TextStyle03
  8
寸法
  6
CONTINUOUS
 62
     0
 10
60.225
 20
74.1875
  1
6.7
 40
3.0
 50
90.0
 72
     5
 11
60.225
 21
79.0625
  0
ENDBLK
  0
BLOCK
  2
*DIM_0084
 70
    65
 10
0.0
 20
0.0
  0
LINE
  8
寸法
  6
BYBLOCK
 62
     0
 10
0.48316
 20
53.271615
 11
60.614732
 21
53.271615
  0
LINE
  8
寸法
  6
BYBLOCK
 62
     0
 10
60.614732
 20
30.419988
 11
60.614732
 21
53.271615
  0
POINT
  8
寸法
 62
     0
 10
60.614732
 20
30.419988
  0
POINT
  8
寸法
 62
     0
 10
60.614732
 20
53.271615
  0
TEXT
  7
TextStyle03
  8
寸法
  6
CONTINUOUS
 62
     0
 10
60.225
 20
38.54375
  1
45.7
 40
3.0
 50
90.0
 72
     5
 11
60.225
 21
45.10625
  0
ENDBLK
  0
BLOCK
  2
*DIM_0085
 70
    65
 10
0.0
 20
0.0
  0
LINE
  8
寸法
  6
BYBLOCK
 62
     0
 10
-47.575702
 20
-38.330765
 11
-164.550443
 21
-38.330765
  0
LINE
  8
寸法
  6
BYBLOCK
 62
     0
 10
-15.182727
 20
73.269955
 11
-164.550443
 21
73.269955
  0
LINE
  8
寸法
  6
BYBLOCK
 62
     0
 10
-164.550443
 20
-38.330765
 11
-164.550443
 21
73.269955
  0
POINT
  8
寸法
 62
     0
 10
-164.550443
 20
-38.330765
  0
POINT
  8
寸法
 62
     0
 10
-164.550443
 20
73.269955
  0
TEXT
  7
TextStyle03
  8
寸法
  6
CONTINUOUS
 62
     0
 10
-164.95
 20
13.325
  1
223.2
 40
3.0
 50
90.0
 72
     5
 11
-164.95
 21
21.575
  0
ENDBLK
  0
BLOCK
  2
*DIM_0086
 70
    65
 10
0.0
 20
0.0
  0
LINE
  8
寸法
  6
BYBLOCK
 62
     0
 10
-45.6757
 20
13.91998
 11
-156.012565
 21
13.91998
  0
LINE
  8
寸法
  6
BYBLOCK
 62
     0
 10
-156.012565
 20
46.519982
 11
-156.012565
 21
13.91998
  0
POINT
  8
寸法
 62
     0
 10
-156.012565
 20
46.519982
  0
POINT
  8
寸法
 62
     0
 10
-156.012565
 20
13.91998
  0
TEXT
  7
TextStyle03
  8
寸法
  6
CONTINUOUS
 62
     0
 10
-156.4
 20
26.91875
  1
65.2
 40
3.0
 50
90.0
 72
     5
 11
-156.4
 21
33.48125
  0
ENDBLK
  0
BLOCK
  2
*GRP_0087
 70
    65
 10
0.0
 20
0.0
  0
ARC
  8
型材断面
  6
CONTINUOUS
 62
    47
 10
-18.670891
 20
59.09093
 40
0.375028
 50
132.542526
 51
312.542541
  0
ARC
  8
型材断面
  6
CONTINUOUS
 62
    47
 10
-18.670891
 20
57.249028
 40
0.375028
 50
47.457474
 51
227.457901
  0
ARC
  8
型材断面
  6
CONTINUOUS
 62
    47
 10
-17.825776
 20
58.169933
 40
0.874974
 50
227.457306
 51
492.542358
  0
ARC
  8
型材断面
  6
CONTINUOUS
 62
    47
 10
-18.670891
 20
52.190943
 40
0.375028
 50
132.542526
 51
312.542541
  0
ARC
  8
型材断面
  6
CONTINUOUS
 62
    47
 10
-18.670891
 20
50.348949
 40
0.375028
 50
47.457474
 51
227.457901
  0
ARC
  8
型材断面
  6
CONTINUOUS
 62
    47
 10
-17.825776
 20
51.269946
 40
0.874974
 50
227.457642
 51
492.542694
  0
ARC
  8
型材断面
  6
CONTINUOUS
 62
    47
 10
-27.480535
 20
59.09093
 40
0.375028
 50
227.457474
 51
407.457458
  0
ARC
  8
型材断面
  6
CONTINUOUS
 62
    47
 10
-27.480535
 20
57.249028
 40
0.375028
 50
312.542542
 51
492.542541
  0
ARC
  8
型材断面
  6
CONTINUOUS
 62
    47
 10
-28.325741
 20
58.169933
 40
0.874974
 50
47.457821
 51
312.542511
  0
LINE
  8
型材断面
  6
CONTINUOUS
 62
    47
 10
-15.5757
 20
46.519955
 11
-30.32571
 21
46.519955
  0
LINE
  8
型材断面
  6
CONTINUOUS
 62
    47
 10
-27.225767
 20
62.669995
 11
-22.425738
 21
62.669995
  0
LINE
  8
型材断面
  6
CONTINUOUS
 62
    47
 10
-27.225767
 20
62.669995
 11
-27.575778
 21
63.41996
  0
LINE
  8
型材断面
  6
CONTINUOUS
 62
    47
 10
-27.575778
 20
63.41996
 11
-30.32571
 21
63.41996
  0
LINE
  8
型材断面
  6
CONTINUOUS
 62
    47
 10
-15.5757
 20
63.41996
 11
-22.075732
 21
63.41996
  0
LINE
  8
型材断面
  6
CONTINUOUS
 62
    47
 10
-22.425738
 20
62.669995
 11
-22.075732
 21
63.41996
  0
LINE
  8
型材断面
  6
CONTINUOUS
 62
    47
 10
-30.32571
 20
57.23752
 11
-30.32571
 21
46.519955
  0
ARC
  8
型材断面
  6
CONTINUOUS
 62
    47
 10
-30.018344
 20
57.237522
 40
0.307455
 50
28.849573
 51
180.0
  0
ARC
  8
型材断面
  6
CONTINUOUS
 62
    47
 10
-28.325741
 20
58.169933
 40
1.62503
 50
208.849533
 51
312.542511
  0
ARC
  8
型材断面
  6
CONTINUOUS
 62
    47
 10
-28.325741
 20
58.169933
 40
1.62503
 50
47.457661
 51
151.150223
  0
ARC
  8
型材断面
  6
CONTINUOUS
 62
    47
 10
-30.018344
 20
59.102344
 40
0.307455
 50
180.0
 51
331.150421
  0
LINE
  8
型材断面
  6
CONTINUOUS
 62
    47
 10
-30.32571
 20
59.102342
 11
-30.32571
 21
63.41996
  0
ARC
  8
型材断面
  6
CONTINUOUS
 62
    47
 10
-17.825776
 20
51.269946
 40
1.62503
 50
227.457657
 51
328.547577
  0
ARC
  8
型材断面
  6
CONTINUOUS
 62
    47
 10
-16.041859
 20
50.178831
 40
0.46616
 50
0.0
 51
148.548111
  0
LINE
  8
型材断面
  6
CONTINUOUS
 62
    47
 10
-15.5757
 20
46.519955
 11
-15.5757
 21
50.17883
  0
ARC
  8
型材断面
  6
CONTINUOUS
 62
    47
 10
-17.825776
 20
51.269946
 40
1.62503
 50
31.452208
 51
132.542618
  0
ARC
  8
型材断面
  6
CONTINUOUS
 62
    47
 10
-16.041859
 20
52.361061
 40
0.46616
 50
211.451889
 51
360.0
  0
LINE
  8
型材断面
  6
CONTINUOUS
 62
    47
 10
-15.5757
 20
57.078815
 11
-15.5757
 21
52.36106
  0
ARC
  8
型材断面
  6
CONTINUOUS
 62
    47
 10
-16.041859
 20
57.078818
 40
0.46616
 50
0.0
 51
148.548111
  0
ARC
  8
型材断面
  6
CONTINUOUS
 62
    47
 10
-17.825776
 20
58.169933
 40
1.62503
 50
227.457474
 51
328.54779
  0
ARC
  8
型材断面
  6
CONTINUOUS
 62
    47
 10
-17.825776
 20
58.169933
 40
1.62503
 50
31.452295
 51
132.542435
  0
ARC
  8
型材断面
  6
CONTINUOUS
 62
    47
 10
-16.041859
 20
59.261048
 40
0.46616
 50
211.451889
 51
360.0
  0
LINE
  8
型材断面
  6
CONTINUOUS
 62
    47
 10
-15.5757
 20
63.41996
 11
-15.5757
 21
59.261045
  0
ARC
  8
型材断面
  6
CONTINUOUS
 62
    47
 10
-32.575694
 20
30.420047
 40
7.850022
 50
30.634146
 51
329.365875
  0
ARC
  8
型材断面
  6
CONTINUOUS
 62
    47
 10
-32.575694
 20
30.420047
 40
8.850005
 50
182.428513
 51
270.0
  0
ARC
  8
型材断面
  6
CONTINUOUS
 62
    47
 10
-32.575694
 20
30.420047
 40
8.850005
 50
90.0
 51
177.571487
  0
LINE
  8
型材断面
  6
CONTINUOUS
 62
    47
 10
-25.821263
 20
26.42002
 11
-24.825753
 21
26.42002
  0
LINE
  8
型材断面
  6
CONTINUOUS
 62
    47
 10
-25.821263
 20
34.42007
 11
-24.825753
 21
34.42007
  0
LINE
  8
型材断面
  6
CONTINUOUS
 62
    47
 10
-41.417755
 20
30.045017
 11
-43.575698
 21
30.045017
  0
LINE
  8
型材断面
  6
CONTINUOUS
 62
    47
 10
-41.417755
 20
30.795073
 11
-43.575698
 21
30.795073
  0
LINE
  8
型材断面
  6
CONTINUOUS
 62
    47
 10
-19.975773
 20
64.169923
 11
-19.825742
 21
64.019988
  0
LINE
  8
型材断面
  6
CONTINUOUS
 62
    47
 10
-19.825742
 20
64.019988
 11
-19.675717
 21
64.169923
  0
LINE
  8
型材断面
  6
CONTINUOUS
 62
    47
 10
-24.975692
 20
64.169923
 11
-24.825753
 21
64.019988
  0
LINE
  8
型材断面
  6
CONTINUOUS
 62
    47
 10
-24.825753
 20
64.019988
 11
-24.675723
 21
64.169923
  0
LINE
  8
型材断面
  6
CONTINUOUS
 62
    47
 10
-24.675723
 20
64.169923
 11
-19.975773
 21
64.169923
  0
ARC
  8
型材断面
  6
CONTINUOUS
 62
    47
 10
-44.57577
 20
14.670055
 40
0.250019
 50
89.999123
 51
180.0
  0
LINE
  8
型材断面
  6
CONTINUOUS
 62
    47
 10
-44.8257
 20
14.070027
 11
-44.8257
 21
14.670055
  0
ARC
  8
型材断面
  6
CONTINUOUS
 62
    47
 10
-44.675759
 20
14.070028
 40
0.150029
 50
180.0
 51
269.791626
  0
LINE
  8
型材断面
  6
CONTINUOUS
 62
    47
 10
-44.676307
 20
13.919997
 11
-43.725727
 21
13.919997
  0
ARC
  8
型材断面
  6
CONTINUOUS
 62
    47
 10
-43.725725
 20
14.070028
 40
0.150029
 50
270.0
 51
359.852844
  0
LINE
  8
型材断面
  6
CONTINUOUS
 62
    47
 10
-43.575698
 20
14.06966
 11
-43.575698
 21
18.420062
  0
LINE
  8
型材断面
  6
CONTINUOUS
 62
    47
 10
-44.425742
 20
20.17001
 11
-44.57577
 21
20.32004
  0
LINE
  8
型材断面
  6
CONTINUOUS
 62
    47
 10
-44.425742
 20
20.17001
 11
-44.57577
 21
20.02007
  0
LINE
  8
型材断面
  6
CONTINUOUS
 62
    47
 10
-44.57577
 20
14.920075
 11
-44.57577
 21
20.02007
  0
LINE
  8
型材断面
  6
CONTINUOUS
 62
    47
 10
-44.425742
 20
43.520005
 11
-44.57577
 21
43.66994
  0
LINE
  8
型材断面
  6
CONTINUOUS
 62
    47
 10
-44.425742
 20
43.520005
 11
-44.57577
 21
43.369975
  0
LINE
  8
型材断面
  6
CONTINUOUS
 62
    47
 10
-44.57577
 20
46.019915
 11
-44.57577
 21
43.66994
  0
ARC
  8
型材断面
  6
CONTINUOUS
 62
    47
 10
-44.075733
 20
46.019918
 40
0.500037
 50
90.0
 51
180.0
  0
LINE
  8
型材断面
  6
CONTINUOUS
 62
    47
 10
-44.075732
 20
46.519955
 11
-31.325692
 21
46.519955
  0
LINE
  8
型材断面
  6
CONTINUOUS
 62
    47
 10
-43.575698
 20
45.76999
 11
-25.825735
 21
45.76999
  0
LINE
  8
型材断面
  6
CONTINUOUS
 62
    47
 10
-31.325692
 20
46.519955
 11
-31.325692
 21
51.119915
  0
LINE
  8
型材断面
  6
CONTINUOUS
 62
    47
 10
-31.175755
 20
51.269945
 11
-31.325692
 21
51.119915
  0
LINE
  8
型材断面
  6
CONTINUOUS
 62
    47
 10
-31.175755
 20
51.269945
 11
-31.325692
 21
51.419975
  0
LINE
  8
型材断面
  6
CONTINUOUS
 62
    47
 10
-31.325692
 20
58.019995
 11
-31.325692
 21
51.419975
  0
LINE
  8
型材断面
  6
CONTINUOUS
 62
    47
 10
-31.175755
 20
58.16993
 11
-31.325692
 21
58.019995
  0
LINE
  8
型材断面
  6
CONTINUOUS
 62
    47
 10
-31.175755
 20
58.16993
 11
-31.325692
 21
58.31996
  0
LINE
  8
型材断面
  6
CONTINUOUS
 62
    47
 10
-31.325692
 20
64.169923
 11
-31.325692
 21
58.31996
  0
LINE
  8
型材断面
  6
CONTINUOUS
 62
    47
 10
-24.975692
 20
64.169923
 11
-31.325692
 21
64.169923
  0
LINE
  8
型材断面
  6
CONTINUOUS
 62
    47
 10
-14.825738
 20
63.26993
 11
-13.8757
 21
63.26993
  0
ARC
  8
型材断面
  6
CONTINUOUS
 62
    47
 10
-13.8757
 20
63.119993
 40
0.150029
 50
0.419656
 51
90.0
  0
LINE
  8
型材断面
  6
CONTINUOUS
 62
    47
 10
-13.725765
 20
62.41888
 11
-13.725765
 21
63.12109
  0
ARC
  8
型材断面
  6
CONTINUOUS
 62
    47
 10
-13.8757
 20
62.419977
 40
0.150029
 50
270.332245
 51
359.580353
  0
LINE
  8
型材断面
  6
CONTINUOUS
 62
    47
 10
-14.825738
 20
62.269947
 11
-13.87488
 21
62.269947
  0
LINE
  8
型材断面
  6
CONTINUOUS
 62
    47
 10
-14.825738
 20
63.26993
 11
-14.825738
 21
64.020897
  0
ARC
  8
型材断面
  6
CONTINUOUS
 62
    47
 10
-14.975764
 20
64.019987
 40
0.150029
 50
0.364287
 51
90.0
  0
LINE
  8
型材断面
  6
CONTINUOUS
 62
    47
 10
-19.675717
 20
64.169923
 11
-14.975767
 21
64.169923
  0
LINE
  8
型材断面
  6
CONTINUOUS
 62
    47
 10
-14.825738
 20
54.269988
 11
-14.825738
 21
62.269947
  0
LINE
  8
型材断面
  6
CONTINUOUS
 62
    47
 10
-14.825738
 20
45.76999
 11
-14.825738
 21
53.270005
  0
LINE
  8
型材断面
  6
CONTINUOUS
 62
    47
 10
-14.825738
 20
54.269988
 11
-11.22576
 21
54.269988
  0
LINE
  8
型材断面
  6
CONTINUOUS
 62
    47
 10
-11.22576
 20
54.269988
 11
-11.22576
 21
55.41991
  0
LINE
  8
型材断面
  6
CONTINUOUS
 62
    47
 10
-10.475702
 20
54.269988
 11
-0.925773
 21
54.269988
  0
LINE
  8
型材断面
  6
CONTINUOUS
 62
    47
 10
-10.475702
 20
54.269988
 11
-10.475702
 21
56.02094
  0
ARC
  8
型材断面
  6
CONTINUOUS
 62
    47
 10
-10.625731
 20
56.019936
 40
0.150029
 50
0.364287
 51
90.0
  0
LINE
  8
型材断面
  6
CONTINUOUS
 62
    47
 10
-12.325732
 20
56.169965
 11
-10.625732
 21
56.169965
  0
ARC
  8
型材断面
  6
CONTINUOUS
 62
    47
 10
-12.32573
 20
56.019936
 40
0.150029
 50
90.0
 51
180.0
  0
LINE
  8
型材断面
  6
CONTINUOUS
 62
    47
 10
-12.475763
 20
55.56994
 11
-12.475763
 21
56.019935
  0
ARC
  8
型材断面
  6
CONTINUOUS
 62
    47
 10
-12.32573
 20
55.569939
 40
0.150029
 50
180.0
 51
269.667786
  0
LINE
  8
型材断面
  6
CONTINUOUS
 62
    47
 10
-12.326642
 20
55.41991
 11
-11.22576
 21
55.41991
  0
ARC
  8
型材断面
  6
CONTINUOUS
 62
    47
 10
-0.775742
 20
55.119942
 40
0.150029
 50
90.0
 51
180.0
  0
LINE
  8
型材断面
  6
CONTINUOUS
 62
    47
 10
-0.925773
 20
54.269988
 11
-0.925773
 21
55.11994
  0
LINE
  8
型材断面
  6
CONTINUOUS
 62
    47
 10
-0.775742
 20
55.26997
 11
-0.475778
 21
55.26997
  0
ARC
  8
型材断面
  6
CONTINUOUS
 62
    47
 10
-0.475774
 20
55.119942
 40
0.150029
 50
0.25646
 51
90.0
  0
LINE
  8
型材断面
  6
CONTINUOUS
 62
    47
 10
-0.325748
 20
53.419303
 11
-0.325748
 21
55.12058
  0
ARC
  8
型材断面
  6
CONTINUOUS
 62
    47
 10
-0.475774
 20
53.419943
 40
0.150029
 50
270.329315
 51
359.74353
  0
LINE
  8
型材断面
  6
CONTINUOUS
 62
    47
 10
-14.825738
 20
53.270005
 11
-0.474863
 21
53.270005
  0
LINE
  8
型材断面
  6
CONTINUOUS
 62
    47
 10
-24.825753
 20
34.42007
 11
-24.825753
 21
36.920075
  0
LINE
  8
型材断面
  6
CONTINUOUS
 62
    47
 10
-24.825753
 20
36.920075
 11
-23.075715
 21
38.670025
  0
LINE
  8
型材断面
  6
CONTINUOUS
 62
    47
 10
-23.075715
 20
39.42008
 11
-23.075715
 21
38.670025
  0
LINE
  8
型材断面
  6
CONTINUOUS
 62
    47
 10
-19.64832
 20
39.42008
 11
-23.075715
 21
39.42008
  0
LINE
  8
型材断面
  6
CONTINUOUS
 62
    47
 10
-19.64832
 20
38.781792
 11
-19.64832
 21
39.42008
  0
ARC
  8
型材断面
  6
CONTINUOUS
 62
    47
 10
-18.57355
 20
39.420082
 40
1.250002
 50
210.705566
 51
329.293274
  0
LINE
  8
型材断面
  6
CONTINUOUS
 62
    47
 10
-17.498783
 20
38.781703
 11
-17.498783
 21
39.42008
  0
LINE
  8
型材断面
  6
CONTINUOUS
 62
    47
 10
-17.498783
 20
39.42008
 11
-16.07574
 21
39.42008
  0
LINE
  8
型材断面
  6
CONTINUOUS
 62
    47
 10
-16.07574
 20
39.42008
 11
-16.07574
 21
40.420062
  0
LINE
  8
型材断面
  6
CONTINUOUS
 62
    47
 10
-14.825738
 20
40.420062
 11
-16.07574
 21
40.420062
  0
LINE
  8
型材断面
  6
CONTINUOUS
 62
    47
 10
-14.825738
 20
41.42005
 11
-14.825738
 21
40.420062
  0
LINE
  8
型材断面
  6
CONTINUOUS
 62
    47
 10
-14.825738
 20
41.42005
 11
-17.925767
 21
41.42005
  0
ARC
  8
型材断面
  6
CONTINUOUS
 62
    47
 10
-17.925766
 20
41.270019
 40
0.150029
 50
90.0
 51
179.667786
  0
LINE
  8
型材断面
  6
CONTINUOUS
 62
    47
 10
-18.075705
 20
41.17003
 11
-18.075705
 21
41.27093
  0
LINE
  8
型材断面
  6
CONTINUOUS
 62
    47
 10
-18.075705
 20
41.17003
 11
-18.57574
 21
41.17003
  0
LINE
  8
型材断面
  6
CONTINUOUS
 62
    47
 10
-18.57574
 20
41.270383
 11
-18.57574
 21
41.17003
  0
ARC
  8
型材断面
  6
CONTINUOUS
 62
    47
 10
-18.725771
 20
41.270019
 40
0.150029
 50
0.148623
 51
90.0
  0
LINE
  8
型材断面
  6
CONTINUOUS
 62
    47
 10
-18.72577
 20
41.42005
 11
-24.825753
 21
41.42005
  0
LINE
  8
型材断面
  6
CONTINUOUS
 62
    47
 10
-24.825753
 20
41.42005
 11
-24.825753
 21
45.76999
  0
LINE
  8
型材断面
  6
CONTINUOUS
 62
    47
 10
-14.825738
 20
45.76999
 11
-24.825753
 21
45.76999
  0
LINE
  8
型材断面
  6
CONTINUOUS
 62
    47
 10
-23.075715
 20
21.420012
 11
-23.075715
 21
22.17007
  0
LINE
  8
型材断面
  6
CONTINUOUS
 62
    47
 10
-19.675717
 20
21.420012
 11
-23.075715
 21
21.420012
  0
ARC
  8
型材断面
  6
CONTINUOUS
 62
    47
 10
-18.575741
 20
21.420013
 40
1.099973
 50
0.000199
 51
179.999802
  0
LINE
  8
型材断面
  6
CONTINUOUS
 62
    47
 10
-17.475767
 20
21.420012
 11
-16.07574
 21
21.420012
  0
LINE
  8
型材断面
  6
CONTINUOUS
 62
    47
 10
-16.07574
 20
21.420012
 11
-16.07574
 21
20.420027
  0
LINE
  8
型材断面
  6
CONTINUOUS
 62
    47
 10
-14.825738
 20
20.420027
 11
-16.07574
 21
20.420027
  0
LINE
  8
型材断面
  6
CONTINUOUS
 62
    47
 10
-14.825738
 20
19.420045
 11
-14.825738
 21
20.420027
  0
LINE
  8
型材断面
  6
CONTINUOUS
 62
    47
 10
-14.825738
 20
19.420045
 11
-17.925767
 21
19.420045
  0
ARC
  8
型材断面
  6
CONTINUOUS
 62
    47
 10
-17.925766
 20
19.570075
 40
0.150029
 50
180.0
 51
270.0
  0
LINE
  8
型材断面
  6
CONTINUOUS
 62
    47
 10
-18.075705
 20
19.670065
 11
-18.075705
 21
19.570075
  0
LINE
  8
型材断面
  6
CONTINUOUS
 62
    47
 10
-18.075705
 20
19.670065
 11
-18.57574
 21
19.670065
  0
LINE
  8
型材断面
  6
CONTINUOUS
 62
    47
 10
-18.57574
 20
19.569617
 11
-18.57574
 21
19.670065
  0
ARC
  8
型材断面
  6
CONTINUOUS
 62
    47
 10
-18.725771
 20
19.570075
 40
0.150029
 50
270.0
 51
359.851379
  0
LINE
  8
型材断面
  6
CONTINUOUS
 62
    47
 10
-20.6757
 20
19.420045
 11
-18.72577
 21
19.420045
  0
LINE
  8
型材断面
  6
CONTINUOUS
 62
    47
 10
-20.82573
 20
19.570075
 11
-20.6757
 21
19.420045
  0
LINE
  8
型材断面
  6
CONTINUOUS
 62
    47
 10
-20.82573
 20
19.570075
 11
-20.97576
 21
19.420045
  0
LINE
  8
型材断面
  6
CONTINUOUS
 62
    47
 10
-43.575698
 20
30.795073
 11
-43.575698
 21
45.76999
  0
LINE
  8
型材断面
  6
CONTINUOUS
 62
    47
 10
-43.575698
 20
18.420062
 11
-24.825753
 21
18.420062
  0
LINE
  8
型材断面
  6
CONTINUOUS
 62
    47
 10
-24.825753
 20
23.920015
 11
-24.825753
 21
26.42002
  0
LINE
  8
型材断面
  6
CONTINUOUS
 62
    47
 10
-24.825753
 20
23.920015
 11
-23.075715
 21
22.17007
  0
LINE
  8
型材断面
  6
CONTINUOUS
 62
    47
 10
-24.825753
 20
19.420045
 11
-20.97576
 21
19.420045
  0
LINE
  8
型材断面
  6
CONTINUOUS
 62
    47
 10
-24.825753
 20
18.420062
 11
-24.825753
 21
19.420045
  0
LINE
  8
型材断面
  6
CONTINUOUS
 62
    47
 10
-43.575698
 20
19.170025
 11
-29.141087
 21
19.170025
  0
LINE
  8
型材断面
  6
CONTINUOUS
 62
    47
 10
-43.575698
 20
30.045017
 11
-43.575698
 21
19.170025
  0
ARC
  8
型材断面
  6
CONTINUOUS
 62
    47
 10
-28.324554
 20
20.116409
 40
0.375028
 50
2.458033
 51
182.457428
  0
ARC
  8
型材断面
  6
CONTINUOUS
 62
    47
 10
-27.075738
 20
20.17001
 40
0.874974
 50
182.457443
 51
447.542297
  0
ARC
  8
型材断面
  6
CONTINUOUS
 62
    47
 10
-27.022137
 20
21.418917
 40
0.375028
 50
189.100311
 51
267.542572
  0
LINE
  8
型材断面
  6
CONTINUOUS
 62
    47
 10
-32.575695
 20
21.57004
 11
-27.63924
 21
21.57004
  0
ARC
  8
型材断面
  6
CONTINUOUS
 62
    47
 10
-27.639239
 20
21.320023
 40
0.250019
 50
9.099842
 51
90.0
  0
ARC
  8
型材断面
  6
CONTINUOUS
 62
    47
 10
-27.075738
 20
20.17001
 40
1.62503
 50
182.457565
 51
193.608902
  0
ARC
  8
型材断面
  6
CONTINUOUS
 62
    47
 10
-29.141087
 20
19.670064
 40
0.500037
 50
270.0
 51
373.608765
  0
ARC
  8
型材断面
  6
CONTINUOUS
 62
    47
 10
-27.920944
 20
40.941014
 40
0.375028
 50
132.542526
 51
312.542541
  0
ARC
  8
型材断面
  6
CONTINUOUS
 62
    47
 10
-27.075738
 20
40.020017
 40
0.874974
 50
227.457489
 51
492.542175
  0
ARC
  8
型材断面
  6
CONTINUOUS
 62
    47
 10
-27.075738
 20
40.020017
 40
1.62503
 50
57.768982
 51
132.542343
  0
ARC
  8
型材断面
  6
CONTINUOUS
 62
    47
 10
-27.920944
 20
39.099112
 40
0.375028
 50
47.457474
 51
137.658798
  0
LINE
  8
型材断面
  6
CONTINUOUS
 62
    47
 10
-32.575695
 20
39.27005
 11
-28.382905
 21
39.27005
  0
ARC
  8
型材断面
  6
CONTINUOUS
 62
    47
 10
-28.382904
 20
39.520071
 40
0.250019
 50
270.0
 51
317.657989
  0
LINE
  8
型材断面
  6
CONTINUOUS
 62
    47
 10
-25.825735
 20
41.605415
 11
-25.825735
 21
45.76999
  0
ARC
  8
型材断面
  6
CONTINUOUS
 62
    47
 10
-26.075755
 20
41.606147
 40
0.250019
 50
237.769791
 51
359.837402
  0
LINE
  8
型材断面
  6
CONTINUOUS
 62
    47
 10
-44.57577
 20
40.170047
 11
-44.57577
 21
43.369975
  0
LINE
  8
型材断面
  6
CONTINUOUS
 62
    47
 10
-44.425742
 20
40.020017
 11
-44.57577
 21
40.170047
  0
LINE
  8
型材断面
  6
CONTINUOUS
 62
    47
 10
-44.425742
 20
40.020017
 11
-44.57577
 21
39.870077
  0
LINE
  8
型材断面
  6
CONTINUOUS
 62
    47
 10
-44.57577
 20
39.17006
 11
-44.57577
 21
39.870077
  0
LINE
  8
型材断面
  6
CONTINUOUS
 62
    47
 10
-44.425742
 20
39.020035
 11
-44.57577
 21
39.17006
  0
LINE
  8
型材断面
  6
CONTINUOUS
 62
    47
 10
-44.425742
 20
39.020035
 11
-44.57577
 21
38.870005
  0
LINE
  8
型材断面
  6
CONTINUOUS
 62
    47
 10
-44.57577
 20
38.870005
 11
-44.57577
 21
20.32004
  0
ENDBLK
  0
BLOCK
  2
*GRP_0088
 70
    65
 10
0.0
 20
0.0
  0
LINE
  8
型材断面
  6
CONTINUOUS
 62
    47
 10
-25.575705
 20
1.919238
 11
-26.575705
 21
1.419235
  0
ARC
  8
型材断面
  6
CONTINUOUS
 62
    47
 10
-39.730533
 20
4.840208
 40
0.375
 50
227.457576
 51
407.457232
  0
ARC
  8
型材断面
  6
CONTINUOUS
 62
    47
 10
-39.730533
 20
2.998265
 40
0.375
 50
312.542364
 51
492.542397
  0
ARC
  8
型材断面
  6
CONTINUOUS
 62
    47
 10
-40.575703
 20
3.919237
 40
0.875
 50
47.457615
 51
312.542407
  0
ARC
  8
型材断面
  6
CONTINUOUS
 62
    47
 10
-39.730533
 20
-25.90979
 40
0.375
 50
227.457576
 51
407.457232
  0
ARC
  8
型材断面
  6
CONTINUOUS
 62
    47
 10
-39.730533
 20
-27.751733
 40
0.375
 50
312.542364
 51
492.542397
  0
ARC
  8
型材断面
  6
CONTINUOUS
 62
    47
 10
-40.575703
 20
-26.830762
 40
0.875
 50
47.457615
 51
312.542407
  0
ARC
  8
型材断面
  6
CONTINUOUS
 62
    47
 10
-43.3257
 20
4.544238
 40
0.25
 50
180.0
 51
270.0
  0
LINE
  8
型材断面
  6
CONTINUOUS
 62
    47
 10
-42.34347
 20
4.294235
 11
-43.3257
 21
4.294235
  0
ARC
  8
型材断面
  6
CONTINUOUS
 62
    47
 10
-40.575703
 20
3.919237
 40
1.625
 50
47.457518
 51
160.528747
  0
ARC
  8
型材断面
  6
CONTINUOUS
 62
    47
 10
-42.343469
 20
4.544238
 40
0.25
 50
270.0
 51
340.528747
  0
ARC
  8
型材断面
  6
CONTINUOUS
 62
    47
 10
-40.575703
 20
3.919237
 40
1.625
 50
199.471188
 51
312.542389
  0
ARC
  8
型材断面
  6
CONTINUOUS
 62
    47
 10
-42.34347
 20
3.294238
 40
0.25
 50
19.471188
 51
90.0
  0
LINE
  8
型材断面
  6
CONTINUOUS
 62
    47
 10
-42.34347
 20
3.544235
 11
-43.3257
 21
3.544235
  0
LINE
  8
型材断面
  6
CONTINUOUS
 62
    47
 10
-43.5757
 20
-8.705765
 11
-43.5757
 21
3.294238
  0
ARC
  8
型材断面
  6
CONTINUOUS
 62
    47
 10
-43.3257
 20
3.294238
 40
0.25
 50
90.0
 51
180.0
  0
LINE
  8
型材断面
  6
CONTINUOUS
 62
    47
 10
-43.5757
 20
-9.455765
 11
-43.5757
 21
-26.205763
  0
ARC
  8
型材断面
  6
CONTINUOUS
 62
    47
 10
-43.3257
 20
-26.205762
 40
0.25
 50
180.0
 51
270.0
  0
LINE
  8
型材断面
  6
CONTINUOUS
 62
    47
 10
-42.34347
 20
-26.455765
 11
-43.3257
 21
-26.455765
  0
ARC
  8
型材断面
  6
CONTINUOUS
 62
    47
 10
-40.575703
 20
-26.830762
 40
1.625
 50
47.457518
 51
160.528796
  0
ARC
  8
型材断面
  6
CONTINUOUS
 62
    47
 10
-42.34347
 20
-26.205762
 40
0.25
 50
270.0
 51
340.528796
  0
ARC
  8
型材断面
  6
CONTINUOUS
 62
    47
 10
-40.575703
 20
-26.830762
 40
1.625
 50
199.471237
 51
312.542389
  0
ARC
  8
型材断面
  6
CONTINUOUS
 62
    47
 10
-42.343469
 20
-27.455762
 40
0.25
 50
19.471237
 51
90.0
  0
LINE
  8
型材断面
  6
CONTINUOUS
 62
    47
 10
-42.34347
 20
-27.205765
 11
-43.3257
 21
-27.205765
  0
ARC
  8
型材断面
  6
CONTINUOUS
 62
    47
 10
-43.3257
 20
-27.455762
 40
0.25
 50
90.0
 51
180.0
  0
ARC
  8
型材断面
  6
CONTINUOUS
 62
    47
 10
-37.825701
 20
-33.730762
 40
0.25
 50
90.0
 51
180.0
  0
LINE
  8
型材断面
  6
CONTINUOUS
 62
    47
 10
-38.075702
 20
-33.730765
 11
-38.075702
 21
-33.980763
  0
ARC
  8
型材断面
  6
CONTINUOUS
 62
    47
 10
-37.825701
 20
-33.980762
 40
0.25
 50
180.0
 51
270.0
  0
LINE
  8
型材断面
  6
CONTINUOUS
 62
    47
 10
-37.075702
 20
-40.930768
 11
-37.075702
 21
-38.330765
  0
LINE
  8
型材断面
  6
CONTINUOUS
 62
    47
 10
-36.925702
 20
-41.080768
 11
-37.075702
 21
-40.930768
  0
LINE
  8
型材断面
  6
CONTINUOUS
 62
    47
 10
-36.925702
 20
-41.080768
 11
-37.075702
 21
-41.230767
  0
LINE
  8
型材断面
  6
CONTINUOUS
 62
    47
 10
-37.075702
 20
-45.830765
 11
-37.075702
 21
-41.230767
  0
LINE
  8
型材断面
  6
CONTINUOUS
 62
    47
 10
-37.075702
 20
-45.830765
 11
-36.325702
 21
-45.830765
  0
LINE
  8
型材断面
  6
CONTINUOUS
 62
    47
 10
-36.325702
 20
-45.830765
 11
-36.325702
 21
-38.330765
  0
LINE
  8
型材断面
  6
CONTINUOUS
 62
    47
 10
-36.325702
 20
-38.330765
 11
-30.325702
 21
-38.330765
  0
LINE
  8
型材断面
  6
CONTINUOUS
 62
    47
 10
-30.325702
 20
-38.330765
 11
-30.325702
 21
-37.330765
  0
LINE
  8
型材断面
  6
CONTINUOUS
 62
    47
 10
-36.325702
 20
-37.330765
 11
-30.325702
 21
-37.330765
  0
LINE
  8
型材断面
  6
CONTINUOUS
 62
    47
 10
-36.325702
 20
-34.480765
 11
-36.325702
 21
-37.330765
  0
LINE
  8
型材断面
  6
CONTINUOUS
 62
    47
 10
-37.825702
 20
-34.230763
 11
-37.075702
 21
-34.230763
  0
LINE
  8
型材断面
  6
CONTINUOUS
 62
    47
 10
-37.075702
 20
-37.580765
 11
-37.075702
 21
-34.230763
  0
LINE
  8
型材断面
  6
CONTINUOUS
 62
    47
 10
-25.825705
 20
-32.080765
 11
-25.575705
 21
-32.080765
  0
LINE
  8
型材断面
  6
CONTINUOUS
 62
    47
 10
-25.825705
 20
-32.080765
 11
-25.825705
 21
-33.480763
  0
LINE
  8
型材断面
  6
CONTINUOUS
 62
    47
 10
-37.825702
 20
-33.480763
 11
-25.825705
 21
-33.480763
  0
LINE
  8
型材断面
  6
CONTINUOUS
 62
    47
 10
-24.975705
 20
-30.080763
 11
-24.825705
 21
-29.930763
  0
LINE
  8
型材断面
  6
CONTINUOUS
 62
    47
 10
-24.975705
 20
-30.080763
 11
-24.825705
 21
-30.230763
  0
LINE
  8
型材断面
  6
CONTINUOUS
 62
    47
 10
-24.825705
 20
-30.230763
 11
-24.825705
 21
-32.080765
  0
LINE
  8
型材断面
  6
CONTINUOUS
 62
    47
 10
-25.575705
 20
-25.330765
 11
-25.575705
 21
-32.080765
  0
LINE
  8
型材断面
  6
CONTINUOUS
 62
    47
 10
-26.575705
 20
-24.830765
 11
-25.575705
 21
-25.330765
  0
LINE
  8
型材断面
  6
CONTINUOUS
 62
    47
 10
-26.575705
 20
-21.830765
 11
-26.575705
 21
-24.830765
  0
LINE
  8
型材断面
  6
CONTINUOUS
 62
    47
 10
-26.575705
 20
-21.830765
 11
-25.825705
 21
-21.455765
  0
LINE
  8
型材断面
  6
CONTINUOUS
 62
    47
 10
-4.325702
 20
-33.080765
 11
-4.325702
 21
-37.330765
  0
LINE
  8
型材断面
  6
CONTINUOUS
 62
    47
 10
-3.325702
 20
-38.330765
 11
-8.3257
 21
-38.330765
  0
LINE
  8
型材断面
  6
CONTINUOUS
 62
    47
 10
-24.825705
 20
-15.580768
 11
-24.825705
 21
-13.080768
  0
LINE
  8
型材断面
  6
CONTINUOUS
 62
    47
 10
-24.825705
 20
-15.580768
 11
-23.075708
 21
-17.330765
  0
LINE
  8
型材断面
  6
CONTINUOUS
 62
    47
 10
-23.075708
 20
-18.080765
 11
-23.075708
 21
-17.330765
  0
LINE
  8
型材断面
  6
CONTINUOUS
 62
    47
 10
-19.650453
 20
-18.080765
 11
-23.075708
 21
-18.080765
  0
LINE
  8
型材断面
  6
CONTINUOUS
 62
    47
 10
-19.650453
 20
-17.442483
 11
-19.650453
 21
-18.080765
  0
ARC
  8
型材断面
  6
CONTINUOUS
 62
    47
 10
-18.575703
 20
-18.080769
 40
1.25
 50
30.706853
 51
149.294134
  0
LINE
  8
型材断面
  6
CONTINUOUS
 62
    47
 10
-17.500965
 20
-17.442462
 11
-17.500965
 21
-18.080765
  0
LINE
  8
型材断面
  6
CONTINUOUS
 62
    47
 10
-17.500965
 20
-18.080765
 11
-16.075705
 21
-18.080765
  0
LINE
  8
型材断面
  6
CONTINUOUS
 62
    47
 10
-16.075705
 20
-19.080768
 11
-16.075705
 21
-18.080765
  0
LINE
  8
型材断面
  6
CONTINUOUS
 62
    47
 10
-16.075705
 20
-19.080768
 11
-14.825708
 21
-19.080768
  0
LINE
  8
型材断面
  6
CONTINUOUS
 62
    47
 10
-14.825708
 20
-19.931862
 11
-14.825708
 21
-19.080768
  0
ARC
  8
型材断面
  6
CONTINUOUS
 62
    47
 10
-14.975702
 20
-19.930767
 40
0.15
 50
270.0
 51
359.58157
  0
LINE
  8
型材断面
  6
CONTINUOUS
 62
    47
 10
-14.975702
 20
-20.080768
 11
-17.92791
 21
-20.080768
  0
ARC
  8
型材断面
  6
CONTINUOUS
 62
    47
 10
-17.92791
 20
-19.930763
 40
0.15
 50
180.256235
 51
270.0
  0
LINE
  8
型材断面
  6
CONTINUOUS
 62
    47
 10
-18.07791
 20
-19.830763
 11
-18.07791
 21
-19.931435
  0
LINE
  8
型材断面
  6
CONTINUOUS
 62
    47
 10
-18.07791
 20
-19.830763
 11
-18.577908
 21
-19.830763
  0
LINE
  8
型材断面
  6
CONTINUOUS
 62
    47
 10
-18.577908
 20
-19.930765
 11
-18.577908
 21
-19.830763
  0
ARC
  8
型材断面
  6
CONTINUOUS
 62
    47
 10
-18.727909
 20
-19.930763
 40
0.150004
 50
270.0
 51
360.0
  0
LINE
  8
型材断面
  6
CONTINUOUS
 62
    47
 10
-20.677905
 20
-20.080768
 11
-18.727908
 21
-20.080768
  0
LINE
  8
型材断面
  6
CONTINUOUS
 62
    47
 10
-20.827908
 20
-19.930765
 11
-20.677905
 21
-20.080768
  0
LINE
  8
型材断面
  6
CONTINUOUS
 62
    47
 10
-20.827908
 20
-19.930765
 11
-20.977913
 21
-20.080768
  0
LINE
  8
型材断面
  6
CONTINUOUS
 62
    47
 10
-24.825705
 20
-20.080768
 11
-20.977913
 21
-20.080768
  0
LINE
  8
型材断面
  6
CONTINUOUS
 62
    47
 10
-24.825705
 20
-20.080768
 11
-24.825705
 21
-29.930763
  0
LINE
  8
型材断面
  6
CONTINUOUS
 62
    47
 10
13.174295
 20
-33.080765
 11
13.174295
 21
-34.480765
  0
LINE
  8
型材断面
  6
CONTINUOUS
 62
    47
 10
13.174295
 20
-34.480765
 11
13.924295
 21
-34.480765
  0
LINE
  8
型材断面
  6
CONTINUOUS
 62
    47
 10
13.924295
 20
-34.480765
 11
13.924295
 21
-26.080765
  0
LINE
  8
型材断面
  6
CONTINUOUS
 62
    47
 10
13.924295
 20
-26.080765
 11
11.424293
 21
-26.080765
  0
LINE
  8
型材断面
  6
CONTINUOUS
 62
    47
 10
11.424293
 20
-26.080765
 11
11.424293
 21
-26.830765
  0
LINE
  8
型材断面
  6
CONTINUOUS
 62
    47
 10
13.174295
 20
-26.830765
 11
11.424293
 21
-26.830765
  0
LINE
  8
型材断面
  6
CONTINUOUS
 62
    47
 10
13.174295
 20
-32.080765
 11
13.174295
 21
-26.830765
  0
LINE
  8
型材断面
  6
CONTINUOUS
 62
    47
 10
-24.825705
 20
-32.080765
 11
13.174295
 21
-32.080765
  0
LINE
  8
型材断面
  6
CONTINUOUS
 62
    47
 10
-3.325702
 20
-33.080765
 11
13.174295
 21
-33.080765
  0
LINE
  8
型材断面
  6
CONTINUOUS
 62
    47
 10
-3.325702
 20
-38.330765
 11
-3.325702
 21
-33.080765
  0
LINE
  8
型材断面
  6
CONTINUOUS
 62
    47
 10
-24.825705
 20
-2.580768
 11
-24.825705
 21
-5.080768
  0
LINE
  8
型材断面
  6
CONTINUOUS
 62
    47
 10
-24.825705
 20
-2.580768
 11
-23.075708
 21
-0.830765
  0
LINE
  8
型材断面
  6
CONTINUOUS
 62
    47
 10
-23.075708
 20
-0.080765
 11
-23.075708
 21
-0.830765
  0
LINE
  8
型材断面
  6
CONTINUOUS
 62
    47
 10
-19.675702
 20
-0.080765
 11
-23.075708
 21
-0.080765
  0
LINE
  8
型材断面
  6
CONTINUOUS
 62
    47
 10
-17.4757
 20
-0.080765
 11
-16.075705
 21
-0.080765
  0
LINE
  8
型材断面
  6
CONTINUOUS
 62
    47
 10
-16.075705
 20
0.919235
 11
-16.075705
 21
-0.080765
  0
LINE
  8
型材断面
  6
CONTINUOUS
 62
    47
 10
-16.075705
 20
0.919235
 11
-14.825708
 21
0.919235
  0
LINE
  8
型材断面
  6
CONTINUOUS
 62
    47
 10
-14.825708
 20
1.770327
 11
-14.825708
 21
0.919235
  0
ARC
  8
型材断面
  6
CONTINUOUS
 62
    47
 10
-14.975702
 20
1.769233
 40
0.15
 50
0.41843
 51
90.0
  0
LINE
  8
型材断面
  6
CONTINUOUS
 62
    47
 10
-14.975702
 20
1.919232
 11
-17.92791
 21
1.919232
  0
ARC
  8
型材断面
  6
CONTINUOUS
 62
    47
 10
-17.92791
 20
1.769234
 40
0.15
 50
90.0
 51
179.743765
  0
LINE
  8
型材断面
  6
CONTINUOUS
 62
    47
 10
-18.07791
 20
1.669232
 11
-18.07791
 21
1.769905
  0
LINE
  8
型材断面
  6
CONTINUOUS
 62
    47
 10
-18.07791
 20
1.669232
 11
-18.577908
 21
1.669232
  0
LINE
  8
型材断面
  6
CONTINUOUS
 62
    47
 10
-18.577908
 20
1.769232
 11
-18.577908
 21
1.669232
  0
ARC
  8
型材断面
  6
CONTINUOUS
 62
    47
 10
-18.727909
 20
1.769234
 40
0.150001
 50
0.0
 51
89.852063
  0
LINE
  8
型材断面
  6
CONTINUOUS
 62
    47
 10
-20.677908
 20
1.919232
 11
-18.727523
 21
1.919232
  0
LINE
  8
型材断面
  6
CONTINUOUS
 62
    47
 10
-20.827908
 20
1.769232
 11
-20.677908
 21
1.919232
  0
LINE
  8
型材断面
  6
CONTINUOUS
 62
    47
 10
-20.827908
 20
1.769232
 11
-20.977908
 21
1.919232
  0
LINE
  8
型材断面
  6
CONTINUOUS
 62
    47
 10
-24.825705
 20
1.919232
 11
-20.977908
 21
1.919232
  0
LINE
  8
型材断面
  6
CONTINUOUS
 62
    47
 10
-24.825705
 20
1.919232
 11
-24.825705
 21
16.91998
  0
LINE
  8
型材断面
  6
CONTINUOUS
 62
    47
 10
-24.825705
 20
16.91998
 11
-25.575705
 21
16.91998
  0
LINE
  8
型材断面
  6
CONTINUOUS
 62
    47
 10
-25.575705
 20
16.91998
 11
-25.575705
 21
15.519238
  0
LINE
  8
型材断面
  6
CONTINUOUS
 62
    47
 10
-25.575705
 20
11.419235
 11
-25.575705
 21
14.919238
  0
LINE
  8
型材断面
  6
CONTINUOUS
 62
    47
 10
-32.3235
 20
14.919238
 11
-32.3235
 21
13.519235
  0
LINE
  8
型材断面
  6
CONTINUOUS
 62
    47
 10
-32.3235
 20
14.919238
 11
-31.323502
 21
14.919238
  0
LINE
  8
型材断面
  6
CONTINUOUS
 62
    47
 10
-31.323502
 20
15.519238
 11
-31.323502
 21
14.919238
  0
LINE
  8
型材断面
  6
CONTINUOUS
 62
    47
 10
-33.0735
 20
15.519238
 11
-31.323502
 21
15.519238
  0
LINE
  8
型材断面
  6
CONTINUOUS
 62
    47
 10
-33.0735
 20
15.519238
 11
-33.0735
 21
12.769235
  0
ARC
  8
型材断面
  6
CONTINUOUS
 62
    47
 10
-44.075701
 20
10.919238
 40
0.5
 50
90.0
 51
180.0
  0
LINE
  8
型材断面
  6
CONTINUOUS
 62
    47
 10
-43.5757
 20
10.669235
 11
-43.5757
 21
4.544238
  0
LINE
  8
型材断面
  6
CONTINUOUS
 62
    47
 10
-25.575705
 20
10.669235
 11
-43.5757
 21
10.669235
  0
LINE
  8
型材断面
  6
CONTINUOUS
 62
    47
 10
-25.575705
 20
1.919238
 11
-25.575705
 21
10.669235
  0
LINE
  8
型材断面
  6
CONTINUOUS
 62
    47
 10
-44.575702
 20
10.919238
 11
-44.575702
 21
4.069235
  0
LINE
  8
型材断面
  6
CONTINUOUS
 62
    47
 10
-44.425702
 20
3.919235
 11
-44.575702
 21
4.069235
  0
LINE
  8
型材断面
  6
CONTINUOUS
 62
    47
 10
-44.425702
 20
3.919235
 11
-44.575702
 21
3.769235
  0
LINE
  8
型材断面
  6
CONTINUOUS
 62
    47
 10
-44.575702
 20
-26.680765
 11
-44.575702
 21
3.769235
  0
LINE
  8
型材断面
  6
CONTINUOUS
 62
    47
 10
-44.425702
 20
-26.830765
 11
-44.575702
 21
-26.680765
  0
LINE
  8
型材断面
  6
CONTINUOUS
 62
    47
 10
-44.425702
 20
-26.830765
 11
-44.575702
 21
-26.980765
  0
LINE
  8
型材断面
  6
CONTINUOUS
 62
    47
 10
-44.575702
 20
-26.980765
 11
-44.575702
 21
-35.430768
  0
LINE
  8
型材断面
  6
CONTINUOUS
 62
    47
 10
-44.425702
 20
-35.580768
 11
-44.575702
 21
-35.430768
  0
LINE
  8
型材断面
  6
CONTINUOUS
 62
    47
 10
-44.575702
 20
-35.730767
 11
-44.425702
 21
-35.580768
  0
LINE
  8
型材断面
  6
CONTINUOUS
 62
    47
 10
-44.575702
 20
-35.730767
 11
-44.575702
 21
-38.330765
  0
LINE
  8
型材断面
  6
CONTINUOUS
 62
    47
 10
-44.575702
 20
-38.330765
 11
-37.075702
 21
-38.330765
  0
LINE
  8
型材断面
  6
CONTINUOUS
 62
    47
 10
-43.5757
 20
-37.580765
 11
-43.5757
 21
-27.455763
  0
LINE
  8
型材断面
  6
CONTINUOUS
 62
    47
 10
-37.075702
 20
-37.580765
 11
-43.5757
 21
-37.580765
  0
ARC
  8
型材断面
  6
CONTINUOUS
 62
    47
 10
-18.575702
 20
-0.080767
 40
1.1
 50
179.999896
 51
360.000104
  0
LINE
  8
型材断面
  6
CONTINUOUS
 62
    47
 10
-25.575705
 20
15.519238
 11
-28.773502
 21
15.519238
  0
LINE
  8
型材断面
  6
CONTINUOUS
 62
    47
 10
-28.773502
 20
15.519238
 11
-28.773502
 21
14.919238
  0
LINE
  8
型材断面
  6
CONTINUOUS
 62
    47
 10
-25.575705
 20
14.919238
 11
-28.773502
 21
14.919238
  0
LINE
  8
型材断面
  6
CONTINUOUS
 62
    47
 10
-25.575705
 20
11.419235
 11
-30.573498
 21
11.419235
  0
LINE
  8
型材断面
  6
CONTINUOUS
 62
    47
 10
-30.573498
 20
11.419235
 11
-30.573498
 21
13.519235
  0
LINE
  8
型材断面
  6
CONTINUOUS
 62
    47
 10
-30.573498
 20
13.519235
 11
-32.3235
 21
13.519235
  0
LINE
  8
型材断面
  6
CONTINUOUS
 62
    47
 10
-33.0735
 20
12.769235
 11
-31.323498
 21
12.769235
  0
LINE
  8
型材断面
  6
CONTINUOUS
 62
    47
 10
-31.323498
 20
11.419235
 11
-31.323498
 21
12.769235
  0
LINE
  8
型材断面
  6
CONTINUOUS
 62
    47
 10
-44.075702
 20
11.419235
 11
-31.323498
 21
11.419235
  0
LINE
  8
型材断面
  6
CONTINUOUS
 62
    47
 10
-25.736295
 20
-5.080768
 11
-24.825705
 21
-5.080768
  0
ARC
  8
型材断面
  6
CONTINUOUS
 62
    47
 10
-25.736293
 20
-4.930768
 40
0.15
 50
211.24842
 51
270.0
  0
LINE
  8
型材断面
  6
CONTINUOUS
 62
    47
 10
-25.736295
 20
-13.080768
 11
-24.825705
 21
-13.080768
  0
ARC
  8
型材断面
  6
CONTINUOUS
 62
    47
 10
-25.736294
 20
-13.230765
 40
0.15
 50
90.0
 51
148.751559
  0
LINE
  8
型材断面
  6
CONTINUOUS
 62
    47
 10
-41.417755
 20
-8.705765
 11
-43.5757
 21
-8.705765
  0
LINE
  8
型材断面
  6
CONTINUOUS
 62
    47
 10
-41.417755
 20
-9.455765
 11
-43.5757
 21
-9.455765
  0
ARC
  8
型材断面
  6
CONTINUOUS
 62
    47
 10
-32.575702
 20
-9.080765
 40
8.85
 50
182.428514
 51
270.0
  0
LINE
  8
型材断面
  6
CONTINUOUS
 62
    47
 10
-32.575702
 20
-17.930765
 11
-25.825705
 21
-17.930765
  0
LINE
  8
型材断面
  6
CONTINUOUS
 62
    47
 10
-25.825705
 20
-21.455765
 11
-25.825705
 21
-17.930765
  0
ARC
  8
型材断面
  6
CONTINUOUS
 62
    47
 10
-32.575702
 20
-9.080765
 40
8.85
 50
90.0
 51
177.571486
  0
LINE
  8
型材断面
  6
CONTINUOUS
 62
    47
 10
-32.575702
 20
-0.230765
 11
-26.575705
 21
-0.230765
  0
LINE
  8
型材断面
  6
CONTINUOUS
 62
    47
 10
-26.575705
 20
-0.230765
 11
-26.575705
 21
1.419235
  0
LINE
  8
型材断面
  6
CONTINUOUS
 62
    47
 10
-24.825705
 20
-33.080765
 11
-8.3257
 21
-33.080765
  0
LINE
  8
型材断面
  6
CONTINUOUS
 62
    47
 10
-8.3257
 20
-38.330765
 11
-8.3257
 21
-37.330765
  0
LINE
  8
型材断面
  6
CONTINUOUS
 62
    47
 10
-8.3257
 20
-37.330765
 11
-4.325702
 21
-37.330765
  0
LINE
  8
型材断面
  6
CONTINUOUS
 62
    47
 10
-7.5757
 20
-33.080765
 11
-4.325702
 21
-33.080765
  0
LINE
  8
型材断面
  6
CONTINUOUS
 62
    47
 10
-7.5757
 20
-34.480765
 11
-7.5757
 21
-33.080765
  0
LINE
  8
型材断面
  6
CONTINUOUS
 62
    47
 10
-8.3257
 20
-34.480765
 11
-8.3257
 21
-33.080765
  0
LINE
  8
型材断面
  6
CONTINUOUS
 62
    47
 10
-8.3257
 20
-34.480765
 11
-7.5757
 21
-34.480765
  0
LINE
  8
型材断面
  6
CONTINUOUS
 62
    47
 10
-24.825705
 20
-34.480765
 11
-24.825705
 21
-33.080765
  0
LINE
  8
型材断面
  6
CONTINUOUS
 62
    47
 10
-36.325702
 20
-34.480765
 11
-24.825705
 21
-34.480765
  0
ARC
  8
型材断面
  6
CONTINUOUS
 62
    47
 10
-32.575702
 20
-9.080765
 40
7.85
 50
31.248418
 51
328.751561
  0
LINE
  8
型材断面
  6
CONTINUOUS
 62
    47
 10
-25.575705
 20
15.269238
 11
-25.575705
 21
15.16924
  0
ENDBLK
  0
BLOCK
  2
*GRP_0089
 70
    65
 10
0.0
 20
0.0
  0
ARC
  8
型材断面
  6
CONTINUOUS
 62
    47
 10
-3.575734
 20
55.269929
 40
0.5
 50
359.999795
 51
539.999795
  0
ARC
  8
型材断面
  6
CONTINUOUS
 62
    47
 10
-4.575736
 20
54.769933
 40
0.5
 50
269.999795
 51
359.999795
  0
ARC
  8
型材断面
  6
CONTINUOUS
 62
    47
 10
-2.575736
 20
54.769926
 40
0.5
 50
179.999795
 51
269.999795
  0
LINE
  8
型材断面
  6
CONTINUOUS
 62
    47
 10
-6.075727
 20
56.519932
 11
-1.075727
 21
56.519915
  0
LINE
  8
型材断面
  6
CONTINUOUS
 62
    47
 10
-3.075735
 20
54.769923
 11
-3.075735
 21
55.269925
  0
LINE
  8
型材断面
  6
CONTINUOUS
 62
    47
 10
-4.075738
 20
54.769925
 11
-4.075732
 21
55.269925
  0
LINE
  8
型材断面
  6
CONTINUOUS
 62
    47
 10
-6.825735
 20
55.769932
 11
-4.825732
 21
55.769925
  0
LINE
  8
型材断面
  6
CONTINUOUS
 62
    47
 10
-2.325735
 20
55.76992
 11
-0.325732
 21
55.76991
  0
LINE
  8
型材断面
  6
CONTINUOUS
 62
    47
 10
-4.825732
 20
55.769925
 11
-4.825738
 21
55.019925
  0
LINE
  8
型材断面
  6
CONTINUOUS
 62
    47
 10
-5.575738
 20
55.01993
 11
-4.825738
 21
55.019925
  0
LINE
  8
型材断面
  6
CONTINUOUS
 62
    47
 10
-1.575735
 20
55.019915
 11
-2.325735
 21
55.01992
  0
LINE
  8
型材断面
  6
CONTINUOUS
 62
    47
 10
-2.325735
 20
55.76992
 11
-2.325735
 21
55.01992
  0
LINE
  8
型材断面
  6
CONTINUOUS
 62
    47
 10
-0.325732
 20
55.76991
 11
-0.32572
 21
59.019912
  0
LINE
  8
型材断面
  6
CONTINUOUS
 62
    47
 10
-2.325723
 20
58.26992
 11
-1.075725
 21
58.269915
  0
LINE
  8
型材断面
  6
CONTINUOUS
 62
    47
 10
-4.825725
 20
58.269928
 11
-6.075723
 21
58.269932
  0
LINE
  8
型材断面
  6
CONTINUOUS
 62
    47
 10
-6.82572
 20
59.019935
 11
-5.12572
 21
59.019932
  0
LINE
  8
型材断面
  6
CONTINUOUS
 62
    47
 10
-4.82572
 20
58.719928
 11
-4.825725
 21
58.269928
  0
LINE
  8
型材断面
  6
CONTINUOUS
 62
    47
 10
-5.12572
 20
59.019932
 11
-4.82572
 21
58.719928
  0
LINE
  8
型材断面
  6
CONTINUOUS
 62
    47
 10
-2.32572
 20
58.71992
 11
-2.325723
 21
58.26992
  0
LINE
  8
型材断面
  6
CONTINUOUS
 62
    47
 10
-2.02572
 20
59.019915
 11
-0.32572
 21
59.019912
  0
LINE
  8
型材断面
  6
CONTINUOUS
 62
    47
 10
-2.32572
 20
58.71992
 11
-2.02572
 21
59.019915
  0
LINE
  8
型材断面
  6
CONTINUOUS
 62
    47
 10
-1.075727
 20
56.519915
 11
-1.075725
 21
58.269915
  0
LINE
  8
型材断面
  6
CONTINUOUS
 62
    47
 10
-6.075727
 20
56.519932
 11
-6.075723
 21
58.269932
  0
LINE
  8
型材断面
  6
CONTINUOUS
 62
    47
 10
-6.825735
 20
55.769932
 11
-6.82572
 21
59.019935
  0
LINE
  8
型材断面
  6
CONTINUOUS
 62
    47
 10
-1.575735
 20
54.519915
 11
-1.575735
 21
55.019915
  0
LINE
  8
型材断面
  6
CONTINUOUS
 62
    47
 10
-2.57574
 20
54.26992
 11
-1.82574
 21
54.26992
  0
LINE
  8
型材断面
  6
CONTINUOUS
 62
    47
 10
-1.575735
 20
54.519915
 11
-1.82574
 21
54.26992
  0
LINE
  8
型材断面
  6
CONTINUOUS
 62
    47
 10
-5.575738
 20
54.519932
 11
-5.575738
 21
55.01993
  0
LINE
  8
型材断面
  6
CONTINUOUS
 62
    47
 10
-5.325738
 20
54.26993
 11
-4.575738
 21
54.269928
  0
LINE
  8
型材断面
  6
CONTINUOUS
 62
    47
 10
-5.575738
 20
54.519932
 11
-5.325738
 21
54.26993
  0
ENDBLK
  0
BLOCK
  2
*GRP_0090
 70
    65
 10
0.0
 20
0.0
  0
LINE
  8
ゴム等
  6
CONTINUOUS
 10
-21.075738
 20
66.669925
 11
-21.075738
 21
64.169923
  0
LINE
  8
ゴム等
  6
CONTINUOUS
 10
-21.075738
 20
66.669925
 11
-16.07574
 21
66.669925
  0
LINE
  8
ゴム等
  6
CONTINUOUS
 10
-16.07574
 20
66.669925
 11
-16.07574
 21
64.169923
  0
LINE
  8
ゴム等
  6
CONTINUOUS
 10
-21.075738
 20
64.169923
 11
-16.07574
 21
64.169923
  0
LINE
  8
ゴム等
  6
CONTINUOUS
 10
-16.07574
 20
64.834985
 11
-16.740802
 21
64.169923
  0
LINE
  8
ゴム等
  6
CONTINUOUS
 10
-16.07574
 20
65.542093
 11
-17.44791
 21
64.169923
  0
LINE
  8
ゴム等
  6
CONTINUOUS
 10
-16.07574
 20
66.249198
 11
-18.155012
 21
64.169923
  0
LINE
  8
ゴム等
  6
CONTINUOUS
 10
-17.776335
 20
66.669925
 11
-20.276335
 21
64.169923
  0
LINE
  8
ゴム等
  6
CONTINUOUS
 10
-17.069228
 20
66.669925
 11
-19.569228
 21
64.169923
  0
LINE
  8
ゴム等
  6
CONTINUOUS
 10
-16.362122
 20
66.669925
 11
-18.86212
 21
64.169923
  0
LINE
  8
ゴム等
  6
CONTINUOUS
 10
-18.483443
 20
66.669925
 11
-20.983443
 21
64.169923
  0
LINE
  8
ゴム等
  6
CONTINUOUS
 10
-19.19055
 20
66.669925
 11
-21.075738
 21
64.78473
  0
LINE
  8
ゴム等
  6
CONTINUOUS
 10
-19.897653
 20
66.669925
 11
-21.075738
 21
65.49184
  0
LINE
  8
ゴム等
  6
CONTINUOUS
 10
-20.60476
 20
66.669925
 11
-21.075738
 21
66.198948
  0
ENDBLK
  0
BLOCK
  2
*GRP_0091
 70
    65
 10
0.0
 20
0.0
  0
LINE
  8
ゴム等
  6
CONTINUOUS
 10
-0.575695
 20
60.519915
 11
-1.575698
 21
60.519915
  0
LINE
  8
ゴム等
  6
CONTINUOUS
 10
-5.575695
 20
60.519915
 11
-6.575695
 21
60.519915
  0
LINE
  8
ゴム等
  6
CONTINUOUS
 10
-5.575695
 20
60.519915
 11
-5.575695
 21
60.519915
  0
ARC
  8
ゴム等
  6
CONTINUOUS
 10
-5.325696
 20
60.519914
 40
0.25
 50
180.0
 51
270.0
  0
LINE
  8
ゴム等
  6
CONTINUOUS
 10
-1.825695
 20
60.269915
 11
-5.325698
 21
60.269915
  0
LINE
  8
ゴム等
  6
CONTINUOUS
 10
-1.575698
 20
60.519915
 11
-1.575698
 21
60.519915
  0
ARC
  8
ゴム等
  6
CONTINUOUS
 10
-1.825696
 20
60.519914
 40
0.25
 50
270.0
 51
360.0
  0
LINE
  8
ゴム等
  6
CONTINUOUS
 10
-6.575695
 20
60.519915
 11
-6.575695
 21
59.019915
  0
LINE
  8
ゴム等
  6
CONTINUOUS
 10
-0.575695
 20
60.519915
 11
-0.575695
 21
59.019915
  0
LINE
  8
ゴム等
  6
CONTINUOUS
 10
-2.375695
 20
58.119915
 11
-2.375695
 21
59.019915
  0
LINE
  8
ゴム等
  6
CONTINUOUS
 10
-0.575695
 20
59.019915
 11
-2.375695
 21
59.019915
  0
LINE
  8
ゴム等
  6
CONTINUOUS
 10
-4.775695
 20
58.119915
 11
-4.775695
 21
59.019915
  0
LINE
  8
ゴム等
  6
CONTINUOUS
 10
-6.575695
 20
59.019915
 11
-4.775695
 21
59.019915
  0
LINE
  8
ゴム等
  6
CONTINUOUS
 10
-4.775695
 20
58.119915
 11
-5.275695
 21
58.119915
  0
LINE
  8
ゴム等
  6
CONTINUOUS
 10
-5.275695
 20
58.119915
 11
-5.275695
 21
57.869915
  0
LINE
  8
ゴム等
  6
CONTINUOUS
 10
-2.375695
 20
58.119915
 11
-1.875698
 21
58.119915
  0
LINE
  8
ゴム等
  6
CONTINUOUS
 10
-1.875698
 20
57.869915
 11
-1.875698
 21
58.119915
  0
ARC
  8
ゴム等
  6
CONTINUOUS
 10
-3.575696
 20
57.719914
 40
0.5
 50
180.0
 51
270.0
  0
LINE
  8
ゴム等
  6
CONTINUOUS
 10
-3.575695
 20
57.219915
 11
-3.575695
 21
57.219915
  0
ARC
  8
ゴム等
  6
CONTINUOUS
 10
-3.575696
 20
57.719914
 40
0.5
 50
270.0
 51
360.0
  0
LINE
  8
ゴム等
  6
CONTINUOUS
 10
-3.075698
 20
58.519917
 11
-3.075698
 21
57.719915
  0
ARC
  8
ゴム等
  6
CONTINUOUS
 10
-3.575696
 20
58.519914
 40
0.5
 50
0.0
 51
90.0
  0
LINE
  8
ゴム等
  6
CONTINUOUS
 10
-3.575695
 20
59.019915
 11
-3.575695
 21
59.019915
  0
LINE
  8
ゴム等
  6
CONTINUOUS
 10
-4.075695
 20
58.519917
 11
-4.075695
 21
57.719915
  0
ARC
  8
ゴム等
  6
CONTINUOUS
 10
-3.575696
 20
58.519914
 40
0.5
 50
90.0
 51
180.0
  0
LINE
  8
ゴム等
  6
CONTINUOUS
 10
-0.661485
 20
59.019915
 11
-0.575695
 21
59.105705
  0
LINE
  8
ゴム等
  6
CONTINUOUS
 10
-6.232553
 20
60.519915
 11
-6.575695
 21
60.176772
  0
LINE
  8
ゴム等
  6
CONTINUOUS
 10
-5.57143
 20
60.47393
 11
-6.575695
 21
59.469665
  0
LINE
  8
ゴム等
  6
CONTINUOUS
 10
-5.068335
 20
60.269915
 11
-6.318337
 21
59.019915
  0
LINE
  8
ゴム等
  6
CONTINUOUS
 10
-4.36123
 20
60.269915
 11
-5.61123
 21
59.019915
  0
LINE
  8
ゴム等
  6
CONTINUOUS
 10
-3.654122
 20
60.269915
 11
-4.904122
 21
59.019915
  0
LINE
  8
ゴム等
  6
CONTINUOUS
 10
-4.775695
 20
58.441235
 11
-2.947015
 21
60.269915
  0
LINE
  8
ゴム等
  6
CONTINUOUS
 10
-5.097015
 20
58.119915
 11
-5.275695
 21
57.941235
  0
LINE
  8
ゴム等
  6
CONTINUOUS
 10
-0.575695
 20
59.812808
 11
-1.368588
 21
59.019915
  0
LINE
  8
ゴム等
  6
CONTINUOUS
 10
-2.268588
 20
58.119915
 11
-3.618588
 21
56.769915
  0
LINE
  8
ゴム等
  6
CONTINUOUS
 10
-0.575695
 20
60.519915
 11
-2.075695
 21
59.019915
  0
LINE
  8
ゴム等
  6
CONTINUOUS
 10
-3.107452
 20
58.695268
 11
-1.282802
 21
60.519915
  0
LINE
  8
ゴム等
  6
CONTINUOUS
 10
-3.49626
 20
59.013567
 11
-2.239908
 21
60.269915
  0
LINE
  8
ゴム等
  6
CONTINUOUS
 10
-2.375695
 20
58.719915
 11
-3.075698
 21
58.019915
  0
LINE
  8
ゴム等
  6
CONTINUOUS
 10
-4.075695
 20
58.434128
 11
-4.943983
 21
57.565842
  0
LINE
  8
ゴム等
  6
CONTINUOUS
 10
-4.075695
 20
57.727025
 11
-4.575055
 21
57.227665
  0
LINE
  8
ゴム等
  6
CONTINUOUS
 10
-3.81481
 20
57.2808
 11
-4.20613
 21
56.88948
  0
LINE
  8
ゴム等
  6
CONTINUOUS
 10
-5.275695
 20
57.869915
 11
-4.075695
 21
56.769915
  0
LINE
  8
ゴム等
  6
CONTINUOUS
 10
-1.875698
 20
57.869915
 11
-3.075698
 21
56.769915
  0
LINE
  8
ゴム等
  6
CONTINUOUS
 10
-4.075695
 20
56.769915
 11
-3.075698
 21
56.769915
  0
ENDBLK
  0
BLOCK
  2
*GRP_0092
 70
    65
 10
0.0
 20
0.0
  0
LINE
  8
ボルト／ビス
  6
CONTINUOUS
 62
    64
 10
-32.325742
 20
59.919925
 11
-32.849823
 21
59.874072
  0
ARC
  8
ボルト／ビス
  6
CONTINUOUS
 62
    64
 10
-32.77574
 20
59.027307
 40
0.85
 50
94.999989
 51
180.0
  0
LINE
  8
ボルト／ビス
  6
CONTINUOUS
 62
    64
 10
-33.62574
 20
59.027307
 11
-33.62574
 21
58.169923
  0
LINE
  8
ボルト／ビス
  6
CONTINUOUS
 62
    64
 10
-32.325742
 20
56.419925
 11
-32.849823
 21
56.465775
  0
ARC
  8
ボルト／ビス
  6
CONTINUOUS
 62
    64
 10
-32.77574
 20
57.31254
 40
0.85
 50
180.0
 51
265.000011
  0
LINE
  8
ボルト／ビス
  6
CONTINUOUS
 62
    64
 10
-33.62574
 20
57.312543
 11
-33.62574
 21
58.169923
  0
LINE
  8
ボルト／ビス
  6
CONTINUOUS
 62
    64
 10
-33.43329
 20
59.368243
 11
-33.55437
 21
59.368243
  0
LINE
  8
ボルト／ビス
  6
CONTINUOUS
 62
    64
 10
-33.108248
 20
58.519925
 11
-33.108248
 21
58.169923
  0
LINE
  8
ボルト／ビス
  6
CONTINUOUS
 62
    64
 10
-33.43329
 20
58.719925
 11
-33.43329
 21
59.368243
  0
LINE
  8
ボルト／ビス
  6
CONTINUOUS
 62
    64
 10
-33.108248
 20
58.519925
 11
-33.233288
 21
58.519925
  0
ARC
  8
ボルト／ビス
  6
CONTINUOUS
 62
    64
 10
-33.233287
 20
58.719923
 40
0.2
 50
180.0
 51
270.0
  0
LINE
  8
ボルト／ビス
  6
CONTINUOUS
 62
    64
 10
-33.43329
 20
56.971602
 11
-33.55437
 21
56.971602
  0
LINE
  8
ボルト／ビス
  6
CONTINUOUS
 62
    64
 10
-33.108248
 20
57.819925
 11
-33.108248
 21
58.169923
  0
LINE
  8
ボルト／ビス
  6
CONTINUOUS
 62
    64
 10
-33.43329
 20
57.619925
 11
-33.43329
 21
56.971602
  0
LINE
  8
ボルト／ビス
  6
CONTINUOUS
 62
    64
 10
-33.108248
 20
57.819925
 11
-33.233288
 21
57.819925
  0
ARC
  8
ボルト／ビス
  6
CONTINUOUS
 62
    64
 10
-33.233287
 20
57.619923
 40
0.2
 50
90.0
 51
180.0
  0
LINE
  8
ボルト／ビス
  6
CONTINUOUS
 62
    64
 10
-32.325742
 20
59.919925
 11
-32.325742
 21
56.419925
  0
LINE
  8
ボルト／ビス
  6
CONTINUOUS
 62
    64
 10
-26.57574
 20
59.169925
 11
-26.325742
 21
58.919923
  0
LINE
  8
ボルト／ビス
  6
CONTINUOUS
 62
    64
 10
-26.57574
 20
57.169925
 11
-26.325742
 21
57.419923
  0
LINE
  8
ボルト／ビス
  6
CONTINUOUS
 62
    64
 10
-26.57574
 20
59.169925
 11
-26.57574
 21
57.169925
  0
LINE
  8
ボルト／ビス
  6
CONTINUOUS
 62
    64
 10
-26.325742
 20
58.919923
 11
-26.325742
 21
57.419923
  0
LINE
  8
ボルト／ビス
  6
CONTINUOUS
 62
    64
 10
-32.325742
 20
58.919923
 11
-26.325742
 21
58.919923
  0
LINE
  8
ボルト／ビス
  6
CONTINUOUS
 62
    64
 10
-32.325742
 20
57.419923
 11
-26.325742
 21
57.419923
  0
LINE
  8
ボルト／ビス
  6
CONTINUOUS
 62
    64
 10
-32.325742
 20
57.169925
 11
-26.57574
 21
57.169925
  0
LINE
  8
ボルト／ビス
  6
CONTINUOUS
 62
    64
 10
-32.325742
 20
59.169925
 11
-26.57574
 21
59.169925
  0
LINE
  8
ボルト／ビス
  6
DASHDOT
 62
    64
 10
-35.12574
 20
58.169923
 11
-24.825742
 21
58.169923
  0
ENDBLK
  0
BLOCK
  2
*GRP_0093
 70
    65
 10
0.0
 20
0.0
  0
LINE
  8
別途部材
  6
CONTINUOUS
 10
-38.173563
 20
73.919932
 11
-37.423563
 21
73.919932
  0
LINE
  8
別途部材
  6
CONTINUOUS
 10
-38.173563
 20
74.919935
 11
-38.173563
 21
73.919932
  0
ARC
  8
別途部材
  6
CONTINUOUS
 10
-36.673566
 20
74.91994
 40
1.5
 50
90.0
 51
180.0
  0
LINE
  8
別途部材
  6
CONTINUOUS
 10
-37.423563
 20
74.919935
 11
-37.423563
 21
73.919932
  0
ARC
  8
別途部材
  6
CONTINUOUS
 10
-36.673566
 20
74.91994
 40
0.75
 50
90.0
 51
180.0
  0
LINE
  8
別途部材
  6
CONTINUOUS
 10
-36.673563
 20
75.669935
 11
-35.82574
 21
75.669935
  0
LINE
  8
別途部材
  6
CONTINUOUS
 10
-4.673565
 20
74.819932
 11
-4.673565
 21
75.419932
  0
LINE
  8
別途部材
  6
CONTINUOUS
 10
-0.673563
 20
75.919935
 11
-0.673563
 21
74.819932
  0
ARC
  8
別途部材
  6
CONTINUOUS
 10
-1.173566
 20
75.91994
 40
0.5
 50
0.0
 51
90.0
  0
LINE
  8
別途部材
  6
CONTINUOUS
 10
-0.673563
 20
74.819932
 11
-4.673565
 21
74.819932
  0
LINE
  8
別途部材
  6
CONTINUOUS
 10
-36.673563
 20
76.419935
 11
-1.173563
 21
76.419935
  0
LINE
  8
別途部材
  6
CONTINUOUS
 10
-14.57574
 20
75.419932
 11
-4.673565
 21
75.419932
  0
ARC
  8
別途部材
  6
CONTINUOUS
 10
-14.575745
 20
73.919934
 40
1.5
 50
90.0
 51
180.0
  0
LINE
  8
別途部材
  6
CONTINUOUS
 10
-16.22574
 20
69.919925
 11
-16.07574
 21
70.069925
  0
LINE
  8
別途部材
  6
CONTINUOUS
 10
-16.22574
 20
69.919925
 11
-16.07574
 21
69.769925
  0
LINE
  8
別途部材
  6
CONTINUOUS
 10
-16.07574
 20
73.919932
 11
-16.07574
 21
70.069925
  0
LINE
  8
別途部材
  6
CONTINUOUS
 10
-16.07574
 20
69.769925
 11
-16.07574
 21
66.669925
  0
LINE
  8
別途部材
  6
CONTINUOUS
 10
-35.67574
 20
58.169923
 11
-35.82574
 21
58.319923
  0
LINE
  8
別途部材
  6
CONTINUOUS
 10
-35.67574
 20
58.169923
 11
-35.82574
 21
58.019923
  0
LINE
  8
別途部材
  6
CONTINUOUS
 10
-35.82574
 20
75.669935
 11
-35.82574
 21
58.319923
  0
LINE
  8
別途部材
  6
CONTINUOUS
 10
-35.82574
 20
58.019923
 11
-35.82574
 21
51.419932
  0
LINE
  8
別途部材
  6
CONTINUOUS
 10
-31.575742
 20
64.169923
 11
-31.575742
 21
55.669923
  0
LINE
  8
別途部材
  6
CONTINUOUS
 10
-32.325742
 20
55.669923
 11
-31.575742
 21
55.669923
  0
LINE
  8
別途部材
  6
CONTINUOUS
 10
-35.82574
 20
51.419932
 11
-35.07574
 21
51.419932
  0
LINE
  8
別途部材
  6
CONTINUOUS
 10
-31.575742
 20
64.169923
 11
-35.07574
 21
64.169923
  0
LINE
  8
別途部材
  6
CONTINUOUS
 10
-32.325742
 20
63.419923
 11
-35.07574
 21
63.419923
  0
LINE
  8
別途部材
  6
CONTINUOUS
 10
-35.07574
 20
63.419923
 11
-35.07574
 21
51.419932
  0
LINE
  8
別途部材
  6
CONTINUOUS
 10
-35.07574
 20
66.669925
 11
-35.07574
 21
64.169923
  0
LINE
  8
別途部材
  6
CONTINUOUS
 10
-32.175742
 20
58.169923
 11
-32.325742
 21
58.319923
  0
LINE
  8
別途部材
  6
CONTINUOUS
 10
-32.175742
 20
58.169923
 11
-32.325742
 21
58.019923
  0
LINE
  8
別途部材
  6
CONTINUOUS
 10
-32.325742
 20
63.419923
 11
-32.325742
 21
58.319923
  0
LINE
  8
別途部材
  6
CONTINUOUS
 10
-32.325742
 20
58.019923
 11
-32.325742
 21
55.669923
  0
LINE
  8
別途部材
  6
DOT
 10
-35.82574
 20
60.669925
 11
-35.07574
 21
60.669925
  0
LINE
  8
別途部材
  6
DOT
 10
-35.82574
 20
55.669923
 11
-35.07574
 21
55.669923
  0
LINE
  8
別途部材
  6
CONTINUOUS
 10
-35.07574
 20
75.669935
 11
-16.82574
 21
75.669935
  0
LINE
  8
別途部材
  6
DOT
 10
-35.63824
 20
60.669925
 11
-35.63824
 21
55.669923
  0
LINE
  8
別途部材
  6
DOT
 10
-35.45074
 20
60.669925
 11
-35.45074
 21
55.669923
  0
LINE
  8
別途部材
  6
DOT
 10
-35.26324
 20
60.669925
 11
-35.26324
 21
55.669923
  0
LINE
  8
別途部材
  6
CONTINUOUS
 10
-16.82574
 20
75.669935
 11
-16.82574
 21
67.419925
  0
LINE
  8
別途部材
  6
CONTINUOUS
 10
-35.07574
 20
75.669935
 11
-35.07574
 21
67.419925
  0
LINE
  8
別途部材
  6
CONTINUOUS
 10
-16.82574
 20
67.419925
 11
-35.07574
 21
67.419925
  0
LINE
  8
別途部材
  6
CONTINUOUS
 10
-27.700742
 20
66.819925
 11
-27.550742
 21
66.669925
  0
LINE
  8
別途部材
  6
CONTINUOUS
 10
-27.700742
 20
66.819925
 11
-27.850742
 21
66.669925
  0
LINE
  8
別途部材
  6
CONTINUOUS
 10
-21.450742
 20
66.819925
 11
-21.300742
 21
66.669925
  0
LINE
  8
別途部材
  6
CONTINUOUS
 10
-21.450742
 20
66.819925
 11
-21.600742
 21
66.669925
  0
LINE
  8
別途部材
  6
CONTINUOUS
 10
-27.550742
 20
66.669925
 11
-21.600742
 21
66.669925
  0
LINE
  8
別途部材
  6
CONTINUOUS
 10
-16.07574
 20
66.669925
 11
-21.300742
 21
66.669925
  0
LINE
  8
別途部材
  6
CONTINUOUS
 10
-35.07574
 20
66.669925
 11
-27.850742
 21
66.669925
  0
ENDBLK
  0
BLOCK
  2
*GRP_0094
 70
    65
 10
0.0
 20
0.0
  0
LINE
  8
曲げ物
  6
CONTINUOUS
 10
-17.57574
 20
71.669923
 11
-17.57574
 21
68.169925
  0
LINE
  8
曲げ物
  6
CONTINUOUS
 10
-17.57574
 20
68.169925
 11
-31.07574
 21
68.169925
  0
LINE
  8
曲げ物
  6
CONTINUOUS
 10
-31.07574
 20
68.169925
 11
-31.07574
 21
71.669923
  0
LINE
  8
曲げ物
  6
CONTINUOUS
 10
-17.57574
 20
71.669923
 11
-31.07574
 21
71.669923
  0
LINE
  8
曲げ物
  6
CONTINUOUS
 10
-31.82574
 20
72.419923
 11
-31.82574
 21
67.419925
  0
LINE
  8
曲げ物
  6
CONTINUOUS
 10
-31.82574
 20
67.419925
 11
-16.82574
 21
67.419925
  0
LINE
  8
曲げ物
  6
CONTINUOUS
 10
-16.82574
 20
67.419925
 11
-16.82574
 21
72.419923
  0
LINE
  8
曲げ物
  6
CONTINUOUS
 10
-31.82574
 20
72.419923
 11
-16.82574
 21
72.419923
  0
ENDBLK
  0
BLOCK
  2
*GRP_0095
 70
    65
 10
0.0
 20
0.0
  0
LINE
  8
ボルト／ビス
  6
CONTINUOUS
 62
    64
 10
-49.050713
 20
-57.63
 11
-49.050713
 21
-92.500353
  0
LINE
  8
ボルト／ビス
  6
CONTINUOUS
 62
    64
 10
-50.800637
 20
-61.58434
 11
-50.447125
 21
-61.230577
  0
LINE
  8
ボルト／ビス
  6
CONTINUOUS
 62
    64
 10
-50.800637
 20
-61.58434
 11
-50.800637
 21
-64.730562
  0
LINE
  8
ボルト／ビス
  6
CONTINUOUS
 62
    64
 10
-50.800637
 20
-61.58434
 11
-51.15415
 21
-61.230577
  0
LINE
  8
ボルト／ビス
  6
CONTINUOUS
 62
    64
 10
-50.697087
 20
-58.73069
 11
-50.697087
 21
-61.230577
  0
LINE
  8
ボルト／ビス
  6
CONTINUOUS
 62
    64
 10
-53.050663
 20
-64.730562
 11
-53.050663
 21
-65.980625
  0
LINE
  8
ボルト／ビス
  6
CONTINUOUS
 62
    64
 10
-51.05075
 20
-76.230638
 11
-50.697087
 21
-75.877125
  0
LINE
  8
ボルト／ビス
  6
CONTINUOUS
 62
    64
 10
-50.697087
 20
-66.730765
 11
-50.697087
 21
-75.877125
  0
LINE
  8
ボルト／ビス
  6
CONTINUOUS
 62
    64
 10
-51.05075
 20
-80.93029
 11
-52.99185
 21
-88.174788
  0
LINE
  8
ボルト／ビス
  6
CONTINUOUS
 62
    64
 10
-51.05075
 20
-66.730765
 11
-51.05075
 21
-80.93029
  0
LINE
  8
ボルト／ビス
  6
CONTINUOUS
 62
    64
 10
-50.800637
 20
-61.58434
 11
-50.447125
 21
-61.230577
  0
LINE
  8
ボルト／ビス
  6
CONTINUOUS
 62
    64
 10
-47.331013
 20
-61.58434
 11
-46.9775
 21
-61.230577
  0
LINE
  8
ボルト／ビス
  6
CONTINUOUS
 62
    64
 10
-47.331013
 20
-61.58434
 11
-47.331013
 21
-64.730562
  0
LINE
  8
ボルト／ビス
  6
CONTINUOUS
 62
    64
 10
-47.331013
 20
-61.58434
 11
-47.684525
 21
-61.230577
  0
LINE
  8
ボルト／ビス
  6
CONTINUOUS
 62
    64
 10
-47.40425
 20
-58.73069
 11
-47.40425
 21
-61.230577
  0
LINE
  8
ボルト／ビス
  6
CONTINUOUS
 62
    64
 10
-45.050612
 20
-64.730562
 11
-45.050612
 21
-65.980625
  0
LINE
  8
ボルト／ビス
  6
CONTINUOUS
 62
    64
 10
-47.050725
 20
-76.230638
 11
-47.40425
 21
-75.877125
  0
LINE
  8
ボルト／ビス
  6
CONTINUOUS
 62
    64
 10
-47.40425
 20
-66.730765
 11
-47.40425
 21
-75.877125
  0
LINE
  8
ボルト／ビス
  6
CONTINUOUS
 62
    64
 10
-47.050725
 20
-80.93029
 11
-45.109575
 21
-88.174788
  0
LINE
  8
ボルト／ビス
  6
CONTINUOUS
 62
    64
 10
-47.050725
 20
-66.730765
 11
-47.050725
 21
-80.93029
  0
LINE
  8
ボルト／ビス
  6
CONTINUOUS
 62
    64
 10
-47.050725
 20
-59.0842
 11
-47.40425
 21
-58.73069
  0
LINE
  8
ボルト／ビス
  6
CONTINUOUS
 62
    64
 10
-47.050725
 20
-61.230577
 11
-47.050725
 21
-59.0842
  0
LINE
  8
ボルト／ビス
  6
CONTINUOUS
 62
    64
 10
-47.40425
 20
-58.73069
 11
-50.697087
 21
-58.73069
  0
LINE
  8
ボルト／ビス
  6
CONTINUOUS
 62
    64
 10
-50.697087
 20
-58.73069
 11
-51.05075
 21
-59.0842
  0
LINE
  8
ボルト／ビス
  6
CONTINUOUS
 62
    64
 10
-47.050725
 20
-59.0842
 11
-51.05075
 21
-59.0842
  0
LINE
  8
ボルト／ビス
  6
CONTINUOUS
 62
    64
 10
-51.05075
 20
-61.230577
 11
-51.05075
 21
-59.0842
  0
LINE
  8
ボルト／ビス
  6
CONTINUOUS
 62
    64
 10
-53.45065
 20
-61.58434
 11
-53.097138
 21
-61.230577
  0
LINE
  8
ボルト／ビス
  6
CONTINUOUS
 62
    64
 10
-53.45065
 20
-61.58434
 11
-53.45065
 21
-64.730562
  0
LINE
  8
ボルト／ビス
  6
CONTINUOUS
 62
    64
 10
-53.097138
 20
-61.230577
 11
-45.004288
 21
-61.230577
  0
LINE
  8
ボルト／ビス
  6
CONTINUOUS
 62
    64
 10
-44.650775
 20
-61.58434
 11
-45.004288
 21
-61.230577
  0
LINE
  8
ボルト／ビス
  6
CONTINUOUS
 62
    64
 10
-44.650775
 20
-61.58434
 11
-44.650775
 21
-64.730562
  0
LINE
  8
ボルト／ビス
  6
CONTINUOUS
 62
    64
 10
-53.45065
 20
-64.730562
 11
-44.650775
 21
-64.730562
  0
LINE
  8
ボルト／ビス
  6
CONTINUOUS
 62
    64
 10
-44.175625
 20
-65.980625
 11
-44.175625
 21
-66.730765
  0
LINE
  8
ボルト／ビス
  6
CONTINUOUS
 62
    64
 10
-44.175625
 20
-65.980625
 11
-53.925713
 21
-65.980625
  0
LINE
  8
ボルト／ビス
  6
CONTINUOUS
 62
    64
 10
-53.925713
 20
-65.980625
 11
-53.925713
 21
-66.730765
  0
LINE
  8
ボルト／ビス
  6
CONTINUOUS
 62
    64
 10
-44.175625
 20
-66.730765
 11
-53.925713
 21
-66.730765
  0
LINE
  8
ボルト／ビス
  6
CONTINUOUS
 62
    64
 10
-49.050713
 20
-81.259527
 11
-47.05775
 21
-88.696863
  0
LINE
  8
ボルト／ビス
  6
CONTINUOUS
 62
    64
 10
-45.109575
 20
-88.174788
 11
-47.05775
 21
-88.696863
  0
LINE
  8
ボルト／ビス
  6
CONTINUOUS
 62
    64
 10
-49.050713
 20
-81.259527
 11
-51.043537
 21
-88.696863
  0
LINE
  8
ボルト／ビス
  6
CONTINUOUS
 62
    64
 10
-52.99185
 20
-88.174788
 11
-51.043537
 21
-88.696863
  0
LINE
  8
ボルト／ビス
  6
CONTINUOUS
 62
    64
 10
-51.05075
 20
-89.730562
 11
-50.40575
 21
-86.072512
  0
LINE
  8
ボルト／ビス
  6
CONTINUOUS
 62
    64
 10
-47.050725
 20
-89.730562
 11
-47.695675
 21
-86.072512
  0
LINE
  8
ボルト／ビス
  6
CONTINUOUS
 62
    64
 10
-51.05075
 20
-89.730562
 11
-47.050725
 21
-89.730562
  0
LINE
  8
ボルト／ビス
  6
CONTINUOUS
 62
    64
 10
-50.40575
 20
-86.072512
 11
-47.695675
 21
-86.072512
  0
ENDBLK
  0
BLOCK
  2
*GRP_0096
 70
    65
 10
0.0
 20
0.0
  0
LINE
  8
曲げ物
  6
CONTINUOUS
 10
-99.075715
 20
-75.01351
 11
-99.07564
 21
-105.01351
  0
LINE
  8
曲げ物
  6
DOT
 10
-98.575727
 20
-75.01351
 11
-98.575652
 21
-105.01351
  0
LINE
  8
曲げ物
  6
CONTINUOUS
 10
-94.075705
 20
-75.01351
 11
-94.075667
 21
-105.01351
  0
LINE
  8
曲げ物
  6
DOT
 10
-94.57573
 20
-75.01351
 11
-94.575655
 21
-105.01351
  0
LINE
  8
曲げ物
  6
CONTINUOUS
 10
-99.07564
 20
-105.01351
 11
-94.075667
 21
-105.01351
  0
LINE
  8
曲げ物
  6
CONTINUOUS
 10
-99.075715
 20
-75.01351
 11
-94.075705
 21
-75.01351
  0
ENDBLK
  0
BLOCK
  2
*GRP_0097
 70
    65
 10
0.0
 20
0.0
  0
POLYLINE
  8
寸法
  6
CONTINUOUS
 66
     1
  0
VERTEX
  8
寸法
 10
-97.191057
 20
-91.529103
  0
VERTEX
  8
寸法
 10
-110.163828
 20
-104.501868
  0
VERTEX
  8
寸法
 10
-118.567772
 20
-104.501868
  0
SEQEND
  0
ENDBLK
  0
ENDSEC
  0
SECTION
  2
ENTITIES
  0
POLYLINE
  8
通り芯
  6
CONTINUOUS
 66
     1
 70
     1
  0
VERTEX
  8
通り芯
 10
-210.0
 20
-148.5
  0
VERTEX
  8
通り芯
 10
210.0
 20
-148.5
  0
VERTEX
  8
通り芯
 10
210.0
 20
148.5
  0
VERTEX
  8
通り芯
 10
-210.0
 20
148.5
  0
SEQEND
  0
INSERT
  2
*GRP_0096
  8
型材
  6
DOT
 10
0.0
 20
0.0
  0
INSERT
  2
*GRP_0001
  8
型材断面
  6
CONTINUOUS
 10
0.0
 20
0.0
  0
INSERT
  2
*GRP_0002
  8
型材断面
  6
DOT
 10
0.0
 20
0.0
  0
INSERT
  2
*GRP_0003
  8
型材断面
  6
DOT
 10
0.0
 20
0.0
  0
INSERT
  2
*GRP_0004
  8
型材断面
  6
CONTINUOUS
 10
0.0
 20
0.0
  0
INSERT
  2
*GRP_0005
  8
型材断面
  6
CONTINUOUS
 10
0.0
 20
0.0
  0
INSERT
  2
*GRP_0006
  8
型材断面
  6
CONTINUOUS
 10
0.0
 20
0.0
  0
LINE
  8
型材断面
  6
CONTINUOUS
 10
11.424293
 20
-116.349853
 11
11.424293
 21
-33.080765
  0
LINE
  8
型材断面
  6
CONTINUOUS
 10
10.924295
 20
-116.349853
 11
10.924295
 21
-33.080765
  0
LINE
  8
型材断面
  6
CONTINUOUS
 10
5.424293
 20
-116.349853
 11
5.424293
 21
-33.080765
  0
LINE
  8
型材断面
  6
CONTINUOUS
 10
5.924293
 20
-116.349853
 11
5.924293
 21
-33.080765
  0
LINE
  8
型材断面
  6
CONTINUOUS
 10
-16.075705
 20
-116.349853
 11
-16.075705
 21
-68.330765
  0
LINE
  8
型材断面
  6
CONTINUOUS
 10
-16.075705
 20
-71.330765
 11
-91.075705
 21
-71.330765
  0
LINE
  8
型材断面
  6
CONTINUOUS
 10
-16.075705
 20
-68.330765
 11
-91.075705
 21
-68.330765
  0
ARC
  8
型材断面
  6
CONTINUOUS
 10
-91.075707
 20
-71.330766
 40
3.0
 50
90.0
 51
180.0
  0
LINE
  8
型材断面
  6
CONTINUOUS
 10
-91.075705
 20
-116.349853
 11
-91.075705
 21
-71.330765
  0
LINE
  8
型材断面
  6
CONTINUOUS
 10
-94.075705
 20
-116.349853
 11
-94.075705
 21
-71.330765
  0
LINE
  8
型材断面
  6
CONTINUOUS
 10
-91.075705
 20
-102.667278
 11
-59.739195
 21
-71.330765
  0
LINE
  8
型材断面
  6
CONTINUOUS
 10
-91.075705
 20
-99.131747
 11
-63.274725
 21
-71.330765
  0
LINE
  8
型材断面
  6
CONTINUOUS
 10
-91.075705
 20
-95.59621
 11
-66.810263
 21
-71.330765
  0
LINE
  8
型材断面
  6
CONTINUOUS
 10
-35.536208
 20
-116.349853
 11
-16.075705
 21
-96.889353
  0
LINE
  8
型材断面
  6
CONTINUOUS
 10
-39.071738
 20
-116.349853
 11
-16.075705
 21
-93.353823
  0
LINE
  8
型材断面
  6
CONTINUOUS
 10
-32.00067
 20
-116.349853
 11
-16.075705
 21
-100.42489
  0
LINE
  8
型材断面
  6
DOT
 10
-25.575705
 20
-32.080765
 11
-24.825705
 21
-32.080765
  0
LINE
  8
型材断面
  6
DOT
 10
-25.575705
 20
-28.080765
 11
-24.825705
 21
-28.080765
  0
LINE
  8
型材断面
  6
DOT
 10
-25.388205
 20
-28.080765
 11
-25.388205
 21
-32.080765
  0
LINE
  8
型材断面
  6
DOT
 10
-25.200705
 20
-28.080765
 11
-25.200705
 21
-32.080765
  0
LINE
  8
型材断面
  6
DOT
 10
-25.013205
 20
-28.080765
 11
-25.013205
 21
-32.080765
  0
LINE
  8
型材断面
  6
DOT
 10
-43.5757
 20
-37.580765
 11
-44.575702
 21
-37.580765
  0
LINE
  8
型材断面
  6
DOT
 10
-43.5757
 20
-33.580765
 11
-44.575702
 21
-33.580765
  0
LINE
  8
型材断面
  6
DOT
 10
-44.325702
 20
-37.580765
 11
-44.325702
 21
-33.580765
  0
LINE
  8
型材断面
  6
DOT
 10
-44.0757
 20
-37.580765
 11
-44.0757
 21
-33.580765
  0
LINE
  8
型材断面
  6
DOT
 10
-43.8257
 20
-37.580765
 11
-43.8257
 21
-33.580765
  0
LINE
  8
型材断面
  6
DOT
 10
-43.5757
 20
-32.580765
 11
-38.5757
 21
-32.580765
  0
LINE
  8
型材断面
  6
DOT
 10
-38.5757
 20
-37.580765
 11
-38.5757
 21
-32.580765
  0
INSERT
  2
*HAT_0006
  8
型材断面
 10
0.0
 20
0.0
  0
POLYLINE
  8
型材断面
  6
CONTINUOUS
 66
     1
  0
VERTEX
  8
型材断面
 10
81.524505
 20
124.462565
  0
VERTEX
  8
型材断面
 10
71.245058
 20
127.604005
  0
VERTEX
  8
型材断面
 10
71.245058
 20
124.462565
  0
SEQEND
  0
POLYLINE
  8
型材断面
  6
CONTINUOUS
 66
     1
  0
VERTEX
  8
型材断面
 10
77.090998
 20
124.462565
  0
VERTEX
  8
型材断面
 10
66.81155
 20
127.604005
  0
VERTEX
  8
型材断面
 10
66.81155
 20
124.462565
  0
SEQEND
  0
POLYLINE
  8
型材断面
  6
CONTINUOUS
 66
     1
  0
VERTEX
  8
型材断面
 10
81.524505
 20
118.155853
  0
VERTEX
  8
型材断面
 10
71.245058
 20
121.297293
  0
VERTEX
  8
型材断面
 10
71.245058
 20
118.155853
  0
SEQEND
  0
POLYLINE
  8
型材断面
  6
CONTINUOUS
 66
     1
  0
VERTEX
  8
型材断面
 10
77.090998
 20
118.155853
  0
VERTEX
  8
型材断面
 10
66.81155
 20
121.297293
  0
VERTEX
  8
型材断面
 10
66.81155
 20
118.155853
  0
SEQEND
  0
LINE
  8
型材断面
  6
DOT
 10
-31.325708
 20
46.519982
 11
-30.325705
 21
46.519982
  0
LINE
  8
型材断面
  6
DOT
 10
-31.325708
 20
50.519982
 11
-30.325705
 21
50.519982
  0
LINE
  8
型材断面
  6
DOT
 10
-31.075708
 20
46.519982
 11
-31.075708
 21
50.519982
  0
LINE
  8
型材断面
  6
DOT
 10
-30.825708
 20
46.519982
 11
-30.825708
 21
50.519982
  0
LINE
  8
型材断面
  6
DOT
 10
-30.575705
 20
46.519982
 11
-30.575705
 21
50.519982
  0
LINE
  8
型材断面
  6
DOT
 10
-30.325705
 20
51.519982
 11
-25.325705
 21
51.519982
  0
LINE
  8
型材断面
  6
DOT
 10
-25.325705
 20
46.519982
 11
-25.325705
 21
51.519982
  0
LINE
  8
型材断面
  6
DOT
 10
-14.825708
 20
54.26998
 11
-15.575708
 21
54.26998
  0
LINE
  8
型材断面
  6
DOT
 10
-14.825708
 20
58.26998
 11
-15.575708
 21
58.26998
  0
LINE
  8
型材断面
  6
DOT
 10
-15.575708
 20
58.26998
 11
-15.575708
 21
57.794985
  0
LINE
  8
型材断面
  6
DOT
 10
-15.388208
 20
54.26998
 11
-15.388208
 21
58.26998
  0
LINE
  8
型材断面
  6
DOT
 10
-15.200708
 20
54.26998
 11
-15.200708
 21
58.26998
  0
LINE
  8
型材断面
  6
DOT
 10
-15.013208
 20
54.26998
 11
-15.013208
 21
58.26998
  0
LINE
  8
型材断面
  6
DOT
 10
-11.225708
 20
54.26998
 11
-10.475708
 21
54.26998
  0
LINE
  8
型材断面
  6
DOT
 10
-12.475705
 20
55.694982
 11
-10.475708
 21
55.694982
  0
LINE
  8
型材断面
  6
DOT
 10
-12.475705
 20
55.932482
 11
-10.475708
 21
55.932482
  0
LINE
  8
型材断面
  6
DOT
 10
-11.225708
 20
54.50748
 11
-10.475708
 21
54.50748
  0
LINE
  8
型材断面
  6
DOT
 10
-11.225708
 20
54.74498
 11
-10.475708
 21
54.74498
  0
LINE
  8
型材断面
  6
DOT
 10
-11.225708
 20
54.98248
 11
-10.475708
 21
54.98248
  0
LINE
  8
型材断面
  6
DOT
 10
-11.225708
 20
55.21998
 11
-10.475708
 21
55.21998
  0
LINE
  8
型材断面
  6
DOT
 10
-12.475705
 20
55.457482
 11
-10.475708
 21
55.457482
  0
INSERT
  2
*HAT_0007
  8
型材断面
 10
0.0
 20
0.0
  0
INSERT
  2
*GRP_0087
  8
型材断面
  6
CONTINUOUS
 62
    47
 10
0.0
 20
0.0
  0
INSERT
  2
*GRP_0088
  8
型材断面
  6
CONTINUOUS
 62
    47
 10
0.0
 20
0.0
  0
INSERT
  2
*GRP_0089
  8
型材断面
  6
CONTINUOUS
 62
    47
 10
0.0
 20
0.0
  0
INSERT
  2
*GRP_0056
  8
ガラス
  6
CONTINUOUS
 10
0.0
 20
0.0
  0
INSERT
  2
*GRP_0057
  8
ガラス
  6
CONTINUOUS
 10
0.0
 20
0.0
  0
INSERT
  2
*GRP_0058
  8
ガラス
  6
CONTINUOUS
 10
0.0
 20
0.0
  0
INSERT
  2
*GRP_0059
  8
ガラス
  6
CONTINUOUS
 10
0.0
 20
0.0
  0
INSERT
  2
*GRP_0060
  8
ガラス
  6
CONTINUOUS
 10
0.0
 20
0.0
  0
INSERT
  2
*GRP_0061
  8
ガラス
  6
CONTINUOUS
 10
0.0
 20
0.0
  0
INSERT
  2
*GRP_0062
  8
ガラス
  6
CONTINUOUS
 10
0.0
 20
0.0
  0
INSERT
  2
*GRP_0063
  8
ガラス
  6
CONTINUOUS
 10
0.0
 20
0.0
  0
INSERT
  2
*GRP_0065
  8
ガラス
  6
CONTINUOUS
 10
0.0
 20
0.0
  0
INSERT
  2
*GRP_0066
  8
ガラス
  6
CONTINUOUS
 10
0.0
 20
0.0
  0
INSERT
  2
*GRP_0067
  8
ガラス
  6
CONTINUOUS
 10
0.0
 20
0.0
  0
INSERT
  2
*GRP_0068
  8
ガラス
  6
CONTINUOUS
 10
0.0
 20
0.0
  0
INSERT
  2
*GRP_0069
  8
ガラス
  6
CONTINUOUS
 10
0.0
 20
0.0
  0
INSERT
  2
*GRP_0070
  8
ガラス
  6
CONTINUOUS
 10
0.0
 20
0.0
  0
INSERT
  2
*GRP_0071
  8
ガラス
  6
CONTINUOUS
 10
0.0
 20
0.0
  0
LINE
  8
ガラス
  6
CONTINUOUS
 10
84.55217
 20
69.41992
 11
-9.825708
 21
69.41992
  0
LINE
  8
ガラス
  6
CONTINUOUS
 10
-6.825708
 20
66.919917
 11
-6.825708
 21
63.919917
  0
LINE
  8
ガラス
  6
CONTINUOUS
 10
-6.825708
 20
63.919917
 11
-9.825708
 21
66.919917
  0
LINE
  8
ガラス
  6
CONTINUOUS
 10
-6.825708
 20
66.919917
 11
-9.825708
 21
63.919917
  0
LINE
  8
ガラス
  6
CONTINUOUS
 10
84.55217
 20
66.919917
 11
-9.825708
 21
66.919917
  0
LINE
  8
ガラス
  6
CONTINUOUS
 10
84.55217
 20
63.919917
 11
-9.825708
 21
63.919917
  0
LINE
  8
ガラス
  6
CONTINUOUS
 10
84.55217
 20
60.519915
 11
-9.825708
 21
60.519915
  0
LINE
  8
ガラス
  6
CONTINUOUS
 10
84.55217
 20
69.16992
 11
-9.825708
 21
69.16992
  0
LINE
  8
ガラス
  6
CONTINUOUS
 10
84.55217
 20
67.169917
 11
-9.825708
 21
67.169917
  0
LINE
  8
ガラス
  6
CONTINUOUS
 10
84.55217
 20
63.669917
 11
-9.825708
 21
63.669917
  0
LINE
  8
ガラス
  6
CONTINUOUS
 10
84.55217
 20
60.769915
 11
-9.825708
 21
60.769915
  0
LINE
  8
ガラス
  6
CONTINUOUS
 10
-9.825708
 20
69.41992
 11
-9.825708
 21
60.519915
  0
INSERT
  2
*GRP_0007
  8
ゴム等
  6
CONTINUOUS
 10
0.0
 20
0.0
  0
INSERT
  2
*GRP_0090
  8
ゴム等
  6
CONTINUOUS
 10
0.0
 20
0.0
  0
INSERT
  2
*GRP_0091
  8
ゴム等
  6
CONTINUOUS
 10
0.0
 20
0.0
  0
INSERT
  2
*GRP_0008
  8
ボルト／ビス
  6
CONTINUOUS
 62
    64
 10
0.0
 20
0.0
  0
INSERT
  2
*GRP_0009
  8
ボルト／ビス
  6
CONTINUOUS
 62
    64
 10
0.0
 20
0.0
  0
INSERT
  2
*GRP_0010
  8
ボルト／ビス
  6
CONTINUOUS
 62
    64
 10
0.0
 20
0.0
  0
INSERT
  2
*GRP_0011
  8
ボルト／ビス
  6
CONTINUOUS
 62
    64
 10
0.0
 20
0.0
  0
INSERT
  2
*GRP_0012
  8
ボルト／ビス
  6
CONTINUOUS
 62
    64
 10
0.0
 20
0.0
  0
INSERT
  2
*GRP_0092
  8
ボルト／ビス
  6
CONTINUOUS
 10
0.0
 20
0.0
  0
TEXT
  7
TextStyle03
  8
文字
  6
CONTINUOUS
 10
0.15
 20
13.95
  1
TK-1121
 40
3.0
 72
     5
 11
11.775
 21
13.95
  0
TEXT
  7
TextStyle03
  8
文字
  6
CONTINUOUS
 10
-15.9
 20
9.525
  1
TKR-1301
 40
3.0
 72
     5
 11
-2.5875
 21
9.525
  0
TEXT
  7
TextStyle03
  8
文字
  6
CONTINUOUS
 10
-61.725
 20
32.475
  1
TK-1156
 40
3.0
 72
     5
 11
-50.1
 21
32.475
  0
TEXT
  7
TextStyle03
  8
文字
  6
CONTINUOUS
 10
-63.775
 20
-4.375
  1
TK-1154
 40
3.0
 72
     5
 11
-52.15
 21
-4.375
  0
TEXT
  7
TextStyle03
  8
文字
  6
CONTINUOUS
 10
-139.925
 20
-71.375
  1
TKM-0001～0005
 40
3.0
 72
     5
 11
-116.4875
 21
-71.375
  0
TEXT
  7
TextStyle03
  8
文字
  6
CONTINUOUS
 10
-89.025
 20
-25.45
  1
φ8穴加工
 40
3.0
 72
     5
 11
-74.2125
 21
-25.45
  0
TEXT
  7
TextStyle03
  8
文字
  6
CONTINUOUS
 10
-89.025
 20
-28.825
  1
裏面バッフル材付き
 40
3.0
 72
     5
 11
-59.025
 21
-28.825
  0
TEXT
  7
TextStyle03
  8
文字
  6
CONTINUOUS
 10
17.225
 20
-60.475
  1
コーナーシール（工場）
 40
3.0
 72
     5
 11
53.975
 21
-60.475
  0
TEXT
  7
TextStyle03
  8
文字
  6
CONTINUOUS
 10
19.275
 20
125.325
  1
呼称寸法
 40
3.0
 72
     5
 11
32.4
 21
125.325
  0
TEXT
  7
TextStyle03
  8
文字
  6
CONTINUOUS
 10
32.2
 20
119.0
  1
有効開口寸法
 40
3.0
 72
     5
 11
52.075
 21
119.0
  0
TEXT
  7
TextStyle03
  8
文字
  6
CONTINUOUS
 10
-86.775
 20
63.425
  1
φ8穴加工
 40
3.0
 72
     5
 11
-71.9625
 21
63.425
  0
TEXT
  7
TextStyle03
  8
文字
  6
CONTINUOUS
 10
-86.775
 20
60.05
  1
裏面バッフル材付き
 40
3.0
 72
     5
 11
-56.775
 21
60.05
  0
TEXT
  7
TextStyle03
  8
文字
  6
CONTINUOUS
 10
69.75
 20
84.125
  1
ＮＳコード：ＮＳＦＺ
 40
5.0
 72
     5
 11
125.375
 21
84.125
  0
TEXT
  7
TextStyle03
  8
文字
  6
CONTINUOUS
 10
17.625
 20
-50.55
  1
アンカー：St-3.2t
 40
3.0
 72
     5
 11
46.125
 21
-50.55
  0
TEXT
  7
TextStyle03
  8
文字
  6
CONTINUOUS
 10
-157.1125
 20
-103.1
  1
排水パイプ(オプション)
 40
3.0
 72
     5
 11
-120.175
 21
-103.1
  0
TEXT
  7
TextStyle03
  8
文字
  6
CONTINUOUS
 10
-146.9875
 20
-106.475
  1
□10×10×1 L=60
 40
3.0
 72
     5
 11
-120.175
 21
-106.475
  0
TEXT
  7
TextStyle03
  8
文字
  6
CONTINUOUS
 10
70.0
 20
108.975
  1
シリーズ：ＴＦ２Ｆ
 40
5.0
 72
     5
 11
120.0
 21
108.975
  0
TEXT
  7
TextStyle03
  8
文字
  6
CONTINUOUS
 10
70.0
 20
103.35
  1
　　　　　（上下可動）
 40
5.0
 72
     5
 11
131.25
 21
103.35
  0
TEXT
  7
TextStyle03
  8
文字
  6
CONTINUOUS
 10
70.0
 20
97.725
  1

 40
5.0
 41
1.125
  0
TEXT
  7
TextStyle03
  8
文字
  6
CONTINUOUS
 10
70.0
 20
92.1
  1
図面名　：下枠断面詳細図（可動装置側）
 40
5.0
 72
     5
 11
176.25
 21
92.1
  0
INSERT
  2
*DIM_0039
  8
寸法
  6
CONTINUOUS
 10
0.0
 20
0.0
  0
INSERT
  2
*DIM_0040
  8
寸法
  6
CONTINUOUS
 10
0.0
 20
0.0
  0
INSERT
  2
*DIM_0041
  8
寸法
  6
CONTINUOUS
 10
0.0
 20
0.0
  0
INSERT
  2
*DIM_0042
  8
寸法
  6
CONTINUOUS
 10
0.0
 20
0.0
  0
INSERT
  2
*DIM_0043
  8
寸法
  6
CONTINUOUS
 10
0.0
 20
0.0
  0
INSERT
  2
*DIM_0044
  8
寸法
  6
CONTINUOUS
 10
0.0
 20
0.0
  0
INSERT
  2
*DIM_0045
  8
寸法
  6
CONTINUOUS
 10
0.0
 20
0.0
  0
INSERT
  2
*DIM_0046
  8
寸法
  6
CONTINUOUS
 10
0.0
 20
0.0
  0
INSERT
  2
*DIM_0047
  8
寸法
  6
CONTINUOUS
 10
0.0
 20
0.0
  0
INSERT
  2
*DIM_0048
  8
寸法
  6
CONTINUOUS
 10
0.0
 20
0.0
  0
INSERT
  2
*GRP_0049
  8
寸法
  6
CONTINUOUS
 10
0.0
 20
0.0
  0
INSERT
  2
*GRP_0050
  8
寸法
  6
CONTINUOUS
 10
0.0
 20
0.0
  0
INSERT
  2
*GRP_0051
  8
寸法
  6
CONTINUOUS
 10
0.0
 20
0.0
  0
INSERT
  2
*GRP_0052
  8
寸法
  6
CONTINUOUS
 10
0.0
 20
0.0
  0
INSERT
  2
*GRP_0053
  8
寸法
  6
CONTINUOUS
 10
0.0
 20
0.0
  0
INSERT
  2
*GRP_0054
  8
寸法
  6
CONTINUOUS
 10
0.0
 20
0.0
  0
INSERT
  2
*GRP_0055
  8
寸法
  6
CONTINUOUS
 10
0.0
 20
0.0
  0
INSERT
  2
*GRP_0064
  8
寸法
  6
CONTINUOUS
 10
0.0
 20
0.0
  0
POLYLINE
  8
寸法
  6
CONTINUOUS
 66
     1
  0
VERTEX
  8
寸法
 10
-14.825708
 20
67.171755
  0
VERTEX
  8
寸法
 10
-14.825708
 20
124.462565
  0
VERTEX
  8
寸法
 10
81.524505
 20
124.462565
  0
SEQEND
  0
INSERT
  2
*DIM_0072
  8
寸法
  6
CONTINUOUS
 10
0.0
 20
0.0
  0
LINE
  8
寸法
  6
CONTINUOUS
 10
81.524505
 20
118.155853
 11
13.924295
 21
118.155853
  0
INSERT
  2
*DIM_0073
  8
寸法
  6
CONTINUOUS
 10
0.0
 20
0.0
  0
INSERT
  2
*DIM_0074
  8
寸法
  6
CONTINUOUS
 10
0.0
 20
0.0
  0
INSERT
  2
*DIM_0075
  8
寸法
  6
CONTINUOUS
 10
0.0
 20
0.0
  0
INSERT
  2
*GRP_0076
  8
寸法
  6
CONTINUOUS
 10
0.0
 20
0.0
  0
INSERT
  2
*DIM_0077
  8
寸法
  6
CONTINUOUS
 10
0.0
 20
0.0
  0
INSERT
  2
*DIM_0078
  8
寸法
  6
CONTINUOUS
 10
0.0
 20
0.0
  0
INSERT
  2
*DIM_0079
  8
寸法
  6
CONTINUOUS
 10
0.0
 20
0.0
  0
INSERT
  2
*DIM_0080
  8
寸法
  6
CONTINUOUS
 10
0.0
 20
0.0
  0
INSERT
  2
*DIM_0081
  8
寸法
  6
CONTINUOUS
 10
0.0
 20
0.0
  0
INSERT
  2
*DIM_0082
  8
寸法
  6
CONTINUOUS
 10
0.0
 20
0.0
  0
INSERT
  2
*DIM_0083
  8
寸法
  6
CONTINUOUS
 10
0.0
 20
0.0
  0
INSERT
  2
*DIM_0084
  8
寸法
  6
CONTINUOUS
 10
0.0
 20
0.0
  0
INSERT
  2
*DIM_0085
  8
寸法
  6
CONTINUOUS
 10
0.0
 20
0.0
  0
INSERT
  2
*DIM_0086
  8
寸法
  6
CONTINUOUS
 10
0.0
 20
0.0
  0
INSERT
  2
*GRP_0097
  8
寸法
  6
CONTINUOUS
 10
0.0
 20
0.0
  0
INSERT
  2
*HAT_0008
  8
ﾊｯﾁﾝｸﾞ
 10
0.0
 20
0.0
  0
INSERT
  2
*GRP_0093
  8
別途部材
  6
CONTINUOUS
 10
0.0
 20
0.0
  0
INSERT
  2
*GRP_0095
  8
別途部材
  6
CONTINUOUS
 10
0.0
 20
0.0
  0
INSERT
  2
*GRP_0094
  8
曲げ物
  6
CONTINUOUS
 10
0.0
 20
0.0
  0
INSERT
  2
*GRP_0013
  8
St
  6
CONTINUOUS
 10
0.0
 20
0.0
  0
INSERT
  2
*GRP_0014
  8
St
  6
CONTINUOUS
 10
0.0
 20
0.0
  0
LINE
  8
その他部品等
  6
CONTINUOUS
 10
-101.17576
 20
-83.653895
 11
-94.075705
 21
-83.653895
  0
LINE
  8
その他部品等
  6
CONTINUOUS
 10
-101.17576
 20
-79.653895
 11
-94.075705
 21
-79.653895
  0
LINE
  8
その他部品等
  6
CONTINUOUS
 10
-99.52575
 20
-77.653895
 11
-99.52575
 21
-76.51351
  0
LINE
  8
その他部品等
  6
CONTINUOUS
 10
-94.075705
 20
-76.51351
 11
-99.52575
 21
-76.51351
  0
LINE
  8
その他部品等
  6
CONTINUOUS
 10
-99.52575
 20
-76.51351
 11
-94.075705
 21
-79.653895
  0
INSERT
  2
*HAT_0009
  8
その他部品等
 10
0.0
 20
0.0
  0
LINE
  8
その他部品等
  6
CONTINUOUS
 10
-44.575702
 20
-38.330765
 11
-44.575702
 21
-45.830765
  0
LINE
  8
その他部品等
  6
CONTINUOUS
 10
-40.369538
 20
-38.330765
 11
-40.369538
 21
-45.258497
  0
LINE
  8
その他部品等
  6
CONTINUOUS
 10
-37.975702
 20
-38.330765
 11
-37.975702
 21
-44.932805
  0
LINE
  8
その他部品等
  6
CONTINUOUS
 10
-37.975702
 20
-38.330765
 11
-40.369538
 21
-45.258497
  0
INSERT
  2
*HAT_0010
  8
その他部品等
 10
0.0
 20
0.0
  0
LINE
  8
その他部品等
  6
CONTINUOUS
 10
-30.325702
 20
-37.330765
 11
-24.825705
 21
-34.480765
  0
INSERT
  2
*HAT_0011
  8
その他部品等
 10
0.0
 20
0.0
  0
LINE
  8
その他部品等
  6
CONTINUOUS
 10
-0.673563
 20
74.819932
 11
-0.673563
 21
69.41992
  0
LINE
  8
その他部品等
  6
CONTINUOUS
 10
-4.673565
 20
74.819932
 11
-4.673565
 21
69.41992
  0
LINE
  8
その他部品等
  6
CONTINUOUS
 10
-7.95424
 20
69.41992
 11
-7.95424
 21
75.419932
  0
LINE
  8
その他部品等
  6
CONTINUOUS
 10
-7.95424
 20
75.419932
 11
-4.673565
 21
69.41992
  0
ENDSEC
  0
EOF
