  0
SECTION
  2
HEADER
  9
$EXTMIN
 10
-210.0
 20
-148.5
  9
$EXTMAX
 10
210.0
 20
148.5
  9
$PDMODE
 70
    32
  9
$PDSIZE
 40
1.5
  9
$LTSCALE
 40
10.0
  0
ENDSEC
  0
SECTION
  2
TABLES
  0
TABLE
  2
LTYPE
 70
    15
  0
LTYPE
  2
CONTINUOUS
 70
    64
  3
実線
 72
    65
 73
     0
 40
0.0
  0
LTYPE
  2
DASHED
 70
    64
  3
破線A
 72
    65
 73
     2
 40
0.6
 49
0.4
 49
-0.2
  0
LTYPE
  2
DASHEDX2
 70
    64
  3
破線B
 72
    65
 73
     2
 40
1.3
 49
0.9
 49
-0.4
  0
LTYPE
  2
DASHDOT
 70
    64
  3
１点鎖線A
 72
    65
 73
     4
 40
0.5375
 49
0.375
 49
-0.05
 49
0.0625
 49
-0.05
  0
LTYPE
  2
DASHDOTX2
 70
    64
  3
１点鎖線B
 72
    65
 73
     4
 40
1.075
 49
0.75
 49
-0.1
 49
0.125
 49
-0.1
  0
LTYPE
  2
DIVIDE2
 70
    64
  3
２点鎖線A
 72
    65
 73
     6
 40
0.5125
 49
0.3
 49
-0.0375
 49
0.05
 49
-0.0375
 49
0.05
 49
-0.0375
  0
LTYPE
  2
DIVIDE
 70
    64
  3
２点鎖線B
 72
    65
 73
     6
 40
1.05
 49
0.55
 49
-0.1
 49
0.1
 49
-0.1
 49
0.1
 49
-0.1
  0
LTYPE
  2
DOT
 70
    64
  3
点線A
 72
    65
 73
     2
 40
0.1125
 49
0.0625
 49
-0.05
  0
LTYPE
  2
DOTX2
 70
    64
  3
点線B
 72
    65
 73
     2
 40
0.275
 49
0.15
 49
-0.125
  0
LTYPE
  2
CONTINUOUS
 70
    64
  3
実線
 72
    65
 73
     0
 40
0.0
  0
LTYPE
  2
CONTINUOUS
 70
    64
  3
実線
 72
    65
 73
     0
 40
0.0
  0
LTYPE
  2
CONTINUOUS
 70
    64
  3
実線
 72
    65
 73
     0
 40
0.0
  0
LTYPE
  2
CONTINUOUS
 70
    64
  3
実線
 72
    65
 73
     0
 40
0.0
  0
LTYPE
  2
CONTINUOUS
 70
    64
  3
実線
 72
    65
 73
     0
 40
0.0
  0
LTYPE
  2
CONTINUOUS
 70
    64
  3
実線
 72
    65
 73
     0
 40
0.0
  0
ENDTAB
  0
TABLE
  2
LAYER
 70
    34
  0
LAYER
  2
通り芯
 70
     0
 62
    15
  6
CONTINUOUS
  0
LAYER
  2
補助線
 70
     0
 62
    16
  6
DOT
  0
LAYER
  2
躯体
 70
     0
 62
    31
  6
CONTINUOUS
  0
LAYER
  2
型材
 70
     0
 62
    32
  6
CONTINUOUS
  0
LAYER
  2
型材断面
 70
     0
 62
    47
  6
CONTINUOUS
  0
LAYER
  2
ガラス
 70
     0
 62
    48
  6
CONTINUOUS
  0
LAYER
  2
ゴム等
 70
     0
 62
    63
  6
CONTINUOUS
  0
LAYER
  2
ボルト／ビス
 70
     0
 62
    64
  6
CONTINUOUS
  0
LAYER
  2
文字
 70
     0
 62
    79
  6
CONTINUOUS
  0
LAYER
  2
寸法
 70
     0
 62
    80
  6
CONTINUOUS
  0
LAYER
  2
ﾊｯﾁﾝｸﾞ
 70
     0
 62
    95
  6
CONTINUOUS
  0
LAYER
  2
別途部材
 70
     0
 62
    96
  6
CONTINUOUS
  0
LAYER
  2
曲げ物
 70
     0
 62
   111
  6
CONTINUOUS
  0
LAYER
  2
鉄骨等
 70
     0
 62
   112
  6
CONTINUOUS
  0
LAYER
  2
St
 70
     0
 62
   127
  6
CONTINUOUS
  0
LAYER
  2
その他部品等
 70
     0
 62
   128
  6
CONTINUOUS
  0
LAYER
  2
ｶﾞｽｹｯﾄ
 70
     0
 62
   143
  6
CONTINUOUS
  0
LAYER
  2
ｽｹｯﾁ
 70
     0
 62
    14
  6
CONTINUOUS
  0
LAYER
  2
0
 70
     0
 62
    17
  6
CONTINUOUS
  0
LAYER
  2
1
 70
     0
 62
    30
  6
CONTINUOUS
  0
LAYER
  2
4
 70
     0
 62
    33
  6
CONTINUOUS
  0
LAYER
  2
ﾚｲﾔ3
 70
     0
 62
    46
  6
CONTINUOUS
  0
LAYER
  2
外形線
 70
     0
 62
    49
  6
CONTINUOUS
  0
LAYER
  2
部品
 70
     0
 62
    14
  6
CONTINUOUS
  0
LAYER
  2
サッシ芯
 70
     0
 62
    17
  6
DASHDOTX2
  0
LAYER
  2
寸法線
 70
     0
 62
    62
  6
CONTINUOUS
  0
LAYER
  2
姿図外形線
 70
     0
 62
    65
  6
CONTINUOUS
  0
LAYER
  2
姿補助線
 70
     0
 62
    30
  6
CONTINUOUS
  0
LAYER
  2
透視線
 70
     0
 62
    78
  6
DOT
  0
LAYER
  2
用紙
 70
     0
 62
    81
  6
CONTINUOUS
  0
LAYER
  2
実線図枠
 70
     0
 62
    94
  6
CONTINUOUS
  0
LAYER
  2
補助図枠
 70
     0
 62
    97
  6
CONTINUOUS
  0
LAYER
  2
建具記号
 70
     0
 62
   110
  6
CONTINUOUS
  0
LAYER
  2
補助文字
 70
     0
 62
   113
  6
CONTINUOUS
  0
ENDTAB
  0
TABLE
  2
STYLE
 70
    10
  0
STYLE
  2
STANDARD
 70
     0
 40
1.0
 41
1.0
 42
1.0
 50
0.0
 71
     0
  3
TXT
  4
BIGFONT
  0
STYLE
  2
TATE
 70
     4
 40
1.0
 41
1.0
 42
1.0
 50
0.0
 71
     0
  3
TXT
  4
BIGFONT
  0
STYLE
  2
TextStyle03
 70
     0
 40
1.0
 41
1.0
 42
1.0
 50
0.0
 71
     0
  3
MONOTXT
  4
BIGFONT
  0
STYLE
  2
TextStyle04
 70
     0
 40
1.0
 41
1.0
 42
1.0
 50
0.0
 71
     0
  3
MONOTXT
  4
BIGFONT
  0
STYLE
  2
TextStyle05
 70
     0
 40
1.0
 41
1.0
 42
1.0
 50
0.0
 71
     0
  3
MONOTXT
  4
BIGFONT
  0
STYLE
  2
TextStyle06
 70
     0
 40
1.0
 41
1.0
 42
1.0
 50
0.0
 71
     0
  3
MONOTXT
  4
BIGFONT
  0
STYLE
  2
TextStyle07
 70
     0
 40
1.0
 41
1.0
 42
1.0
 50
0.0
 71
     0
  3
MONOTXT
  4
BIGFONT
  0
STYLE
  2
TextStyle08
 70
     0
 40
1.0
 41
1.0
 42
1.0
 50
0.0
 71
     0
  3
MONOTXT
  4
BIGFONT
  0
STYLE
  2
TextStyle09
 70
     0
 40
1.0
 41
1.0
 42
1.0
 50
0.0
 71
     0
  3
MONOTXT
  4
BIGFONT
  0
STYLE
  2
TextStyle10
 70
     0
 40
1.0
 41
1.0
 42
1.0
 50
0.0
 71
     0
  3
MONOTXT
  4
BIGFONT
  0
ENDTAB
  0
ENDSEC
  0
SECTION
  2
BLOCKS
  0
BLOCK
  2
*GRP_0001
 70
    65
 10
0.0
 20
0.0
  0
LINE
  8
型材断面
  6
CONTINUOUS
 10
195.0
 20
133.5
 11
195.0
 21
-133.5
  0
LINE
  8
型材断面
  6
CONTINUOUS
 10
195.0
 20
-133.5
 11
-185.0
 21
-133.5
  0
LINE
  8
型材断面
  6
CONTINUOUS
 10
-185.0
 20
-133.5
 11
-185.0
 21
133.5
  0
LINE
  8
型材断面
  6
CONTINUOUS
 10
195.0
 20
133.5
 11
-185.0
 21
133.5
  0
LINE
  8
型材断面
  6
CONTINUOUS
 10
145.0
 20
-133.5
 11
145.0
 21
-118.5
  0
LINE
  8
型材断面
  6
CONTINUOUS
 10
195.0
 20
-118.5
 11
145.0
 21
-118.5
  0
ENDBLK
  0
BLOCK
  2
*DIM_0002
 70
    65
 10
0.0
 20
0.0
  0
LINE
  8
寸法
  6
BYBLOCK
 62
     0
 10
117.421445
 20
-49.867045
 11
125.856293
 21
-49.867045
  0
LINE
  8
寸法
  6
BYBLOCK
 62
     0
 10
117.421445
 20
-92.533713
 11
125.856293
 21
-92.533713
  0
LINE
  8
寸法
  6
BYBLOCK
 62
     0
 10
125.856293
 20
-49.867045
 11
125.856293
 21
-92.533713
  0
POINT
  8
寸法
 62
     0
 10
125.856293
 20
-49.867045
  0
POINT
  8
寸法
 62
     0
 10
125.856293
 20
-92.533713
  0
TEXT
  7
TextStyle03
  8
寸法
  6
CONTINUOUS
 62
     0
 10
125.525
 20
-74.48125
  1
1280
 40
3.0
 50
90.0
 72
     5
 11
125.525
 21
-67.91875
  0
ENDBLK
  0
BLOCK
  2
*DIM_0003
 70
    65
 10
0.0
 20
0.0
  0
LINE
  8
寸法
  6
BYBLOCK
 62
     0
 10
21.33489
 20
-22.536362
 11
-78.66511
 21
-22.536362
  0
POINT
  8
寸法
 62
     0
 10
21.33489
 20
-22.536362
  0
POINT
  8
寸法
 62
     0
 10
-78.66511
 20
-22.536362
  0
TEXT
  7
TextStyle03
  8
寸法
  6
CONTINUOUS
 62
     0
 10
-40.39375
 20
-22.175
  1
呼称寸法　3000
 40
3.0
 72
     5
 11
-16.95625
 21
-22.175
  0
ENDBLK
  0
BLOCK
  2
*DIM_0004
 70
    65
 10
0.0
 20
0.0
  0
LINE
  8
寸法
  6
BYBLOCK
 62
     0
 10
-61.998442
 20
9.76892
 11
-61.998442
 21
5.198027
  0
LINE
  8
寸法
  6
BYBLOCK
 62
     0
 10
4.668223
 20
9.76892
 11
4.668223
 21
5.198027
  0
LINE
  8
寸法
  6
BYBLOCK
 62
     0
 10
-61.998442
 20
5.198027
 11
4.668223
 21
5.198027
  0
POINT
  8
寸法
 62
     0
 10
-61.998442
 20
5.198027
  0
POINT
  8
寸法
 62
     0
 10
4.668223
 20
5.198027
  0
TEXT
  7
TextStyle03
  8
寸法
  6
CONTINUOUS
 62
     0
 10
-31.95625
 20
5.55
  1
2000
 40
3.0
 72
     5
 11
-25.39375
 21
5.55
  0
ENDBLK
  0
BLOCK
  2
*DIM_0005
 70
    65
 10
0.0
 20
0.0
  0
LINE
  8
寸法
  6
BYBLOCK
 62
     0
 10
22.33489
 20
56.732382
 11
32.059173
 21
56.732382
  0
LINE
  8
寸法
  6
BYBLOCK
 62
     0
 10
24.96502
 20
53.032382
 11
32.059173
 21
53.032382
  0
LINE
  8
寸法
  6
BYBLOCK
 62
     0
 10
32.059173
 20
56.732382
 11
32.059173
 21
53.032382
  0
POINT
  8
寸法
 62
     0
 10
32.059173
 20
56.732382
  0
POINT
  8
寸法
 62
     0
 10
32.059173
 20
53.032382
  0
TEXT
  7
TextStyle03
  8
寸法
  6
CONTINUOUS
 62
     0
 10
31.75
 20
57.7125
  1
111
 40
3.0
 50
90.0
 72
     5
 11
31.75
 21
62.5875
  0
ENDBLK
  0
BLOCK
  2
*DIM_0006
 70
    65
 10
0.0
 20
0.0
  0
LINE
  8
寸法
  6
BYBLOCK
 62
     0
 10
22.33489
 20
13.399048
 11
32.059173
 21
13.399045
  0
LINE
  8
寸法
  6
BYBLOCK
 62
     0
 10
24.96502
 20
17.099048
 11
32.059173
 21
17.099045
  0
LINE
  8
寸法
  6
BYBLOCK
 62
     0
 10
32.059173
 20
13.399045
 11
32.059173
 21
17.099045
  0
POINT
  8
寸法
 62
     0
 10
32.059173
 20
13.399045
  0
POINT
  8
寸法
 62
     0
 10
32.059173
 20
17.099045
  0
TEXT
  7
TextStyle03
  8
寸法
  6
CONTINUOUS
 62
     0
 10
31.725
 20
7.5375
  1
111
 40
3.0
 50
90.0
 72
     5
 11
31.725
 21
12.4125
  0
ENDBLK
  0
BLOCK
  2
*DIM_0007
 70
    65
 10
0.0
 20
0.0
  0
LINE
  8
寸法
  6
BYBLOCK
 62
     0
 10
55.35454
 20
13.399048
 11
55.35454
 21
56.73238
  0
POINT
  8
寸法
 62
     0
 10
55.35454
 20
13.399048
  0
POINT
  8
寸法
 62
     0
 10
55.35454
 20
56.73238
  0
TEXT
  7
TextStyle03
  8
寸法
  6
CONTINUOUS
 62
     0
 10
55.025
 20
23.33125
  1
呼称寸法　1300
 40
3.0
 50
90.0
 72
     5
 11
55.025
 21
46.76875
  0
ENDBLK
  0
BLOCK
  2
*DIM_0008
 70
    65
 10
0.0
 20
0.0
  0
LINE
  8
寸法
  6
BYBLOCK
 62
     0
 10
109.244935
 20
58.715712
 11
55.35454
 21
58.715712
  0
LINE
  8
寸法
  6
BYBLOCK
 62
     0
 10
55.35454
 20
56.73238
 11
55.35454
 21
58.715712
  0
POINT
  8
寸法
 62
     0
 10
55.35454
 20
56.73238
  0
POINT
  8
寸法
 62
     0
 10
55.35454
 20
58.715712
  0
TEXT
  7
TextStyle03
  8
寸法
  6
CONTINUOUS
 62
     0
 10
54.975
 20
61.16875
  1
59.5
 40
3.0
 50
90.0
 72
     5
 11
54.975
 21
67.73125
  0
ENDBLK
  0
BLOCK
  2
*DIM_0009
 70
    65
 10
0.0
 20
0.0
  0
LINE
  8
寸法
  6
BYBLOCK
 62
     0
 10
109.244935
 20
11.415712
 11
55.35454
 21
11.415712
  0
LINE
  8
寸法
  6
BYBLOCK
 62
     0
 10
55.35454
 20
13.399048
 11
55.35454
 21
11.415712
  0
POINT
  8
寸法
 62
     0
 10
55.35454
 20
13.399048
  0
POINT
  8
寸法
 62
     0
 10
55.35454
 20
11.415712
  0
TEXT
  7
TextStyle03
  8
寸法
  6
CONTINUOUS
 62
     0
 10
54.975
 20
2.36875
  1
59.5
 40
3.0
 50
90.0
 72
     5
 11
54.975
 21
8.93125
  0
ENDBLK
  0
BLOCK
  2
*DIM_0010
 70
    65
 10
0.0
 20
0.0
  0
LINE
  8
寸法
  6
BYBLOCK
 62
     0
 10
23.318223
 20
-63.00138
 11
23.318223
 21
-22.536362
  0
LINE
  8
寸法
  6
BYBLOCK
 62
     0
 10
21.33489
 20
-22.536362
 11
23.318223
 21
-22.536362
  0
POINT
  8
寸法
 62
     0
 10
21.33489
 20
-22.536362
  0
POINT
  8
寸法
 62
     0
 10
23.318223
 20
-22.536362
  0
TEXT
  7
TextStyle03
  8
寸法
  6
CONTINUOUS
 62
     0
 10
25.79375
 20
-22.175
  1
59.5
 40
3.0
 72
     5
 11
32.35625
 21
-22.175
  0
ENDBLK
  0
BLOCK
  2
*DIM_0011
 70
    65
 10
0.0
 20
0.0
  0
LINE
  8
寸法
  6
BYBLOCK
 62
     0
 10
-80.648442
 20
-63.00138
 11
-80.648442
 21
-22.536362
  0
LINE
  8
寸法
  6
BYBLOCK
 62
     0
 10
-78.66511
 20
-22.536362
 11
-80.648442
 21
-22.536362
  0
POINT
  8
寸法
 62
     0
 10
-78.66511
 20
-22.536362
  0
POINT
  8
寸法
 62
     0
 10
-80.648442
 20
-22.536362
  0
TEXT
  7
TextStyle03
  8
寸法
  6
CONTINUOUS
 62
     0
 10
-89.70625
 20
-22.175
  1
59.5
 40
3.0
 72
     5
 11
-83.14375
 21
-22.175
  0
ENDBLK
  0
BLOCK
  2
*DIM_0012
 70
    65
 10
0.0
 20
0.0
  0
LINE
  8
寸法
  6
BYBLOCK
 62
     0
 10
-81.66511
 20
23.399048
 11
-110.610275
 21
23.399048
  0
LINE
  8
寸法
  6
BYBLOCK
 62
     0
 10
-81.66511
 20
46.732382
 11
-110.610275
 21
46.732382
  0
LINE
  8
寸法
  6
BYBLOCK
 62
     0
 10
-110.610275
 20
23.399048
 11
-110.610275
 21
46.732382
  0
POINT
  8
寸法
 62
     0
 10
-110.610275
 20
23.399048
  0
POINT
  8
寸法
 62
     0
 10
-110.610275
 20
46.732382
  0
TEXT
  7
TextStyle03
  8
寸法
  6
CONTINUOUS
 62
     0
 10
-111.05
 20
32.6125
  1
700
 40
3.0
 50
90.0
 72
     5
 11
-111.05
 21
37.4875
  0
ENDBLK
  0
BLOCK
  2
*DIM_0013
 70
    65
 10
0.0
 20
0.0
  0
LINE
  8
寸法
  6
BYBLOCK
 62
     0
 10
-68.66511
 20
59.73238
 11
-68.66511
 21
88.840452
  0
LINE
  8
寸法
  6
BYBLOCK
 62
     0
 10
-41.998442
 20
59.73238
 11
-41.998442
 21
88.840452
  0
LINE
  8
寸法
  6
BYBLOCK
 62
     0
 10
-68.66511
 20
88.840452
 11
-41.998442
 21
88.840452
  0
POINT
  8
寸法
 62
     0
 10
-68.66511
 20
88.840452
  0
POINT
  8
寸法
 62
     0
 10
-41.998442
 20
88.840452
  0
TEXT
  7
TextStyle03
  8
寸法
  6
CONTINUOUS
 62
     0
 10
-57.7875
 20
89.2
  1
800
 40
3.0
 72
     5
 11
-52.9125
 21
89.2
  0
ENDBLK
  0
BLOCK
  2
*DIM_0014
 70
    65
 10
0.0
 20
0.0
  0
LINE
  8
寸法
  6
BYBLOCK
 62
     0
 10
-15.331778
 20
59.73238
 11
-15.331778
 21
88.840452
  0
LINE
  8
寸法
  6
BYBLOCK
 62
     0
 10
-41.998442
 20
88.840452
 11
-15.331778
 21
88.840452
  0
POINT
  8
寸法
 62
     0
 10
-15.331778
 20
88.840452
  0
TEXT
  7
TextStyle03
  8
寸法
  6
CONTINUOUS
 62
     0
 10
-31.1125
 20
89.2
  1
800
 40
3.0
 72
     5
 11
-26.2375
 21
89.2
  0
ENDBLK
  0
BLOCK
  2
*DIM_0015
 70
    65
 10
0.0
 20
0.0
  0
LINE
  8
寸法
  6
BYBLOCK
 62
     0
 10
11.33489
 20
59.73238
 11
11.33489
 21
88.840452
  0
LINE
  8
寸法
  6
BYBLOCK
 62
     0
 10
-15.331778
 20
88.840452
 11
11.33489
 21
88.840452
  0
POINT
  8
寸法
 62
     0
 10
11.33489
 20
88.840452
  0
TEXT
  7
TextStyle03
  8
寸法
  6
CONTINUOUS
 62
     0
 10
-4.4375
 20
89.2
  1
800
 40
3.0
 72
     5
 11
0.4375
 21
89.2
  0
ENDBLK
  0
BLOCK
  2
*DIM_0016
 70
    65
 10
0.0
 20
0.0
  0
LINE
  8
寸法
  6
CONTINUOUS
 10
108.931267
 20
70.502383
 11
116.581317
 21
70.502383
  0
POINT
  8
寸法
 10
108.931267
 20
70.502383
  0
POINT
  8
寸法
 10
116.581317
 20
70.502383
  0
TEXT
  7
TextStyle03
  8
寸法
  6
CONTINUOUS
 10
108.7
 20
70.85
  1
229.5
 40
3.0
 72
     5
 11
116.95
 21
70.85
  0
ENDBLK
  0
BLOCK
  2
*GRP_0017
 70
    65
 10
0.0
 20
0.0
  0
LINE
  8
補助線
  6
BYBLOCK
 62
    64
 10
-75.26583
 20
-83.088928
 11
-75.397715
 21
-83.190833
  0
LINE
  8
補助線
  6
BYBLOCK
 62
    64
 10
-75.382725
 20
-83.073938
 11
-75.28082
 21
-83.205822
  0
LINE
  8
補助線
  6
BYBLOCK
 62
    64
 10
-63.855205
 20
-74.272238
 11
-63.98709
 21
-74.37414
  0
LINE
  8
補助線
  6
BYBLOCK
 62
    64
 10
-63.9721
 20
-74.257245
 11
-63.870197
 21
-74.38913
  0
LINE
  8
補助線
  6
BYBLOCK
 62
    64
 10
-52.576462
 20
-65.55745
 11
-52.444582
 21
-65.455545
  0
LINE
  8
補助線
  6
BYBLOCK
 62
    64
 10
-52.561475
 20
-65.440553
 11
-52.459573
 21
-65.57244
  0
LINE
  8
型材断面
  6
CONTINUOUS
 10
-76.105058
 20
-82.684265
 11
-76.195
 21
-83.38563
  0
LINE
  8
型材断面
  6
CONTINUOUS
 10
-76.195
 20
-83.38563
 11
-75.787385
 21
-83.913167
  0
LINE
  8
型材断面
  6
CONTINUOUS
 10
-75.787385
 20
-83.913167
 11
-75.086023
 21
-84.003107
  0
LINE
  8
型材断面
  6
CONTINUOUS
 10
-52.756272
 20
-64.64327
 11
-52.05491
 21
-64.733212
  0
LINE
  8
型材断面
  6
CONTINUOUS
 10
-52.05491
 20
-64.733212
 11
-51.647295
 21
-65.26075
  0
LINE
  8
型材断面
  6
CONTINUOUS
 10
-51.647295
 20
-65.26075
 11
-51.737237
 21
-65.962115
  0
LINE
  8
型材断面
  6
CONTINUOUS
 10
-75.086023
 20
-84.003107
 11
-51.737237
 21
-65.962115
  0
LINE
  8
型材断面
  6
CONTINUOUS
 10
-76.105058
 20
-82.684265
 11
-52.756272
 21
-64.64327
  0
CIRCLE
  8
ボルト／ビス
  6
CONTINUOUS
 10
-75.331772
 20
-83.13988
 40
0.250185
  0
CIRCLE
  8
ボルト／ビス
  6
CONTINUOUS
 10
-75.331772
 20
-83.13988
 40
0.301025
  0
LINE
  8
ボルト／ビス
  6
CONTINUOUS
 62
    64
 10
-75.579708
 20
-83.17337
 11
-75.484742
 21
-82.941907
  0
LINE
  8
ボルト／ビス
  6
CONTINUOUS
 62
    64
 10
-75.236808
 20
-82.908417
 11
-75.484742
 21
-82.941907
  0
LINE
  8
ボルト／ビス
  6
CONTINUOUS
 62
    64
 10
-75.426738
 20
-83.371342
 11
-75.178802
 21
-83.337853
  0
LINE
  8
ボルト／ビス
  6
CONTINUOUS
 62
    64
 10
-75.083838
 20
-83.10639
 11
-75.178802
 21
-83.337853
  0
LINE
  8
ボルト／ビス
  6
CONTINUOUS
 62
    64
 10
-75.579708
 20
-83.17337
 11
-75.426738
 21
-83.371342
  0
LINE
  8
ボルト／ビス
  6
CONTINUOUS
 62
    64
 10
-75.236808
 20
-82.908417
 11
-75.083838
 21
-83.10639
  0
CIRCLE
  8
ボルト／ビス
  6
CONTINUOUS
 62
    64
 10
-75.331772
 20
-83.13988
 40
0.216668
  0
CIRCLE
  8
ボルト／ビス
  6
CONTINUOUS
 10
-63.921148
 20
-74.32319
 40
0.250185
  0
CIRCLE
  8
ボルト／ビス
  6
CONTINUOUS
 10
-63.921148
 20
-74.32319
 40
0.301025
  0
LINE
  8
ボルト／ビス
  6
CONTINUOUS
 62
    64
 10
-64.169082
 20
-74.356678
 11
-64.074118
 21
-74.125217
  0
LINE
  8
ボルト／ビス
  6
CONTINUOUS
 62
    64
 10
-63.826182
 20
-74.091727
 11
-64.074118
 21
-74.125217
  0
LINE
  8
ボルト／ビス
  6
CONTINUOUS
 62
    64
 10
-64.016115
 20
-74.55465
 11
-63.76818
 21
-74.52116
  0
LINE
  8
ボルト／ビス
  6
CONTINUOUS
 62
    64
 10
-63.673213
 20
-74.2897
 11
-63.76818
 21
-74.52116
  0
LINE
  8
ボルト／ビス
  6
CONTINUOUS
 62
    64
 10
-64.169082
 20
-74.356678
 11
-64.016115
 21
-74.55465
  0
LINE
  8
ボルト／ビス
  6
CONTINUOUS
 62
    64
 10
-63.826182
 20
-74.091727
 11
-63.673213
 21
-74.2897
  0
CIRCLE
  8
ボルト／ビス
  6
CONTINUOUS
 62
    64
 10
-63.921148
 20
-74.32319
 40
0.216668
  0
CIRCLE
  8
ボルト／ビス
  6
CONTINUOUS
 10
-52.510525
 20
-65.506498
 40
0.250185
  0
CIRCLE
  8
ボルト／ビス
  6
CONTINUOUS
 10
-52.510525
 20
-65.506498
 40
0.301025
  0
LINE
  8
ボルト／ビス
  6
CONTINUOUS
 62
    64
 10
-52.415557
 20
-65.275035
 11
-52.66349
 21
-65.308525
  0
LINE
  8
ボルト／ビス
  6
CONTINUOUS
 62
    64
 10
-52.758455
 20
-65.539988
 11
-52.66349
 21
-65.308525
  0
LINE
  8
ボルト／ビス
  6
CONTINUOUS
 62
    64
 10
-52.26259
 20
-65.473008
 11
-52.357555
 21
-65.70447
  0
LINE
  8
ボルト／ビス
  6
CONTINUOUS
 62
    64
 10
-52.60549
 20
-65.73796
 11
-52.357555
 21
-65.70447
  0
LINE
  8
ボルト／ビス
  6
CONTINUOUS
 62
    64
 10
-52.415557
 20
-65.275035
 11
-52.26259
 21
-65.473008
  0
LINE
  8
ボルト／ビス
  6
CONTINUOUS
 62
    64
 10
-52.758455
 20
-65.539988
 11
-52.60549
 21
-65.73796
  0
CIRCLE
  8
ボルト／ビス
  6
CONTINUOUS
 62
    64
 10
-52.510525
 20
-65.506498
 40
0.216668
  0
ENDBLK
  0
BLOCK
  2
*GRP_0018
 70
    65
 10
0.0
 20
0.0
  0
LINE
  8
補助線
  6
BYBLOCK
 62
    64
 10
-52.576465
 20
-83.088928
 11
-52.44458
 21
-83.190833
  0
LINE
  8
補助線
  6
BYBLOCK
 62
    64
 10
-52.45957
 20
-83.073938
 11
-52.561475
 21
-83.205822
  0
LINE
  8
補助線
  6
BYBLOCK
 62
    64
 10
-63.98709
 20
-74.272238
 11
-63.855205
 21
-74.37414
  0
LINE
  8
補助線
  6
BYBLOCK
 62
    64
 10
-63.870195
 20
-74.257245
 11
-63.972098
 21
-74.38913
  0
LINE
  8
補助線
  6
BYBLOCK
 62
    64
 10
-75.265833
 20
-65.55745
 11
-75.397713
 21
-65.455545
  0
LINE
  8
補助線
  6
BYBLOCK
 62
    64
 10
-75.28082
 20
-65.440553
 11
-75.382723
 21
-65.57244
  0
LINE
  8
型材断面
  6
CONTINUOUS
 10
-51.737237
 20
-82.684265
 11
-51.647295
 21
-83.38563
  0
LINE
  8
型材断面
  6
CONTINUOUS
 10
-51.647295
 20
-83.38563
 11
-52.05491
 21
-83.913167
  0
LINE
  8
型材断面
  6
CONTINUOUS
 10
-52.05491
 20
-83.913167
 11
-52.756272
 21
-84.003107
  0
LINE
  8
型材断面
  6
CONTINUOUS
 10
-75.086023
 20
-64.64327
 11
-75.787385
 21
-64.733212
  0
LINE
  8
型材断面
  6
CONTINUOUS
 10
-75.787385
 20
-64.733212
 11
-76.195
 21
-65.26075
  0
LINE
  8
型材断面
  6
CONTINUOUS
 10
-76.195
 20
-65.26075
 11
-76.105058
 21
-65.962115
  0
LINE
  8
型材断面
  6
CONTINUOUS
 10
-52.756272
 20
-84.003107
 11
-76.105058
 21
-65.962115
  0
LINE
  8
型材断面
  6
CONTINUOUS
 10
-51.737237
 20
-82.684265
 11
-75.086023
 21
-64.64327
  0
CIRCLE
  8
ボルト／ビス
  6
CONTINUOUS
 10
-52.510523
 20
-83.13988
 40
0.250185
  0
CIRCLE
  8
ボルト／ビス
  6
CONTINUOUS
 10
-52.510523
 20
-83.13988
 40
0.301025
  0
LINE
  8
ボルト／ビス
  6
CONTINUOUS
 62
    64
 10
-52.262587
 20
-83.17337
 11
-52.357553
 21
-82.941907
  0
LINE
  8
ボルト／ビス
  6
CONTINUOUS
 62
    64
 10
-52.605487
 20
-82.908417
 11
-52.357553
 21
-82.941907
  0
LINE
  8
ボルト／ビス
  6
CONTINUOUS
 62
    64
 10
-52.415557
 20
-83.371342
 11
-52.663493
 21
-83.337853
  0
LINE
  8
ボルト／ビス
  6
CONTINUOUS
 62
    64
 10
-52.758457
 20
-83.10639
 11
-52.663493
 21
-83.337853
  0
LINE
  8
ボルト／ビス
  6
CONTINUOUS
 62
    64
 10
-52.262587
 20
-83.17337
 11
-52.415557
 21
-83.371342
  0
LINE
  8
ボルト／ビス
  6
CONTINUOUS
 62
    64
 10
-52.605487
 20
-82.908417
 11
-52.758457
 21
-83.10639
  0
CIRCLE
  8
ボルト／ビス
  6
CONTINUOUS
 62
    64
 10
-52.510523
 20
-83.13988
 40
0.216668
  0
CIRCLE
  8
ボルト／ビス
  6
CONTINUOUS
 10
-63.921148
 20
-74.32319
 40
0.250185
  0
CIRCLE
  8
ボルト／ビス
  6
CONTINUOUS
 10
-63.921148
 20
-74.32319
 40
0.301025
  0
LINE
  8
ボルト／ビス
  6
CONTINUOUS
 62
    64
 10
-63.673213
 20
-74.356678
 11
-63.768178
 21
-74.125217
  0
LINE
  8
ボルト／ビス
  6
CONTINUOUS
 62
    64
 10
-64.016112
 20
-74.091727
 11
-63.768178
 21
-74.125217
  0
LINE
  8
ボルト／ビス
  6
CONTINUOUS
 62
    64
 10
-63.82618
 20
-74.55465
 11
-64.074115
 21
-74.52116
  0
LINE
  8
ボルト／ビス
  6
CONTINUOUS
 62
    64
 10
-64.169082
 20
-74.2897
 11
-64.074115
 21
-74.52116
  0
LINE
  8
ボルト／ビス
  6
CONTINUOUS
 62
    64
 10
-63.673213
 20
-74.356678
 11
-63.82618
 21
-74.55465
  0
LINE
  8
ボルト／ビス
  6
CONTINUOUS
 62
    64
 10
-64.016112
 20
-74.091727
 11
-64.169082
 21
-74.2897
  0
CIRCLE
  8
ボルト／ビス
  6
CONTINUOUS
 62
    64
 10
-63.921148
 20
-74.32319
 40
0.216668
  0
CIRCLE
  8
ボルト／ビス
  6
CONTINUOUS
 10
-75.33177
 20
-65.506498
 40
0.250185
  0
CIRCLE
  8
ボルト／ビス
  6
CONTINUOUS
 10
-75.33177
 20
-65.506498
 40
0.301025
  0
LINE
  8
ボルト／ビス
  6
CONTINUOUS
 62
    64
 10
-75.426738
 20
-65.275035
 11
-75.178805
 21
-65.308525
  0
LINE
  8
ボルト／ビス
  6
CONTINUOUS
 62
    64
 10
-75.08384
 20
-65.539988
 11
-75.178805
 21
-65.308525
  0
LINE
  8
ボルト／ビス
  6
CONTINUOUS
 62
    64
 10
-75.579705
 20
-65.473008
 11
-75.48474
 21
-65.70447
  0
LINE
  8
ボルト／ビス
  6
CONTINUOUS
 62
    64
 10
-75.236805
 20
-65.73796
 11
-75.48474
 21
-65.70447
  0
LINE
  8
ボルト／ビス
  6
CONTINUOUS
 62
    64
 10
-75.426738
 20
-65.275035
 11
-75.579705
 21
-65.473008
  0
LINE
  8
ボルト／ビス
  6
CONTINUOUS
 62
    64
 10
-75.08384
 20
-65.539988
 11
-75.236805
 21
-65.73796
  0
CIRCLE
  8
ボルト／ビス
  6
CONTINUOUS
 62
    64
 10
-75.33177
 20
-65.506498
 40
0.216668
  0
ENDBLK
  0
BLOCK
  2
*GRP_0019
 70
    65
 10
0.0
 20
0.0
  0
LINE
  8
補助線
  6
BYBLOCK
 62
    64
 10
17.93562
 20
-83.088928
 11
18.067505
 21
-83.190833
  0
LINE
  8
補助線
  6
BYBLOCK
 62
    64
 10
18.052515
 20
-83.073938
 11
17.95061
 21
-83.205822
  0
LINE
  8
補助線
  6
BYBLOCK
 62
    64
 10
6.524995
 20
-74.272238
 11
6.65688
 21
-74.37414
  0
LINE
  8
補助線
  6
BYBLOCK
 62
    64
 10
6.64189
 20
-74.257245
 11
6.539987
 21
-74.38913
  0
LINE
  8
補助線
  6
BYBLOCK
 62
    64
 10
-4.753748
 20
-65.55745
 11
-4.885628
 21
-65.455545
  0
LINE
  8
補助線
  6
BYBLOCK
 62
    64
 10
-4.768735
 20
-65.440553
 11
-4.870637
 21
-65.57244
  0
LINE
  8
型材断面
  6
CONTINUOUS
 10
18.774848
 20
-82.684265
 11
18.86479
 21
-83.38563
  0
LINE
  8
型材断面
  6
CONTINUOUS
 10
18.86479
 20
-83.38563
 11
18.457175
 21
-83.913167
  0
LINE
  8
型材断面
  6
CONTINUOUS
 10
18.457175
 20
-83.913167
 11
17.755812
 21
-84.003107
  0
LINE
  8
型材断面
  6
CONTINUOUS
 10
-4.573938
 20
-64.64327
 11
-5.2753
 21
-64.733212
  0
LINE
  8
型材断面
  6
CONTINUOUS
 10
-5.2753
 20
-64.733212
 11
-5.682915
 21
-65.26075
  0
LINE
  8
型材断面
  6
CONTINUOUS
 10
-5.682915
 20
-65.26075
 11
-5.592972
 21
-65.962115
  0
LINE
  8
型材断面
  6
CONTINUOUS
 10
17.755812
 20
-84.003107
 11
-5.592972
 21
-65.962115
  0
LINE
  8
型材断面
  6
CONTINUOUS
 10
18.774848
 20
-82.684265
 11
-4.573938
 21
-64.64327
  0
CIRCLE
  8
ボルト／ビス
  6
CONTINUOUS
 10
18.001562
 20
-83.13988
 40
0.250185
  0
CIRCLE
  8
ボルト／ビス
  6
CONTINUOUS
 10
18.001562
 20
-83.13988
 40
0.301025
  0
LINE
  8
ボルト／ビス
  6
CONTINUOUS
 62
    64
 10
18.249497
 20
-83.17337
 11
18.154532
 21
-82.941907
  0
LINE
  8
ボルト／ビス
  6
CONTINUOUS
 62
    64
 10
17.906597
 20
-82.908417
 11
18.154532
 21
-82.941907
  0
LINE
  8
ボルト／ビス
  6
CONTINUOUS
 62
    64
 10
18.096528
 20
-83.371342
 11
17.848593
 21
-83.337853
  0
LINE
  8
ボルト／ビス
  6
CONTINUOUS
 62
    64
 10
17.753628
 20
-83.10639
 11
17.848593
 21
-83.337853
  0
LINE
  8
ボルト／ビス
  6
CONTINUOUS
 62
    64
 10
18.249497
 20
-83.17337
 11
18.096528
 21
-83.371342
  0
LINE
  8
ボルト／ビス
  6
CONTINUOUS
 62
    64
 10
17.906597
 20
-82.908417
 11
17.753628
 21
-83.10639
  0
CIRCLE
  8
ボルト／ビス
  6
CONTINUOUS
 62
    64
 10
18.001562
 20
-83.13988
 40
0.216668
  0
CIRCLE
  8
ボルト／ビス
  6
CONTINUOUS
 10
6.590937
 20
-74.32319
 40
0.250185
  0
CIRCLE
  8
ボルト／ビス
  6
CONTINUOUS
 10
6.590937
 20
-74.32319
 40
0.301025
  0
LINE
  8
ボルト／ビス
  6
CONTINUOUS
 62
    64
 10
6.838873
 20
-74.356678
 11
6.743908
 21
-74.125217
  0
LINE
  8
ボルト／ビス
  6
CONTINUOUS
 62
    64
 10
6.495973
 20
-74.091727
 11
6.743908
 21
-74.125217
  0
LINE
  8
ボルト／ビス
  6
CONTINUOUS
 62
    64
 10
6.685905
 20
-74.55465
 11
6.43797
 21
-74.52116
  0
LINE
  8
ボルト／ビス
  6
CONTINUOUS
 62
    64
 10
6.343002
 20
-74.2897
 11
6.43797
 21
-74.52116
  0
LINE
  8
ボルト／ビス
  6
CONTINUOUS
 62
    64
 10
6.838873
 20
-74.356678
 11
6.685905
 21
-74.55465
  0
LINE
  8
ボルト／ビス
  6
CONTINUOUS
 62
    64
 10
6.495973
 20
-74.091727
 11
6.343002
 21
-74.2897
  0
CIRCLE
  8
ボルト／ビス
  6
CONTINUOUS
 62
    64
 10
6.590937
 20
-74.32319
 40
0.216668
  0
CIRCLE
  8
ボルト／ビス
  6
CONTINUOUS
 10
-4.819685
 20
-65.506498
 40
0.250185
  0
CIRCLE
  8
ボルト／ビス
  6
CONTINUOUS
 10
-4.819685
 20
-65.506498
 40
0.301025
  0
LINE
  8
ボルト／ビス
  6
CONTINUOUS
 62
    64
 10
-4.914653
 20
-65.275035
 11
-4.66672
 21
-65.308525
  0
LINE
  8
ボルト／ビス
  6
CONTINUOUS
 62
    64
 10
-4.571755
 20
-65.539988
 11
-4.66672
 21
-65.308525
  0
LINE
  8
ボルト／ビス
  6
CONTINUOUS
 62
    64
 10
-5.06762
 20
-65.473008
 11
-4.972655
 21
-65.70447
  0
LINE
  8
ボルト／ビス
  6
CONTINUOUS
 62
    64
 10
-4.72472
 20
-65.73796
 11
-4.972655
 21
-65.70447
  0
LINE
  8
ボルト／ビス
  6
CONTINUOUS
 62
    64
 10
-4.914653
 20
-65.275035
 11
-5.06762
 21
-65.473008
  0
LINE
  8
ボルト／ビス
  6
CONTINUOUS
 62
    64
 10
-4.571755
 20
-65.539988
 11
-4.72472
 21
-65.73796
  0
CIRCLE
  8
ボルト／ビス
  6
CONTINUOUS
 62
    64
 10
-4.819685
 20
-65.506498
 40
0.216668
  0
ENDBLK
  0
BLOCK
  2
*GRP_0020
 70
    65
 10
0.0
 20
0.0
  0
LINE
  8
補助線
  6
BYBLOCK
 62
    64
 10
-4.753745
 20
-83.088928
 11
-4.88563
 21
-83.190833
  0
LINE
  8
補助線
  6
BYBLOCK
 62
    64
 10
-4.87064
 20
-83.073938
 11
-4.768735
 21
-83.205822
  0
LINE
  8
補助線
  6
BYBLOCK
 62
    64
 10
6.65688
 20
-74.272238
 11
6.524995
 21
-74.37414
  0
LINE
  8
補助線
  6
BYBLOCK
 62
    64
 10
6.539985
 20
-74.257245
 11
6.641887
 21
-74.38913
  0
LINE
  8
補助線
  6
BYBLOCK
 62
    64
 10
17.935622
 20
-65.55745
 11
18.067503
 21
-65.455545
  0
LINE
  8
補助線
  6
BYBLOCK
 62
    64
 10
17.95061
 20
-65.440553
 11
18.052513
 21
-65.57244
  0
LINE
  8
型材断面
  6
CONTINUOUS
 10
-5.592972
 20
-82.684265
 11
-5.682915
 21
-83.38563
  0
LINE
  8
型材断面
  6
CONTINUOUS
 10
-5.682915
 20
-83.38563
 11
-5.2753
 21
-83.913167
  0
LINE
  8
型材断面
  6
CONTINUOUS
 10
-5.2753
 20
-83.913167
 11
-4.573938
 21
-84.003107
  0
LINE
  8
型材断面
  6
CONTINUOUS
 10
17.755812
 20
-64.64327
 11
18.457175
 21
-64.733212
  0
LINE
  8
型材断面
  6
CONTINUOUS
 10
18.457175
 20
-64.733212
 11
18.86479
 21
-65.26075
  0
LINE
  8
型材断面
  6
CONTINUOUS
 10
18.86479
 20
-65.26075
 11
18.774848
 21
-65.962115
  0
LINE
  8
型材断面
  6
CONTINUOUS
 10
-4.573938
 20
-84.003107
 11
18.774848
 21
-65.962115
  0
LINE
  8
型材断面
  6
CONTINUOUS
 10
-5.592972
 20
-82.684265
 11
17.755812
 21
-64.64327
  0
CIRCLE
  8
ボルト／ビス
  6
CONTINUOUS
 10
-4.819687
 20
-83.13988
 40
0.250185
  0
CIRCLE
  8
ボルト／ビス
  6
CONTINUOUS
 10
-4.819687
 20
-83.13988
 40
0.301025
  0
LINE
  8
ボルト／ビス
  6
CONTINUOUS
 62
    64
 10
-5.067623
 20
-83.17337
 11
-4.972657
 21
-82.941907
  0
LINE
  8
ボルト／ビス
  6
CONTINUOUS
 62
    64
 10
-4.724723
 20
-82.908417
 11
-4.972657
 21
-82.941907
  0
LINE
  8
ボルト／ビス
  6
CONTINUOUS
 62
    64
 10
-4.914653
 20
-83.371342
 11
-4.666717
 21
-83.337853
  0
LINE
  8
ボルト／ビス
  6
CONTINUOUS
 62
    64
 10
-4.571753
 20
-83.10639
 11
-4.666717
 21
-83.337853
  0
LINE
  8
ボルト／ビス
  6
CONTINUOUS
 62
    64
 10
-5.067623
 20
-83.17337
 11
-4.914653
 21
-83.371342
  0
LINE
  8
ボルト／ビス
  6
CONTINUOUS
 62
    64
 10
-4.724723
 20
-82.908417
 11
-4.571753
 21
-83.10639
  0
CIRCLE
  8
ボルト／ビス
  6
CONTINUOUS
 62
    64
 10
-4.819687
 20
-83.13988
 40
0.216668
  0
CIRCLE
  8
ボルト／ビス
  6
CONTINUOUS
 10
6.590937
 20
-74.32319
 40
0.250185
  0
CIRCLE
  8
ボルト／ビス
  6
CONTINUOUS
 10
6.590937
 20
-74.32319
 40
0.301025
  0
LINE
  8
ボルト／ビス
  6
CONTINUOUS
 62
    64
 10
6.343002
 20
-74.356678
 11
6.437968
 21
-74.125217
  0
LINE
  8
ボルト／ビス
  6
CONTINUOUS
 62
    64
 10
6.685902
 20
-74.091727
 11
6.437968
 21
-74.125217
  0
LINE
  8
ボルト／ビス
  6
CONTINUOUS
 62
    64
 10
6.49597
 20
-74.55465
 11
6.743905
 21
-74.52116
  0
LINE
  8
ボルト／ビス
  6
CONTINUOUS
 62
    64
 10
6.838873
 20
-74.2897
 11
6.743905
 21
-74.52116
  0
LINE
  8
ボルト／ビス
  6
CONTINUOUS
 62
    64
 10
6.343002
 20
-74.356678
 11
6.49597
 21
-74.55465
  0
LINE
  8
ボルト／ビス
  6
CONTINUOUS
 62
    64
 10
6.685902
 20
-74.091727
 11
6.838873
 21
-74.2897
  0
CIRCLE
  8
ボルト／ビス
  6
CONTINUOUS
 62
    64
 10
6.590937
 20
-74.32319
 40
0.216668
  0
CIRCLE
  8
ボルト／ビス
  6
CONTINUOUS
 10
18.00156
 20
-65.506498
 40
0.250185
  0
CIRCLE
  8
ボルト／ビス
  6
CONTINUOUS
 10
18.00156
 20
-65.506498
 40
0.301025
  0
LINE
  8
ボルト／ビス
  6
CONTINUOUS
 62
    64
 10
18.096528
 20
-65.275035
 11
17.848595
 21
-65.308525
  0
LINE
  8
ボルト／ビス
  6
CONTINUOUS
 62
    64
 10
17.75363
 20
-65.539988
 11
17.848595
 21
-65.308525
  0
LINE
  8
ボルト／ビス
  6
CONTINUOUS
 62
    64
 10
18.249495
 20
-65.473008
 11
18.15453
 21
-65.70447
  0
LINE
  8
ボルト／ビス
  6
CONTINUOUS
 62
    64
 10
17.906595
 20
-65.73796
 11
18.15453
 21
-65.70447
  0
LINE
  8
ボルト／ビス
  6
CONTINUOUS
 62
    64
 10
18.096528
 20
-65.275035
 11
18.249495
 21
-65.473008
  0
LINE
  8
ボルト／ビス
  6
CONTINUOUS
 62
    64
 10
17.75363
 20
-65.539988
 11
17.906595
 21
-65.73796
  0
CIRCLE
  8
ボルト／ビス
  6
CONTINUOUS
 62
    64
 10
18.00156
 20
-65.506498
 40
0.216668
  0
ENDBLK
  0
BLOCK
  2
*DIM_0021
 70
    65
 10
0.0
 20
0.0
  0
LINE
  8
寸法
  6
CONTINUOUS
 10
34.570135
 20
-77.563163
 11
34.570135
 21
-85.213213
  0
POINT
  8
寸法
 10
34.570135
 20
-77.563163
  0
POINT
  8
寸法
 10
34.570135
 20
-85.213213
  0
TEXT
  7
TextStyle03
  8
寸法
  6
CONTINUOUS
 10
38.975
 20
-85.625
  1
229.5
 40
3.0
 50
90.0
 72
     5
 11
38.975
 21
-77.375
  0
ENDBLK
  0
BLOCK
  2
*DIM_0022
 70
    65
 10
0.0
 20
0.0
  0
LINE
  8
寸法
  6
CONTINUOUS
 10
116.421445
 20
-41.559508
 11
84.088112
 21
-41.559508
  0
POINT
  8
寸法
 10
116.421445
 20
-41.559508
  0
POINT
  8
寸法
 10
84.088112
 20
-41.559508
  0
TEXT
  7
TextStyle03
  8
寸法
  6
CONTINUOUS
 10
97.8125
 20
-41.2
  1
970
 40
3.0
 72
     5
 11
102.6875
 21
-41.2
  0
ENDBLK
  0
BLOCK
  2
*DIM_0023
 70
    65
 10
0.0
 20
0.0
  0
LINE
  8
寸法
  6
BYBLOCK
 62
     0
 10
34.570135
 20
-77.563163
 11
34.570135
 21
-62.563162
  0
POINT
  8
寸法
 62
     0
 10
34.570135
 20
-77.563163
  0
POINT
  8
寸法
 62
     0
 10
34.570135
 20
-62.563162
  0
TEXT
  7
TextStyle03
  8
寸法
  6
CONTINUOUS
 62
     0
 10
33.85
 20
-60.49375
  1
上昇388以上
 40
3.0
 50
90.0
 72
     5
 11
33.85
 21
-42.30625
  0
ENDBLK
  0
ENDSEC
  0
SECTION
  2
ENTITIES
  0
POLYLINE
  8
通り芯
  6
CONTINUOUS
 66
     1
 70
     1
  0
VERTEX
  8
通り芯
 10
-210.0
 20
-148.5
  0
VERTEX
  8
通り芯
 10
210.0
 20
-148.5
  0
VERTEX
  8
通り芯
 10
210.0
 20
148.5
  0
VERTEX
  8
通り芯
 10
-210.0
 20
148.5
  0
SEQEND
  0
INSERT
  2
*GRP_0001
  8
型材断面
  6
CONTINUOUS
 10
0.0
 20
0.0
  0
LINE
  8
型材断面
  6
DASHDOT
 10
21.33489
 20
-87.251428
 11
21.33489
 21
56.73238
  0
LINE
  8
型材断面
  6
DASHDOT
 10
-28.66511
 20
-87.251428
 11
-28.66511
 21
56.73238
  0
LINE
  8
型材断面
  6
DASHDOT
 10
-78.66511
 20
-87.251428
 11
-78.66511
 21
56.73238
  0
LINE
  8
型材断面
  6
DASHDOT
 10
119.011652
 20
13.399048
 11
-78.66511
 21
13.399048
  0
LINE
  8
型材断面
  6
DASHDOT
 10
119.011652
 20
35.065715
 11
-78.66511
 21
35.065715
  0
LINE
  8
型材断面
  6
DASHDOT
 10
119.011652
 20
56.73238
 11
-78.66511
 21
56.73238
  0
POLYLINE
  8
型材断面
  6
CONTINUOUS
 66
     1
 70
     1
  0
VERTEX
  8
型材断面
 10
-18.713223
 20
66.508305
  0
VERTEX
  8
型材断面
 10
-37.485153
 20
66.508305
  0
VERTEX
  8
型材断面
 10
-37.485153
 20
71.245147
  0
VERTEX
  8
型材断面
 10
-18.713223
 20
71.245147
  0
SEQEND
  0
POLYLINE
  8
型材断面
  6
CONTINUOUS
 66
     1
 70
     1
  0
VERTEX
  8
型材断面
 10
-18.713223
 20
3.623125
  0
VERTEX
  8
型材断面
 10
-37.485153
 20
3.623125
  0
VERTEX
  8
型材断面
 10
-37.485153
 20
-1.113717
  0
VERTEX
  8
型材断面
 10
-18.713223
 20
-1.113717
  0
SEQEND
  0
LINE
  8
型材断面
  6
CONTINUOUS
 10
-81.29524
 20
35.065715
 11
-83.885747
 21
36.561345
  0
LINE
  8
型材断面
  6
CONTINUOUS
 10
-81.29524
 20
35.065715
 11
-83.885747
 21
33.570085
  0
LINE
  8
型材断面
  6
CONTINUOUS
 10
-83.885747
 20
33.570085
 11
-83.885747
 21
36.561345
  0
LINE
  8
型材断面
  6
CONTINUOUS
 10
-61.998442
 20
59.36251
 11
-63.494073
 21
61.953017
  0
LINE
  8
型材断面
  6
CONTINUOUS
 10
-61.998442
 20
59.36251
 11
-60.502812
 21
61.953017
  0
LINE
  8
型材断面
  6
CONTINUOUS
 10
-60.502812
 20
61.953017
 11
-63.494073
 21
61.953017
  0
LINE
  8
型材断面
  6
CONTINUOUS
 10
-119.517317
 20
94.709852
 11
-118.921263
 21
92.119345
  0
LINE
  8
型材断面
  6
CONTINUOUS
 10
-119.517317
 20
94.709852
 11
-120.113375
 21
92.119345
  0
LINE
  8
型材断面
  6
CONTINUOUS
 10
-120.113375
 20
92.119345
 11
-118.921263
 21
92.119345
  0
LINE
  8
型材断面
  6
CONTINUOUS
 10
-125.539905
 20
88.840452
 11
-79.298128
 21
88.840452
  0
LINE
  8
型材断面
  6
CONTINUOUS
 10
-119.517317
 20
101.239727
 11
-121.012947
 21
98.64922
  0
LINE
  8
型材断面
  6
CONTINUOUS
 10
-119.517317
 20
101.239727
 11
-118.021688
 21
98.64922
  0
LINE
  8
型材断面
  6
CONTINUOUS
 10
-118.021688
 20
98.64922
 11
-121.012947
 21
98.64922
  0
LINE
  8
型材断面
  6
CONTINUOUS
 10
-125.539905
 20
97.710625
 11
-79.298128
 21
97.710625
  0
LINE
  8
型材断面
  6
CONTINUOUS
 10
-125.539905
 20
83.05242
 11
-79.298128
 21
83.05242
  0
LINE
  8
型材断面
  6
CONTINUOUS
 10
-61.998442
 20
10.76892
 11
-63.494073
 21
8.178413
  0
LINE
  8
型材断面
  6
CONTINUOUS
 10
-61.998442
 20
10.76892
 11
-60.502812
 21
8.178413
  0
LINE
  8
型材断面
  6
CONTINUOUS
 10
-60.502812
 20
8.178413
 11
-63.494073
 21
8.178413
  0
LINE
  8
型材断面
  6
CONTINUOUS
 10
23.96502
 20
35.065715
 11
26.555528
 21
36.561345
  0
LINE
  8
型材断面
  6
CONTINUOUS
 10
23.96502
 20
35.065715
 11
26.555528
 21
33.570085
  0
LINE
  8
型材断面
  6
CONTINUOUS
 10
26.555528
 20
33.570085
 11
26.555528
 21
36.561345
  0
LINE
  8
型材断面
  6
CONTINUOUS
 10
4.668223
 20
59.36251
 11
6.163853
 21
61.953017
  0
LINE
  8
型材断面
  6
CONTINUOUS
 10
4.668223
 20
59.36251
 11
3.172593
 21
61.953017
  0
LINE
  8
型材断面
  6
CONTINUOUS
 10
3.172593
 20
61.953017
 11
6.163853
 21
61.953017
  0
LINE
  8
型材断面
  6
CONTINUOUS
 10
4.668223
 20
10.76892
 11
6.163853
 21
8.178413
  0
LINE
  8
型材断面
  6
CONTINUOUS
 10
4.668223
 20
10.76892
 11
3.172593
 21
8.178413
  0
LINE
  8
型材断面
  6
CONTINUOUS
 10
3.172593
 20
8.178413
 11
6.163853
 21
8.178413
  0
LINE
  8
型材断面
  6
CONTINUOUS
 10
23.96502
 20
53.032382
 11
26.55553
 21
52.43633
  0
LINE
  8
型材断面
  6
CONTINUOUS
 10
23.96502
 20
53.032382
 11
26.555528
 21
53.628442
  0
LINE
  8
型材断面
  6
CONTINUOUS
 10
26.555528
 20
53.628442
 11
26.55553
 21
52.43633
  0
LINE
  8
型材断面
  6
CONTINUOUS
 10
23.96502
 20
17.099048
 11
26.55553
 21
17.6951
  0
LINE
  8
型材断面
  6
CONTINUOUS
 10
23.96502
 20
17.099048
 11
26.555528
 21
16.502988
  0
LINE
  8
型材断面
  6
CONTINUOUS
 10
26.555528
 20
16.502988
 11
26.55553
 21
17.6951
  0
LINE
  8
型材断面
  6
CONTINUOUS
 10
-81.29524
 20
53.032382
 11
-83.88575
 21
52.43633
  0
LINE
  8
型材断面
  6
CONTINUOUS
 10
-81.29524
 20
53.032382
 11
-83.885747
 21
53.628442
  0
LINE
  8
型材断面
  6
CONTINUOUS
 10
-83.885747
 20
53.628442
 11
-83.88575
 21
52.43633
  0
LINE
  8
型材断面
  6
CONTINUOUS
 10
-81.29524
 20
17.099048
 11
-83.88575
 21
17.6951
  0
LINE
  8
型材断面
  6
CONTINUOUS
 10
-81.29524
 20
17.099048
 11
-83.885747
 21
16.502988
  0
LINE
  8
型材断面
  6
CONTINUOUS
 10
-83.885747
 20
16.502988
 11
-83.88575
 21
17.6951
  0
LINE
  8
型材断面
  6
CONTINUOUS
 10
-80.648295
 20
11.41587
 11
-28.66511
 21
11.41587
  0
LINE
  8
型材断面
  6
CONTINUOUS
 10
23.318075
 20
11.41587
 11
-28.66511
 21
11.41587
  0
LINE
  8
型材断面
  6
CONTINUOUS
 10
23.318075
 20
58.71556
 11
-28.66511
 21
58.71556
  0
LINE
  8
型材断面
  6
CONTINUOUS
 10
-80.648295
 20
58.71556
 11
-28.66511
 21
58.71556
  0
LINE
  8
型材断面
  6
CONTINUOUS
 10
-125.539905
 20
77.264387
 11
-79.298128
 21
77.264387
  0
ARC
  8
型材断面
  6
CONTINUOUS
 62
    47
 10
113.047926
 20
11.415711
 40
0.016668
 50
179.999123
 51
270.0
  0
ARC
  8
型材断面
  6
CONTINUOUS
 62
    47
 10
113.087927
 20
11.409045
 40
0.010002
 50
270.0
 51
359.791626
  0
LINE
  8
型材断面
  6
CONTINUOUS
 62
    47
 10
113.26465
 20
11.44905
 11
113.26465
 21
12.299195
  0
LINE
  8
型材断面
  6
CONTINUOUS
 62
    47
 10
113.031263
 20
11.41571
 11
110.924603
 21
11.41571
  0
LINE
  8
型材断面
  6
CONTINUOUS
 62
    47
 10
113.26465
 20
11.415715
 11
116.581317
 21
11.415715
  0
LINE
  8
型材断面
  6
CONTINUOUS
 62
    47
 10
117.081317
 20
11.915715
 11
116.581317
 21
11.915715
  0
LINE
  8
型材断面
  6
CONTINUOUS
 62
    47
 10
110.924603
 20
12.29905
 11
110.597935
 21
12.29905
  0
LINE
  8
型材断面
  6
CONTINUOUS
 62
    47
 10
113.04793
 20
11.39905
 11
113.08759
 21
11.39905
  0
ARC
  8
型材断面
  6
CONTINUOUS
 62
    47
 10
113.047926
 20
58.715717
 40
0.016668
 50
90.0
 51
180.000877
  0
ARC
  8
型材断面
  6
CONTINUOUS
 62
    47
 10
113.087927
 20
58.722383
 40
0.010002
 50
0.208374
 51
90.0
  0
LINE
  8
型材断面
  6
CONTINUOUS
 62
    47
 10
113.26465
 20
58.68238
 11
113.26465
 21
57.832232
  0
LINE
  8
型材断面
  6
CONTINUOUS
 62
    47
 10
113.031263
 20
58.715718
 11
110.924603
 21
58.715718
  0
LINE
  8
型材断面
  6
CONTINUOUS
 62
    47
 10
113.26465
 20
58.715712
 11
116.581317
 21
58.715712
  0
LINE
  8
型材断面
  6
CONTINUOUS
 62
    47
 10
117.081317
 20
58.215712
 11
116.581317
 21
58.215712
  0
LINE
  8
型材断面
  6
CONTINUOUS
 62
    47
 10
110.924603
 20
57.832378
 11
110.597935
 21
57.832378
  0
LINE
  8
型材断面
  6
CONTINUOUS
 62
    47
 10
113.04793
 20
58.73238
 11
113.08759
 21
58.73238
  0
LINE
  8
型材断面
  6
CONTINUOUS
 10
110.924603
 20
11.41571
 11
110.924603
 21
35.065715
  0
LINE
  8
型材断面
  6
CONTINUOUS
 10
110.597935
 20
11.99905
 11
110.597935
 21
35.065715
  0
LINE
  8
型材断面
  6
CONTINUOUS
 10
108.931267
 20
11.99905
 11
108.931267
 21
35.065715
  0
LINE
  8
型材断面
  6
CONTINUOUS
 10
109.097935
 20
11.842527
 11
109.097935
 21
35.065715
  0
LINE
  8
型材断面
  6
CONTINUOUS
 10
113.26465
 20
11.415715
 11
113.26465
 21
35.065715
  0
LINE
  8
型材断面
  6
CONTINUOUS
 10
113.097935
 20
11.409045
 11
113.097935
 21
35.065715
  0
LINE
  8
型材断面
  6
CONTINUOUS
 10
116.581317
 20
11.415715
 11
116.581317
 21
35.065715
  0
LINE
  8
型材断面
  6
CONTINUOUS
 10
117.081317
 20
11.915715
 11
117.081317
 21
35.065715
  0
LINE
  8
型材断面
  6
CONTINUOUS
 10
117.081317
 20
58.215712
 11
117.081317
 21
35.065715
  0
LINE
  8
型材断面
  6
CONTINUOUS
 10
116.581317
 20
58.715712
 11
116.581317
 21
35.065715
  0
LINE
  8
型材断面
  6
CONTINUOUS
 10
113.097935
 20
58.722382
 11
113.097935
 21
35.065715
  0
LINE
  8
型材断面
  6
CONTINUOUS
 10
113.26465
 20
58.715712
 11
113.26465
 21
35.065715
  0
LINE
  8
型材断面
  6
CONTINUOUS
 10
110.924603
 20
58.715718
 11
110.924603
 21
35.065715
  0
LINE
  8
型材断面
  6
CONTINUOUS
 10
110.597935
 20
58.13238
 11
110.597935
 21
35.065715
  0
LINE
  8
型材断面
  6
CONTINUOUS
 10
108.931267
 20
58.13238
 11
108.931267
 21
35.065715
  0
LINE
  8
型材断面
  6
CONTINUOUS
 10
109.097935
 20
58.2889
 11
109.097935
 21
35.065715
  0
ARC
  8
型材断面
  6
CONTINUOUS
 62
    47
 10
-80.648447
 20
-81.679824
 40
0.016668
 50
89.999123
 51
180.0
  0
ARC
  8
型材断面
  6
CONTINUOUS
 62
    47
 10
-80.655113
 20
-81.719826
 40
0.010002
 50
180.0
 51
269.791626
  0
LINE
  8
型材断面
  6
CONTINUOUS
 62
    47
 10
-80.615107
 20
-81.896545
 11
-79.764962
 21
-81.896545
  0
LINE
  8
型材断面
  6
CONTINUOUS
 62
    47
 10
-80.648448
 20
-81.663158
 11
-80.648448
 21
-79.556498
  0
LINE
  8
型材断面
  6
CONTINUOUS
 62
    47
 10
-80.648442
 20
-81.896545
 11
-80.648442
 21
-85.213213
  0
LINE
  8
型材断面
  6
CONTINUOUS
 62
    47
 10
-80.148442
 20
-85.713213
 11
-80.148442
 21
-85.213213
  0
LINE
  8
型材断面
  6
CONTINUOUS
 62
    47
 10
-79.765107
 20
-79.556498
 11
-79.765107
 21
-79.229828
  0
LINE
  8
型材断面
  6
CONTINUOUS
 62
    47
 10
-80.665107
 20
-81.679822
 11
-80.665107
 21
-81.719482
  0
ARC
  8
型材断面
  6
CONTINUOUS
 62
    47
 10
23.318226
 20
-81.679824
 40
0.016668
 50
0.0
 51
90.000877
  0
ARC
  8
型材断面
  6
CONTINUOUS
 62
    47
 10
23.324892
 20
-81.719826
 40
0.010002
 50
270.208374
 51
360.0
  0
LINE
  8
型材断面
  6
CONTINUOUS
 62
    47
 10
23.284887
 20
-81.896545
 11
22.434742
 21
-81.896545
  0
LINE
  8
型材断面
  6
CONTINUOUS
 62
    47
 10
23.318227
 20
-81.663158
 11
23.318227
 21
-79.556498
  0
LINE
  8
型材断面
  6
CONTINUOUS
 62
    47
 10
23.318223
 20
-81.896545
 11
23.318223
 21
-85.213213
  0
LINE
  8
型材断面
  6
CONTINUOUS
 62
    47
 10
22.818223
 20
-85.713213
 11
22.818223
 21
-85.213213
  0
LINE
  8
型材断面
  6
CONTINUOUS
 62
    47
 10
22.434887
 20
-79.556498
 11
22.434887
 21
-79.229828
  0
LINE
  8
型材断面
  6
CONTINUOUS
 62
    47
 10
23.334887
 20
-81.679822
 11
23.334887
 21
-81.719482
  0
LINE
  8
型材断面
  6
CONTINUOUS
 10
-80.648448
 20
-79.556498
 11
-28.66511
 21
-79.556498
  0
LINE
  8
型材断面
  6
CONTINUOUS
 10
-80.065107
 20
-79.229828
 11
-28.66511
 21
-79.229828
  0
LINE
  8
型材断面
  6
CONTINUOUS
 10
-80.22163
 20
-77.729828
 11
-28.66511
 21
-77.729828
  0
LINE
  8
型材断面
  6
CONTINUOUS
 10
-80.065107
 20
-77.563163
 11
-28.66511
 21
-77.563163
  0
LINE
  8
型材断面
  6
CONTINUOUS
 10
-80.648442
 20
-81.896545
 11
-28.66511
 21
-81.896545
  0
LINE
  8
型材断面
  6
CONTINUOUS
 10
-80.655113
 20
-81.729828
 11
-28.66511
 21
-81.729828
  0
LINE
  8
型材断面
  6
CONTINUOUS
 10
-80.148442
 20
-85.713213
 11
-28.66511
 21
-85.713213
  0
LINE
  8
型材断面
  6
CONTINUOUS
 10
-80.648442
 20
-85.213213
 11
-28.66511
 21
-85.213213
  0
LINE
  8
型材断面
  6
CONTINUOUS
 10
22.818223
 20
-85.713213
 11
-28.66511
 21
-85.713213
  0
LINE
  8
型材断面
  6
CONTINUOUS
 10
23.318223
 20
-85.213213
 11
-28.66511
 21
-85.213213
  0
LINE
  8
型材断面
  6
CONTINUOUS
 10
23.318223
 20
-81.896545
 11
-28.66511
 21
-81.896545
  0
LINE
  8
型材断面
  6
CONTINUOUS
 10
23.324892
 20
-81.729828
 11
-28.66511
 21
-81.729828
  0
LINE
  8
型材断面
  6
CONTINUOUS
 10
23.318227
 20
-79.556498
 11
-28.66511
 21
-79.556498
  0
LINE
  8
型材断面
  6
CONTINUOUS
 10
22.734887
 20
-79.229828
 11
-28.66511
 21
-79.229828
  0
LINE
  8
型材断面
  6
CONTINUOUS
 10
22.89141
 20
-77.729828
 11
-28.66511
 21
-77.729828
  0
LINE
  8
型材断面
  6
CONTINUOUS
 10
22.734887
 20
-77.563163
 11
-28.66511
 21
-77.563163
  0
ARC
  8
型材断面
  6
DOT
 62
    47
 10
-80.648447
 20
-66.679824
 40
0.016668
 50
89.999123
 51
180.0
  0
ARC
  8
型材断面
  6
DOT
 62
    47
 10
-80.655113
 20
-66.719826
 40
0.010002
 50
180.0
 51
269.791626
  0
LINE
  8
型材断面
  6
DOT
 62
    47
 10
-80.648448
 20
-66.663158
 11
-80.648448
 21
-64.556498
  0
LINE
  8
型材断面
  6
DOT
 62
    47
 10
-79.765107
 20
-64.556498
 11
-79.765107
 21
-64.229828
  0
LINE
  8
型材断面
  6
DOT
 62
    47
 10
-80.665107
 20
-66.679822
 11
-80.665107
 21
-66.719482
  0
ARC
  8
型材断面
  6
DOT
 62
    47
 10
23.318226
 20
-66.679824
 40
0.016668
 50
0.0
 51
90.000877
  0
ARC
  8
型材断面
  6
DOT
 62
    47
 10
23.324892
 20
-66.719826
 40
0.010002
 50
270.208374
 51
360.0
  0
LINE
  8
型材断面
  6
DOT
 62
    47
 10
23.318227
 20
-66.663158
 11
23.318227
 21
-64.556498
  0
LINE
  8
型材断面
  6
DOT
 62
    47
 10
22.434887
 20
-64.556498
 11
22.434887
 21
-64.229828
  0
LINE
  8
型材断面
  6
DOT
 62
    47
 10
23.334887
 20
-66.679822
 11
23.334887
 21
-66.719482
  0
LINE
  8
型材断面
  6
DOT
 10
-80.065107
 20
-62.563162
 11
-28.66511
 21
-62.563162
  0
LINE
  8
型材断面
  6
DOT
 10
-80.22163
 20
-62.729828
 11
-28.66511
 21
-62.729828
  0
LINE
  8
型材断面
  6
DOT
 10
-80.648448
 20
-64.556498
 11
-28.66511
 21
-64.556498
  0
LINE
  8
型材断面
  6
DOT
 10
-80.065107
 20
-64.229828
 11
-28.66511
 21
-64.229828
  0
LINE
  8
型材断面
  6
DOT
 10
-80.655113
 20
-66.729828
 11
-28.66511
 21
-66.729828
  0
LINE
  8
型材断面
  6
DOT
 10
23.324892
 20
-66.729828
 11
-28.66511
 21
-66.729828
  0
LINE
  8
型材断面
  6
DOT
 10
22.734887
 20
-64.229828
 11
-28.66511
 21
-64.229828
  0
LINE
  8
型材断面
  6
DOT
 10
23.318227
 20
-64.556498
 11
-28.66511
 21
-64.556498
  0
LINE
  8
型材断面
  6
DOT
 10
22.89141
 20
-62.729828
 11
-28.66511
 21
-62.729828
  0
LINE
  8
型材断面
  6
DOT
 10
22.734887
 20
-62.563162
 11
-28.66511
 21
-62.563162
  0
INSERT
  2
*GRP_0017
  8
型材断面
  6
CONTINUOUS
 10
0.0
 20
0.0
  0
INSERT
  2
*GRP_0018
  8
型材断面
  6
CONTINUOUS
 10
0.0
 20
0.0
  0
INSERT
  2
*GRP_0019
  8
型材断面
  6
CONTINUOUS
 10
0.0
 20
0.0
  0
INSERT
  2
*GRP_0020
  8
型材断面
  6
CONTINUOUS
 10
0.0
 20
0.0
  0
LINE
  8
型材断面
  6
DASHDOT
 10
-45.41511
 20
13.399048
 11
-45.41511
 21
56.73238
  0
LINE
  8
型材断面
  6
DASHDOT
 10
-11.91511
 20
13.399048
 11
-11.91511
 21
56.73238
  0
LINE
  8
型材断面
  6
CONTINUOUS
 10
4.293223
 20
11.842527
 11
4.293223
 21
14.342527
  0
LINE
  8
型材断面
  6
CONTINUOUS
 10
5.126557
 20
11.842527
 11
5.126557
 21
14.342527
  0
LINE
  8
型材断面
  6
CONTINUOUS
 10
-28.248442
 20
14.342527
 11
-28.248442
 21
11.842527
  0
LINE
  8
型材断面
  6
CONTINUOUS
 10
-29.081778
 20
14.342527
 11
-29.081778
 21
11.842527
  0
LINE
  8
型材断面
  6
CONTINUOUS
 10
-61.623442
 20
11.842527
 11
-61.623442
 21
14.342527
  0
LINE
  8
型材断面
  6
CONTINUOUS
 10
-62.456778
 20
11.842527
 11
-62.456778
 21
14.342527
  0
LINE
  8
型材断面
  6
CONTINUOUS
 10
4.293223
 20
58.288903
 11
4.293223
 21
55.788903
  0
LINE
  8
型材断面
  6
CONTINUOUS
 10
5.126557
 20
58.288903
 11
5.126557
 21
55.788903
  0
LINE
  8
型材断面
  6
CONTINUOUS
 10
-28.248442
 20
55.788903
 11
-28.248442
 21
58.288903
  0
LINE
  8
型材断面
  6
CONTINUOUS
 10
-29.081778
 20
55.788903
 11
-29.081778
 21
58.288903
  0
LINE
  8
型材断面
  6
CONTINUOUS
 10
-61.623442
 20
58.288903
 11
-61.623442
 21
55.788903
  0
LINE
  8
型材断面
  6
CONTINUOUS
 10
-62.456778
 20
58.288903
 11
-62.456778
 21
55.788903
  0
LINE
  8
型材断面
  6
CONTINUOUS
 10
-28.248442
 20
55.788903
 11
4.293223
 21
55.788903
  0
LINE
  8
型材断面
  6
CONTINUOUS
 10
-28.248442
 20
14.342527
 11
4.293223
 21
14.342527
  0
LINE
  8
型材断面
  6
CONTINUOUS
 10
-61.623442
 20
14.342527
 11
-29.081778
 21
14.342527
  0
LINE
  8
型材断面
  6
CONTINUOUS
 10
-61.623442
 20
55.788903
 11
-29.081778
 21
55.788903
  0
LINE
  8
型材断面
  6
CONTINUOUS
 10
-10.66511
 20
15.17586
 11
-13.16511
 21
15.17586
  0
LINE
  8
型材断面
  6
CONTINUOUS
 10
-10.66511
 20
54.95557
 11
-13.16511
 21
54.95557
  0
LINE
  8
型材断面
  6
CONTINUOUS
 10
-10.66511
 20
15.17586
 11
-10.66511
 21
54.95557
  0
LINE
  8
型材断面
  6
CONTINUOUS
 10
-13.16511
 20
15.17586
 11
-13.16511
 21
54.95557
  0
LINE
  8
型材断面
  6
CONTINUOUS
 10
-46.66511
 20
15.17586
 11
-44.16511
 21
15.17586
  0
LINE
  8
型材断面
  6
CONTINUOUS
 10
-46.66511
 20
54.95557
 11
-44.16511
 21
54.95557
  0
LINE
  8
型材断面
  6
CONTINUOUS
 10
-46.66511
 20
15.17586
 11
-46.66511
 21
54.95557
  0
LINE
  8
型材断面
  6
CONTINUOUS
 10
-44.16511
 20
15.17586
 11
-44.16511
 21
54.95557
  0
LINE
  8
型材断面
  6
CONTINUOUS
 10
23.318075
 20
11.41587
 11
23.318075
 21
35.065715
  0
LINE
  8
型材断面
  6
CONTINUOUS
 10
23.318075
 20
58.71556
 11
23.318075
 21
35.065715
  0
LINE
  8
型材断面
  6
CONTINUOUS
 10
22.89141
 20
35.48238
 11
20.39141
 21
35.48238
  0
LINE
  8
型材断面
  6
CONTINUOUS
 10
22.89141
 20
34.649048
 11
20.39141
 21
34.649048
  0
LINE
  8
型材断面
  6
CONTINUOUS
 10
22.655712
 20
11.842527
 11
22.89141
 21
12.078235
  0
LINE
  8
型材断面
  6
CONTINUOUS
 10
20.39141
 20
34.649048
 11
20.39141
 21
14.57823
  0
LINE
  8
型材断面
  6
CONTINUOUS
 10
20.39141
 20
14.57823
 11
20.155708
 21
14.342527
  0
LINE
  8
型材断面
  6
CONTINUOUS
 10
20.155708
 20
14.342527
 11
22.655712
 21
11.842527
  0
LINE
  8
型材断面
  6
CONTINUOUS
 10
20.39141
 20
14.57823
 11
22.89141
 21
12.078235
  0
LINE
  8
型材断面
  6
CONTINUOUS
 10
23.318075
 20
11.41587
 11
22.773562
 21
11.960383
  0
LINE
  8
型材断面
  6
CONTINUOUS
 10
22.655712
 20
58.288903
 11
22.89141
 21
58.053195
  0
LINE
  8
型材断面
  6
CONTINUOUS
 10
20.39141
 20
55.5532
 11
20.155708
 21
55.788903
  0
LINE
  8
型材断面
  6
CONTINUOUS
 10
23.318075
 20
58.71556
 11
22.773562
 21
58.171047
  0
LINE
  8
型材断面
  6
CONTINUOUS
 10
20.39141
 20
35.48238
 11
20.39141
 21
55.5532
  0
LINE
  8
型材断面
  6
CONTINUOUS
 10
20.39141
 20
55.5532
 11
22.89141
 21
58.053195
  0
LINE
  8
型材断面
  6
CONTINUOUS
 10
22.89141
 20
12.078235
 11
22.89141
 21
58.053195
  0
LINE
  8
型材断面
  6
CONTINUOUS
 10
20.155708
 20
55.788903
 11
22.655712
 21
58.288903
  0
LINE
  8
型材断面
  6
CONTINUOUS
 10
-80.648295
 20
11.41587
 11
-80.648295
 21
35.065715
  0
LINE
  8
型材断面
  6
CONTINUOUS
 10
-80.648295
 20
58.71556
 11
-80.648295
 21
35.065715
  0
LINE
  8
型材断面
  6
CONTINUOUS
 10
-80.22163
 20
35.48238
 11
-77.72163
 21
35.48238
  0
LINE
  8
型材断面
  6
CONTINUOUS
 10
-80.22163
 20
34.649048
 11
-77.72163
 21
34.649048
  0
LINE
  8
型材断面
  6
CONTINUOUS
 10
-79.985933
 20
11.842527
 11
-80.22163
 21
12.078235
  0
LINE
  8
型材断面
  6
CONTINUOUS
 10
-77.72163
 20
34.649048
 11
-77.72163
 21
14.57823
  0
LINE
  8
型材断面
  6
CONTINUOUS
 10
-77.72163
 20
14.57823
 11
-77.485927
 21
14.342527
  0
LINE
  8
型材断面
  6
CONTINUOUS
 10
-77.485927
 20
14.342527
 11
-79.985933
 21
11.842527
  0
LINE
  8
型材断面
  6
CONTINUOUS
 10
-77.72163
 20
14.57823
 11
-80.22163
 21
12.078235
  0
LINE
  8
型材断面
  6
CONTINUOUS
 10
-80.648295
 20
11.41587
 11
-80.103783
 21
11.960383
  0
LINE
  8
型材断面
  6
CONTINUOUS
 10
-79.985933
 20
58.288903
 11
-80.22163
 21
58.053195
  0
LINE
  8
型材断面
  6
CONTINUOUS
 10
-77.72163
 20
55.5532
 11
-77.485927
 21
55.788903
  0
LINE
  8
型材断面
  6
CONTINUOUS
 10
-80.648295
 20
58.71556
 11
-80.103783
 21
58.171047
  0
LINE
  8
型材断面
  6
CONTINUOUS
 10
-77.72163
 20
35.48238
 11
-77.72163
 21
55.5532
  0
LINE
  8
型材断面
  6
CONTINUOUS
 10
-77.72163
 20
55.5532
 11
-80.22163
 21
58.053195
  0
LINE
  8
型材断面
  6
CONTINUOUS
 10
-80.22163
 20
12.078235
 11
-80.22163
 21
58.053195
  0
LINE
  8
型材断面
  6
CONTINUOUS
 10
-77.485927
 20
55.788903
 11
-79.985933
 21
58.288903
  0
LINE
  8
型材断面
  6
CONTINUOUS
 10
-62.456778
 20
55.788903
 11
-77.485927
 21
55.788903
  0
LINE
  8
型材断面
  6
CONTINUOUS
 10
-62.456778
 20
14.342527
 11
-77.485927
 21
14.342527
  0
LINE
  8
型材断面
  6
CONTINUOUS
 10
-79.985933
 20
11.842527
 11
22.655712
 21
11.842527
  0
LINE
  8
型材断面
  6
CONTINUOUS
 10
5.126557
 20
14.342527
 11
20.155708
 21
14.342527
  0
LINE
  8
型材断面
  6
CONTINUOUS
 10
5.126557
 20
55.788903
 11
20.155708
 21
55.788903
  0
LINE
  8
型材断面
  6
CONTINUOUS
 10
-79.985933
 20
58.288903
 11
22.655712
 21
58.288903
  0
TEXT
  7
TextStyle03
  8
文字
  6
CONTINUOUS
 10
97.9
 20
-86.1
  1
網入り6.8t
 40
3.0
 72
     5
 11
114.5875
 21
-86.1
  0
TEXT
  7
TextStyle03
  8
文字
  6
CONTINUOUS
 10
104.575
 20
-90.775
  1
×３枚
 40
3.0
 72
     5
 11
114.325
 21
-90.775
  0
TEXT
  7
TextStyle03
  8
文字
  6
CONTINUOUS
 10
-36.425
 20
67.2
  1
可動装置側
 40
3.0
 72
     5
 11
-19.925
 21
67.2
  0
TEXT
  7
TextStyle03
  8
文字
  6
CONTINUOUS
 10
-36.425
 20
-0.075
  1
可動装置側
 40
3.0
 72
     5
 11
-19.925
 21
-0.075
  0
TEXT
  7
TextStyle03
  8
文字
  6
CONTINUOUS
 10
-116.75
 20
93.325
  1
はケーシング位置を示す
 40
3.0
 72
     5
 11
-80.0
 21
93.325
  0
TEXT
  7
TextStyle03
  8
文字
  6
CONTINUOUS
 10
-116.75
 20
89.95
  1
４ヶ所中1ヶ所に設定
 40
3.0
 72
     5
 11
-85.0625
 21
89.95
  0
TEXT
  7
TextStyle03
  8
文字
  6
CONTINUOUS
 10
-116.75
 20
98.85
  1
は排水穴位置を示す
 40
3.0
 72
     5
 11
-86.75
 21
98.85
  0
TEXT
  7
TextStyle03
  8
文字
  6
CONTINUOUS
 10
-120.475
 20
83.975
  1
アンカー数量　１２ヶ所
 40
3.0
 72
     5
 11
-83.725
 21
83.975
  0
TEXT
  7
TextStyle03
  8
文字
  6
CONTINUOUS
 10
-116.25
 20
23.975
  1
アンカーピッチ
 40
3.0
 50
90.0
 72
     5
 11
-116.25
 21
47.225
  0
TEXT
  7
TextStyle03
  8
文字
  6
CONTINUOUS
 10
-68.7
 20
94.125
  1
アンカーピッチ
 40
3.0
 72
     5
 11
-45.45
 21
94.125
  0
TEXT
  7
TextStyle03
  8
文字
  6
CONTINUOUS
 10
-120.475
 20
78.2
  1
アームユニット数　４ヶ所
 40
3.0
 72
     5
 11
-80.35
 21
78.2
  0
LINE
  8
文字
  6
CONTINUOUS
 10
108.931267
 20
70.502383
 11
108.931267
 21
59.95242
  0
LINE
  8
文字
  6
CONTINUOUS
 10
116.581317
 20
70.502383
 11
116.581317
 21
60.0175
  0
LINE
  8
文字
  6
CONTINUOUS
 10
34.570135
 20
-77.563163
 11
24.020173
 21
-77.563163
  0
LINE
  8
文字
  6
CONTINUOUS
 10
34.570135
 20
-85.213213
 11
24.085253
 21
-85.213213
  0
LINE
  8
文字
  6
CONTINUOUS
 10
34.570135
 20
-62.563162
 11
24.020173
 21
-62.563162
  0
LINE
  8
文字
  6
CONTINUOUS
 10
116.421445
 20
-41.559508
 11
116.421445
 21
-48.319852
  0
LINE
  8
文字
  6
CONTINUOUS
 10
84.088112
 20
-41.559508
 11
84.088112
 21
-48.319852
  0
TEXT
  7
TextStyle03
  8
文字
  6
CONTINUOUS
 10
61.6
 20
125.25
  1
シリーズ：ＴＦ２ＦＬ
 40
5.0
 72
     5
 11
117.225
 21
125.25
  0
TEXT
  7
TextStyle03
  8
文字
  6
CONTINUOUS
 10
61.6
 20
119.625
  1
　　　　　（上下可動）1300×3000タイプ
 40
5.0
 72
     5
 11
167.85
 21
119.625
  0
TEXT
  7
TextStyle03
  8
文字
  6
CONTINUOUS
 10
61.6
 20
114.0
  1
図面名　：外観姿図
 40
5.0
 72
     5
 11
111.6
 21
114.0
  0
TEXT
  7
TextStyle03
  8
文字
  6
CONTINUOUS
 10
61.6
 20
108.375
  1
　　　　　　
 40
5.0
 72
     5
 11
94.725
 21
108.375
  0
TEXT
  7
TextStyle03
  8
文字
  6
CONTINUOUS
 10
61.75
 20
104.525
  1
ＮＳコード：ＮＳＦＺＬ
 40
5.0
 72
     5
 11
123.0
 21
104.525
  0
INSERT
  2
*DIM_0002
  8
寸法
  6
CONTINUOUS
 10
0.0
 20
0.0
  0
INSERT
  2
*DIM_0003
  8
寸法
  6
CONTINUOUS
 10
0.0
 20
0.0
  0
INSERT
  2
*DIM_0004
  8
寸法
  6
CONTINUOUS
 10
0.0
 20
0.0
  0
INSERT
  2
*DIM_0005
  8
寸法
  6
CONTINUOUS
 10
0.0
 20
0.0
  0
INSERT
  2
*DIM_0006
  8
寸法
  6
CONTINUOUS
 10
0.0
 20
0.0
  0
INSERT
  2
*DIM_0007
  8
寸法
  6
CONTINUOUS
 10
0.0
 20
0.0
  0
INSERT
  2
*DIM_0008
  8
寸法
  6
CONTINUOUS
 10
0.0
 20
0.0
  0
INSERT
  2
*DIM_0009
  8
寸法
  6
CONTINUOUS
 10
0.0
 20
0.0
  0
INSERT
  2
*DIM_0010
  8
寸法
  6
CONTINUOUS
 10
0.0
 20
0.0
  0
INSERT
  2
*DIM_0011
  8
寸法
  6
CONTINUOUS
 10
0.0
 20
0.0
  0
INSERT
  2
*DIM_0012
  8
寸法
  6
CONTINUOUS
 10
0.0
 20
0.0
  0
INSERT
  2
*DIM_0013
  8
寸法
  6
CONTINUOUS
 10
0.0
 20
0.0
  0
INSERT
  2
*DIM_0014
  8
寸法
  6
CONTINUOUS
 10
0.0
 20
0.0
  0
INSERT
  2
*DIM_0015
  8
寸法
  6
CONTINUOUS
 10
0.0
 20
0.0
  0
INSERT
  2
*DIM_0016
  8
寸法
  6
CONTINUOUS
 10
0.0
 20
0.0
  0
INSERT
  2
*DIM_0021
  8
寸法
  6
CONTINUOUS
 10
0.0
 20
0.0
  0
INSERT
  2
*DIM_0022
  8
寸法
  6
CONTINUOUS
 10
0.0
 20
0.0
  0
INSERT
  2
*DIM_0023
  8
寸法
  6
CONTINUOUS
 10
0.0
 20
0.0
  0
LINE
  8
別途部材
  6
CONTINUOUS
 62
    47
 10
109.031267
 20
11.842527
 11
109.097935
 21
11.842527
  0
ARC
  8
別途部材
  6
CONTINUOUS
 62
    47
 10
109.031263
 20
11.942527
 40
0.1
 50
180.0
 51
270.0
  0
LINE
  8
別途部材
  6
CONTINUOUS
 62
    47
 10
108.931267
 20
11.942527
 11
108.931267
 21
14.309195
  0
LINE
  8
別途部材
  6
CONTINUOUS
 62
    47
 10
110.597935
 20
11.99905
 11
109.097935
 21
11.99905
  0
LINE
  8
別途部材
  6
CONTINUOUS
 62
    47
 10
109.031267
 20
58.2889
 11
109.097935
 21
58.2889
  0
ARC
  8
別途部材
  6
CONTINUOUS
 62
    47
 10
109.031263
 20
58.188902
 40
0.1
 50
90.0
 51
180.0
  0
LINE
  8
別途部材
  6
CONTINUOUS
 62
    47
 10
108.931267
 20
58.1889
 11
108.931267
 21
55.822235
  0
LINE
  8
別途部材
  6
CONTINUOUS
 62
    47
 10
110.597935
 20
58.13238
 11
109.097935
 21
58.13238
  0
LINE
  8
別途部材
  6
CONTINUOUS
 62
    47
 10
-80.22163
 20
-77.663162
 11
-80.22163
 21
-77.729828
  0
ARC
  8
別途部材
  6
CONTINUOUS
 62
    47
 10
-80.121631
 20
-77.663162
 40
0.1
 50
90.0
 51
180.0
  0
LINE
  8
別途部材
  6
CONTINUOUS
 62
    47
 10
-80.12163
 20
-77.563163
 11
-77.754962
 21
-77.563163
  0
LINE
  8
別途部材
  6
CONTINUOUS
 62
    47
 10
-80.065107
 20
-79.229828
 11
-80.065107
 21
-77.729828
  0
LINE
  8
別途部材
  6
CONTINUOUS
 62
    47
 10
22.89141
 20
-77.663162
 11
22.89141
 21
-77.729828
  0
ARC
  8
別途部材
  6
CONTINUOUS
 62
    47
 10
22.79141
 20
-77.663162
 40
0.1
 50
0.0
 51
90.0
  0
LINE
  8
別途部材
  6
CONTINUOUS
 62
    47
 10
22.79141
 20
-77.563163
 11
20.424742
 21
-77.563163
  0
LINE
  8
別途部材
  6
CONTINUOUS
 62
    47
 10
22.734887
 20
-79.229828
 11
22.734887
 21
-77.729828
  0
LINE
  8
別途部材
  6
DOT
 62
    47
 10
-80.22163
 20
-62.663162
 11
-80.22163
 21
-62.729828
  0
ARC
  8
別途部材
  6
DOT
 62
    47
 10
-80.121631
 20
-62.663162
 40
0.1
 50
90.0
 51
180.0
  0
LINE
  8
別途部材
  6
DOT
 62
    47
 10
-80.12163
 20
-62.563162
 11
-77.754962
 21
-62.563162
  0
LINE
  8
別途部材
  6
DOT
 62
    47
 10
-80.065107
 20
-64.229828
 11
-80.065107
 21
-62.729828
  0
LINE
  8
別途部材
  6
DOT
 62
    47
 10
22.89141
 20
-62.663162
 11
22.89141
 21
-62.729828
  0
ARC
  8
別途部材
  6
DOT
 62
    47
 10
22.79141
 20
-62.663162
 40
0.1
 50
0.0
 51
90.0
  0
LINE
  8
別途部材
  6
DOT
 62
    47
 10
22.79141
 20
-62.563162
 11
20.424742
 21
-62.563162
  0
LINE
  8
別途部材
  6
DOT
 62
    47
 10
22.734887
 20
-64.229828
 11
22.734887
 21
-62.729828
  0
LINE
  8
曲げ物
  6
CONTINUOUS
 10
116.421445
 20
-92.533713
 11
116.421445
 21
-49.867045
  0
LINE
  8
曲げ物
  6
CONTINUOUS
 10
6.06062
 20
37.022003
 11
2.365308
 21
33.32669
  0
LINE
  8
曲げ物
  6
CONTINUOUS
 10
5.35715
 20
35.485893
 11
3.90142
 21
34.030163
  0
LINE
  8
曲げ物
  6
CONTINUOUS
 10
4.52451
 20
36.318533
 11
3.06878
 21
34.862803
  0
LINE
  8
曲げ物
  6
CONTINUOUS
 10
-26.774172
 20
37.022003
 11
-30.469485
 21
33.32669
  0
LINE
  8
曲げ物
  6
CONTINUOUS
 10
-27.477643
 20
35.485893
 11
-28.933373
 21
34.030163
  0
LINE
  8
曲げ物
  6
CONTINUOUS
 10
-28.310282
 20
36.318533
 11
-29.766013
 21
34.862803
  0
LINE
  8
曲げ物
  6
CONTINUOUS
 10
-59.583972
 20
37.022003
 11
-63.279285
 21
33.32669
  0
LINE
  8
曲げ物
  6
CONTINUOUS
 10
-60.287442
 20
35.485893
 11
-61.743173
 21
34.030163
  0
LINE
  8
曲げ物
  6
CONTINUOUS
 10
-61.120082
 20
36.318533
 11
-62.575813
 21
34.862803
  0
LINE
  8
曲げ物
  6
CONTINUOUS
 10
84.088112
 20
-92.533713
 11
84.088112
 21
-49.867045
  0
LINE
  8
曲げ物
  6
CONTINUOUS
 10
116.421445
 20
-49.867045
 11
84.088112
 21
-49.867045
  0
LINE
  8
曲げ物
  6
CONTINUOUS
 10
116.421445
 20
-92.533713
 11
84.088112
 21
-92.533713
  0
ENDSEC
  0
EOF
