  0
SECTION
  2
HEADER
  9
$EXTMIN
 10
-210.0
 20
-148.5
  9
$EXTMAX
 10
210.0
 20
148.5
  9
$PDMODE
 70
    32
  9
$PDSIZE
 40
1.5
  9
$LTSCALE
 40
10.0
  0
ENDSEC
  0
SECTION
  2
TABLES
  0
TABLE
  2
LTYPE
 70
    15
  0
LTYPE
  2
CONTINUOUS
 70
    64
  3
実線
 72
    65
 73
     0
 40
0.0
  0
LTYPE
  2
DASHED
 70
    64
  3
破線A
 72
    65
 73
     2
 40
0.6
 49
0.4
 49
-0.2
  0
LTYPE
  2
DASHEDX2
 70
    64
  3
破線B
 72
    65
 73
     2
 40
1.3
 49
0.9
 49
-0.4
  0
LTYPE
  2
DASHDOT
 70
    64
  3
１点鎖線A
 72
    65
 73
     4
 40
0.5375
 49
0.375
 49
-0.05
 49
0.0625
 49
-0.05
  0
LTYPE
  2
DASHDOTX2
 70
    64
  3
１点鎖線B
 72
    65
 73
     4
 40
1.075
 49
0.75
 49
-0.1
 49
0.125
 49
-0.1
  0
LTYPE
  2
DIVIDE2
 70
    64
  3
２点鎖線A
 72
    65
 73
     6
 40
0.5125
 49
0.3
 49
-0.0375
 49
0.05
 49
-0.0375
 49
0.05
 49
-0.0375
  0
LTYPE
  2
DIVIDE
 70
    64
  3
２点鎖線B
 72
    65
 73
     6
 40
1.05
 49
0.55
 49
-0.1
 49
0.1
 49
-0.1
 49
0.1
 49
-0.1
  0
LTYPE
  2
DOT
 70
    64
  3
点線A
 72
    65
 73
     2
 40
0.1125
 49
0.0625
 49
-0.05
  0
LTYPE
  2
DOTX2
 70
    64
  3
点線B
 72
    65
 73
     2
 40
0.275
 49
0.15
 49
-0.125
  0
LTYPE
  2
CONTINUOUS
 70
    64
  3
実線
 72
    65
 73
     0
 40
0.0
  0
LTYPE
  2
CONTINUOUS
 70
    64
  3
実線
 72
    65
 73
     0
 40
0.0
  0
LTYPE
  2
CONTINUOUS
 70
    64
  3
実線
 72
    65
 73
     0
 40
0.0
  0
LTYPE
  2
CONTINUOUS
 70
    64
  3
実線
 72
    65
 73
     0
 40
0.0
  0
LTYPE
  2
CONTINUOUS
 70
    64
  3
実線
 72
    65
 73
     0
 40
0.0
  0
LTYPE
  2
CONTINUOUS
 70
    64
  3
実線
 72
    65
 73
     0
 40
0.0
  0
ENDTAB
  0
TABLE
  2
LAYER
 70
    34
  0
LAYER
  2
通り芯
 70
     0
 62
    15
  6
CONTINUOUS
  0
LAYER
  2
補助線
 70
     0
 62
    16
  6
DOT
  0
LAYER
  2
躯体
 70
     0
 62
    31
  6
CONTINUOUS
  0
LAYER
  2
型材
 70
     0
 62
    32
  6
CONTINUOUS
  0
LAYER
  2
型材断面
 70
     0
 62
    47
  6
CONTINUOUS
  0
LAYER
  2
ガラス
 70
     0
 62
    48
  6
CONTINUOUS
  0
LAYER
  2
ゴム等
 70
     0
 62
    63
  6
CONTINUOUS
  0
LAYER
  2
ボルト／ビス
 70
     0
 62
    64
  6
CONTINUOUS
  0
LAYER
  2
文字
 70
     0
 62
    79
  6
CONTINUOUS
  0
LAYER
  2
寸法
 70
     0
 62
    80
  6
CONTINUOUS
  0
LAYER
  2
ﾊｯﾁﾝｸﾞ
 70
     0
 62
    95
  6
CONTINUOUS
  0
LAYER
  2
別途部材
 70
     0
 62
    96
  6
CONTINUOUS
  0
LAYER
  2
曲げ物
 70
     0
 62
   111
  6
CONTINUOUS
  0
LAYER
  2
鉄骨等
 70
     0
 62
   112
  6
CONTINUOUS
  0
LAYER
  2
St
 70
     0
 62
   127
  6
CONTINUOUS
  0
LAYER
  2
その他部品等
 70
     0
 62
   128
  6
CONTINUOUS
  0
LAYER
  2
ｶﾞｽｹｯﾄ
 70
     0
 62
   143
  6
CONTINUOUS
  0
LAYER
  2
ｽｹｯﾁ
 70
     0
 62
    14
  6
CONTINUOUS
  0
LAYER
  2
0
 70
     0
 62
    17
  6
CONTINUOUS
  0
LAYER
  2
1
 70
     0
 62
    30
  6
CONTINUOUS
  0
LAYER
  2
4
 70
     0
 62
    33
  6
CONTINUOUS
  0
LAYER
  2
ﾚｲﾔ3
 70
     0
 62
    46
  6
CONTINUOUS
  0
LAYER
  2
外形線
 70
     0
 62
    49
  6
CONTINUOUS
  0
LAYER
  2
部品
 70
     0
 62
    14
  6
CONTINUOUS
  0
LAYER
  2
サッシ芯
 70
     0
 62
    17
  6
DASHDOTX2
  0
LAYER
  2
寸法線
 70
     0
 62
    62
  6
CONTINUOUS
  0
LAYER
  2
姿図外形線
 70
     0
 62
    65
  6
CONTINUOUS
  0
LAYER
  2
姿補助線
 70
     0
 62
    30
  6
CONTINUOUS
  0
LAYER
  2
透視線
 70
     0
 62
    78
  6
DOT
  0
LAYER
  2
用紙
 70
     0
 62
    81
  6
CONTINUOUS
  0
LAYER
  2
実線図枠
 70
     0
 62
    94
  6
CONTINUOUS
  0
LAYER
  2
補助図枠
 70
     0
 62
    97
  6
CONTINUOUS
  0
LAYER
  2
建具記号
 70
     0
 62
   110
  6
CONTINUOUS
  0
LAYER
  2
補助文字
 70
     0
 62
   113
  6
CONTINUOUS
  0
ENDTAB
  0
TABLE
  2
STYLE
 70
    10
  0
STYLE
  2
STANDARD
 70
     0
 40
1.0
 41
1.0
 42
1.0
 50
0.0
 71
     0
  3
TXT
  4
BIGFONT
  0
STYLE
  2
TATE
 70
     4
 40
1.0
 41
1.0
 42
1.0
 50
0.0
 71
     0
  3
TXT
  4
BIGFONT
  0
STYLE
  2
TextStyle03
 70
     0
 40
1.0
 41
1.0
 42
1.0
 50
0.0
 71
     0
  3
MONOTXT
  4
BIGFONT
  0
STYLE
  2
TextStyle04
 70
     0
 40
1.0
 41
1.0
 42
1.0
 50
0.0
 71
     0
  3
MONOTXT
  4
BIGFONT
  0
STYLE
  2
TextStyle05
 70
     0
 40
1.0
 41
1.0
 42
1.0
 50
0.0
 71
     0
  3
MONOTXT
  4
BIGFONT
  0
STYLE
  2
TextStyle06
 70
     0
 40
1.0
 41
1.0
 42
1.0
 50
0.0
 71
     0
  3
MONOTXT
  4
BIGFONT
  0
STYLE
  2
TextStyle07
 70
     0
 40
1.0
 41
1.0
 42
1.0
 50
0.0
 71
     0
  3
MONOTXT
  4
BIGFONT
  0
STYLE
  2
TextStyle08
 70
     0
 40
1.0
 41
1.0
 42
1.0
 50
0.0
 71
     0
  3
MONOTXT
  4
BIGFONT
  0
STYLE
  2
TextStyle09
 70
     0
 40
1.0
 41
1.0
 42
1.0
 50
0.0
 71
     0
  3
MONOTXT
  4
BIGFONT
  0
STYLE
  2
TextStyle10
 70
     0
 40
1.0
 41
1.0
 42
1.0
 50
0.0
 71
     0
  3
MONOTXT
  4
BIGFONT
  0
ENDTAB
  0
ENDSEC
  0
SECTION
  2
BLOCKS
  0
BLOCK
  2
*GRP_0001
 70
    65
 10
0.0
 20
0.0
  0
LINE
  8
型材断面
  6
CONTINUOUS
 10
195.0
 20
133.5
 11
195.0
 21
-133.5
  0
LINE
  8
型材断面
  6
CONTINUOUS
 10
195.0
 20
-133.5
 11
-185.0
 21
-133.5
  0
LINE
  8
型材断面
  6
CONTINUOUS
 10
-185.0
 20
-133.5
 11
-185.0
 21
133.5
  0
LINE
  8
型材断面
  6
CONTINUOUS
 10
195.0
 20
133.5
 11
-185.0
 21
133.5
  0
LINE
  8
型材断面
  6
CONTINUOUS
 10
145.0
 20
-133.5
 11
145.0
 21
-118.5
  0
LINE
  8
型材断面
  6
CONTINUOUS
 10
195.0
 20
-118.5
 11
145.0
 21
-118.5
  0
ENDBLK
  0
BLOCK
  2
*DIM_0002
 70
    65
 10
0.0
 20
0.0
  0
LINE
  8
寸法
  6
BYBLOCK
 62
     0
 10
117.421445
 20
-49.867045
 11
125.856293
 21
-49.867045
  0
LINE
  8
寸法
  6
BYBLOCK
 62
     0
 10
117.421445
 20
-92.533713
 11
125.856293
 21
-92.533713
  0
LINE
  8
寸法
  6
BYBLOCK
 62
     0
 10
125.856293
 20
-49.867045
 11
125.856293
 21
-92.533713
  0
POINT
  8
寸法
 62
     0
 10
125.856293
 20
-49.867045
  0
POINT
  8
寸法
 62
     0
 10
125.856293
 20
-92.533713
  0
TEXT
  7
TextStyle03
  8
寸法
  6
CONTINUOUS
 62
     0
 10
125.525
 20
-74.48125
  1
1280
 40
3.0
 50
90.0
 72
     5
 11
125.525
 21
-67.91875
  0
ENDBLK
  0
BLOCK
  2
*DIM_0003
 70
    65
 10
0.0
 20
0.0
  0
LINE
  8
寸法
  6
BYBLOCK
 62
     0
 10
21.33489
 20
-22.536362
 11
-95.331778
 21
-22.536362
  0
POINT
  8
寸法
 62
     0
 10
21.33489
 20
-22.536362
  0
POINT
  8
寸法
 62
     0
 10
-95.331778
 20
-22.536362
  0
TEXT
  7
TextStyle03
  8
寸法
  6
CONTINUOUS
 62
     0
 10
-48.71875
 20
-22.175
  1
呼称寸法　3500
 40
3.0
 72
     5
 11
-25.28125
 21
-22.175
  0
ENDBLK
  0
BLOCK
  2
*DIM_0004
 70
    65
 10
0.0
 20
0.0
  0
LINE
  8
寸法
  6
BYBLOCK
 62
     0
 10
-78.66511
 20
9.76892
 11
-78.66511
 21
4.551973
  0
LINE
  8
寸法
  6
BYBLOCK
 62
     0
 10
4.668225
 20
9.76892
 11
4.668225
 21
4.551973
  0
LINE
  8
寸法
  6
BYBLOCK
 62
     0
 10
-78.66511
 20
4.551973
 11
4.668225
 21
4.551973
  0
POINT
  8
寸法
 62
     0
 10
-78.66511
 20
4.551973
  0
POINT
  8
寸法
 62
     0
 10
4.668225
 20
4.551973
  0
TEXT
  7
TextStyle03
  8
寸法
  6
CONTINUOUS
 62
     0
 10
-40.28125
 20
4.925
  1
2500
 40
3.0
 72
     5
 11
-33.71875
 21
4.925
  0
ENDBLK
  0
BLOCK
  2
*DIM_0005
 70
    65
 10
0.0
 20
0.0
  0
LINE
  8
寸法
  6
BYBLOCK
 62
     0
 10
22.33489
 20
56.732382
 11
32.059173
 21
56.732382
  0
LINE
  8
寸法
  6
BYBLOCK
 62
     0
 10
24.96502
 20
53.032382
 11
32.059173
 21
53.032382
  0
LINE
  8
寸法
  6
BYBLOCK
 62
     0
 10
32.059173
 20
56.732382
 11
32.059173
 21
53.032382
  0
POINT
  8
寸法
 62
     0
 10
32.059173
 20
56.732382
  0
POINT
  8
寸法
 62
     0
 10
32.059173
 20
53.032382
  0
TEXT
  7
TextStyle03
  8
寸法
  6
CONTINUOUS
 62
     0
 10
31.75
 20
57.7125
  1
111
 40
3.0
 50
90.0
 72
     5
 11
31.75
 21
62.5875
  0
ENDBLK
  0
BLOCK
  2
*DIM_0006
 70
    65
 10
0.0
 20
0.0
  0
LINE
  8
寸法
  6
BYBLOCK
 62
     0
 10
22.33489
 20
13.399048
 11
32.059173
 21
13.399045
  0
LINE
  8
寸法
  6
BYBLOCK
 62
     0
 10
24.96502
 20
17.099048
 11
32.059173
 21
17.099045
  0
LINE
  8
寸法
  6
BYBLOCK
 62
     0
 10
32.059173
 20
13.399045
 11
32.059173
 21
17.099045
  0
POINT
  8
寸法
 62
     0
 10
32.059173
 20
13.399045
  0
POINT
  8
寸法
 62
     0
 10
32.059173
 20
17.099045
  0
TEXT
  7
TextStyle03
  8
寸法
  6
CONTINUOUS
 62
     0
 10
31.725
 20
7.5375
  1
111
 40
3.0
 50
90.0
 72
     5
 11
31.725
 21
12.4125
  0
ENDBLK
  0
BLOCK
  2
*DIM_0007
 70
    65
 10
0.0
 20
0.0
  0
LINE
  8
寸法
  6
BYBLOCK
 62
     0
 10
55.35454
 20
13.399048
 11
55.35454
 21
56.73238
  0
POINT
  8
寸法
 62
     0
 10
55.35454
 20
13.399048
  0
POINT
  8
寸法
 62
     0
 10
55.35454
 20
56.73238
  0
TEXT
  7
TextStyle03
  8
寸法
  6
CONTINUOUS
 62
     0
 10
55.025
 20
23.33125
  1
呼称寸法　1300
 40
3.0
 50
90.0
 72
     5
 11
55.025
 21
46.76875
  0
ENDBLK
  0
BLOCK
  2
*DIM_0008
 70
    65
 10
0.0
 20
0.0
  0
LINE
  8
寸法
  6
BYBLOCK
 62
     0
 10
109.244935
 20
58.715712
 11
55.35454
 21
58.715712
  0
LINE
  8
寸法
  6
BYBLOCK
 62
     0
 10
55.35454
 20
56.73238
 11
55.35454
 21
58.715712
  0
POINT
  8
寸法
 62
     0
 10
55.35454
 20
56.73238
  0
POINT
  8
寸法
 62
     0
 10
55.35454
 20
58.715712
  0
TEXT
  7
TextStyle03
  8
寸法
  6
CONTINUOUS
 62
     0
 10
54.975
 20
61.16875
  1
59.5
 40
3.0
 50
90.0
 72
     5
 11
54.975
 21
67.73125
  0
ENDBLK
  0
BLOCK
  2
*DIM_0009
 70
    65
 10
0.0
 20
0.0
  0
LINE
  8
寸法
  6
BYBLOCK
 62
     0
 10
109.244935
 20
11.415712
 11
55.35454
 21
11.415712
  0
LINE
  8
寸法
  6
BYBLOCK
 62
     0
 10
55.35454
 20
13.399048
 11
55.35454
 21
11.415712
  0
POINT
  8
寸法
 62
     0
 10
55.35454
 20
13.399048
  0
POINT
  8
寸法
 62
     0
 10
55.35454
 20
11.415712
  0
TEXT
  7
TextStyle03
  8
寸法
  6
CONTINUOUS
 62
     0
 10
54.975
 20
2.36875
  1
59.5
 40
3.0
 50
90.0
 72
     5
 11
54.975
 21
8.93125
  0
ENDBLK
  0
BLOCK
  2
*DIM_0010
 70
    65
 10
0.0
 20
0.0
  0
LINE
  8
寸法
  6
BYBLOCK
 62
     0
 10
23.318225
 20
-63.00138
 11
23.318225
 21
-22.536362
  0
LINE
  8
寸法
  6
BYBLOCK
 62
     0
 10
21.33489
 20
-22.536362
 11
23.318225
 21
-22.536362
  0
POINT
  8
寸法
 62
     0
 10
21.33489
 20
-22.536362
  0
POINT
  8
寸法
 62
     0
 10
23.318225
 20
-22.536362
  0
TEXT
  7
TextStyle03
  8
寸法
  6
CONTINUOUS
 62
     0
 10
25.79375
 20
-22.175
  1
59.5
 40
3.0
 72
     5
 11
32.35625
 21
-22.175
  0
ENDBLK
  0
BLOCK
  2
*DIM_0011
 70
    65
 10
0.0
 20
0.0
  0
LINE
  8
寸法
  6
BYBLOCK
 62
     0
 10
-97.31511
 20
-63.00138
 11
-97.31511
 21
-22.536362
  0
LINE
  8
寸法
  6
BYBLOCK
 62
     0
 10
-95.331778
 20
-22.536362
 11
-97.31511
 21
-22.536362
  0
POINT
  8
寸法
 62
     0
 10
-95.331778
 20
-22.536362
  0
POINT
  8
寸法
 62
     0
 10
-97.31511
 20
-22.536362
  0
TEXT
  7
TextStyle03
  8
寸法
  6
CONTINUOUS
 62
     0
 10
-106.35625
 20
-22.175
  1
59.5
 40
3.0
 72
     5
 11
-99.79375
 21
-22.175
  0
ENDBLK
  0
BLOCK
  2
*DIM_0012
 70
    65
 10
0.0
 20
0.0
  0
LINE
  8
寸法
  6
BYBLOCK
 62
     0
 10
-98.331778
 20
23.399048
 11
-127.276943
 21
23.399048
  0
LINE
  8
寸法
  6
BYBLOCK
 62
     0
 10
-98.331778
 20
46.732382
 11
-127.276943
 21
46.732382
  0
LINE
  8
寸法
  6
BYBLOCK
 62
     0
 10
-127.276943
 20
23.399048
 11
-127.276943
 21
46.732382
  0
POINT
  8
寸法
 62
     0
 10
-127.276943
 20
23.399048
  0
POINT
  8
寸法
 62
     0
 10
-127.276943
 20
46.732382
  0
TEXT
  7
TextStyle03
  8
寸法
  6
CONTINUOUS
 62
     0
 10
-127.7
 20
32.6125
  1
700
 40
3.0
 50
90.0
 72
     5
 11
-127.7
 21
37.4875
  0
ENDBLK
  0
BLOCK
  2
*DIM_0013
 70
    65
 10
0.0
 20
0.0
  0
LINE
  8
寸法
  6
BYBLOCK
 62
     0
 10
-90.331775
 20
59.73238
 11
-90.331775
 21
88.840452
  0
LINE
  8
寸法
  6
BYBLOCK
 62
     0
 10
-63.66511
 20
59.73238
 11
-63.66511
 21
88.840452
  0
LINE
  8
寸法
  6
BYBLOCK
 62
     0
 10
-90.331775
 20
88.840452
 11
-63.66511
 21
88.840452
  0
POINT
  8
寸法
 62
     0
 10
-90.331775
 20
88.840452
  0
POINT
  8
寸法
 62
     0
 10
-63.66511
 20
88.840452
  0
TEXT
  7
TextStyle03
  8
寸法
  6
CONTINUOUS
 62
     0
 10
-79.4375
 20
89.2
  1
800
 40
3.0
 72
     5
 11
-74.5625
 21
89.2
  0
ENDBLK
  0
BLOCK
  2
*DIM_0014
 70
    65
 10
0.0
 20
0.0
  0
LINE
  8
寸法
  6
BYBLOCK
 62
     0
 10
-36.998442
 20
59.73238
 11
-36.998442
 21
88.840452
  0
LINE
  8
寸法
  6
BYBLOCK
 62
     0
 10
-63.66511
 20
88.840452
 11
-36.998442
 21
88.840452
  0
POINT
  8
寸法
 62
     0
 10
-36.998442
 20
88.840452
  0
TEXT
  7
TextStyle03
  8
寸法
  6
CONTINUOUS
 62
     0
 10
-52.7875
 20
89.2
  1
800
 40
3.0
 72
     5
 11
-47.9125
 21
89.2
  0
ENDBLK
  0
BLOCK
  2
*DIM_0015
 70
    65
 10
0.0
 20
0.0
  0
LINE
  8
寸法
  6
BYBLOCK
 62
     0
 10
-10.331775
 20
59.73238
 11
-10.331775
 21
88.840452
  0
LINE
  8
寸法
  6
BYBLOCK
 62
     0
 10
-36.998442
 20
88.840452
 11
-10.331775
 21
88.840452
  0
POINT
  8
寸法
 62
     0
 10
-10.331775
 20
88.840452
  0
TEXT
  7
TextStyle03
  8
寸法
  6
CONTINUOUS
 62
     0
 10
-26.1125
 20
89.2
  1
800
 40
3.0
 72
     5
 11
-21.2375
 21
89.2
  0
ENDBLK
  0
BLOCK
  2
*DIM_0016
 70
    65
 10
0.0
 20
0.0
  0
LINE
  8
寸法
  6
BYBLOCK
 62
     0
 10
16.33489
 20
59.73238
 11
16.33489
 21
88.840452
  0
LINE
  8
寸法
  6
BYBLOCK
 62
     0
 10
-10.331775
 20
88.840452
 11
16.33489
 21
88.840452
  0
POINT
  8
寸法
 62
     0
 10
16.33489
 20
88.840452
  0
TEXT
  7
TextStyle03
  8
寸法
  6
CONTINUOUS
 62
     0
 10
0.5625
 20
89.2
  1
800
 40
3.0
 72
     5
 11
5.4375
 21
89.2
  0
ENDBLK
  0
BLOCK
  2
*DIM_0017
 70
    65
 10
0.0
 20
0.0
  0
LINE
  8
寸法
  6
CONTINUOUS
 10
109.323388
 20
70.502383
 11
116.973438
 21
70.502383
  0
POINT
  8
寸法
 10
109.323388
 20
70.502383
  0
POINT
  8
寸法
 10
116.973438
 20
70.502383
  0
TEXT
  7
TextStyle03
  8
寸法
  6
CONTINUOUS
 10
109.1
 20
70.85
  1
229.5
 40
3.0
 72
     5
 11
117.35
 21
70.85
  0
ENDBLK
  0
BLOCK
  2
*GRP_0018
 70
    65
 10
0.0
 20
0.0
  0
LINE
  8
補助線
  6
BYBLOCK
 62
    64
 10
-83.599168
 20
-83.775137
 11
-83.731052
 21
-83.877042
  0
LINE
  8
補助線
  6
BYBLOCK
 62
    64
 10
-83.716063
 20
-83.760148
 11
-83.614157
 21
-83.892032
  0
LINE
  8
補助線
  6
BYBLOCK
 62
    64
 10
-72.188543
 20
-74.958447
 11
-72.320428
 21
-75.06035
  0
LINE
  8
補助線
  6
BYBLOCK
 62
    64
 10
-72.305437
 20
-74.943455
 11
-72.203535
 21
-75.07534
  0
LINE
  8
補助線
  6
BYBLOCK
 62
    64
 10
-60.9098
 20
-66.24366
 11
-60.77792
 21
-66.141755
  0
LINE
  8
補助線
  6
BYBLOCK
 62
    64
 10
-60.894812
 20
-66.126763
 11
-60.79291
 21
-66.25865
  0
LINE
  8
型材断面
  6
CONTINUOUS
 10
-84.438395
 20
-83.370475
 11
-84.528337
 21
-84.07184
  0
LINE
  8
型材断面
  6
CONTINUOUS
 10
-84.528337
 20
-84.07184
 11
-84.120723
 21
-84.599377
  0
LINE
  8
型材断面
  6
CONTINUOUS
 10
-84.120723
 20
-84.599377
 11
-83.41936
 21
-84.689318
  0
LINE
  8
型材断面
  6
CONTINUOUS
 10
-61.08961
 20
-65.32948
 11
-60.388248
 21
-65.419423
  0
LINE
  8
型材断面
  6
CONTINUOUS
 10
-60.388248
 20
-65.419423
 11
-59.980632
 21
-65.94696
  0
LINE
  8
型材断面
  6
CONTINUOUS
 10
-59.980632
 20
-65.94696
 11
-60.070575
 21
-66.648325
  0
LINE
  8
型材断面
  6
CONTINUOUS
 10
-83.41936
 20
-84.689318
 11
-60.070575
 21
-66.648325
  0
LINE
  8
型材断面
  6
CONTINUOUS
 10
-84.438395
 20
-83.370475
 11
-61.08961
 21
-65.32948
  0
CIRCLE
  8
ボルト／ビス
  6
CONTINUOUS
 10
-83.66511
 20
-83.82609
 40
0.250185
  0
CIRCLE
  8
ボルト／ビス
  6
CONTINUOUS
 10
-83.66511
 20
-83.82609
 40
0.301025
  0
LINE
  8
ボルト／ビス
  6
CONTINUOUS
 62
    64
 10
-83.913045
 20
-83.85958
 11
-83.81808
 21
-83.628118
  0
LINE
  8
ボルト／ビス
  6
CONTINUOUS
 62
    64
 10
-83.570145
 20
-83.594628
 11
-83.81808
 21
-83.628118
  0
LINE
  8
ボルト／ビス
  6
CONTINUOUS
 62
    64
 10
-83.760075
 20
-84.057553
 11
-83.51214
 21
-84.024063
  0
LINE
  8
ボルト／ビス
  6
CONTINUOUS
 62
    64
 10
-83.417175
 20
-83.7926
 11
-83.51214
 21
-84.024063
  0
LINE
  8
ボルト／ビス
  6
CONTINUOUS
 62
    64
 10
-83.913045
 20
-83.85958
 11
-83.760075
 21
-84.057553
  0
LINE
  8
ボルト／ビス
  6
CONTINUOUS
 62
    64
 10
-83.570145
 20
-83.594628
 11
-83.417175
 21
-83.7926
  0
CIRCLE
  8
ボルト／ビス
  6
CONTINUOUS
 62
    64
 10
-83.66511
 20
-83.82609
 40
0.216668
  0
CIRCLE
  8
ボルト／ビス
  6
CONTINUOUS
 10
-72.254485
 20
-75.0094
 40
0.250185
  0
CIRCLE
  8
ボルト／ビス
  6
CONTINUOUS
 10
-72.254485
 20
-75.0094
 40
0.301025
  0
LINE
  8
ボルト／ビス
  6
CONTINUOUS
 62
    64
 10
-72.50242
 20
-75.042887
 11
-72.407455
 21
-74.811427
  0
LINE
  8
ボルト／ビス
  6
CONTINUOUS
 62
    64
 10
-72.15952
 20
-74.777938
 11
-72.407455
 21
-74.811427
  0
LINE
  8
ボルト／ビス
  6
CONTINUOUS
 62
    64
 10
-72.349453
 20
-75.24086
 11
-72.101518
 21
-75.20737
  0
LINE
  8
ボルト／ビス
  6
CONTINUOUS
 62
    64
 10
-72.00655
 20
-74.97591
 11
-72.101518
 21
-75.20737
  0
LINE
  8
ボルト／ビス
  6
CONTINUOUS
 62
    64
 10
-72.50242
 20
-75.042887
 11
-72.349453
 21
-75.24086
  0
LINE
  8
ボルト／ビス
  6
CONTINUOUS
 62
    64
 10
-72.15952
 20
-74.777938
 11
-72.00655
 21
-74.97591
  0
CIRCLE
  8
ボルト／ビス
  6
CONTINUOUS
 62
    64
 10
-72.254485
 20
-75.0094
 40
0.216668
  0
CIRCLE
  8
ボルト／ビス
  6
CONTINUOUS
 10
-60.843862
 20
-66.192707
 40
0.250185
  0
CIRCLE
  8
ボルト／ビス
  6
CONTINUOUS
 10
-60.843862
 20
-66.192707
 40
0.301025
  0
LINE
  8
ボルト／ビス
  6
CONTINUOUS
 62
    64
 10
-60.748895
 20
-65.961245
 11
-60.996828
 21
-65.994735
  0
LINE
  8
ボルト／ビス
  6
CONTINUOUS
 62
    64
 10
-61.091792
 20
-66.226198
 11
-60.996828
 21
-65.994735
  0
LINE
  8
ボルト／ビス
  6
CONTINUOUS
 62
    64
 10
-60.595928
 20
-66.159217
 11
-60.690892
 21
-66.39068
  0
LINE
  8
ボルト／ビス
  6
CONTINUOUS
 62
    64
 10
-60.938828
 20
-66.42417
 11
-60.690892
 21
-66.39068
  0
LINE
  8
ボルト／ビス
  6
CONTINUOUS
 62
    64
 10
-60.748895
 20
-65.961245
 11
-60.595928
 21
-66.159217
  0
LINE
  8
ボルト／ビス
  6
CONTINUOUS
 62
    64
 10
-61.091792
 20
-66.226198
 11
-60.938828
 21
-66.42417
  0
CIRCLE
  8
ボルト／ビス
  6
CONTINUOUS
 62
    64
 10
-60.843862
 20
-66.192707
 40
0.216668
  0
ENDBLK
  0
BLOCK
  2
*GRP_0019
 70
    65
 10
0.0
 20
0.0
  0
LINE
  8
補助線
  6
BYBLOCK
 62
    64
 10
-60.909803
 20
-83.775137
 11
-60.777917
 21
-83.877042
  0
LINE
  8
補助線
  6
BYBLOCK
 62
    64
 10
-60.792907
 20
-83.760148
 11
-60.894812
 21
-83.892032
  0
LINE
  8
補助線
  6
BYBLOCK
 62
    64
 10
-72.320428
 20
-74.958447
 11
-72.188543
 21
-75.06035
  0
LINE
  8
補助線
  6
BYBLOCK
 62
    64
 10
-72.203532
 20
-74.943455
 11
-72.305435
 21
-75.07534
  0
LINE
  8
補助線
  6
BYBLOCK
 62
    64
 10
-83.59917
 20
-66.24366
 11
-83.73105
 21
-66.141755
  0
LINE
  8
補助線
  6
BYBLOCK
 62
    64
 10
-83.614157
 20
-66.126763
 11
-83.71606
 21
-66.25865
  0
LINE
  8
型材断面
  6
CONTINUOUS
 10
-60.070575
 20
-83.370475
 11
-59.980632
 21
-84.07184
  0
LINE
  8
型材断面
  6
CONTINUOUS
 10
-59.980632
 20
-84.07184
 11
-60.388248
 21
-84.599377
  0
LINE
  8
型材断面
  6
CONTINUOUS
 10
-60.388248
 20
-84.599377
 11
-61.08961
 21
-84.689318
  0
LINE
  8
型材断面
  6
CONTINUOUS
 10
-83.41936
 20
-65.32948
 11
-84.120723
 21
-65.419423
  0
LINE
  8
型材断面
  6
CONTINUOUS
 10
-84.120723
 20
-65.419423
 11
-84.528337
 21
-65.94696
  0
LINE
  8
型材断面
  6
CONTINUOUS
 10
-84.528337
 20
-65.94696
 11
-84.438395
 21
-66.648325
  0
LINE
  8
型材断面
  6
CONTINUOUS
 10
-61.08961
 20
-84.689318
 11
-84.438395
 21
-66.648325
  0
LINE
  8
型材断面
  6
CONTINUOUS
 10
-60.070575
 20
-83.370475
 11
-83.41936
 21
-65.32948
  0
CIRCLE
  8
ボルト／ビス
  6
CONTINUOUS
 10
-60.84386
 20
-83.82609
 40
0.250185
  0
CIRCLE
  8
ボルト／ビス
  6
CONTINUOUS
 10
-60.84386
 20
-83.82609
 40
0.301025
  0
LINE
  8
ボルト／ビス
  6
CONTINUOUS
 62
    64
 10
-60.595925
 20
-83.85958
 11
-60.69089
 21
-83.628118
  0
LINE
  8
ボルト／ビス
  6
CONTINUOUS
 62
    64
 10
-60.938825
 20
-83.594628
 11
-60.69089
 21
-83.628118
  0
LINE
  8
ボルト／ビス
  6
CONTINUOUS
 62
    64
 10
-60.748895
 20
-84.057553
 11
-60.99683
 21
-84.024063
  0
LINE
  8
ボルト／ビス
  6
CONTINUOUS
 62
    64
 10
-61.091795
 20
-83.7926
 11
-60.99683
 21
-84.024063
  0
LINE
  8
ボルト／ビス
  6
CONTINUOUS
 62
    64
 10
-60.595925
 20
-83.85958
 11
-60.748895
 21
-84.057553
  0
LINE
  8
ボルト／ビス
  6
CONTINUOUS
 62
    64
 10
-60.938825
 20
-83.594628
 11
-61.091795
 21
-83.7926
  0
CIRCLE
  8
ボルト／ビス
  6
CONTINUOUS
 62
    64
 10
-60.84386
 20
-83.82609
 40
0.216668
  0
CIRCLE
  8
ボルト／ビス
  6
CONTINUOUS
 10
-72.254485
 20
-75.0094
 40
0.250185
  0
CIRCLE
  8
ボルト／ビス
  6
CONTINUOUS
 10
-72.254485
 20
-75.0094
 40
0.301025
  0
LINE
  8
ボルト／ビス
  6
CONTINUOUS
 62
    64
 10
-72.00655
 20
-75.042887
 11
-72.101515
 21
-74.811427
  0
LINE
  8
ボルト／ビス
  6
CONTINUOUS
 62
    64
 10
-72.34945
 20
-74.777938
 11
-72.101515
 21
-74.811427
  0
LINE
  8
ボルト／ビス
  6
CONTINUOUS
 62
    64
 10
-72.159518
 20
-75.24086
 11
-72.407453
 21
-75.20737
  0
LINE
  8
ボルト／ビス
  6
CONTINUOUS
 62
    64
 10
-72.50242
 20
-74.97591
 11
-72.407453
 21
-75.20737
  0
LINE
  8
ボルト／ビス
  6
CONTINUOUS
 62
    64
 10
-72.00655
 20
-75.042887
 11
-72.159518
 21
-75.24086
  0
LINE
  8
ボルト／ビス
  6
CONTINUOUS
 62
    64
 10
-72.34945
 20
-74.777938
 11
-72.50242
 21
-74.97591
  0
CIRCLE
  8
ボルト／ビス
  6
CONTINUOUS
 62
    64
 10
-72.254485
 20
-75.0094
 40
0.216668
  0
CIRCLE
  8
ボルト／ビス
  6
CONTINUOUS
 10
-83.665107
 20
-66.192707
 40
0.250185
  0
CIRCLE
  8
ボルト／ビス
  6
CONTINUOUS
 10
-83.665107
 20
-66.192707
 40
0.301025
  0
LINE
  8
ボルト／ビス
  6
CONTINUOUS
 62
    64
 10
-83.760075
 20
-65.961245
 11
-83.512143
 21
-65.994735
  0
LINE
  8
ボルト／ビス
  6
CONTINUOUS
 62
    64
 10
-83.417177
 20
-66.226198
 11
-83.512143
 21
-65.994735
  0
LINE
  8
ボルト／ビス
  6
CONTINUOUS
 62
    64
 10
-83.913043
 20
-66.159217
 11
-83.818077
 21
-66.39068
  0
LINE
  8
ボルト／ビス
  6
CONTINUOUS
 62
    64
 10
-83.570143
 20
-66.42417
 11
-83.818077
 21
-66.39068
  0
LINE
  8
ボルト／ビス
  6
CONTINUOUS
 62
    64
 10
-83.760075
 20
-65.961245
 11
-83.913043
 21
-66.159217
  0
LINE
  8
ボルト／ビス
  6
CONTINUOUS
 62
    64
 10
-83.417177
 20
-66.226198
 11
-83.570143
 21
-66.42417
  0
CIRCLE
  8
ボルト／ビス
  6
CONTINUOUS
 62
    64
 10
-83.665107
 20
-66.192707
 40
0.216668
  0
ENDBLK
  0
BLOCK
  2
*GRP_0020
 70
    65
 10
0.0
 20
0.0
  0
LINE
  8
補助線
  6
BYBLOCK
 62
    64
 10
9.602283
 20
-83.775137
 11
9.734167
 21
-83.877042
  0
LINE
  8
補助線
  6
BYBLOCK
 62
    64
 10
9.719177
 20
-83.760148
 11
9.617273
 21
-83.892032
  0
LINE
  8
補助線
  6
BYBLOCK
 62
    64
 10
-1.808342
 20
-74.958447
 11
-1.676458
 21
-75.06035
  0
LINE
  8
補助線
  6
BYBLOCK
 62
    64
 10
-1.691447
 20
-74.943455
 11
-1.79335
 21
-75.07534
  0
LINE
  8
補助線
  6
BYBLOCK
 62
    64
 10
-13.087085
 20
-66.24366
 11
-13.218965
 21
-66.141755
  0
LINE
  8
補助線
  6
BYBLOCK
 62
    64
 10
-13.102073
 20
-66.126763
 11
-13.203975
 21
-66.25865
  0
LINE
  8
型材断面
  6
CONTINUOUS
 10
10.44151
 20
-83.370475
 11
10.531452
 21
-84.07184
  0
LINE
  8
型材断面
  6
CONTINUOUS
 10
10.531452
 20
-84.07184
 11
10.123838
 21
-84.599377
  0
LINE
  8
型材断面
  6
CONTINUOUS
 10
10.123838
 20
-84.599377
 11
9.422475
 21
-84.689318
  0
LINE
  8
型材断面
  6
CONTINUOUS
 10
-12.907275
 20
-65.32948
 11
-13.608637
 21
-65.419423
  0
LINE
  8
型材断面
  6
CONTINUOUS
 10
-13.608637
 20
-65.419423
 11
-14.016252
 21
-65.94696
  0
LINE
  8
型材断面
  6
CONTINUOUS
 10
-14.016252
 20
-65.94696
 11
-13.92631
 21
-66.648325
  0
LINE
  8
型材断面
  6
CONTINUOUS
 10
9.422475
 20
-84.689318
 11
-13.92631
 21
-66.648325
  0
LINE
  8
型材断面
  6
CONTINUOUS
 10
10.44151
 20
-83.370475
 11
-12.907275
 21
-65.32948
  0
CIRCLE
  8
ボルト／ビス
  6
CONTINUOUS
 10
9.668225
 20
-83.82609
 40
0.250185
  0
CIRCLE
  8
ボルト／ビス
  6
CONTINUOUS
 10
9.668225
 20
-83.82609
 40
0.301025
  0
LINE
  8
ボルト／ビス
  6
CONTINUOUS
 62
    64
 10
9.91616
 20
-83.85958
 11
9.821195
 21
-83.628118
  0
LINE
  8
ボルト／ビス
  6
CONTINUOUS
 62
    64
 10
9.57326
 20
-83.594628
 11
9.821195
 21
-83.628118
  0
LINE
  8
ボルト／ビス
  6
CONTINUOUS
 62
    64
 10
9.76319
 20
-84.057553
 11
9.515255
 21
-84.024063
  0
LINE
  8
ボルト／ビス
  6
CONTINUOUS
 62
    64
 10
9.42029
 20
-83.7926
 11
9.515255
 21
-84.024063
  0
LINE
  8
ボルト／ビス
  6
CONTINUOUS
 62
    64
 10
9.91616
 20
-83.85958
 11
9.76319
 21
-84.057553
  0
LINE
  8
ボルト／ビス
  6
CONTINUOUS
 62
    64
 10
9.57326
 20
-83.594628
 11
9.42029
 21
-83.7926
  0
CIRCLE
  8
ボルト／ビス
  6
CONTINUOUS
 62
    64
 10
9.668225
 20
-83.82609
 40
0.216668
  0
CIRCLE
  8
ボルト／ビス
  6
CONTINUOUS
 10
-1.7424
 20
-75.0094
 40
0.250185
  0
CIRCLE
  8
ボルト／ビス
  6
CONTINUOUS
 10
-1.7424
 20
-75.0094
 40
0.301025
  0
LINE
  8
ボルト／ビス
  6
CONTINUOUS
 62
    64
 10
-1.494465
 20
-75.042887
 11
-1.58943
 21
-74.811427
  0
LINE
  8
ボルト／ビス
  6
CONTINUOUS
 62
    64
 10
-1.837365
 20
-74.777938
 11
-1.58943
 21
-74.811427
  0
LINE
  8
ボルト／ビス
  6
CONTINUOUS
 62
    64
 10
-1.647433
 20
-75.24086
 11
-1.895367
 21
-75.20737
  0
LINE
  8
ボルト／ビス
  6
CONTINUOUS
 62
    64
 10
-1.990335
 20
-74.97591
 11
-1.895367
 21
-75.20737
  0
LINE
  8
ボルト／ビス
  6
CONTINUOUS
 62
    64
 10
-1.494465
 20
-75.042887
 11
-1.647433
 21
-75.24086
  0
LINE
  8
ボルト／ビス
  6
CONTINUOUS
 62
    64
 10
-1.837365
 20
-74.777938
 11
-1.990335
 21
-74.97591
  0
CIRCLE
  8
ボルト／ビス
  6
CONTINUOUS
 62
    64
 10
-1.7424
 20
-75.0094
 40
0.216668
  0
CIRCLE
  8
ボルト／ビス
  6
CONTINUOUS
 10
-13.153023
 20
-66.192707
 40
0.250185
  0
CIRCLE
  8
ボルト／ビス
  6
CONTINUOUS
 10
-13.153023
 20
-66.192707
 40
0.301025
  0
LINE
  8
ボルト／ビス
  6
CONTINUOUS
 62
    64
 10
-13.24799
 20
-65.961245
 11
-13.000058
 21
-65.994735
  0
LINE
  8
ボルト／ビス
  6
CONTINUOUS
 62
    64
 10
-12.905092
 20
-66.226198
 11
-13.000058
 21
-65.994735
  0
LINE
  8
ボルト／ビス
  6
CONTINUOUS
 62
    64
 10
-13.400958
 20
-66.159217
 11
-13.305992
 21
-66.39068
  0
LINE
  8
ボルト／ビス
  6
CONTINUOUS
 62
    64
 10
-13.058057
 20
-66.42417
 11
-13.305992
 21
-66.39068
  0
LINE
  8
ボルト／ビス
  6
CONTINUOUS
 62
    64
 10
-13.24799
 20
-65.961245
 11
-13.400958
 21
-66.159217
  0
LINE
  8
ボルト／ビス
  6
CONTINUOUS
 62
    64
 10
-12.905092
 20
-66.226198
 11
-13.058057
 21
-66.42417
  0
CIRCLE
  8
ボルト／ビス
  6
CONTINUOUS
 62
    64
 10
-13.153023
 20
-66.192707
 40
0.216668
  0
ENDBLK
  0
BLOCK
  2
*GRP_0021
 70
    65
 10
0.0
 20
0.0
  0
LINE
  8
補助線
  6
BYBLOCK
 62
    64
 10
-13.087082
 20
-83.775137
 11
-13.218967
 21
-83.877042
  0
LINE
  8
補助線
  6
BYBLOCK
 62
    64
 10
-13.203978
 20
-83.760148
 11
-13.102073
 21
-83.892032
  0
LINE
  8
補助線
  6
BYBLOCK
 62
    64
 10
-1.676458
 20
-74.958447
 11
-1.808342
 21
-75.06035
  0
LINE
  8
補助線
  6
BYBLOCK
 62
    64
 10
-1.793353
 20
-74.943455
 11
-1.69145
 21
-75.07534
  0
LINE
  8
補助線
  6
BYBLOCK
 62
    64
 10
9.602285
 20
-66.24366
 11
9.734165
 21
-66.141755
  0
LINE
  8
補助線
  6
BYBLOCK
 62
    64
 10
9.617273
 20
-66.126763
 11
9.719175
 21
-66.25865
  0
LINE
  8
型材断面
  6
CONTINUOUS
 10
-13.92631
 20
-83.370475
 11
-14.016252
 21
-84.07184
  0
LINE
  8
型材断面
  6
CONTINUOUS
 10
-14.016252
 20
-84.07184
 11
-13.608637
 21
-84.599377
  0
LINE
  8
型材断面
  6
CONTINUOUS
 10
-13.608637
 20
-84.599377
 11
-12.907275
 21
-84.689318
  0
LINE
  8
型材断面
  6
CONTINUOUS
 10
9.422475
 20
-65.32948
 11
10.123838
 21
-65.419423
  0
LINE
  8
型材断面
  6
CONTINUOUS
 10
10.123838
 20
-65.419423
 11
10.531452
 21
-65.94696
  0
LINE
  8
型材断面
  6
CONTINUOUS
 10
10.531452
 20
-65.94696
 11
10.44151
 21
-66.648325
  0
LINE
  8
型材断面
  6
CONTINUOUS
 10
-12.907275
 20
-84.689318
 11
10.44151
 21
-66.648325
  0
LINE
  8
型材断面
  6
CONTINUOUS
 10
-13.92631
 20
-83.370475
 11
9.422475
 21
-65.32948
  0
CIRCLE
  8
ボルト／ビス
  6
CONTINUOUS
 10
-13.153025
 20
-83.82609
 40
0.250185
  0
CIRCLE
  8
ボルト／ビス
  6
CONTINUOUS
 10
-13.153025
 20
-83.82609
 40
0.301025
  0
LINE
  8
ボルト／ビス
  6
CONTINUOUS
 62
    64
 10
-13.40096
 20
-83.85958
 11
-13.305995
 21
-83.628118
  0
LINE
  8
ボルト／ビス
  6
CONTINUOUS
 62
    64
 10
-13.05806
 20
-83.594628
 11
-13.305995
 21
-83.628118
  0
LINE
  8
ボルト／ビス
  6
CONTINUOUS
 62
    64
 10
-13.24799
 20
-84.057553
 11
-13.000055
 21
-84.024063
  0
LINE
  8
ボルト／ビス
  6
CONTINUOUS
 62
    64
 10
-12.90509
 20
-83.7926
 11
-13.000055
 21
-84.024063
  0
LINE
  8
ボルト／ビス
  6
CONTINUOUS
 62
    64
 10
-13.40096
 20
-83.85958
 11
-13.24799
 21
-84.057553
  0
LINE
  8
ボルト／ビス
  6
CONTINUOUS
 62
    64
 10
-13.05806
 20
-83.594628
 11
-12.90509
 21
-83.7926
  0
CIRCLE
  8
ボルト／ビス
  6
CONTINUOUS
 62
    64
 10
-13.153025
 20
-83.82609
 40
0.216668
  0
CIRCLE
  8
ボルト／ビス
  6
CONTINUOUS
 10
-1.7424
 20
-75.0094
 40
0.250185
  0
CIRCLE
  8
ボルト／ビス
  6
CONTINUOUS
 10
-1.7424
 20
-75.0094
 40
0.301025
  0
LINE
  8
ボルト／ビス
  6
CONTINUOUS
 62
    64
 10
-1.990335
 20
-75.042887
 11
-1.89537
 21
-74.811427
  0
LINE
  8
ボルト／ビス
  6
CONTINUOUS
 62
    64
 10
-1.647435
 20
-74.777938
 11
-1.89537
 21
-74.811427
  0
LINE
  8
ボルト／ビス
  6
CONTINUOUS
 62
    64
 10
-1.837367
 20
-75.24086
 11
-1.589433
 21
-75.20737
  0
LINE
  8
ボルト／ビス
  6
CONTINUOUS
 62
    64
 10
-1.494465
 20
-74.97591
 11
-1.589433
 21
-75.20737
  0
LINE
  8
ボルト／ビス
  6
CONTINUOUS
 62
    64
 10
-1.990335
 20
-75.042887
 11
-1.837367
 21
-75.24086
  0
LINE
  8
ボルト／ビス
  6
CONTINUOUS
 62
    64
 10
-1.647435
 20
-74.777938
 11
-1.494465
 21
-74.97591
  0
CIRCLE
  8
ボルト／ビス
  6
CONTINUOUS
 62
    64
 10
-1.7424
 20
-75.0094
 40
0.216668
  0
CIRCLE
  8
ボルト／ビス
  6
CONTINUOUS
 10
9.668223
 20
-66.192707
 40
0.250185
  0
CIRCLE
  8
ボルト／ビス
  6
CONTINUOUS
 10
9.668223
 20
-66.192707
 40
0.301025
  0
LINE
  8
ボルト／ビス
  6
CONTINUOUS
 62
    64
 10
9.76319
 20
-65.961245
 11
9.515258
 21
-65.994735
  0
LINE
  8
ボルト／ビス
  6
CONTINUOUS
 62
    64
 10
9.420292
 20
-66.226198
 11
9.515258
 21
-65.994735
  0
LINE
  8
ボルト／ビス
  6
CONTINUOUS
 62
    64
 10
9.916158
 20
-66.159217
 11
9.821192
 21
-66.39068
  0
LINE
  8
ボルト／ビス
  6
CONTINUOUS
 62
    64
 10
9.573258
 20
-66.42417
 11
9.821192
 21
-66.39068
  0
LINE
  8
ボルト／ビス
  6
CONTINUOUS
 62
    64
 10
9.76319
 20
-65.961245
 11
9.916158
 21
-66.159217
  0
LINE
  8
ボルト／ビス
  6
CONTINUOUS
 62
    64
 10
9.420292
 20
-66.226198
 11
9.573258
 21
-66.42417
  0
CIRCLE
  8
ボルト／ビス
  6
CONTINUOUS
 62
    64
 10
9.668223
 20
-66.192707
 40
0.216668
  0
ENDBLK
  0
BLOCK
  2
*DIM_0022
 70
    65
 10
0.0
 20
0.0
  0
LINE
  8
寸法
  6
CONTINUOUS
 10
34.570135
 20
-78.249373
 11
34.570135
 21
-85.899423
  0
POINT
  8
寸法
 10
34.570135
 20
-78.249373
  0
POINT
  8
寸法
 10
34.570135
 20
-85.899423
  0
TEXT
  7
TextStyle03
  8
寸法
  6
CONTINUOUS
 10
39.025
 20
-86.45
  1
229.5
 40
3.0
 50
90.0
 72
     5
 11
39.025
 21
-78.2
  0
ENDBLK
  0
BLOCK
  2
*DIM_0023
 70
    65
 10
0.0
 20
0.0
  0
LINE
  8
寸法
  6
CONTINUOUS
 10
116.421445
 20
-40.09606
 11
78.531445
 21
-40.09606
  0
POINT
  8
寸法
 10
116.421445
 20
-40.09606
  0
POINT
  8
寸法
 10
78.531445
 20
-40.09606
  0
TEXT
  7
TextStyle03
  8
寸法
  6
CONTINUOUS
 10
92.50625
 20
-39.75
  1
1136.7
 40
3.0
 72
     5
 11
102.44375
 21
-39.75
  0
ENDBLK
  0
BLOCK
  2
*DIM_0024
 70
    65
 10
0.0
 20
0.0
  0
LINE
  8
寸法
  6
BYBLOCK
 62
     0
 10
34.570135
 20
-78.249373
 11
34.570135
 21
-63.249373
  0
POINT
  8
寸法
 62
     0
 10
34.570135
 20
-78.249373
  0
POINT
  8
寸法
 62
     0
 10
34.570135
 20
-63.249373
  0
TEXT
  7
TextStyle03
  8
寸法
  6
CONTINUOUS
 62
     0
 10
33.975
 20
-60.84375
  1
上昇410以上
 40
3.0
 50
90.0
 72
     5
 11
33.975
 21
-42.65625
  0
ENDBLK
  0
ENDSEC
  0
SECTION
  2
ENTITIES
  0
POLYLINE
  8
通り芯
  6
CONTINUOUS
 66
     1
 70
     1
  0
VERTEX
  8
通り芯
 10
-210.0
 20
-148.5
  0
VERTEX
  8
通り芯
 10
210.0
 20
-148.5
  0
VERTEX
  8
通り芯
 10
210.0
 20
148.5
  0
VERTEX
  8
通り芯
 10
-210.0
 20
148.5
  0
SEQEND
  0
INSERT
  2
*GRP_0001
  8
型材断面
  6
CONTINUOUS
 10
0.0
 20
0.0
  0
LINE
  8
型材断面
  6
DASHDOT
 10
21.33489
 20
-87.251428
 11
21.33489
 21
56.73238
  0
LINE
  8
型材断面
  6
DASHDOT
 10
-36.998442
 20
-87.251428
 11
-36.998442
 21
56.73238
  0
LINE
  8
型材断面
  6
DASHDOT
 10
-95.331778
 20
-87.251428
 11
-95.331778
 21
56.73238
  0
LINE
  8
型材断面
  6
DASHDOT
 10
119.011652
 20
13.399048
 11
-95.331778
 21
13.399048
  0
LINE
  8
型材断面
  6
DASHDOT
 10
119.011652
 20
35.065715
 11
-95.331778
 21
35.065715
  0
LINE
  8
型材断面
  6
DASHDOT
 10
119.011652
 20
56.73238
 11
-95.331778
 21
56.73238
  0
POLYLINE
  8
型材断面
  6
CONTINUOUS
 66
     1
 70
     1
  0
VERTEX
  8
型材断面
 10
-27.464395
 20
66.508305
  0
VERTEX
  8
型材断面
 10
-46.236325
 20
66.508305
  0
VERTEX
  8
型材断面
 10
-46.236325
 20
71.245147
  0
VERTEX
  8
型材断面
 10
-27.464395
 20
71.245147
  0
SEQEND
  0
POLYLINE
  8
型材断面
  6
CONTINUOUS
 66
     1
 70
     1
  0
VERTEX
  8
型材断面
 10
-27.464395
 20
3.623125
  0
VERTEX
  8
型材断面
 10
-46.236325
 20
3.623125
  0
VERTEX
  8
型材断面
 10
-46.236325
 20
-1.113717
  0
VERTEX
  8
型材断面
 10
-27.464395
 20
-1.113717
  0
SEQEND
  0
LINE
  8
型材断面
  6
CONTINUOUS
 10
-97.961907
 20
35.065715
 11
-100.552415
 21
36.561345
  0
LINE
  8
型材断面
  6
CONTINUOUS
 10
-97.961907
 20
35.065715
 11
-100.552415
 21
33.570085
  0
LINE
  8
型材断面
  6
CONTINUOUS
 10
-100.552415
 20
33.570085
 11
-100.552415
 21
36.561345
  0
LINE
  8
型材断面
  6
CONTINUOUS
 10
-78.66511
 20
59.36251
 11
-80.16074
 21
61.953017
  0
LINE
  8
型材断面
  6
CONTINUOUS
 10
-78.66511
 20
59.36251
 11
-77.16948
 21
61.953017
  0
LINE
  8
型材断面
  6
CONTINUOUS
 10
-77.16948
 20
61.953017
 11
-80.16074
 21
61.953017
  0
LINE
  8
型材断面
  6
CONTINUOUS
 10
-136.183985
 20
94.709852
 11
-135.58793
 21
92.119345
  0
LINE
  8
型材断面
  6
CONTINUOUS
 10
-136.183985
 20
94.709852
 11
-136.780043
 21
92.119345
  0
LINE
  8
型材断面
  6
CONTINUOUS
 10
-136.780043
 20
92.119345
 11
-135.58793
 21
92.119345
  0
LINE
  8
型材断面
  6
CONTINUOUS
 10
-142.206573
 20
88.840452
 11
-95.964795
 21
88.840452
  0
LINE
  8
型材断面
  6
CONTINUOUS
 10
-136.183985
 20
101.239727
 11
-137.679615
 21
98.64922
  0
LINE
  8
型材断面
  6
CONTINUOUS
 10
-136.183985
 20
101.239727
 11
-134.688355
 21
98.64922
  0
LINE
  8
型材断面
  6
CONTINUOUS
 10
-134.688355
 20
98.64922
 11
-137.679615
 21
98.64922
  0
LINE
  8
型材断面
  6
CONTINUOUS
 10
-142.206573
 20
97.710625
 11
-95.964795
 21
97.710625
  0
LINE
  8
型材断面
  6
CONTINUOUS
 10
-142.206573
 20
83.05242
 11
-95.964795
 21
83.05242
  0
LINE
  8
型材断面
  6
CONTINUOUS
 10
-78.66511
 20
10.76892
 11
-80.16074
 21
8.178413
  0
LINE
  8
型材断面
  6
CONTINUOUS
 10
-78.66511
 20
10.76892
 11
-77.16948
 21
8.178413
  0
LINE
  8
型材断面
  6
CONTINUOUS
 10
-77.16948
 20
8.178413
 11
-80.16074
 21
8.178413
  0
LINE
  8
型材断面
  6
CONTINUOUS
 10
23.965022
 20
35.065715
 11
26.55553
 21
36.561345
  0
LINE
  8
型材断面
  6
CONTINUOUS
 10
23.965022
 20
35.065715
 11
26.55553
 21
33.570085
  0
LINE
  8
型材断面
  6
CONTINUOUS
 10
26.55553
 20
33.570085
 11
26.55553
 21
36.561345
  0
LINE
  8
型材断面
  6
CONTINUOUS
 10
4.668225
 20
59.36251
 11
6.163855
 21
61.953017
  0
LINE
  8
型材断面
  6
CONTINUOUS
 10
4.668225
 20
59.36251
 11
3.172595
 21
61.953017
  0
LINE
  8
型材断面
  6
CONTINUOUS
 10
3.172595
 20
61.953017
 11
6.163855
 21
61.953017
  0
LINE
  8
型材断面
  6
CONTINUOUS
 10
4.668225
 20
10.76892
 11
6.163855
 21
8.178413
  0
LINE
  8
型材断面
  6
CONTINUOUS
 10
4.668225
 20
10.76892
 11
3.172595
 21
8.178413
  0
LINE
  8
型材断面
  6
CONTINUOUS
 10
3.172595
 20
8.178413
 11
6.163855
 21
8.178413
  0
LINE
  8
型材断面
  6
CONTINUOUS
 10
23.96502
 20
53.032382
 11
26.55553
 21
52.43633
  0
LINE
  8
型材断面
  6
CONTINUOUS
 10
23.96502
 20
53.032382
 11
26.555528
 21
53.628442
  0
LINE
  8
型材断面
  6
CONTINUOUS
 10
26.555528
 20
53.628442
 11
26.55553
 21
52.43633
  0
LINE
  8
型材断面
  6
CONTINUOUS
 10
23.96502
 20
17.099048
 11
26.55553
 21
17.6951
  0
LINE
  8
型材断面
  6
CONTINUOUS
 10
23.96502
 20
17.099048
 11
26.555528
 21
16.502988
  0
LINE
  8
型材断面
  6
CONTINUOUS
 10
26.555528
 20
16.502988
 11
26.55553
 21
17.6951
  0
LINE
  8
型材断面
  6
CONTINUOUS
 10
-97.961905
 20
53.032382
 11
-100.552415
 21
52.43633
  0
LINE
  8
型材断面
  6
CONTINUOUS
 10
-97.961905
 20
53.032382
 11
-100.552412
 21
53.628442
  0
LINE
  8
型材断面
  6
CONTINUOUS
 10
-100.552412
 20
53.628442
 11
-100.552415
 21
52.43633
  0
LINE
  8
型材断面
  6
CONTINUOUS
 10
-97.961905
 20
17.099048
 11
-100.552415
 21
17.6951
  0
LINE
  8
型材断面
  6
CONTINUOUS
 10
-97.961905
 20
17.099048
 11
-100.552412
 21
16.502988
  0
LINE
  8
型材断面
  6
CONTINUOUS
 10
-100.552412
 20
16.502988
 11
-100.552415
 21
17.6951
  0
LINE
  8
型材断面
  6
CONTINUOUS
 10
-97.314963
 20
11.41587
 11
-36.998442
 21
11.41587
  0
LINE
  8
型材断面
  6
CONTINUOUS
 10
23.318078
 20
11.41587
 11
-36.998442
 21
11.41587
  0
LINE
  8
型材断面
  6
CONTINUOUS
 10
23.318078
 20
58.71556
 11
-36.998442
 21
58.71556
  0
LINE
  8
型材断面
  6
CONTINUOUS
 10
-97.314963
 20
58.71556
 11
-36.998442
 21
58.71556
  0
LINE
  8
型材断面
  6
CONTINUOUS
 10
-142.206573
 20
77.264387
 11
-95.964795
 21
77.264387
  0
ARC
  8
型材断面
  6
CONTINUOUS
 62
    47
 10
113.440045
 20
11.415711
 40
0.016668
 50
179.999123
 51
270.0
  0
ARC
  8
型材断面
  6
CONTINUOUS
 62
    47
 10
113.480047
 20
11.409045
 40
0.010002
 50
270.0
 51
359.791626
  0
LINE
  8
型材断面
  6
CONTINUOUS
 62
    47
 10
113.65677
 20
11.44905
 11
113.65677
 21
12.299195
  0
LINE
  8
型材断面
  6
CONTINUOUS
 62
    47
 10
113.423382
 20
11.41571
 11
111.316722
 21
11.41571
  0
LINE
  8
型材断面
  6
CONTINUOUS
 62
    47
 10
113.65677
 20
11.415715
 11
116.973438
 21
11.415715
  0
LINE
  8
型材断面
  6
CONTINUOUS
 62
    47
 10
117.473438
 20
11.915715
 11
116.973438
 21
11.915715
  0
LINE
  8
型材断面
  6
CONTINUOUS
 62
    47
 10
111.316722
 20
12.29905
 11
110.990055
 21
12.29905
  0
LINE
  8
型材断面
  6
CONTINUOUS
 62
    47
 10
113.44005
 20
11.39905
 11
113.47971
 21
11.39905
  0
ARC
  8
型材断面
  6
CONTINUOUS
 62
    47
 10
113.440045
 20
58.715717
 40
0.016668
 50
90.0
 51
180.000877
  0
ARC
  8
型材断面
  6
CONTINUOUS
 62
    47
 10
113.480047
 20
58.722383
 40
0.010002
 50
0.208374
 51
90.0
  0
LINE
  8
型材断面
  6
CONTINUOUS
 62
    47
 10
113.65677
 20
58.68238
 11
113.65677
 21
57.832232
  0
LINE
  8
型材断面
  6
CONTINUOUS
 62
    47
 10
113.423382
 20
58.715718
 11
111.316722
 21
58.715718
  0
LINE
  8
型材断面
  6
CONTINUOUS
 62
    47
 10
113.65677
 20
58.715712
 11
116.973438
 21
58.715712
  0
LINE
  8
型材断面
  6
CONTINUOUS
 62
    47
 10
117.473438
 20
58.215712
 11
116.973438
 21
58.215712
  0
LINE
  8
型材断面
  6
CONTINUOUS
 62
    47
 10
111.316722
 20
57.832378
 11
110.990055
 21
57.832378
  0
LINE
  8
型材断面
  6
CONTINUOUS
 62
    47
 10
113.44005
 20
58.73238
 11
113.47971
 21
58.73238
  0
LINE
  8
型材断面
  6
CONTINUOUS
 10
111.316722
 20
11.41571
 11
111.316722
 21
35.065715
  0
LINE
  8
型材断面
  6
CONTINUOUS
 10
110.990055
 20
11.99905
 11
110.990055
 21
35.065715
  0
LINE
  8
型材断面
  6
CONTINUOUS
 10
109.323388
 20
11.99905
 11
109.323388
 21
35.065715
  0
LINE
  8
型材断面
  6
CONTINUOUS
 10
109.490055
 20
11.842527
 11
109.490055
 21
35.065715
  0
LINE
  8
型材断面
  6
CONTINUOUS
 10
113.65677
 20
11.415715
 11
113.65677
 21
35.065715
  0
LINE
  8
型材断面
  6
CONTINUOUS
 10
113.490055
 20
11.409045
 11
113.490055
 21
35.065715
  0
LINE
  8
型材断面
  6
CONTINUOUS
 10
116.973438
 20
11.415715
 11
116.973438
 21
35.065715
  0
LINE
  8
型材断面
  6
CONTINUOUS
 10
117.473438
 20
11.915715
 11
117.473438
 21
35.065715
  0
LINE
  8
型材断面
  6
CONTINUOUS
 10
117.473438
 20
58.215712
 11
117.473438
 21
35.065715
  0
LINE
  8
型材断面
  6
CONTINUOUS
 10
116.973438
 20
58.715712
 11
116.973438
 21
35.065715
  0
LINE
  8
型材断面
  6
CONTINUOUS
 10
113.490055
 20
58.722382
 11
113.490055
 21
35.065715
  0
LINE
  8
型材断面
  6
CONTINUOUS
 10
113.65677
 20
58.715712
 11
113.65677
 21
35.065715
  0
LINE
  8
型材断面
  6
CONTINUOUS
 10
111.316722
 20
58.715718
 11
111.316722
 21
35.065715
  0
LINE
  8
型材断面
  6
CONTINUOUS
 10
110.990055
 20
58.13238
 11
110.990055
 21
35.065715
  0
LINE
  8
型材断面
  6
CONTINUOUS
 10
109.323388
 20
58.13238
 11
109.323388
 21
35.065715
  0
LINE
  8
型材断面
  6
CONTINUOUS
 10
109.490055
 20
58.2889
 11
109.490055
 21
35.065715
  0
ARC
  8
型材断面
  6
CONTINUOUS
 62
    47
 10
-97.315115
 20
-82.366035
 40
0.016668
 50
89.999123
 51
180.0
  0
ARC
  8
型材断面
  6
CONTINUOUS
 62
    47
 10
-97.321781
 20
-82.406037
 40
0.010002
 50
180.0
 51
269.791626
  0
LINE
  8
型材断面
  6
CONTINUOUS
 62
    47
 10
-97.281775
 20
-82.582755
 11
-96.43163
 21
-82.582755
  0
LINE
  8
型材断面
  6
CONTINUOUS
 62
    47
 10
-97.315115
 20
-82.349367
 11
-97.315115
 21
-80.242707
  0
LINE
  8
型材断面
  6
CONTINUOUS
 62
    47
 10
-97.31511
 20
-82.582755
 11
-97.31511
 21
-85.899423
  0
LINE
  8
型材断面
  6
CONTINUOUS
 62
    47
 10
-96.81511
 20
-86.399423
 11
-96.81511
 21
-85.899423
  0
LINE
  8
型材断面
  6
CONTINUOUS
 62
    47
 10
-96.431775
 20
-80.242707
 11
-96.431775
 21
-79.91604
  0
LINE
  8
型材断面
  6
CONTINUOUS
 62
    47
 10
-97.331775
 20
-82.366035
 11
-97.331775
 21
-82.405695
  0
ARC
  8
型材断面
  6
CONTINUOUS
 62
    47
 10
23.318224
 20
-82.366035
 40
0.016668
 50
0.0
 51
90.000877
  0
ARC
  8
型材断面
  6
CONTINUOUS
 62
    47
 10
23.32489
 20
-82.406037
 40
0.010002
 50
270.208374
 51
360.0
  0
LINE
  8
型材断面
  6
CONTINUOUS
 62
    47
 10
23.284887
 20
-82.582755
 11
22.43474
 21
-82.582755
  0
LINE
  8
型材断面
  6
CONTINUOUS
 62
    47
 10
23.318225
 20
-82.349367
 11
23.318225
 21
-80.242707
  0
LINE
  8
型材断面
  6
CONTINUOUS
 62
    47
 10
23.31822
 20
-82.582755
 11
23.31822
 21
-85.899423
  0
LINE
  8
型材断面
  6
CONTINUOUS
 62
    47
 10
22.81822
 20
-86.399423
 11
22.81822
 21
-85.899423
  0
LINE
  8
型材断面
  6
CONTINUOUS
 62
    47
 10
22.434885
 20
-80.242707
 11
22.434885
 21
-79.91604
  0
LINE
  8
型材断面
  6
CONTINUOUS
 62
    47
 10
23.334887
 20
-82.366035
 11
23.334887
 21
-82.405695
  0
LINE
  8
型材断面
  6
CONTINUOUS
 10
-97.315115
 20
-80.242707
 11
-36.998445
 21
-80.242707
  0
LINE
  8
型材断面
  6
CONTINUOUS
 10
-96.731775
 20
-79.91604
 11
-36.998445
 21
-79.91604
  0
LINE
  8
型材断面
  6
CONTINUOUS
 10
-96.731775
 20
-78.249373
 11
-36.998445
 21
-78.249373
  0
LINE
  8
型材断面
  6
CONTINUOUS
 10
-96.888298
 20
-78.41604
 11
-36.998445
 21
-78.41604
  0
LINE
  8
型材断面
  6
CONTINUOUS
 10
-97.32178
 20
-82.41604
 11
-36.998445
 21
-82.41604
  0
LINE
  8
型材断面
  6
CONTINUOUS
 10
-97.31511
 20
-82.582755
 11
-36.998445
 21
-82.582755
  0
LINE
  8
型材断面
  6
CONTINUOUS
 10
-96.81511
 20
-86.399423
 11
-36.998445
 21
-86.399423
  0
LINE
  8
型材断面
  6
CONTINUOUS
 10
-97.31511
 20
-85.899423
 11
-36.998445
 21
-85.899423
  0
LINE
  8
型材断面
  6
CONTINUOUS
 10
23.31822
 20
-85.899423
 11
-36.998445
 21
-85.899423
  0
LINE
  8
型材断面
  6
CONTINUOUS
 10
22.81822
 20
-86.399423
 11
-36.998445
 21
-86.399423
  0
LINE
  8
型材断面
  6
CONTINUOUS
 10
23.32489
 20
-82.41604
 11
-36.998445
 21
-82.41604
  0
LINE
  8
型材断面
  6
CONTINUOUS
 10
23.31822
 20
-82.582755
 11
-36.998445
 21
-82.582755
  0
LINE
  8
型材断面
  6
CONTINUOUS
 10
22.734887
 20
-79.91604
 11
-36.998445
 21
-79.91604
  0
LINE
  8
型材断面
  6
CONTINUOUS
 10
23.318225
 20
-80.242707
 11
-36.998445
 21
-80.242707
  0
LINE
  8
型材断面
  6
CONTINUOUS
 10
22.89141
 20
-78.41604
 11
-36.998445
 21
-78.41604
  0
LINE
  8
型材断面
  6
CONTINUOUS
 10
22.734887
 20
-78.249373
 11
-36.998445
 21
-78.249373
  0
ARC
  8
型材断面
  6
DOT
 62
    47
 10
-97.315115
 20
-67.366035
 40
0.016668
 50
89.999123
 51
180.0
  0
ARC
  8
型材断面
  6
DOT
 62
    47
 10
-97.321781
 20
-67.406037
 40
0.010002
 50
180.0
 51
269.791626
  0
LINE
  8
型材断面
  6
DOT
 62
    47
 10
-97.315115
 20
-67.349367
 11
-97.315115
 21
-65.242707
  0
LINE
  8
型材断面
  6
DOT
 62
    47
 10
-96.431775
 20
-65.242707
 11
-96.431775
 21
-64.91604
  0
LINE
  8
型材断面
  6
DOT
 62
    47
 10
-97.331775
 20
-67.366035
 11
-97.331775
 21
-67.405695
  0
ARC
  8
型材断面
  6
DOT
 62
    47
 10
23.318224
 20
-67.366035
 40
0.016668
 50
0.0
 51
90.000877
  0
ARC
  8
型材断面
  6
DOT
 62
    47
 10
23.32489
 20
-67.406037
 40
0.010002
 50
270.208374
 51
360.0
  0
LINE
  8
型材断面
  6
DOT
 62
    47
 10
23.318225
 20
-67.349367
 11
23.318225
 21
-65.242707
  0
LINE
  8
型材断面
  6
DOT
 62
    47
 10
22.434885
 20
-65.242707
 11
22.434885
 21
-64.91604
  0
LINE
  8
型材断面
  6
DOT
 62
    47
 10
23.334887
 20
-67.366035
 11
23.334887
 21
-67.405695
  0
LINE
  8
型材断面
  6
DOT
 10
-97.315115
 20
-65.242707
 11
-36.998445
 21
-65.242707
  0
LINE
  8
型材断面
  6
DOT
 10
-96.888298
 20
-63.41604
 11
-36.998445
 21
-63.41604
  0
LINE
  8
型材断面
  6
DOT
 10
-96.731775
 20
-63.249373
 11
-36.998445
 21
-63.249373
  0
LINE
  8
型材断面
  6
DOT
 10
-96.731775
 20
-64.91604
 11
-36.998445
 21
-64.91604
  0
LINE
  8
型材断面
  6
DOT
 10
-97.32178
 20
-67.41604
 11
-36.998445
 21
-67.41604
  0
LINE
  8
型材断面
  6
DOT
 10
23.32489
 20
-67.41604
 11
-36.998445
 21
-67.41604
  0
LINE
  8
型材断面
  6
DOT
 10
23.318225
 20
-65.242707
 11
-36.998445
 21
-65.242707
  0
LINE
  8
型材断面
  6
DOT
 10
22.734887
 20
-64.91604
 11
-36.998445
 21
-64.91604
  0
LINE
  8
型材断面
  6
DOT
 10
22.89141
 20
-63.41604
 11
-36.998445
 21
-63.41604
  0
LINE
  8
型材断面
  6
DOT
 10
22.734887
 20
-63.249373
 11
-36.998445
 21
-63.249373
  0
INSERT
  2
*GRP_0018
  8
型材断面
  6
CONTINUOUS
 10
0.0
 20
0.0
  0
INSERT
  2
*GRP_0019
  8
型材断面
  6
CONTINUOUS
 10
0.0
 20
0.0
  0
INSERT
  2
*GRP_0020
  8
型材断面
  6
CONTINUOUS
 10
0.0
 20
0.0
  0
INSERT
  2
*GRP_0021
  8
型材断面
  6
CONTINUOUS
 10
0.0
 20
0.0
  0
LINE
  8
型材断面
  6
DASHDOT
 10
-56.52511
 20
13.399048
 11
-56.52511
 21
56.73238
  0
LINE
  8
型材断面
  6
DASHDOT
 10
-17.471775
 20
13.399048
 11
-17.471775
 21
56.73238
  0
LINE
  8
型材断面
  6
CONTINUOUS
 10
-37.41511
 20
11.842527
 11
-37.41511
 21
14.342527
  0
LINE
  8
型材断面
  6
CONTINUOUS
 10
-36.581775
 20
11.842527
 11
-36.581775
 21
14.342527
  0
LINE
  8
型材断面
  6
CONTINUOUS
 10
2.348225
 20
14.342527
 11
2.348225
 21
11.842527
  0
LINE
  8
型材断面
  6
CONTINUOUS
 10
1.51489
 20
14.342527
 11
1.51489
 21
11.842527
  0
LINE
  8
型材断面
  6
CONTINUOUS
 10
-76.34511
 20
14.342527
 11
-76.34511
 21
11.842527
  0
LINE
  8
型材断面
  6
CONTINUOUS
 10
-75.511775
 20
14.342527
 11
-75.511775
 21
11.842527
  0
LINE
  8
型材断面
  6
CONTINUOUS
 10
-37.41511
 20
58.288903
 11
-37.41511
 21
55.788903
  0
LINE
  8
型材断面
  6
CONTINUOUS
 10
-36.581775
 20
58.288903
 11
-36.581775
 21
55.788903
  0
LINE
  8
型材断面
  6
CONTINUOUS
 10
2.348225
 20
55.788903
 11
2.348225
 21
58.288903
  0
LINE
  8
型材断面
  6
CONTINUOUS
 10
1.51489
 20
55.788903
 11
1.51489
 21
58.288903
  0
LINE
  8
型材断面
  6
CONTINUOUS
 10
-76.34511
 20
55.788903
 11
-76.34511
 21
58.288903
  0
LINE
  8
型材断面
  6
CONTINUOUS
 10
-75.511775
 20
55.788903
 11
-75.511775
 21
58.288903
  0
LINE
  8
型材断面
  6
CONTINUOUS
 10
-36.581775
 20
14.342527
 11
1.51489
 21
14.342527
  0
LINE
  8
型材断面
  6
CONTINUOUS
 10
-36.581775
 20
55.788903
 11
1.51489
 21
55.788903
  0
LINE
  8
型材断面
  6
CONTINUOUS
 10
-75.511775
 20
55.788903
 11
-37.41511
 21
55.788903
  0
LINE
  8
型材断面
  6
CONTINUOUS
 10
-75.511775
 20
14.342527
 11
-37.41511
 21
14.342527
  0
LINE
  8
型材断面
  6
CONTINUOUS
 10
-16.221775
 20
15.17586
 11
-18.721775
 21
15.17586
  0
LINE
  8
型材断面
  6
CONTINUOUS
 10
-16.221775
 20
54.95557
 11
-18.721775
 21
54.95557
  0
LINE
  8
型材断面
  6
CONTINUOUS
 10
-16.221775
 20
15.17586
 11
-16.221775
 21
54.95557
  0
LINE
  8
型材断面
  6
CONTINUOUS
 10
-18.721775
 20
15.17586
 11
-18.721775
 21
54.95557
  0
LINE
  8
型材断面
  6
CONTINUOUS
 10
-57.77511
 20
15.17586
 11
-55.27511
 21
15.17586
  0
LINE
  8
型材断面
  6
CONTINUOUS
 10
-57.77511
 20
54.95557
 11
-55.27511
 21
54.95557
  0
LINE
  8
型材断面
  6
CONTINUOUS
 10
-57.77511
 20
15.17586
 11
-57.77511
 21
54.95557
  0
LINE
  8
型材断面
  6
CONTINUOUS
 10
-55.27511
 20
15.17586
 11
-55.27511
 21
54.95557
  0
LINE
  8
型材断面
  6
CONTINUOUS
 10
23.318075
 20
11.41587
 11
23.318075
 21
35.065715
  0
LINE
  8
型材断面
  6
CONTINUOUS
 10
23.318075
 20
58.71556
 11
23.318075
 21
35.065715
  0
LINE
  8
型材断面
  6
CONTINUOUS
 10
22.89141
 20
35.48238
 11
20.39141
 21
35.48238
  0
LINE
  8
型材断面
  6
CONTINUOUS
 10
22.89141
 20
34.649048
 11
20.39141
 21
34.649048
  0
LINE
  8
型材断面
  6
CONTINUOUS
 10
22.655712
 20
11.842527
 11
22.89141
 21
12.078235
  0
LINE
  8
型材断面
  6
CONTINUOUS
 10
20.39141
 20
34.649048
 11
20.39141
 21
14.57823
  0
LINE
  8
型材断面
  6
CONTINUOUS
 10
20.39141
 20
14.57823
 11
20.155708
 21
14.342527
  0
LINE
  8
型材断面
  6
CONTINUOUS
 10
20.155708
 20
14.342527
 11
22.655712
 21
11.842527
  0
LINE
  8
型材断面
  6
CONTINUOUS
 10
20.39141
 20
14.57823
 11
22.89141
 21
12.078235
  0
LINE
  8
型材断面
  6
CONTINUOUS
 10
23.318075
 20
11.41587
 11
22.773562
 21
11.960383
  0
LINE
  8
型材断面
  6
CONTINUOUS
 10
22.655712
 20
58.288903
 11
22.89141
 21
58.053195
  0
LINE
  8
型材断面
  6
CONTINUOUS
 10
20.39141
 20
55.5532
 11
20.155708
 21
55.788903
  0
LINE
  8
型材断面
  6
CONTINUOUS
 10
23.318075
 20
58.71556
 11
22.773562
 21
58.171047
  0
LINE
  8
型材断面
  6
CONTINUOUS
 10
20.39141
 20
35.48238
 11
20.39141
 21
55.5532
  0
LINE
  8
型材断面
  6
CONTINUOUS
 10
20.39141
 20
55.5532
 11
22.89141
 21
58.053195
  0
LINE
  8
型材断面
  6
CONTINUOUS
 10
22.89141
 20
12.078235
 11
22.89141
 21
58.053195
  0
LINE
  8
型材断面
  6
CONTINUOUS
 10
20.155708
 20
55.788903
 11
22.655712
 21
58.288903
  0
LINE
  8
型材断面
  6
CONTINUOUS
 10
2.348225
 20
55.788903
 11
20.155708
 21
55.788903
  0
LINE
  8
型材断面
  6
CONTINUOUS
 10
2.348225
 20
14.342527
 11
20.155708
 21
14.342527
  0
LINE
  8
型材断面
  6
CONTINUOUS
 10
-97.31496
 20
11.41587
 11
-97.31496
 21
35.065715
  0
LINE
  8
型材断面
  6
CONTINUOUS
 10
-97.31496
 20
58.71556
 11
-97.31496
 21
35.065715
  0
LINE
  8
型材断面
  6
CONTINUOUS
 10
-96.888295
 20
35.48238
 11
-94.388295
 21
35.48238
  0
LINE
  8
型材断面
  6
CONTINUOUS
 10
-96.888295
 20
34.649048
 11
-94.388295
 21
34.649048
  0
LINE
  8
型材断面
  6
CONTINUOUS
 10
-96.652597
 20
11.842527
 11
-96.888295
 21
12.078235
  0
LINE
  8
型材断面
  6
CONTINUOUS
 10
-94.388295
 20
34.649048
 11
-94.388295
 21
14.57823
  0
LINE
  8
型材断面
  6
CONTINUOUS
 10
-94.388295
 20
14.57823
 11
-94.152592
 21
14.342527
  0
LINE
  8
型材断面
  6
CONTINUOUS
 10
-94.152592
 20
14.342527
 11
-96.652597
 21
11.842527
  0
LINE
  8
型材断面
  6
CONTINUOUS
 10
-94.388295
 20
14.57823
 11
-96.888295
 21
12.078235
  0
LINE
  8
型材断面
  6
CONTINUOUS
 10
-97.31496
 20
11.41587
 11
-96.770447
 21
11.960383
  0
LINE
  8
型材断面
  6
CONTINUOUS
 10
-96.652597
 20
58.288903
 11
-96.888295
 21
58.053195
  0
LINE
  8
型材断面
  6
CONTINUOUS
 10
-94.388295
 20
55.5532
 11
-94.152592
 21
55.788903
  0
LINE
  8
型材断面
  6
CONTINUOUS
 10
-97.31496
 20
58.71556
 11
-96.770447
 21
58.171047
  0
LINE
  8
型材断面
  6
CONTINUOUS
 10
-94.388295
 20
35.48238
 11
-94.388295
 21
55.5532
  0
LINE
  8
型材断面
  6
CONTINUOUS
 10
-94.388295
 20
55.5532
 11
-96.888295
 21
58.053195
  0
LINE
  8
型材断面
  6
CONTINUOUS
 10
-96.888295
 20
12.078235
 11
-96.888295
 21
58.053195
  0
LINE
  8
型材断面
  6
CONTINUOUS
 10
-94.152592
 20
55.788903
 11
-96.652597
 21
58.288903
  0
LINE
  8
型材断面
  6
CONTINUOUS
 10
-76.34511
 20
55.788903
 11
-94.152592
 21
55.788903
  0
LINE
  8
型材断面
  6
CONTINUOUS
 10
22.655712
 20
58.288903
 11
-96.652597
 21
58.288903
  0
LINE
  8
型材断面
  6
CONTINUOUS
 10
-76.34511
 20
14.342527
 11
-94.152592
 21
14.342527
  0
LINE
  8
型材断面
  6
CONTINUOUS
 10
22.655712
 20
11.842527
 11
-96.652597
 21
11.842527
  0
TEXT
  7
TextStyle03
  8
文字
  6
CONTINUOUS
 10
97.9
 20
-86.1
  1
網入り6.8t
 40
3.0
 72
     5
 11
114.5875
 21
-86.1
  0
TEXT
  7
TextStyle03
  8
文字
  6
CONTINUOUS
 10
-45.175
 20
67.2
  1
可動装置側
 40
3.0
 72
     5
 11
-28.675
 21
67.2
  0
TEXT
  7
TextStyle03
  8
文字
  6
CONTINUOUS
 10
-45.175
 20
-0.075
  1
可動装置側
 40
3.0
 72
     5
 11
-28.675
 21
-0.075
  0
TEXT
  7
TextStyle03
  8
文字
  6
CONTINUOUS
 10
104.575
 20
-90.775
  1
×３枚
 40
3.0
 72
     5
 11
114.325
 21
-90.775
  0
TEXT
  7
TextStyle03
  8
文字
  6
CONTINUOUS
 10
-133.4
 20
93.325
  1
はケーシング位置を示す
 40
3.0
 72
     5
 11
-96.65
 21
93.325
  0
TEXT
  7
TextStyle03
  8
文字
  6
CONTINUOUS
 10
-133.4
 20
89.95
  1
４ヶ所中1ヶ所に設定
 40
3.0
 72
     5
 11
-101.7125
 21
89.95
  0
TEXT
  7
TextStyle03
  8
文字
  6
CONTINUOUS
 10
-133.4
 20
98.85
  1
は排水穴位置を示す
 40
3.0
 72
     5
 11
-103.4
 21
98.85
  0
TEXT
  7
TextStyle03
  8
文字
  6
CONTINUOUS
 10
-132.9
 20
23.975
  1
アンカーピッチ
 40
3.0
 50
90.0
 72
     5
 11
-132.9
 21
47.225
  0
TEXT
  7
TextStyle03
  8
文字
  6
CONTINUOUS
 10
-84.175
 20
93.675
  1
アンカーピッチ
 40
3.0
 72
     5
 11
-60.925
 21
93.675
  0
TEXT
  7
TextStyle03
  8
文字
  6
CONTINUOUS
 10
-137.125
 20
83.975
  1
アンカー数量　１４ヶ所
 40
3.0
 72
     5
 11
-100.375
 21
83.975
  0
TEXT
  7
TextStyle03
  8
文字
  6
CONTINUOUS
 10
-137.125
 20
78.2
  1
アームユニット数　４ヶ所
 40
3.0
 72
     5
 11
-97.0
 21
78.2
  0
LINE
  8
文字
  6
CONTINUOUS
 10
109.323388
 20
70.502383
 11
109.323388
 21
59.95242
  0
LINE
  8
文字
  6
CONTINUOUS
 10
116.973438
 20
70.502383
 11
116.973438
 21
60.0175
  0
LINE
  8
文字
  6
CONTINUOUS
 10
34.570135
 20
-78.249373
 11
24.02017
 21
-78.249373
  0
LINE
  8
文字
  6
CONTINUOUS
 10
34.570135
 20
-85.899423
 11
24.085253
 21
-85.899423
  0
LINE
  8
文字
  6
CONTINUOUS
 10
34.570135
 20
-63.249373
 11
24.02017
 21
-63.249373
  0
LINE
  8
文字
  6
CONTINUOUS
 10
116.421445
 20
-40.09606
 11
116.421445
 21
-48.37181
  0
LINE
  8
文字
  6
CONTINUOUS
 10
78.531445
 20
-40.09606
 11
78.531445
 21
-48.37181
  0
TEXT
  7
TextStyle03
  8
文字
  6
CONTINUOUS
 10
61.075
 20
125.25
  1
シリーズ：ＴＦ２ＦＬ
 40
5.0
 72
     5
 11
116.7
 21
125.25
  0
TEXT
  7
TextStyle03
  8
文字
  6
CONTINUOUS
 10
61.075
 20
119.625
  1
　　　　　（上下可動）1300×3500タイプ
 40
5.0
 72
     5
 11
167.325
 21
119.625
  0
TEXT
  7
TextStyle03
  8
文字
  6
CONTINUOUS
 10
61.075
 20
114.0
  1
図面名　：外観姿図
 40
5.0
 72
     5
 11
111.075
 21
114.0
  0
TEXT
  7
TextStyle03
  8
文字
  6
CONTINUOUS
 10
61.075
 20
108.375
  1
　　　　　　
 40
5.0
 72
     5
 11
94.2
 21
108.375
  0
TEXT
  7
TextStyle03
  8
文字
  6
CONTINUOUS
 10
61.225
 20
104.525
  1
ＮＳコード：ＮＳＦＺＬ
 40
5.0
 72
     5
 11
122.475
 21
104.525
  0
INSERT
  2
*DIM_0002
  8
寸法
  6
CONTINUOUS
 10
0.0
 20
0.0
  0
INSERT
  2
*DIM_0003
  8
寸法
  6
CONTINUOUS
 10
0.0
 20
0.0
  0
INSERT
  2
*DIM_0004
  8
寸法
  6
CONTINUOUS
 10
0.0
 20
0.0
  0
INSERT
  2
*DIM_0005
  8
寸法
  6
CONTINUOUS
 10
0.0
 20
0.0
  0
INSERT
  2
*DIM_0006
  8
寸法
  6
CONTINUOUS
 10
0.0
 20
0.0
  0
INSERT
  2
*DIM_0007
  8
寸法
  6
CONTINUOUS
 10
0.0
 20
0.0
  0
INSERT
  2
*DIM_0008
  8
寸法
  6
CONTINUOUS
 10
0.0
 20
0.0
  0
INSERT
  2
*DIM_0009
  8
寸法
  6
CONTINUOUS
 10
0.0
 20
0.0
  0
INSERT
  2
*DIM_0010
  8
寸法
  6
CONTINUOUS
 10
0.0
 20
0.0
  0
INSERT
  2
*DIM_0011
  8
寸法
  6
CONTINUOUS
 10
0.0
 20
0.0
  0
INSERT
  2
*DIM_0012
  8
寸法
  6
CONTINUOUS
 10
0.0
 20
0.0
  0
INSERT
  2
*DIM_0013
  8
寸法
  6
CONTINUOUS
 10
0.0
 20
0.0
  0
INSERT
  2
*DIM_0014
  8
寸法
  6
CONTINUOUS
 10
0.0
 20
0.0
  0
INSERT
  2
*DIM_0015
  8
寸法
  6
CONTINUOUS
 10
0.0
 20
0.0
  0
INSERT
  2
*DIM_0016
  8
寸法
  6
CONTINUOUS
 10
0.0
 20
0.0
  0
INSERT
  2
*DIM_0017
  8
寸法
  6
CONTINUOUS
 10
0.0
 20
0.0
  0
INSERT
  2
*DIM_0022
  8
寸法
  6
CONTINUOUS
 10
0.0
 20
0.0
  0
INSERT
  2
*DIM_0023
  8
寸法
  6
CONTINUOUS
 10
0.0
 20
0.0
  0
INSERT
  2
*DIM_0024
  8
寸法
  6
CONTINUOUS
 10
0.0
 20
0.0
  0
LINE
  8
別途部材
  6
CONTINUOUS
 62
    47
 10
109.423387
 20
11.842527
 11
109.490055
 21
11.842527
  0
ARC
  8
別途部材
  6
CONTINUOUS
 62
    47
 10
109.423383
 20
11.942527
 40
0.1
 50
180.0
 51
270.0
  0
LINE
  8
別途部材
  6
CONTINUOUS
 62
    47
 10
109.323388
 20
11.942527
 11
109.323388
 21
14.309195
  0
LINE
  8
別途部材
  6
CONTINUOUS
 62
    47
 10
110.990055
 20
11.99905
 11
109.490055
 21
11.99905
  0
LINE
  8
別途部材
  6
CONTINUOUS
 62
    47
 10
109.423387
 20
58.2889
 11
109.490055
 21
58.2889
  0
ARC
  8
別途部材
  6
CONTINUOUS
 62
    47
 10
109.423383
 20
58.188902
 40
0.1
 50
90.0
 51
180.0
  0
LINE
  8
別途部材
  6
CONTINUOUS
 62
    47
 10
109.323388
 20
58.1889
 11
109.323388
 21
55.822235
  0
LINE
  8
別途部材
  6
CONTINUOUS
 62
    47
 10
110.990055
 20
58.13238
 11
109.490055
 21
58.13238
  0
LINE
  8
別途部材
  6
CONTINUOUS
 62
    47
 10
-96.888298
 20
-78.349373
 11
-96.888298
 21
-78.41604
  0
ARC
  8
別途部材
  6
CONTINUOUS
 62
    47
 10
-96.788299
 20
-78.349373
 40
0.1
 50
90.0
 51
180.0
  0
LINE
  8
別途部材
  6
CONTINUOUS
 62
    47
 10
-96.788298
 20
-78.249373
 11
-94.42163
 21
-78.249373
  0
LINE
  8
別途部材
  6
CONTINUOUS
 62
    47
 10
-96.731775
 20
-79.91604
 11
-96.731775
 21
-78.41604
  0
LINE
  8
別途部材
  6
CONTINUOUS
 62
    47
 10
22.89141
 20
-78.349373
 11
22.89141
 21
-78.41604
  0
ARC
  8
別途部材
  6
CONTINUOUS
 62
    47
 10
22.791409
 20
-78.349373
 40
0.1
 50
0.0
 51
90.0
  0
LINE
  8
別途部材
  6
CONTINUOUS
 62
    47
 10
22.79141
 20
-78.249373
 11
20.424742
 21
-78.249373
  0
LINE
  8
別途部材
  6
CONTINUOUS
 62
    47
 10
22.734887
 20
-79.91604
 11
22.734887
 21
-78.41604
  0
LINE
  8
別途部材
  6
DOT
 62
    47
 10
-96.888298
 20
-63.349373
 11
-96.888298
 21
-63.41604
  0
ARC
  8
別途部材
  6
DOT
 62
    47
 10
-96.788299
 20
-63.349373
 40
0.1
 50
90.0
 51
180.0
  0
LINE
  8
別途部材
  6
DOT
 62
    47
 10
-96.788298
 20
-63.249373
 11
-94.42163
 21
-63.249373
  0
LINE
  8
別途部材
  6
DOT
 62
    47
 10
-96.731775
 20
-64.91604
 11
-96.731775
 21
-63.41604
  0
LINE
  8
別途部材
  6
DOT
 62
    47
 10
22.89141
 20
-63.349373
 11
22.89141
 21
-63.41604
  0
ARC
  8
別途部材
  6
DOT
 62
    47
 10
22.791409
 20
-63.349373
 40
0.1
 50
0.0
 51
90.0
  0
LINE
  8
別途部材
  6
DOT
 62
    47
 10
22.79141
 20
-63.249373
 11
20.424742
 21
-63.249373
  0
LINE
  8
別途部材
  6
DOT
 62
    47
 10
22.734887
 20
-64.91604
 11
22.734887
 21
-63.41604
  0
LINE
  8
曲げ物
  6
CONTINUOUS
 10
116.421445
 20
-92.533713
 11
116.421445
 21
-49.867045
  0
LINE
  8
曲げ物
  6
CONTINUOUS
 10
6.06062
 20
37.022003
 11
2.365308
 21
33.32669
  0
LINE
  8
曲げ物
  6
CONTINUOUS
 10
5.35715
 20
35.485893
 11
3.90142
 21
34.030163
  0
LINE
  8
曲げ物
  6
CONTINUOUS
 10
4.52451
 20
36.318533
 11
3.06878
 21
34.862803
  0
LINE
  8
曲げ物
  6
CONTINUOUS
 10
-35.178425
 20
37.022003
 11
-38.873737
 21
33.32669
  0
LINE
  8
曲げ物
  6
CONTINUOUS
 10
-35.881895
 20
35.485893
 11
-37.337625
 21
34.030163
  0
LINE
  8
曲げ物
  6
CONTINUOUS
 10
-36.714535
 20
36.318533
 11
-38.170265
 21
34.862803
  0
LINE
  8
曲げ物
  6
CONTINUOUS
 10
-73.979577
 20
37.022003
 11
-77.67489
 21
33.32669
  0
LINE
  8
曲げ物
  6
CONTINUOUS
 10
-74.683047
 20
35.485893
 11
-76.138778
 21
34.030163
  0
LINE
  8
曲げ物
  6
CONTINUOUS
 10
-75.515687
 20
36.318533
 11
-76.971418
 21
34.862803
  0
LINE
  8
曲げ物
  6
CONTINUOUS
 10
78.531445
 20
-92.533713
 11
78.531445
 21
-49.867045
  0
LINE
  8
曲げ物
  6
CONTINUOUS
 10
116.421445
 20
-49.867045
 11
78.531445
 21
-49.867045
  0
LINE
  8
曲げ物
  6
CONTINUOUS
 10
116.421445
 20
-92.533713
 11
78.531445
 21
-92.533713
  0
ENDSEC
  0
EOF
