  0
SECTION
  2
HEADER
  9
$EXTMIN
 10
-210.0
 20
-148.5
  9
$EXTMAX
 10
210.0
 20
148.5
  9
$PDMODE
 70
    32
  9
$PDSIZE
 40
1.5
  9
$LTSCALE
 40
10.0
  0
ENDSEC
  0
SECTION
  2
TABLES
  0
TABLE
  2
LTYPE
 70
    15
  0
LTYPE
  2
CONTINUOUS
 70
    64
  3
実線
 72
    65
 73
     0
 40
0.0
  0
LTYPE
  2
DASHED
 70
    64
  3
破線A
 72
    65
 73
     2
 40
0.6
 49
0.4
 49
-0.2
  0
LTYPE
  2
DASHEDX2
 70
    64
  3
破線B
 72
    65
 73
     2
 40
1.3
 49
0.9
 49
-0.4
  0
LTYPE
  2
DASHDOT
 70
    64
  3
１点鎖線A
 72
    65
 73
     4
 40
0.5375
 49
0.375
 49
-0.05
 49
0.0625
 49
-0.05
  0
LTYPE
  2
DASHDOTX2
 70
    64
  3
１点鎖線B
 72
    65
 73
     4
 40
1.075
 49
0.75
 49
-0.1
 49
0.125
 49
-0.1
  0
LTYPE
  2
DIVIDE2
 70
    64
  3
２点鎖線A
 72
    65
 73
     6
 40
0.5125
 49
0.3
 49
-0.0375
 49
0.05
 49
-0.0375
 49
0.05
 49
-0.0375
  0
LTYPE
  2
DIVIDE
 70
    64
  3
２点鎖線B
 72
    65
 73
     6
 40
1.05
 49
0.55
 49
-0.1
 49
0.1
 49
-0.1
 49
0.1
 49
-0.1
  0
LTYPE
  2
DOT
 70
    64
  3
点線A
 72
    65
 73
     2
 40
0.1125
 49
0.0625
 49
-0.05
  0
LTYPE
  2
DOTX2
 70
    64
  3
点線B
 72
    65
 73
     2
 40
0.275
 49
0.15
 49
-0.125
  0
LTYPE
  2
CONTINUOUS
 70
    64
  3
実線
 72
    65
 73
     0
 40
0.0
  0
LTYPE
  2
CONTINUOUS
 70
    64
  3
実線
 72
    65
 73
     0
 40
0.0
  0
LTYPE
  2
CONTINUOUS
 70
    64
  3
実線
 72
    65
 73
     0
 40
0.0
  0
LTYPE
  2
CONTINUOUS
 70
    64
  3
実線
 72
    65
 73
     0
 40
0.0
  0
LTYPE
  2
CONTINUOUS
 70
    64
  3
実線
 72
    65
 73
     0
 40
0.0
  0
LTYPE
  2
CONTINUOUS
 70
    64
  3
実線
 72
    65
 73
     0
 40
0.0
  0
ENDTAB
  0
TABLE
  2
LAYER
 70
    34
  0
LAYER
  2
通り芯
 70
     0
 62
    15
  6
CONTINUOUS
  0
LAYER
  2
補助線
 70
     0
 62
    16
  6
DOT
  0
LAYER
  2
躯体
 70
     0
 62
    31
  6
CONTINUOUS
  0
LAYER
  2
型材
 70
     0
 62
    32
  6
CONTINUOUS
  0
LAYER
  2
型材断面
 70
     0
 62
    47
  6
CONTINUOUS
  0
LAYER
  2
ガラス
 70
     0
 62
    48
  6
CONTINUOUS
  0
LAYER
  2
ゴム等
 70
     0
 62
    63
  6
CONTINUOUS
  0
LAYER
  2
ボルト／ビス
 70
     0
 62
    64
  6
CONTINUOUS
  0
LAYER
  2
文字
 70
     0
 62
    79
  6
CONTINUOUS
  0
LAYER
  2
寸法
 70
     0
 62
    80
  6
CONTINUOUS
  0
LAYER
  2
ﾊｯﾁﾝｸﾞ
 70
     0
 62
    95
  6
CONTINUOUS
  0
LAYER
  2
別途部材
 70
     0
 62
    96
  6
CONTINUOUS
  0
LAYER
  2
曲げ物
 70
     0
 62
   111
  6
CONTINUOUS
  0
LAYER
  2
鉄骨等
 70
     0
 62
   112
  6
CONTINUOUS
  0
LAYER
  2
St
 70
     0
 62
   127
  6
CONTINUOUS
  0
LAYER
  2
その他部品等
 70
     0
 62
   128
  6
CONTINUOUS
  0
LAYER
  2
ｶﾞｽｹｯﾄ
 70
     0
 62
   143
  6
CONTINUOUS
  0
LAYER
  2
ｽｹｯﾁ
 70
     0
 62
    14
  6
CONTINUOUS
  0
LAYER
  2
0
 70
     0
 62
    17
  6
CONTINUOUS
  0
LAYER
  2
1
 70
     0
 62
    30
  6
CONTINUOUS
  0
LAYER
  2
4
 70
     0
 62
    33
  6
CONTINUOUS
  0
LAYER
  2
ﾚｲﾔ3
 70
     0
 62
    46
  6
CONTINUOUS
  0
LAYER
  2
外形線
 70
     0
 62
    49
  6
CONTINUOUS
  0
LAYER
  2
部品
 70
     0
 62
    14
  6
CONTINUOUS
  0
LAYER
  2
サッシ芯
 70
     0
 62
    17
  6
DASHDOTX2
  0
LAYER
  2
寸法線
 70
     0
 62
    62
  6
CONTINUOUS
  0
LAYER
  2
姿図外形線
 70
     0
 62
    65
  6
CONTINUOUS
  0
LAYER
  2
姿補助線
 70
     0
 62
    30
  6
CONTINUOUS
  0
LAYER
  2
透視線
 70
     0
 62
    78
  6
DOT
  0
LAYER
  2
用紙
 70
     0
 62
    81
  6
CONTINUOUS
  0
LAYER
  2
実線図枠
 70
     0
 62
    94
  6
CONTINUOUS
  0
LAYER
  2
補助図枠
 70
     0
 62
    97
  6
CONTINUOUS
  0
LAYER
  2
建具記号
 70
     0
 62
   110
  6
CONTINUOUS
  0
LAYER
  2
補助文字
 70
     0
 62
   113
  6
CONTINUOUS
  0
ENDTAB
  0
TABLE
  2
STYLE
 70
    10
  0
STYLE
  2
STANDARD
 70
     0
 40
1.0
 41
1.0
 42
1.0
 50
0.0
 71
     0
  3
TXT
  4
BIGFONT
  0
STYLE
  2
TATE
 70
     4
 40
1.0
 41
1.0
 42
1.0
 50
0.0
 71
     0
  3
TXT
  4
BIGFONT
  0
STYLE
  2
TextStyle03
 70
     0
 40
1.0
 41
1.0
 42
1.0
 50
0.0
 71
     0
  3
MONOTXT
  4
BIGFONT
  0
STYLE
  2
TextStyle04
 70
     0
 40
1.0
 41
1.0
 42
1.0
 50
0.0
 71
     0
  3
MONOTXT
  4
BIGFONT
  0
STYLE
  2
TextStyle05
 70
     0
 40
1.0
 41
1.0
 42
1.0
 50
0.0
 71
     0
  3
MONOTXT
  4
BIGFONT
  0
STYLE
  2
TextStyle06
 70
     0
 40
1.0
 41
1.0
 42
1.0
 50
0.0
 71
     0
  3
MONOTXT
  4
BIGFONT
  0
STYLE
  2
TextStyle07
 70
     0
 40
1.0
 41
1.0
 42
1.0
 50
0.0
 71
     0
  3
MONOTXT
  4
BIGFONT
  0
STYLE
  2
TextStyle08
 70
     0
 40
1.0
 41
1.0
 42
1.0
 50
0.0
 71
     0
  3
MONOTXT
  4
BIGFONT
  0
STYLE
  2
TextStyle09
 70
     0
 40
1.0
 41
1.0
 42
1.0
 50
0.0
 71
     0
  3
MONOTXT
  4
BIGFONT
  0
STYLE
  2
TextStyle10
 70
     0
 40
1.0
 41
1.0
 42
1.0
 50
0.0
 71
     0
  3
MONOTXT
  4
BIGFONT
  0
ENDTAB
  0
ENDSEC
  0
SECTION
  2
BLOCKS
  0
BLOCK
  2
*DIM_0001
 70
    65
 10
0.0
 20
0.0
  0
LINE
  8
寸法
  6
BYBLOCK
 62
     0
 10
117.421445
 20
-49.867045
 11
125.856293
 21
-49.867045
  0
LINE
  8
寸法
  6
BYBLOCK
 62
     0
 10
117.421445
 20
-92.533713
 11
125.856293
 21
-92.533713
  0
LINE
  8
寸法
  6
BYBLOCK
 62
     0
 10
125.856293
 20
-49.867045
 11
125.856293
 21
-92.533713
  0
POINT
  8
寸法
 62
     0
 10
125.856293
 20
-49.867045
  0
POINT
  8
寸法
 62
     0
 10
125.856293
 20
-92.533713
  0
TEXT
  7
TextStyle03
  8
寸法
  6
CONTINUOUS
 62
     0
 10
125.525
 20
-74.48125
  1
1280
 40
3.0
 50
90.0
 72
     5
 11
125.525
 21
-67.91875
  0
ENDBLK
  0
BLOCK
  2
*DIM_0002
 70
    65
 10
0.0
 20
0.0
  0
LINE
  8
寸法
  6
BYBLOCK
 62
     0
 10
21.33489
 20
-22.536362
 11
-111.998442
 21
-22.536362
  0
POINT
  8
寸法
 62
     0
 10
21.33489
 20
-22.536362
  0
POINT
  8
寸法
 62
     0
 10
-111.998442
 20
-22.536362
  0
TEXT
  7
TextStyle03
  8
寸法
  6
CONTINUOUS
 62
     0
 10
-57.04375
 20
-22.175
  1
呼称寸法　4000
 40
3.0
 72
     5
 11
-33.60625
 21
-22.175
  0
ENDBLK
  0
BLOCK
  2
*DIM_0003
 70
    65
 10
0.0
 20
0.0
  0
LINE
  8
寸法
  6
BYBLOCK
 62
     0
 10
-95.331775
 20
9.76892
 11
-95.331775
 21
4.873685
  0
LINE
  8
寸法
  6
BYBLOCK
 62
     0
 10
4.66822
 20
9.76892
 11
4.66822
 21
4.873685
  0
LINE
  8
寸法
  6
BYBLOCK
 62
     0
 10
-95.331775
 20
4.873685
 11
4.66822
 21
4.873685
  0
POINT
  8
寸法
 62
     0
 10
-95.331775
 20
4.873685
  0
POINT
  8
寸法
 62
     0
 10
4.66822
 20
4.873685
  0
TEXT
  7
TextStyle03
  8
寸法
  6
CONTINUOUS
 62
     0
 10
-48.63125
 20
5.225
  1
3000
 40
3.0
 72
     5
 11
-42.06875
 21
5.225
  0
ENDBLK
  0
BLOCK
  2
*DIM_0004
 70
    65
 10
0.0
 20
0.0
  0
LINE
  8
寸法
  6
BYBLOCK
 62
     0
 10
22.33489
 20
56.732382
 11
32.059173
 21
56.732382
  0
LINE
  8
寸法
  6
BYBLOCK
 62
     0
 10
24.96502
 20
53.032382
 11
32.059173
 21
53.032382
  0
LINE
  8
寸法
  6
BYBLOCK
 62
     0
 10
32.059173
 20
56.732382
 11
32.059173
 21
53.032382
  0
POINT
  8
寸法
 62
     0
 10
32.059173
 20
56.732382
  0
POINT
  8
寸法
 62
     0
 10
32.059173
 20
53.032382
  0
TEXT
  7
TextStyle03
  8
寸法
  6
CONTINUOUS
 62
     0
 10
31.75
 20
57.7125
  1
111
 40
3.0
 50
90.0
 72
     5
 11
31.75
 21
62.5875
  0
ENDBLK
  0
BLOCK
  2
*DIM_0005
 70
    65
 10
0.0
 20
0.0
  0
LINE
  8
寸法
  6
BYBLOCK
 62
     0
 10
22.33489
 20
13.399048
 11
32.059173
 21
13.399045
  0
LINE
  8
寸法
  6
BYBLOCK
 62
     0
 10
24.96502
 20
17.099048
 11
32.059173
 21
17.099045
  0
LINE
  8
寸法
  6
BYBLOCK
 62
     0
 10
32.059173
 20
13.399045
 11
32.059173
 21
17.099045
  0
POINT
  8
寸法
 62
     0
 10
32.059173
 20
13.399045
  0
POINT
  8
寸法
 62
     0
 10
32.059173
 20
17.099045
  0
TEXT
  7
TextStyle03
  8
寸法
  6
CONTINUOUS
 62
     0
 10
31.725
 20
7.5375
  1
111
 40
3.0
 50
90.0
 72
     5
 11
31.725
 21
12.4125
  0
ENDBLK
  0
BLOCK
  2
*DIM_0006
 70
    65
 10
0.0
 20
0.0
  0
LINE
  8
寸法
  6
BYBLOCK
 62
     0
 10
55.35454
 20
13.399048
 11
55.35454
 21
56.73238
  0
POINT
  8
寸法
 62
     0
 10
55.35454
 20
13.399048
  0
POINT
  8
寸法
 62
     0
 10
55.35454
 20
56.73238
  0
TEXT
  7
TextStyle03
  8
寸法
  6
CONTINUOUS
 62
     0
 10
55.025
 20
23.33125
  1
呼称寸法　1300
 40
3.0
 50
90.0
 72
     5
 11
55.025
 21
46.76875
  0
ENDBLK
  0
BLOCK
  2
*DIM_0007
 70
    65
 10
0.0
 20
0.0
  0
LINE
  8
寸法
  6
BYBLOCK
 62
     0
 10
109.244935
 20
58.715712
 11
55.35454
 21
58.715712
  0
LINE
  8
寸法
  6
BYBLOCK
 62
     0
 10
55.35454
 20
56.73238
 11
55.35454
 21
58.715712
  0
POINT
  8
寸法
 62
     0
 10
55.35454
 20
56.73238
  0
POINT
  8
寸法
 62
     0
 10
55.35454
 20
58.715712
  0
TEXT
  7
TextStyle03
  8
寸法
  6
CONTINUOUS
 62
     0
 10
54.975
 20
61.16875
  1
59.5
 40
3.0
 50
90.0
 72
     5
 11
54.975
 21
67.73125
  0
ENDBLK
  0
BLOCK
  2
*DIM_0008
 70
    65
 10
0.0
 20
0.0
  0
LINE
  8
寸法
  6
BYBLOCK
 62
     0
 10
109.244935
 20
11.415712
 11
55.35454
 21
11.415712
  0
LINE
  8
寸法
  6
BYBLOCK
 62
     0
 10
55.35454
 20
13.399048
 11
55.35454
 21
11.415712
  0
POINT
  8
寸法
 62
     0
 10
55.35454
 20
13.399048
  0
POINT
  8
寸法
 62
     0
 10
55.35454
 20
11.415712
  0
TEXT
  7
TextStyle03
  8
寸法
  6
CONTINUOUS
 62
     0
 10
54.975
 20
2.36875
  1
59.5
 40
3.0
 50
90.0
 72
     5
 11
54.975
 21
8.93125
  0
ENDBLK
  0
BLOCK
  2
*DIM_0009
 70
    65
 10
0.0
 20
0.0
  0
LINE
  8
寸法
  6
BYBLOCK
 62
     0
 10
23.31822
 20
-63.00138
 11
23.31822
 21
-22.536362
  0
LINE
  8
寸法
  6
BYBLOCK
 62
     0
 10
21.33489
 20
-22.536362
 11
23.31822
 21
-22.536362
  0
POINT
  8
寸法
 62
     0
 10
21.33489
 20
-22.536362
  0
POINT
  8
寸法
 62
     0
 10
23.31822
 20
-22.536362
  0
TEXT
  7
TextStyle03
  8
寸法
  6
CONTINUOUS
 62
     0
 10
25.79375
 20
-22.175
  1
59.5
 40
3.0
 72
     5
 11
32.35625
 21
-22.175
  0
ENDBLK
  0
BLOCK
  2
*DIM_0010
 70
    65
 10
0.0
 20
0.0
  0
LINE
  8
寸法
  6
BYBLOCK
 62
     0
 10
-113.981775
 20
-63.00138
 11
-113.981775
 21
-22.536362
  0
LINE
  8
寸法
  6
BYBLOCK
 62
     0
 10
-111.998442
 20
-22.536362
 11
-113.981775
 21
-22.536362
  0
POINT
  8
寸法
 62
     0
 10
-111.998442
 20
-22.536362
  0
POINT
  8
寸法
 62
     0
 10
-113.981775
 20
-22.536362
  0
TEXT
  7
TextStyle03
  8
寸法
  6
CONTINUOUS
 62
     0
 10
-123.03125
 20
-22.175
  1
59.5
 40
3.0
 72
     5
 11
-116.46875
 21
-22.175
  0
ENDBLK
  0
BLOCK
  2
*DIM_0011
 70
    65
 10
0.0
 20
0.0
  0
LINE
  8
寸法
  6
BYBLOCK
 62
     0
 10
-114.998442
 20
23.399048
 11
-143.943607
 21
23.399048
  0
LINE
  8
寸法
  6
BYBLOCK
 62
     0
 10
-114.998442
 20
46.732382
 11
-143.943607
 21
46.732382
  0
LINE
  8
寸法
  6
BYBLOCK
 62
     0
 10
-143.943607
 20
23.399048
 11
-143.943607
 21
46.732382
  0
POINT
  8
寸法
 62
     0
 10
-143.943607
 20
23.399048
  0
POINT
  8
寸法
 62
     0
 10
-143.943607
 20
46.732382
  0
TEXT
  7
TextStyle03
  8
寸法
  6
CONTINUOUS
 62
     0
 10
-144.35
 20
32.6125
  1
700
 40
3.0
 50
90.0
 72
     5
 11
-144.35
 21
37.4875
  0
ENDBLK
  0
BLOCK
  2
*DIM_0012
 70
    65
 10
0.0
 20
0.0
  0
LINE
  8
寸法
  6
BYBLOCK
 62
     0
 10
-103.66511
 20
59.73238
 11
-103.66511
 21
88.840452
  0
LINE
  8
寸法
  6
BYBLOCK
 62
     0
 10
-80.331778
 20
59.73238
 11
-80.331778
 21
88.840452
  0
LINE
  8
寸法
  6
BYBLOCK
 62
     0
 10
-103.66511
 20
88.840452
 11
-80.331778
 21
88.840452
  0
POINT
  8
寸法
 62
     0
 10
-103.66511
 20
88.840452
  0
POINT
  8
寸法
 62
     0
 10
-80.331778
 20
88.840452
  0
TEXT
  7
TextStyle03
  8
寸法
  6
CONTINUOUS
 62
     0
 10
-94.4375
 20
89.2
  1
700
 40
3.0
 72
     5
 11
-89.5625
 21
89.2
  0
ENDBLK
  0
BLOCK
  2
*DIM_0013
 70
    65
 10
0.0
 20
0.0
  0
LINE
  8
寸法
  6
BYBLOCK
 62
     0
 10
-56.998445
 20
59.73238
 11
-56.998445
 21
88.840452
  0
LINE
  8
寸法
  6
BYBLOCK
 62
     0
 10
-80.331778
 20
88.840452
 11
-56.998445
 21
88.840452
  0
POINT
  8
寸法
 62
     0
 10
-56.998445
 20
88.840452
  0
TEXT
  7
TextStyle03
  8
寸法
  6
CONTINUOUS
 62
     0
 10
-71.1125
 20
89.2
  1
700
 40
3.0
 72
     5
 11
-66.2375
 21
89.2
  0
ENDBLK
  0
BLOCK
  2
*DIM_0014
 70
    65
 10
0.0
 20
0.0
  0
LINE
  8
寸法
  6
BYBLOCK
 62
     0
 10
-33.66511
 20
59.73238
 11
-33.66511
 21
88.840452
  0
LINE
  8
寸法
  6
BYBLOCK
 62
     0
 10
-56.998445
 20
88.840452
 11
-33.66511
 21
88.840452
  0
POINT
  8
寸法
 62
     0
 10
-33.66511
 20
88.840452
  0
TEXT
  7
TextStyle03
  8
寸法
  6
CONTINUOUS
 62
     0
 10
-47.7875
 20
89.2
  1
700
 40
3.0
 72
     5
 11
-42.9125
 21
89.2
  0
ENDBLK
  0
BLOCK
  2
*DIM_0015
 70
    65
 10
0.0
 20
0.0
  0
LINE
  8
寸法
  6
BYBLOCK
 62
     0
 10
-10.331778
 20
59.73238
 11
-10.331778
 21
88.840452
  0
LINE
  8
寸法
  6
BYBLOCK
 62
     0
 10
-33.66511
 20
88.840452
 11
-10.331778
 21
88.840452
  0
POINT
  8
寸法
 62
     0
 10
-10.331778
 20
88.840452
  0
TEXT
  7
TextStyle03
  8
寸法
  6
CONTINUOUS
 62
     0
 10
-24.4375
 20
89.2
  1
700
 40
3.0
 72
     5
 11
-19.5625
 21
89.2
  0
ENDBLK
  0
BLOCK
  2
*DIM_0016
 70
    65
 10
0.0
 20
0.0
  0
LINE
  8
寸法
  6
BYBLOCK
 62
     0
 10
13.001555
 20
59.73238
 11
13.001555
 21
88.840452
  0
LINE
  8
寸法
  6
BYBLOCK
 62
     0
 10
-10.331778
 20
88.840452
 11
13.001555
 21
88.840452
  0
POINT
  8
寸法
 62
     0
 10
13.001555
 20
88.840452
  0
TEXT
  7
TextStyle03
  8
寸法
  6
CONTINUOUS
 62
     0
 10
-1.1125
 20
89.2
  1
700
 40
3.0
 72
     5
 11
3.7625
 21
89.2
  0
ENDBLK
  0
BLOCK
  2
*DIM_0017
 70
    65
 10
0.0
 20
0.0
  0
LINE
  8
寸法
  6
CONTINUOUS
 10
109.399633
 20
70.502383
 11
117.049683
 21
70.502383
  0
POINT
  8
寸法
 10
109.399633
 20
70.502383
  0
POINT
  8
寸法
 10
117.049683
 20
70.502383
  0
TEXT
  7
TextStyle03
  8
寸法
  6
CONTINUOUS
 10
109.2
 20
70.85
  1
229.5
 40
3.0
 72
     5
 11
117.45
 21
70.85
  0
ENDBLK
  0
BLOCK
  2
*GRP_0018
 70
    65
 10
0.0
 20
0.0
  0
LINE
  8
補助線
  6
BYBLOCK
 62
    64
 10
9.602288
 20
-82.696807
 11
9.734173
 21
-82.798712
  0
LINE
  8
補助線
  6
BYBLOCK
 62
    64
 10
9.719182
 20
-82.681818
 11
9.617277
 21
-82.813703
  0
LINE
  8
補助線
  6
BYBLOCK
 62
    64
 10
-1.808338
 20
-73.880117
 11
-1.676452
 21
-73.98202
  0
LINE
  8
補助線
  6
BYBLOCK
 62
    64
 10
-1.691442
 20
-73.865125
 11
-1.793345
 21
-73.99701
  0
LINE
  8
補助線
  6
BYBLOCK
 62
    64
 10
-13.08708
 20
-65.16533
 11
-13.21896
 21
-65.063425
  0
LINE
  8
補助線
  6
BYBLOCK
 62
    64
 10
-13.102067
 20
-65.048433
 11
-13.20397
 21
-65.18032
  0
LINE
  8
型材断面
  6
CONTINUOUS
 10
10.441515
 20
-82.292145
 11
10.531458
 21
-82.99351
  0
LINE
  8
型材断面
  6
CONTINUOUS
 10
10.531458
 20
-82.99351
 11
10.123842
 21
-83.521047
  0
LINE
  8
型材断面
  6
CONTINUOUS
 10
10.123842
 20
-83.521047
 11
9.42248
 21
-83.610988
  0
LINE
  8
型材断面
  6
CONTINUOUS
 10
-12.90727
 20
-64.25115
 11
-13.608633
 21
-64.341093
  0
LINE
  8
型材断面
  6
CONTINUOUS
 10
-13.608633
 20
-64.341093
 11
-14.016248
 21
-64.86863
  0
LINE
  8
型材断面
  6
CONTINUOUS
 10
-14.016248
 20
-64.86863
 11
-13.926305
 21
-65.569995
  0
LINE
  8
型材断面
  6
CONTINUOUS
 10
9.42248
 20
-83.610988
 11
-13.926305
 21
-65.569995
  0
LINE
  8
型材断面
  6
CONTINUOUS
 10
10.441515
 20
-82.292145
 11
-12.90727
 21
-64.25115
  0
CIRCLE
  8
ボルト／ビス
  6
CONTINUOUS
 10
9.66823
 20
-82.74776
 40
0.250185
  0
CIRCLE
  8
ボルト／ビス
  6
CONTINUOUS
 10
9.66823
 20
-82.74776
 40
0.301025
  0
LINE
  8
ボルト／ビス
  6
CONTINUOUS
 62
    64
 10
9.916165
 20
-82.78125
 11
9.8212
 21
-82.549788
  0
LINE
  8
ボルト／ビス
  6
CONTINUOUS
 62
    64
 10
9.573265
 20
-82.516298
 11
9.8212
 21
-82.549788
  0
LINE
  8
ボルト／ビス
  6
CONTINUOUS
 62
    64
 10
9.763195
 20
-82.979223
 11
9.51526
 21
-82.945733
  0
LINE
  8
ボルト／ビス
  6
CONTINUOUS
 62
    64
 10
9.420295
 20
-82.71427
 11
9.51526
 21
-82.945733
  0
LINE
  8
ボルト／ビス
  6
CONTINUOUS
 62
    64
 10
9.916165
 20
-82.78125
 11
9.763195
 21
-82.979223
  0
LINE
  8
ボルト／ビス
  6
CONTINUOUS
 62
    64
 10
9.573265
 20
-82.516298
 11
9.420295
 21
-82.71427
  0
CIRCLE
  8
ボルト／ビス
  6
CONTINUOUS
 62
    64
 10
9.66823
 20
-82.74776
 40
0.216668
  0
CIRCLE
  8
ボルト／ビス
  6
CONTINUOUS
 10
-1.742395
 20
-73.93107
 40
0.250185
  0
CIRCLE
  8
ボルト／ビス
  6
CONTINUOUS
 10
-1.742395
 20
-73.93107
 40
0.301025
  0
LINE
  8
ボルト／ビス
  6
CONTINUOUS
 62
    64
 10
-1.49446
 20
-73.964557
 11
-1.589425
 21
-73.733097
  0
LINE
  8
ボルト／ビス
  6
CONTINUOUS
 62
    64
 10
-1.83736
 20
-73.699607
 11
-1.589425
 21
-73.733097
  0
LINE
  8
ボルト／ビス
  6
CONTINUOUS
 62
    64
 10
-1.647427
 20
-74.16253
 11
-1.895363
 21
-74.12904
  0
LINE
  8
ボルト／ビス
  6
CONTINUOUS
 62
    64
 10
-1.99033
 20
-73.89758
 11
-1.895363
 21
-74.12904
  0
LINE
  8
ボルト／ビス
  6
CONTINUOUS
 62
    64
 10
-1.49446
 20
-73.964557
 11
-1.647427
 21
-74.16253
  0
LINE
  8
ボルト／ビス
  6
CONTINUOUS
 62
    64
 10
-1.83736
 20
-73.699607
 11
-1.99033
 21
-73.89758
  0
CIRCLE
  8
ボルト／ビス
  6
CONTINUOUS
 62
    64
 10
-1.742395
 20
-73.93107
 40
0.216668
  0
CIRCLE
  8
ボルト／ビス
  6
CONTINUOUS
 10
-13.153017
 20
-65.114377
 40
0.250185
  0
CIRCLE
  8
ボルト／ビス
  6
CONTINUOUS
 10
-13.153017
 20
-65.114377
 40
0.301025
  0
LINE
  8
ボルト／ビス
  6
CONTINUOUS
 62
    64
 10
-13.247985
 20
-64.882915
 11
-13.000053
 21
-64.916405
  0
LINE
  8
ボルト／ビス
  6
CONTINUOUS
 62
    64
 10
-12.905087
 20
-65.147868
 11
-13.000053
 21
-64.916405
  0
LINE
  8
ボルト／ビス
  6
CONTINUOUS
 62
    64
 10
-13.400953
 20
-65.080887
 11
-13.305987
 21
-65.31235
  0
LINE
  8
ボルト／ビス
  6
CONTINUOUS
 62
    64
 10
-13.058053
 20
-65.34584
 11
-13.305987
 21
-65.31235
  0
LINE
  8
ボルト／ビス
  6
CONTINUOUS
 62
    64
 10
-13.247985
 20
-64.882915
 11
-13.400953
 21
-65.080887
  0
LINE
  8
ボルト／ビス
  6
CONTINUOUS
 62
    64
 10
-12.905087
 20
-65.147868
 11
-13.058053
 21
-65.34584
  0
CIRCLE
  8
ボルト／ビス
  6
CONTINUOUS
 62
    64
 10
-13.153017
 20
-65.114377
 40
0.216668
  0
ENDBLK
  0
BLOCK
  2
*GRP_0019
 70
    65
 10
0.0
 20
0.0
  0
LINE
  8
補助線
  6
BYBLOCK
 62
    64
 10
-13.087078
 20
-82.696807
 11
-13.218962
 21
-82.798712
  0
LINE
  8
補助線
  6
BYBLOCK
 62
    64
 10
-13.203972
 20
-82.681818
 11
-13.102067
 21
-82.813703
  0
LINE
  8
補助線
  6
BYBLOCK
 62
    64
 10
-1.676452
 20
-73.880117
 11
-1.808338
 21
-73.98202
  0
LINE
  8
補助線
  6
BYBLOCK
 62
    64
 10
-1.793347
 20
-73.865125
 11
-1.691445
 21
-73.99701
  0
LINE
  8
補助線
  6
BYBLOCK
 62
    64
 10
9.60229
 20
-65.16533
 11
9.73417
 21
-65.063425
  0
LINE
  8
補助線
  6
BYBLOCK
 62
    64
 10
9.617277
 20
-65.048433
 11
9.71918
 21
-65.18032
  0
LINE
  8
型材断面
  6
CONTINUOUS
 10
-13.926305
 20
-82.292145
 11
-14.016248
 21
-82.99351
  0
LINE
  8
型材断面
  6
CONTINUOUS
 10
-14.016248
 20
-82.99351
 11
-13.608633
 21
-83.521047
  0
LINE
  8
型材断面
  6
CONTINUOUS
 10
-13.608633
 20
-83.521047
 11
-12.90727
 21
-83.610988
  0
LINE
  8
型材断面
  6
CONTINUOUS
 10
9.42248
 20
-64.25115
 11
10.123842
 21
-64.341093
  0
LINE
  8
型材断面
  6
CONTINUOUS
 10
10.123842
 20
-64.341093
 11
10.531458
 21
-64.86863
  0
LINE
  8
型材断面
  6
CONTINUOUS
 10
10.531458
 20
-64.86863
 11
10.441515
 21
-65.569995
  0
LINE
  8
型材断面
  6
CONTINUOUS
 10
-12.90727
 20
-83.610988
 11
10.441515
 21
-65.569995
  0
LINE
  8
型材断面
  6
CONTINUOUS
 10
-13.926305
 20
-82.292145
 11
9.42248
 21
-64.25115
  0
CIRCLE
  8
ボルト／ビス
  6
CONTINUOUS
 10
-13.15302
 20
-82.74776
 40
0.250185
  0
CIRCLE
  8
ボルト／ビス
  6
CONTINUOUS
 10
-13.15302
 20
-82.74776
 40
0.301025
  0
LINE
  8
ボルト／ビス
  6
CONTINUOUS
 62
    64
 10
-13.400955
 20
-82.78125
 11
-13.30599
 21
-82.549788
  0
LINE
  8
ボルト／ビス
  6
CONTINUOUS
 62
    64
 10
-13.058055
 20
-82.516298
 11
-13.30599
 21
-82.549788
  0
LINE
  8
ボルト／ビス
  6
CONTINUOUS
 62
    64
 10
-13.247985
 20
-82.979223
 11
-13.00005
 21
-82.945733
  0
LINE
  8
ボルト／ビス
  6
CONTINUOUS
 62
    64
 10
-12.905085
 20
-82.71427
 11
-13.00005
 21
-82.945733
  0
LINE
  8
ボルト／ビス
  6
CONTINUOUS
 62
    64
 10
-13.400955
 20
-82.78125
 11
-13.247985
 21
-82.979223
  0
LINE
  8
ボルト／ビス
  6
CONTINUOUS
 62
    64
 10
-13.058055
 20
-82.516298
 11
-12.905085
 21
-82.71427
  0
CIRCLE
  8
ボルト／ビス
  6
CONTINUOUS
 62
    64
 10
-13.15302
 20
-82.74776
 40
0.216668
  0
CIRCLE
  8
ボルト／ビス
  6
CONTINUOUS
 10
-1.742395
 20
-73.93107
 40
0.250185
  0
CIRCLE
  8
ボルト／ビス
  6
CONTINUOUS
 10
-1.742395
 20
-73.93107
 40
0.301025
  0
LINE
  8
ボルト／ビス
  6
CONTINUOUS
 62
    64
 10
-1.99033
 20
-73.964557
 11
-1.895365
 21
-73.733097
  0
LINE
  8
ボルト／ビス
  6
CONTINUOUS
 62
    64
 10
-1.64743
 20
-73.699607
 11
-1.895365
 21
-73.733097
  0
LINE
  8
ボルト／ビス
  6
CONTINUOUS
 62
    64
 10
-1.837363
 20
-74.16253
 11
-1.589427
 21
-74.12904
  0
LINE
  8
ボルト／ビス
  6
CONTINUOUS
 62
    64
 10
-1.49446
 20
-73.89758
 11
-1.589427
 21
-74.12904
  0
LINE
  8
ボルト／ビス
  6
CONTINUOUS
 62
    64
 10
-1.99033
 20
-73.964557
 11
-1.837363
 21
-74.16253
  0
LINE
  8
ボルト／ビス
  6
CONTINUOUS
 62
    64
 10
-1.64743
 20
-73.699607
 11
-1.49446
 21
-73.89758
  0
CIRCLE
  8
ボルト／ビス
  6
CONTINUOUS
 62
    64
 10
-1.742395
 20
-73.93107
 40
0.216668
  0
CIRCLE
  8
ボルト／ビス
  6
CONTINUOUS
 10
9.668227
 20
-65.114377
 40
0.250185
  0
CIRCLE
  8
ボルト／ビス
  6
CONTINUOUS
 10
9.668227
 20
-65.114377
 40
0.301025
  0
LINE
  8
ボルト／ビス
  6
CONTINUOUS
 62
    64
 10
9.763195
 20
-64.882915
 11
9.515263
 21
-64.916405
  0
LINE
  8
ボルト／ビス
  6
CONTINUOUS
 62
    64
 10
9.420298
 20
-65.147868
 11
9.515263
 21
-64.916405
  0
LINE
  8
ボルト／ビス
  6
CONTINUOUS
 62
    64
 10
9.916163
 20
-65.080887
 11
9.821198
 21
-65.31235
  0
LINE
  8
ボルト／ビス
  6
CONTINUOUS
 62
    64
 10
9.573263
 20
-65.34584
 11
9.821198
 21
-65.31235
  0
LINE
  8
ボルト／ビス
  6
CONTINUOUS
 62
    64
 10
9.763195
 20
-64.882915
 11
9.916163
 21
-65.080887
  0
LINE
  8
ボルト／ビス
  6
CONTINUOUS
 62
    64
 10
9.420298
 20
-65.147868
 11
9.573263
 21
-65.34584
  0
CIRCLE
  8
ボルト／ビス
  6
CONTINUOUS
 62
    64
 10
9.668227
 20
-65.114377
 40
0.216668
  0
ENDBLK
  0
BLOCK
  2
*GRP_0020
 70
    65
 10
0.0
 20
0.0
  0
LINE
  8
補助線
  6
BYBLOCK
 62
    64
 10
-100.265827
 20
-82.696807
 11
-100.397713
 21
-82.798712
  0
LINE
  8
補助線
  6
BYBLOCK
 62
    64
 10
-100.382723
 20
-82.681818
 11
-100.280818
 21
-82.813703
  0
LINE
  8
補助線
  6
BYBLOCK
 62
    64
 10
-88.855202
 20
-73.880117
 11
-88.987087
 21
-73.98202
  0
LINE
  8
補助線
  6
BYBLOCK
 62
    64
 10
-88.972098
 20
-73.865125
 11
-88.870195
 21
-73.99701
  0
LINE
  8
補助線
  6
BYBLOCK
 62
    64
 10
-77.57646
 20
-65.16533
 11
-77.44458
 21
-65.063425
  0
LINE
  8
補助線
  6
BYBLOCK
 62
    64
 10
-77.561473
 20
-65.048433
 11
-77.45957
 21
-65.18032
  0
LINE
  8
型材断面
  6
CONTINUOUS
 10
-101.105055
 20
-82.292145
 11
-101.194998
 21
-82.99351
  0
LINE
  8
型材断面
  6
CONTINUOUS
 10
-101.194998
 20
-82.99351
 11
-100.787382
 21
-83.521047
  0
LINE
  8
型材断面
  6
CONTINUOUS
 10
-100.787382
 20
-83.521047
 11
-100.08602
 21
-83.610988
  0
LINE
  8
型材断面
  6
CONTINUOUS
 10
-77.75627
 20
-64.25115
 11
-77.054907
 21
-64.341093
  0
LINE
  8
型材断面
  6
CONTINUOUS
 10
-77.054907
 20
-64.341093
 11
-76.647293
 21
-64.86863
  0
LINE
  8
型材断面
  6
CONTINUOUS
 10
-76.647293
 20
-64.86863
 11
-76.737235
 21
-65.569995
  0
LINE
  8
型材断面
  6
CONTINUOUS
 10
-100.08602
 20
-83.610988
 11
-76.737235
 21
-65.569995
  0
LINE
  8
型材断面
  6
CONTINUOUS
 10
-101.105055
 20
-82.292145
 11
-77.75627
 21
-64.25115
  0
CIRCLE
  8
ボルト／ビス
  6
CONTINUOUS
 10
-100.33177
 20
-82.74776
 40
0.250185
  0
CIRCLE
  8
ボルト／ビス
  6
CONTINUOUS
 10
-100.33177
 20
-82.74776
 40
0.301025
  0
LINE
  8
ボルト／ビス
  6
CONTINUOUS
 62
    64
 10
-100.579705
 20
-82.78125
 11
-100.48474
 21
-82.549788
  0
LINE
  8
ボルト／ビス
  6
CONTINUOUS
 62
    64
 10
-100.236805
 20
-82.516298
 11
-100.48474
 21
-82.549788
  0
LINE
  8
ボルト／ビス
  6
CONTINUOUS
 62
    64
 10
-100.426735
 20
-82.979223
 11
-100.1788
 21
-82.945733
  0
LINE
  8
ボルト／ビス
  6
CONTINUOUS
 62
    64
 10
-100.083835
 20
-82.71427
 11
-100.1788
 21
-82.945733
  0
LINE
  8
ボルト／ビス
  6
CONTINUOUS
 62
    64
 10
-100.579705
 20
-82.78125
 11
-100.426735
 21
-82.979223
  0
LINE
  8
ボルト／ビス
  6
CONTINUOUS
 62
    64
 10
-100.236805
 20
-82.516298
 11
-100.083835
 21
-82.71427
  0
CIRCLE
  8
ボルト／ビス
  6
CONTINUOUS
 62
    64
 10
-100.33177
 20
-82.74776
 40
0.216668
  0
CIRCLE
  8
ボルト／ビス
  6
CONTINUOUS
 10
-88.921145
 20
-73.93107
 40
0.250185
  0
CIRCLE
  8
ボルト／ビス
  6
CONTINUOUS
 10
-88.921145
 20
-73.93107
 40
0.301025
  0
LINE
  8
ボルト／ビス
  6
CONTINUOUS
 62
    64
 10
-89.16908
 20
-73.964557
 11
-89.074115
 21
-73.733097
  0
LINE
  8
ボルト／ビス
  6
CONTINUOUS
 62
    64
 10
-88.82618
 20
-73.699607
 11
-89.074115
 21
-73.733097
  0
LINE
  8
ボルト／ビス
  6
CONTINUOUS
 62
    64
 10
-89.016112
 20
-74.16253
 11
-88.768178
 21
-74.12904
  0
LINE
  8
ボルト／ビス
  6
CONTINUOUS
 62
    64
 10
-88.67321
 20
-73.89758
 11
-88.768178
 21
-74.12904
  0
LINE
  8
ボルト／ビス
  6
CONTINUOUS
 62
    64
 10
-89.16908
 20
-73.964557
 11
-89.016112
 21
-74.16253
  0
LINE
  8
ボルト／ビス
  6
CONTINUOUS
 62
    64
 10
-88.82618
 20
-73.699607
 11
-88.67321
 21
-73.89758
  0
CIRCLE
  8
ボルト／ビス
  6
CONTINUOUS
 62
    64
 10
-88.921145
 20
-73.93107
 40
0.216668
  0
CIRCLE
  8
ボルト／ビス
  6
CONTINUOUS
 10
-77.510523
 20
-65.114377
 40
0.250185
  0
CIRCLE
  8
ボルト／ビス
  6
CONTINUOUS
 10
-77.510523
 20
-65.114377
 40
0.301025
  0
LINE
  8
ボルト／ビス
  6
CONTINUOUS
 62
    64
 10
-77.415555
 20
-64.882915
 11
-77.663487
 21
-64.916405
  0
LINE
  8
ボルト／ビス
  6
CONTINUOUS
 62
    64
 10
-77.758453
 20
-65.147868
 11
-77.663487
 21
-64.916405
  0
LINE
  8
ボルト／ビス
  6
CONTINUOUS
 62
    64
 10
-77.262587
 20
-65.080887
 11
-77.357553
 21
-65.31235
  0
LINE
  8
ボルト／ビス
  6
CONTINUOUS
 62
    64
 10
-77.605487
 20
-65.34584
 11
-77.357553
 21
-65.31235
  0
LINE
  8
ボルト／ビス
  6
CONTINUOUS
 62
    64
 10
-77.415555
 20
-64.882915
 11
-77.262587
 21
-65.080887
  0
LINE
  8
ボルト／ビス
  6
CONTINUOUS
 62
    64
 10
-77.758453
 20
-65.147868
 11
-77.605487
 21
-65.34584
  0
CIRCLE
  8
ボルト／ビス
  6
CONTINUOUS
 62
    64
 10
-77.510523
 20
-65.114377
 40
0.216668
  0
ENDBLK
  0
BLOCK
  2
*GRP_0021
 70
    65
 10
0.0
 20
0.0
  0
LINE
  8
補助線
  6
BYBLOCK
 62
    64
 10
-77.576462
 20
-82.696807
 11
-77.444578
 21
-82.798712
  0
LINE
  8
補助線
  6
BYBLOCK
 62
    64
 10
-77.459567
 20
-82.681818
 11
-77.561473
 21
-82.813703
  0
LINE
  8
補助線
  6
BYBLOCK
 62
    64
 10
-88.987087
 20
-73.880117
 11
-88.855202
 21
-73.98202
  0
LINE
  8
補助線
  6
BYBLOCK
 62
    64
 10
-88.870193
 20
-73.865125
 11
-88.972095
 21
-73.99701
  0
LINE
  8
補助線
  6
BYBLOCK
 62
    64
 10
-100.26583
 20
-65.16533
 11
-100.39771
 21
-65.063425
  0
LINE
  8
補助線
  6
BYBLOCK
 62
    64
 10
-100.280818
 20
-65.048433
 11
-100.38272
 21
-65.18032
  0
LINE
  8
型材断面
  6
CONTINUOUS
 10
-76.737235
 20
-82.292145
 11
-76.647293
 21
-82.99351
  0
LINE
  8
型材断面
  6
CONTINUOUS
 10
-76.647293
 20
-82.99351
 11
-77.054907
 21
-83.521047
  0
LINE
  8
型材断面
  6
CONTINUOUS
 10
-77.054907
 20
-83.521047
 11
-77.75627
 21
-83.610988
  0
LINE
  8
型材断面
  6
CONTINUOUS
 10
-100.08602
 20
-64.25115
 11
-100.787382
 21
-64.341093
  0
LINE
  8
型材断面
  6
CONTINUOUS
 10
-100.787382
 20
-64.341093
 11
-101.194998
 21
-64.86863
  0
LINE
  8
型材断面
  6
CONTINUOUS
 10
-101.194998
 20
-64.86863
 11
-101.105055
 21
-65.569995
  0
LINE
  8
型材断面
  6
CONTINUOUS
 10
-77.75627
 20
-83.610988
 11
-101.105055
 21
-65.569995
  0
LINE
  8
型材断面
  6
CONTINUOUS
 10
-76.737235
 20
-82.292145
 11
-100.08602
 21
-64.25115
  0
CIRCLE
  8
ボルト／ビス
  6
CONTINUOUS
 10
-77.51052
 20
-82.74776
 40
0.250185
  0
CIRCLE
  8
ボルト／ビス
  6
CONTINUOUS
 10
-77.51052
 20
-82.74776
 40
0.301025
  0
LINE
  8
ボルト／ビス
  6
CONTINUOUS
 62
    64
 10
-77.262585
 20
-82.78125
 11
-77.35755
 21
-82.549788
  0
LINE
  8
ボルト／ビス
  6
CONTINUOUS
 62
    64
 10
-77.605485
 20
-82.516298
 11
-77.35755
 21
-82.549788
  0
LINE
  8
ボルト／ビス
  6
CONTINUOUS
 62
    64
 10
-77.415555
 20
-82.979223
 11
-77.66349
 21
-82.945733
  0
LINE
  8
ボルト／ビス
  6
CONTINUOUS
 62
    64
 10
-77.758455
 20
-82.71427
 11
-77.66349
 21
-82.945733
  0
LINE
  8
ボルト／ビス
  6
CONTINUOUS
 62
    64
 10
-77.262585
 20
-82.78125
 11
-77.415555
 21
-82.979223
  0
LINE
  8
ボルト／ビス
  6
CONTINUOUS
 62
    64
 10
-77.605485
 20
-82.516298
 11
-77.758455
 21
-82.71427
  0
CIRCLE
  8
ボルト／ビス
  6
CONTINUOUS
 62
    64
 10
-77.51052
 20
-82.74776
 40
0.216668
  0
CIRCLE
  8
ボルト／ビス
  6
CONTINUOUS
 10
-88.921145
 20
-73.93107
 40
0.250185
  0
CIRCLE
  8
ボルト／ビス
  6
CONTINUOUS
 10
-88.921145
 20
-73.93107
 40
0.301025
  0
LINE
  8
ボルト／ビス
  6
CONTINUOUS
 62
    64
 10
-88.67321
 20
-73.964557
 11
-88.768175
 21
-73.733097
  0
LINE
  8
ボルト／ビス
  6
CONTINUOUS
 62
    64
 10
-89.01611
 20
-73.699607
 11
-88.768175
 21
-73.733097
  0
LINE
  8
ボルト／ビス
  6
CONTINUOUS
 62
    64
 10
-88.826178
 20
-74.16253
 11
-89.074112
 21
-74.12904
  0
LINE
  8
ボルト／ビス
  6
CONTINUOUS
 62
    64
 10
-89.16908
 20
-73.89758
 11
-89.074112
 21
-74.12904
  0
LINE
  8
ボルト／ビス
  6
CONTINUOUS
 62
    64
 10
-88.67321
 20
-73.964557
 11
-88.826178
 21
-74.16253
  0
LINE
  8
ボルト／ビス
  6
CONTINUOUS
 62
    64
 10
-89.01611
 20
-73.699607
 11
-89.16908
 21
-73.89758
  0
CIRCLE
  8
ボルト／ビス
  6
CONTINUOUS
 62
    64
 10
-88.921145
 20
-73.93107
 40
0.216668
  0
CIRCLE
  8
ボルト／ビス
  6
CONTINUOUS
 10
-100.331768
 20
-65.114377
 40
0.250185
  0
CIRCLE
  8
ボルト／ビス
  6
CONTINUOUS
 10
-100.331768
 20
-65.114377
 40
0.301025
  0
LINE
  8
ボルト／ビス
  6
CONTINUOUS
 62
    64
 10
-100.426735
 20
-64.882915
 11
-100.178802
 21
-64.916405
  0
LINE
  8
ボルト／ビス
  6
CONTINUOUS
 62
    64
 10
-100.083838
 20
-65.147868
 11
-100.178802
 21
-64.916405
  0
LINE
  8
ボルト／ビス
  6
CONTINUOUS
 62
    64
 10
-100.579702
 20
-65.080887
 11
-100.484738
 21
-65.31235
  0
LINE
  8
ボルト／ビス
  6
CONTINUOUS
 62
    64
 10
-100.236802
 20
-65.34584
 11
-100.484738
 21
-65.31235
  0
LINE
  8
ボルト／ビス
  6
CONTINUOUS
 62
    64
 10
-100.426735
 20
-64.882915
 11
-100.579702
 21
-65.080887
  0
LINE
  8
ボルト／ビス
  6
CONTINUOUS
 62
    64
 10
-100.083838
 20
-65.147868
 11
-100.236802
 21
-65.34584
  0
CIRCLE
  8
ボルト／ビス
  6
CONTINUOUS
 62
    64
 10
-100.331768
 20
-65.114377
 40
0.216668
  0
ENDBLK
  0
BLOCK
  2
*DIM_0022
 70
    65
 10
0.0
 20
0.0
  0
LINE
  8
寸法
  6
CONTINUOUS
 10
34.570135
 20
-77.171043
 11
34.570135
 21
-84.821093
  0
POINT
  8
寸法
 10
34.570135
 20
-77.171043
  0
POINT
  8
寸法
 10
34.570135
 20
-84.821093
  0
TEXT
  7
TextStyle03
  8
寸法
  6
CONTINUOUS
 10
38.85
 20
-85.4
  1
229.5
 40
3.0
 50
90.0
 72
     5
 11
38.85
 21
-77.15
  0
ENDBLK
  0
BLOCK
  2
*DIM_0023
 70
    65
 10
0.0
 20
0.0
  0
LINE
  8
寸法
  6
CONTINUOUS
 10
116.421445
 20
-41.628865
 11
84.128112
 21
-41.628865
  0
POINT
  8
寸法
 10
116.421445
 20
-41.628865
  0
POINT
  8
寸法
 10
84.128112
 20
-41.628865
  0
TEXT
  7
TextStyle03
  8
寸法
  6
CONTINUOUS
 10
96.125
 20
-41.3
  1
968.8
 40
3.0
 72
     5
 11
104.375
 21
-41.3
  0
ENDBLK
  0
BLOCK
  2
*DIM_0024
 70
    65
 10
0.0
 20
0.0
  0
LINE
  8
寸法
  6
BYBLOCK
 62
     0
 10
34.570135
 20
-77.171043
 11
34.570135
 21
-62.171043
  0
POINT
  8
寸法
 62
     0
 10
34.570135
 20
-77.171043
  0
POINT
  8
寸法
 62
     0
 10
34.570135
 20
-62.171043
  0
TEXT
  7
TextStyle03
  8
寸法
  6
CONTINUOUS
 62
     0
 10
34.325
 20
-61.11875
  1
上昇426以上
 40
3.0
 50
90.0
 72
     5
 11
34.325
 21
-42.93125
  0
ENDBLK
  0
ENDSEC
  0
SECTION
  2
ENTITIES
  0
POLYLINE
  8
通り芯
  6
CONTINUOUS
 66
     1
 70
     1
  0
VERTEX
  8
通り芯
 10
-210.0
 20
-148.5
  0
VERTEX
  8
通り芯
 10
210.0
 20
-148.5
  0
VERTEX
  8
通り芯
 10
210.0
 20
148.5
  0
VERTEX
  8
通り芯
 10
-210.0
 20
148.5
  0
SEQEND
  0
LINE
  8
型材断面
  6
DASHDOT
 10
21.33489
 20
-87.251428
 11
21.33489
 21
56.73238
  0
LINE
  8
型材断面
  6
DASHDOT
 10
-45.331778
 20
-87.251428
 11
-45.331778
 21
56.73238
  0
LINE
  8
型材断面
  6
DASHDOT
 10
-111.998442
 20
-87.251428
 11
-111.998442
 21
56.73238
  0
LINE
  8
型材断面
  6
DASHDOT
 10
119.011652
 20
13.399048
 11
-111.998442
 21
13.399048
  0
LINE
  8
型材断面
  6
DASHDOT
 10
119.011652
 20
56.73238
 11
-111.998442
 21
56.73238
  0
LINE
  8
型材断面
  6
DASHDOT
 10
119.011652
 20
35.065715
 11
-111.998442
 21
35.065715
  0
POLYLINE
  8
型材断面
  6
CONTINUOUS
 66
     1
 70
     1
  0
VERTEX
  8
型材断面
 10
-35.727048
 20
66.508305
  0
VERTEX
  8
型材断面
 10
-54.498978
 20
66.508305
  0
VERTEX
  8
型材断面
 10
-54.498978
 20
71.245147
  0
VERTEX
  8
型材断面
 10
-35.727048
 20
71.245147
  0
SEQEND
  0
POLYLINE
  8
型材断面
  6
CONTINUOUS
 66
     1
 70
     1
  0
VERTEX
  8
型材断面
 10
-35.727048
 20
3.623125
  0
VERTEX
  8
型材断面
 10
-54.498978
 20
3.623125
  0
VERTEX
  8
型材断面
 10
-54.498978
 20
-1.113717
  0
VERTEX
  8
型材断面
 10
-35.727048
 20
-1.113717
  0
SEQEND
  0
LINE
  8
型材断面
  6
DASHDOT
 10
-45.331778
 20
13.399048
 11
-45.331778
 21
56.73238
  0
LINE
  8
型材断面
  6
CONTINUOUS
 10
-114.628572
 20
35.065715
 11
-117.21908
 21
36.561345
  0
LINE
  8
型材断面
  6
CONTINUOUS
 10
-114.628572
 20
35.065715
 11
-117.21908
 21
33.570085
  0
LINE
  8
型材断面
  6
CONTINUOUS
 10
-117.21908
 20
33.570085
 11
-117.21908
 21
36.561345
  0
LINE
  8
型材断面
  6
CONTINUOUS
 10
-95.331775
 20
59.36251
 11
-96.827405
 21
61.953017
  0
LINE
  8
型材断面
  6
CONTINUOUS
 10
-95.331775
 20
59.36251
 11
-93.836145
 21
61.953017
  0
LINE
  8
型材断面
  6
CONTINUOUS
 10
-93.836145
 20
61.953017
 11
-96.827405
 21
61.953017
  0
LINE
  8
型材断面
  6
CONTINUOUS
 10
-152.85065
 20
94.709852
 11
-152.254595
 21
92.119345
  0
LINE
  8
型材断面
  6
CONTINUOUS
 10
-152.85065
 20
94.709852
 11
-153.446707
 21
92.119345
  0
LINE
  8
型材断面
  6
CONTINUOUS
 10
-153.446707
 20
92.119345
 11
-152.254595
 21
92.119345
  0
LINE
  8
型材断面
  6
CONTINUOUS
 10
-158.873237
 20
88.840452
 11
-112.63146
 21
88.840452
  0
LINE
  8
型材断面
  6
CONTINUOUS
 10
-152.85065
 20
101.239727
 11
-154.34628
 21
98.64922
  0
LINE
  8
型材断面
  6
CONTINUOUS
 10
-152.85065
 20
101.239727
 11
-151.35502
 21
98.64922
  0
LINE
  8
型材断面
  6
CONTINUOUS
 10
-151.35502
 20
98.64922
 11
-154.34628
 21
98.64922
  0
LINE
  8
型材断面
  6
CONTINUOUS
 10
-158.873237
 20
97.710625
 11
-112.63146
 21
97.710625
  0
LINE
  8
型材断面
  6
CONTINUOUS
 10
-158.873237
 20
83.05242
 11
-112.63146
 21
83.05242
  0
LINE
  8
型材断面
  6
CONTINUOUS
 10
-95.331775
 20
10.76892
 11
-96.827405
 21
8.178413
  0
LINE
  8
型材断面
  6
CONTINUOUS
 10
-95.331775
 20
10.76892
 11
-93.836145
 21
8.178413
  0
LINE
  8
型材断面
  6
CONTINUOUS
 10
-93.836145
 20
8.178413
 11
-96.827405
 21
8.178413
  0
LINE
  8
型材断面
  6
CONTINUOUS
 10
23.965018
 20
35.065715
 11
26.555525
 21
36.561345
  0
LINE
  8
型材断面
  6
CONTINUOUS
 10
23.965018
 20
35.065715
 11
26.555525
 21
33.570085
  0
LINE
  8
型材断面
  6
CONTINUOUS
 10
26.555525
 20
33.570085
 11
26.555525
 21
36.561345
  0
LINE
  8
型材断面
  6
CONTINUOUS
 10
4.66822
 20
59.36251
 11
6.16385
 21
61.953017
  0
LINE
  8
型材断面
  6
CONTINUOUS
 10
4.66822
 20
59.36251
 11
3.17259
 21
61.953017
  0
LINE
  8
型材断面
  6
CONTINUOUS
 10
3.17259
 20
61.953017
 11
6.16385
 21
61.953017
  0
LINE
  8
型材断面
  6
CONTINUOUS
 10
4.66822
 20
10.76892
 11
6.16385
 21
8.178413
  0
LINE
  8
型材断面
  6
CONTINUOUS
 10
4.66822
 20
10.76892
 11
3.17259
 21
8.178413
  0
LINE
  8
型材断面
  6
CONTINUOUS
 10
3.17259
 20
8.178413
 11
6.16385
 21
8.178413
  0
LINE
  8
型材断面
  6
CONTINUOUS
 10
23.96502
 20
53.032382
 11
26.55553
 21
52.43633
  0
LINE
  8
型材断面
  6
CONTINUOUS
 10
23.96502
 20
53.032382
 11
26.555528
 21
53.628442
  0
LINE
  8
型材断面
  6
CONTINUOUS
 10
26.555528
 20
53.628442
 11
26.55553
 21
52.43633
  0
LINE
  8
型材断面
  6
CONTINUOUS
 10
23.96502
 20
17.099048
 11
26.55553
 21
17.6951
  0
LINE
  8
型材断面
  6
CONTINUOUS
 10
23.96502
 20
17.099048
 11
26.555528
 21
16.502988
  0
LINE
  8
型材断面
  6
CONTINUOUS
 10
26.555528
 20
16.502988
 11
26.55553
 21
17.6951
  0
LINE
  8
型材断面
  6
CONTINUOUS
 10
-114.628575
 20
53.032382
 11
-117.219085
 21
52.43633
  0
LINE
  8
型材断面
  6
CONTINUOUS
 10
-114.628575
 20
53.032382
 11
-117.219082
 21
53.628442
  0
LINE
  8
型材断面
  6
CONTINUOUS
 10
-117.219082
 20
53.628442
 11
-117.219085
 21
52.43633
  0
LINE
  8
型材断面
  6
CONTINUOUS
 10
-114.628575
 20
17.099048
 11
-117.219085
 21
17.6951
  0
LINE
  8
型材断面
  6
CONTINUOUS
 10
-114.628575
 20
17.099048
 11
-117.219082
 21
16.502988
  0
LINE
  8
型材断面
  6
CONTINUOUS
 10
-117.219082
 20
16.502988
 11
-117.219085
 21
17.6951
  0
LINE
  8
型材断面
  6
CONTINUOUS
 10
-113.981628
 20
11.41587
 11
-45.331778
 21
11.41587
  0
LINE
  8
型材断面
  6
CONTINUOUS
 10
23.318073
 20
11.41587
 11
-45.331778
 21
11.41587
  0
LINE
  8
型材断面
  6
CONTINUOUS
 10
23.318073
 20
58.71556
 11
-45.331778
 21
58.71556
  0
LINE
  8
型材断面
  6
CONTINUOUS
 10
-113.981628
 20
58.71556
 11
-45.331778
 21
58.71556
  0
LINE
  8
型材断面
  6
CONTINUOUS
 10
-158.873237
 20
77.264387
 11
-112.63146
 21
77.264387
  0
ARC
  8
型材断面
  6
CONTINUOUS
 62
    47
 10
113.516292
 20
11.415711
 40
0.016668
 50
179.999123
 51
270.0
  0
ARC
  8
型材断面
  6
CONTINUOUS
 62
    47
 10
113.556294
 20
11.409045
 40
0.010002
 50
270.0
 51
359.791626
  0
LINE
  8
型材断面
  6
CONTINUOUS
 62
    47
 10
113.733015
 20
11.44905
 11
113.733015
 21
12.299195
  0
LINE
  8
型材断面
  6
CONTINUOUS
 62
    47
 10
113.499627
 20
11.41571
 11
111.392967
 21
11.41571
  0
LINE
  8
型材断面
  6
CONTINUOUS
 62
    47
 10
113.733015
 20
11.415715
 11
117.049683
 21
11.415715
  0
LINE
  8
型材断面
  6
CONTINUOUS
 62
    47
 10
117.549683
 20
11.915715
 11
117.049683
 21
11.915715
  0
LINE
  8
型材断面
  6
CONTINUOUS
 62
    47
 10
111.392967
 20
12.29905
 11
111.0663
 21
12.29905
  0
LINE
  8
型材断面
  6
CONTINUOUS
 62
    47
 10
113.516295
 20
11.39905
 11
113.555955
 21
11.39905
  0
ARC
  8
型材断面
  6
CONTINUOUS
 62
    47
 10
113.516292
 20
58.715717
 40
0.016668
 50
90.0
 51
180.000877
  0
ARC
  8
型材断面
  6
CONTINUOUS
 62
    47
 10
113.556294
 20
58.722383
 40
0.010002
 50
0.208374
 51
90.0
  0
LINE
  8
型材断面
  6
CONTINUOUS
 62
    47
 10
113.733015
 20
58.68238
 11
113.733015
 21
57.832232
  0
LINE
  8
型材断面
  6
CONTINUOUS
 62
    47
 10
113.499627
 20
58.715718
 11
111.392967
 21
58.715718
  0
LINE
  8
型材断面
  6
CONTINUOUS
 62
    47
 10
113.733015
 20
58.715712
 11
117.049683
 21
58.715712
  0
LINE
  8
型材断面
  6
CONTINUOUS
 62
    47
 10
117.549683
 20
58.215712
 11
117.049683
 21
58.215712
  0
LINE
  8
型材断面
  6
CONTINUOUS
 62
    47
 10
111.392967
 20
57.832378
 11
111.0663
 21
57.832378
  0
LINE
  8
型材断面
  6
CONTINUOUS
 62
    47
 10
113.516295
 20
58.73238
 11
113.555955
 21
58.73238
  0
LINE
  8
型材断面
  6
CONTINUOUS
 10
111.392967
 20
11.41571
 11
111.392967
 21
35.065715
  0
LINE
  8
型材断面
  6
CONTINUOUS
 10
111.0663
 20
11.99905
 11
111.0663
 21
35.065715
  0
LINE
  8
型材断面
  6
CONTINUOUS
 10
109.399633
 20
11.99905
 11
109.399633
 21
35.065715
  0
LINE
  8
型材断面
  6
CONTINUOUS
 10
109.5663
 20
11.842527
 11
109.5663
 21
35.065715
  0
LINE
  8
型材断面
  6
CONTINUOUS
 10
113.733015
 20
11.415715
 11
113.733015
 21
35.065715
  0
LINE
  8
型材断面
  6
CONTINUOUS
 10
113.5663
 20
11.409045
 11
113.5663
 21
35.065715
  0
LINE
  8
型材断面
  6
CONTINUOUS
 10
117.049683
 20
11.415715
 11
117.049683
 21
35.065715
  0
LINE
  8
型材断面
  6
CONTINUOUS
 10
117.549683
 20
11.915715
 11
117.549683
 21
35.065715
  0
LINE
  8
型材断面
  6
CONTINUOUS
 10
117.549683
 20
58.215712
 11
117.549683
 21
35.065715
  0
LINE
  8
型材断面
  6
CONTINUOUS
 10
117.049683
 20
58.715712
 11
117.049683
 21
35.065715
  0
LINE
  8
型材断面
  6
CONTINUOUS
 10
113.5663
 20
58.722382
 11
113.5663
 21
35.065715
  0
LINE
  8
型材断面
  6
CONTINUOUS
 10
113.733015
 20
58.715712
 11
113.733015
 21
35.065715
  0
LINE
  8
型材断面
  6
CONTINUOUS
 10
111.392967
 20
58.715718
 11
111.392967
 21
35.065715
  0
LINE
  8
型材断面
  6
CONTINUOUS
 10
111.0663
 20
58.13238
 11
111.0663
 21
35.065715
  0
LINE
  8
型材断面
  6
CONTINUOUS
 10
109.399633
 20
58.13238
 11
109.399633
 21
35.065715
  0
LINE
  8
型材断面
  6
CONTINUOUS
 10
109.5663
 20
58.2889
 11
109.5663
 21
35.065715
  0
ARC
  8
型材断面
  6
CONTINUOUS
 62
    47
 10
-113.98178
 20
-81.287706
 40
0.016668
 50
89.999123
 51
180.0
  0
ARC
  8
型材断面
  6
CONTINUOUS
 62
    47
 10
-113.988446
 20
-81.327708
 40
0.010002
 50
180.0
 51
269.791626
  0
LINE
  8
型材断面
  6
CONTINUOUS
 62
    47
 10
-113.94844
 20
-81.504428
 11
-113.098295
 21
-81.504428
  0
LINE
  8
型材断面
  6
CONTINUOUS
 62
    47
 10
-113.98178
 20
-81.271037
 11
-113.98178
 21
-79.164377
  0
LINE
  8
型材断面
  6
CONTINUOUS
 62
    47
 10
-113.981775
 20
-81.504428
 11
-113.981775
 21
-84.821093
  0
LINE
  8
型材断面
  6
CONTINUOUS
 62
    47
 10
-113.481775
 20
-85.321093
 11
-113.481775
 21
-84.821093
  0
LINE
  8
型材断面
  6
CONTINUOUS
 62
    47
 10
-113.09844
 20
-79.164377
 11
-113.09844
 21
-78.83771
  0
LINE
  8
型材断面
  6
CONTINUOUS
 62
    47
 10
-113.99844
 20
-81.287705
 11
-113.99844
 21
-81.327365
  0
ARC
  8
型材断面
  6
CONTINUOUS
 62
    47
 10
23.318226
 20
-81.287706
 40
0.016668
 50
0.0
 51
90.000877
  0
ARC
  8
型材断面
  6
CONTINUOUS
 62
    47
 10
23.324892
 20
-81.327708
 40
0.010002
 50
270.208374
 51
360.0
  0
LINE
  8
型材断面
  6
CONTINUOUS
 62
    47
 10
23.28489
 20
-81.504428
 11
22.434742
 21
-81.504428
  0
LINE
  8
型材断面
  6
CONTINUOUS
 62
    47
 10
23.318227
 20
-81.271037
 11
23.318227
 21
-79.164377
  0
LINE
  8
型材断面
  6
CONTINUOUS
 62
    47
 10
23.318223
 20
-81.504428
 11
23.318223
 21
-84.821093
  0
LINE
  8
型材断面
  6
CONTINUOUS
 62
    47
 10
22.818223
 20
-85.321093
 11
22.818223
 21
-84.821093
  0
LINE
  8
型材断面
  6
CONTINUOUS
 62
    47
 10
22.434887
 20
-79.164377
 11
22.434887
 21
-78.83771
  0
LINE
  8
型材断面
  6
CONTINUOUS
 62
    47
 10
23.33489
 20
-81.287705
 11
23.33489
 21
-81.327365
  0
LINE
  8
型材断面
  6
CONTINUOUS
 10
-113.39844
 20
-78.83771
 11
-45.331775
 21
-78.83771
  0
LINE
  8
型材断面
  6
CONTINUOUS
 10
-113.39844
 20
-77.171043
 11
-45.331775
 21
-77.171043
  0
LINE
  8
型材断面
  6
CONTINUOUS
 10
-113.554962
 20
-77.33771
 11
-45.331775
 21
-77.33771
  0
LINE
  8
型材断面
  6
CONTINUOUS
 10
-113.98178
 20
-79.164377
 11
-45.331775
 21
-79.164377
  0
LINE
  8
型材断面
  6
CONTINUOUS
 10
-113.988445
 20
-81.33771
 11
-45.331775
 21
-81.33771
  0
LINE
  8
型材断面
  6
CONTINUOUS
 10
-113.981775
 20
-81.504428
 11
-45.331775
 21
-81.504428
  0
LINE
  8
型材断面
  6
CONTINUOUS
 10
-113.481775
 20
-85.321093
 11
-45.331775
 21
-85.321093
  0
LINE
  8
型材断面
  6
CONTINUOUS
 10
-113.981775
 20
-84.821093
 11
-45.331775
 21
-84.821093
  0
LINE
  8
型材断面
  6
CONTINUOUS
 10
22.818223
 20
-85.321093
 11
-45.331775
 21
-85.321093
  0
LINE
  8
型材断面
  6
CONTINUOUS
 10
23.318223
 20
-84.821093
 11
-45.331775
 21
-84.821093
  0
LINE
  8
型材断面
  6
CONTINUOUS
 10
23.318223
 20
-81.504428
 11
-45.331775
 21
-81.504428
  0
LINE
  8
型材断面
  6
CONTINUOUS
 10
23.324892
 20
-81.33771
 11
-45.331775
 21
-81.33771
  0
LINE
  8
型材断面
  6
CONTINUOUS
 10
22.73489
 20
-78.83771
 11
-45.331775
 21
-78.83771
  0
LINE
  8
型材断面
  6
CONTINUOUS
 10
23.318227
 20
-79.164377
 11
-45.331775
 21
-79.164377
  0
LINE
  8
型材断面
  6
CONTINUOUS
 10
22.73489
 20
-77.171043
 11
-45.331775
 21
-77.171043
  0
LINE
  8
型材断面
  6
CONTINUOUS
 10
22.89141
 20
-77.33771
 11
-45.331775
 21
-77.33771
  0
ARC
  8
型材断面
  6
DOT
 62
    47
 10
-113.98178
 20
-66.287706
 40
0.016668
 50
89.999123
 51
180.0
  0
ARC
  8
型材断面
  6
DOT
 62
    47
 10
-113.988446
 20
-66.327708
 40
0.010002
 50
180.0
 51
269.791626
  0
LINE
  8
型材断面
  6
DOT
 62
    47
 10
-113.98178
 20
-66.271037
 11
-113.98178
 21
-64.164377
  0
LINE
  8
型材断面
  6
DOT
 62
    47
 10
-113.09844
 20
-64.164377
 11
-113.09844
 21
-63.83771
  0
LINE
  8
型材断面
  6
DOT
 62
    47
 10
-113.99844
 20
-66.287705
 11
-113.99844
 21
-66.327365
  0
ARC
  8
型材断面
  6
DOT
 62
    47
 10
23.318226
 20
-66.287706
 40
0.016668
 50
0.0
 51
90.000877
  0
ARC
  8
型材断面
  6
DOT
 62
    47
 10
23.324892
 20
-66.327708
 40
0.010002
 50
270.208374
 51
360.0
  0
LINE
  8
型材断面
  6
DOT
 62
    47
 10
23.318227
 20
-66.271037
 11
23.318227
 21
-64.164377
  0
LINE
  8
型材断面
  6
DOT
 62
    47
 10
22.434887
 20
-64.164377
 11
22.434887
 21
-63.83771
  0
LINE
  8
型材断面
  6
DOT
 62
    47
 10
23.33489
 20
-66.287705
 11
23.33489
 21
-66.327365
  0
LINE
  8
型材断面
  6
DOT
 10
-113.39844
 20
-62.171043
 11
-45.331775
 21
-62.171043
  0
LINE
  8
型材断面
  6
DOT
 10
-113.554962
 20
-62.33771
 11
-45.331775
 21
-62.33771
  0
LINE
  8
型材断面
  6
DOT
 10
-113.39844
 20
-63.83771
 11
-45.331775
 21
-63.83771
  0
LINE
  8
型材断面
  6
DOT
 10
-113.98178
 20
-64.164377
 11
-45.331775
 21
-64.164377
  0
LINE
  8
型材断面
  6
DOT
 10
-113.988445
 20
-66.33771
 11
-45.331775
 21
-66.33771
  0
LINE
  8
型材断面
  6
DOT
 10
23.324892
 20
-66.33771
 11
-45.331775
 21
-66.33771
  0
LINE
  8
型材断面
  6
DOT
 10
23.318227
 20
-64.164377
 11
-45.331775
 21
-64.164377
  0
LINE
  8
型材断面
  6
DOT
 10
22.73489
 20
-63.83771
 11
-45.331775
 21
-63.83771
  0
LINE
  8
型材断面
  6
DOT
 10
22.89141
 20
-62.33771
 11
-45.331775
 21
-62.33771
  0
LINE
  8
型材断面
  6
DOT
 10
22.73489
 20
-62.171043
 11
-45.331775
 21
-62.171043
  0
INSERT
  2
*GRP_0018
  8
型材断面
  6
CONTINUOUS
 10
0.0
 20
0.0
  0
INSERT
  2
*GRP_0019
  8
型材断面
  6
CONTINUOUS
 10
0.0
 20
0.0
  0
INSERT
  2
*GRP_0020
  8
型材断面
  6
CONTINUOUS
 10
0.0
 20
0.0
  0
INSERT
  2
*GRP_0021
  8
型材断面
  6
CONTINUOUS
 10
0.0
 20
0.0
  0
LINE
  8
型材断面
  6
DASHDOT
 10
-78.790107
 20
13.399048
 11
-78.790107
 21
56.73238
  0
LINE
  8
型材断面
  6
DASHDOT
 10
-11.873448
 20
13.399048
 11
-11.873448
 21
56.73238
  0
LINE
  8
型材断面
  6
CONTINUOUS
 10
-28.185945
 20
14.342527
 11
-28.185945
 21
11.842527
  0
LINE
  8
型材断面
  6
CONTINUOUS
 10
-29.01928
 20
14.342527
 11
-29.01928
 21
11.842527
  0
LINE
  8
型材断面
  6
CONTINUOUS
 10
5.14739
 20
11.842527
 11
5.14739
 21
14.342527
  0
LINE
  8
型材断面
  6
CONTINUOUS
 10
4.314055
 20
11.842527
 11
4.314055
 21
14.342527
  0
LINE
  8
型材断面
  6
CONTINUOUS
 10
-62.47761
 20
14.342527
 11
-62.47761
 21
11.842527
  0
LINE
  8
型材断面
  6
CONTINUOUS
 10
-61.644275
 20
14.342527
 11
-61.644275
 21
11.842527
  0
LINE
  8
型材断面
  6
CONTINUOUS
 10
-95.810945
 20
11.842527
 11
-95.810945
 21
14.342527
  0
LINE
  8
型材断面
  6
CONTINUOUS
 10
-94.97761
 20
11.842527
 11
-94.97761
 21
14.342527
  0
LINE
  8
型材断面
  6
CONTINUOUS
 10
-28.185945
 20
55.788903
 11
-28.185945
 21
58.288903
  0
LINE
  8
型材断面
  6
CONTINUOUS
 10
-29.01928
 20
55.788903
 11
-29.01928
 21
58.288903
  0
LINE
  8
型材断面
  6
CONTINUOUS
 10
5.14739
 20
58.288903
 11
5.14739
 21
55.788903
  0
LINE
  8
型材断面
  6
CONTINUOUS
 10
4.314055
 20
58.288903
 11
4.314055
 21
55.788903
  0
LINE
  8
型材断面
  6
CONTINUOUS
 10
-62.47761
 20
55.788903
 11
-62.47761
 21
58.288903
  0
LINE
  8
型材断面
  6
CONTINUOUS
 10
-61.644275
 20
55.788903
 11
-61.644275
 21
58.288903
  0
LINE
  8
型材断面
  6
CONTINUOUS
 10
-95.810945
 20
58.288903
 11
-95.810945
 21
55.788903
  0
LINE
  8
型材断面
  6
CONTINUOUS
 10
-94.97761
 20
58.288903
 11
-94.97761
 21
55.788903
  0
LINE
  8
型材断面
  6
CONTINUOUS
 10
-28.185945
 20
55.788903
 11
4.314055
 21
55.788903
  0
LINE
  8
型材断面
  6
CONTINUOUS
 10
-28.185945
 20
14.342527
 11
4.314055
 21
14.342527
  0
LINE
  8
型材断面
  6
CONTINUOUS
 10
-61.644275
 20
14.342527
 11
-29.01928
 21
14.342527
  0
LINE
  8
型材断面
  6
CONTINUOUS
 10
-61.644275
 20
55.788903
 11
-29.01928
 21
55.788903
  0
LINE
  8
型材断面
  6
CONTINUOUS
 10
-94.97761
 20
55.788903
 11
-62.47761
 21
55.788903
  0
LINE
  8
型材断面
  6
CONTINUOUS
 10
-94.97761
 20
14.342527
 11
-62.47761
 21
14.342527
  0
LINE
  8
型材断面
  6
CONTINUOUS
 10
-44.081778
 20
54.95557
 11
-46.581778
 21
54.95557
  0
LINE
  8
型材断面
  6
CONTINUOUS
 10
-44.081778
 20
54.95557
 11
-44.081778
 21
15.17586
  0
LINE
  8
型材断面
  6
CONTINUOUS
 10
-44.081778
 20
15.17586
 11
-46.581778
 21
15.17586
  0
LINE
  8
型材断面
  6
CONTINUOUS
 10
-46.581778
 20
54.95557
 11
-46.581778
 21
15.17586
  0
LINE
  8
型材断面
  6
CONTINUOUS
 10
-80.040107
 20
54.95557
 11
-77.540107
 21
54.95557
  0
LINE
  8
型材断面
  6
CONTINUOUS
 10
-80.040107
 20
54.95557
 11
-80.040107
 21
15.17586
  0
LINE
  8
型材断面
  6
CONTINUOUS
 10
-80.040107
 20
15.17586
 11
-77.540107
 21
15.17586
  0
LINE
  8
型材断面
  6
CONTINUOUS
 10
-77.540107
 20
54.95557
 11
-77.540107
 21
15.17586
  0
LINE
  8
型材断面
  6
CONTINUOUS
 10
23.318075
 20
11.41587
 11
23.318075
 21
35.065715
  0
LINE
  8
型材断面
  6
CONTINUOUS
 10
23.318075
 20
58.71556
 11
23.318075
 21
35.065715
  0
LINE
  8
型材断面
  6
CONTINUOUS
 10
22.89141
 20
35.48238
 11
20.39141
 21
35.48238
  0
LINE
  8
型材断面
  6
CONTINUOUS
 10
22.89141
 20
34.649048
 11
20.39141
 21
34.649048
  0
LINE
  8
型材断面
  6
CONTINUOUS
 10
22.655712
 20
11.842527
 11
22.89141
 21
12.078235
  0
LINE
  8
型材断面
  6
CONTINUOUS
 10
20.39141
 20
34.649048
 11
20.39141
 21
14.57823
  0
LINE
  8
型材断面
  6
CONTINUOUS
 10
20.39141
 20
14.57823
 11
20.155708
 21
14.342527
  0
LINE
  8
型材断面
  6
CONTINUOUS
 10
20.155708
 20
14.342527
 11
22.655712
 21
11.842527
  0
LINE
  8
型材断面
  6
CONTINUOUS
 10
20.39141
 20
14.57823
 11
22.89141
 21
12.078235
  0
LINE
  8
型材断面
  6
CONTINUOUS
 10
23.318075
 20
11.41587
 11
22.773562
 21
11.960383
  0
LINE
  8
型材断面
  6
CONTINUOUS
 10
22.655712
 20
58.288903
 11
22.89141
 21
58.053195
  0
LINE
  8
型材断面
  6
CONTINUOUS
 10
20.39141
 20
55.5532
 11
20.155708
 21
55.788903
  0
LINE
  8
型材断面
  6
CONTINUOUS
 10
23.318075
 20
58.71556
 11
22.773562
 21
58.171047
  0
LINE
  8
型材断面
  6
CONTINUOUS
 10
20.39141
 20
35.48238
 11
20.39141
 21
55.5532
  0
LINE
  8
型材断面
  6
CONTINUOUS
 10
20.39141
 20
55.5532
 11
22.89141
 21
58.053195
  0
LINE
  8
型材断面
  6
CONTINUOUS
 10
22.89141
 20
12.078235
 11
22.89141
 21
58.053195
  0
LINE
  8
型材断面
  6
CONTINUOUS
 10
20.155708
 20
55.788903
 11
22.655712
 21
58.288903
  0
LINE
  8
型材断面
  6
CONTINUOUS
 10
-113.98163
 20
11.41587
 11
-113.98163
 21
35.065715
  0
LINE
  8
型材断面
  6
CONTINUOUS
 10
-113.98163
 20
58.71556
 11
-113.98163
 21
35.065715
  0
LINE
  8
型材断面
  6
CONTINUOUS
 10
-113.554965
 20
35.48238
 11
-111.054965
 21
35.48238
  0
LINE
  8
型材断面
  6
CONTINUOUS
 10
-113.554965
 20
34.649048
 11
-111.054965
 21
34.649048
  0
LINE
  8
型材断面
  6
CONTINUOUS
 10
-113.319268
 20
11.842527
 11
-113.554965
 21
12.078235
  0
LINE
  8
型材断面
  6
CONTINUOUS
 10
-111.054965
 20
34.649048
 11
-111.054965
 21
14.57823
  0
LINE
  8
型材断面
  6
CONTINUOUS
 10
-111.054965
 20
14.57823
 11
-110.819262
 21
14.342527
  0
LINE
  8
型材断面
  6
CONTINUOUS
 10
-110.819262
 20
14.342527
 11
-113.319268
 21
11.842527
  0
LINE
  8
型材断面
  6
CONTINUOUS
 10
-111.054965
 20
14.57823
 11
-113.554965
 21
12.078235
  0
LINE
  8
型材断面
  6
CONTINUOUS
 10
-113.98163
 20
11.41587
 11
-113.437118
 21
11.960383
  0
LINE
  8
型材断面
  6
CONTINUOUS
 10
-113.319268
 20
58.288903
 11
-113.554965
 21
58.053195
  0
LINE
  8
型材断面
  6
CONTINUOUS
 10
-111.054965
 20
55.5532
 11
-110.819262
 21
55.788903
  0
LINE
  8
型材断面
  6
CONTINUOUS
 10
-113.98163
 20
58.71556
 11
-113.437118
 21
58.171047
  0
LINE
  8
型材断面
  6
CONTINUOUS
 10
-111.054965
 20
35.48238
 11
-111.054965
 21
55.5532
  0
LINE
  8
型材断面
  6
CONTINUOUS
 10
-111.054965
 20
55.5532
 11
-113.554965
 21
58.053195
  0
LINE
  8
型材断面
  6
CONTINUOUS
 10
-113.554965
 20
12.078235
 11
-113.554965
 21
58.053195
  0
LINE
  8
型材断面
  6
CONTINUOUS
 10
-110.819262
 20
55.788903
 11
-113.319268
 21
58.288903
  0
LINE
  8
型材断面
  6
CONTINUOUS
 10
-95.810945
 20
55.788903
 11
-110.819262
 21
55.788903
  0
LINE
  8
型材断面
  6
CONTINUOUS
 10
-95.810945
 20
14.342527
 11
-110.819262
 21
14.342527
  0
LINE
  8
型材断面
  6
CONTINUOUS
 10
5.14739
 20
14.342527
 11
20.155708
 21
14.342527
  0
LINE
  8
型材断面
  6
CONTINUOUS
 10
-113.319268
 20
11.842527
 11
22.655712
 21
11.842527
  0
LINE
  8
型材断面
  6
CONTINUOUS
 10
-113.319268
 20
58.288903
 11
22.655712
 21
58.288903
  0
LINE
  8
型材断面
  6
CONTINUOUS
 10
5.14739
 20
55.788903
 11
20.155708
 21
55.788903
  0
LINE
  8
型材断面
  6
CONTINUOUS
 10
-10.623448
 20
54.95557
 11
-13.123448
 21
54.95557
  0
LINE
  8
型材断面
  6
CONTINUOUS
 10
-10.623448
 20
54.95557
 11
-10.623448
 21
15.17586
  0
LINE
  8
型材断面
  6
CONTINUOUS
 10
-10.623448
 20
15.17586
 11
-13.123448
 21
15.17586
  0
LINE
  8
型材断面
  6
CONTINUOUS
 10
-13.123448
 20
54.95557
 11
-13.123448
 21
15.17586
  0
TEXT
  7
TextStyle03
  8
文字
  6
CONTINUOUS
 10
97.9
 20
-86.1
  1
網入り6.8t
 40
3.0
 72
     5
 11
114.5875
 21
-86.1
  0
TEXT
  7
TextStyle03
  8
文字
  6
CONTINUOUS
 10
-53.425
 20
67.2
  1
可動装置側
 40
3.0
 72
     5
 11
-36.925
 21
67.2
  0
TEXT
  7
TextStyle03
  8
文字
  6
CONTINUOUS
 10
-53.425
 20
-0.075
  1
可動装置側
 40
3.0
 72
     5
 11
-36.925
 21
-0.075
  0
TEXT
  7
TextStyle03
  8
文字
  6
CONTINUOUS
 10
104.575
 20
-90.775
  1
×４枚
 40
3.0
 72
     5
 11
114.325
 21
-90.775
  0
TEXT
  7
TextStyle03
  8
文字
  6
CONTINUOUS
 10
-150.05
 20
93.325
  1
はケーシング位置を示す
 40
3.0
 72
     5
 11
-113.3
 21
93.325
  0
TEXT
  7
TextStyle03
  8
文字
  6
CONTINUOUS
 10
-150.05
 20
89.95
  1
４ヶ所中1ヶ所に設定
 40
3.0
 72
     5
 11
-118.3625
 21
89.95
  0
TEXT
  7
TextStyle03
  8
文字
  6
CONTINUOUS
 10
-150.05
 20
98.85
  1
は排水穴位置を示す
 40
3.0
 72
     5
 11
-120.05
 21
98.85
  0
TEXT
  7
TextStyle03
  8
文字
  6
CONTINUOUS
 10
-149.55
 20
23.975
  1
アンカーピッチ
 40
3.0
 50
90.0
 72
     5
 11
-149.55
 21
47.225
  0
TEXT
  7
TextStyle03
  8
文字
  6
CONTINUOUS
 10
-103.9
 20
94.75
  1
アンカーピッチ
 40
3.0
 72
     5
 11
-80.65
 21
94.75
  0
TEXT
  7
TextStyle03
  8
文字
  6
CONTINUOUS
 10
-153.775
 20
83.975
  1
アンカー数量　１６ヶ所
 40
3.0
 72
     5
 11
-117.025
 21
83.975
  0
TEXT
  7
TextStyle03
  8
文字
  6
CONTINUOUS
 10
-153.775
 20
78.2
  1
アームユニット数　４ヶ所
 40
3.0
 72
     5
 11
-113.65
 21
78.2
  0
LINE
  8
文字
  6
CONTINUOUS
 10
109.399633
 20
70.502383
 11
109.399633
 21
59.95242
  0
LINE
  8
文字
  6
CONTINUOUS
 10
117.049683
 20
70.502383
 11
117.049683
 21
60.0175
  0
LINE
  8
文字
  6
CONTINUOUS
 10
34.570135
 20
-77.171043
 11
24.020173
 21
-77.171043
  0
LINE
  8
文字
  6
CONTINUOUS
 10
34.570135
 20
-84.821093
 11
24.085255
 21
-84.821093
  0
LINE
  8
文字
  6
CONTINUOUS
 10
34.570135
 20
-62.171043
 11
24.020173
 21
-62.171043
  0
LINE
  8
文字
  6
CONTINUOUS
 10
116.421445
 20
-41.628865
 11
116.421445
 21
-47.937367
  0
LINE
  8
文字
  6
CONTINUOUS
 10
84.128112
 20
-41.628865
 11
84.128112
 21
-47.937367
  0
TEXT
  7
TextStyle03
  8
文字
  6
CONTINUOUS
 10
60.575
 20
125.25
  1
シリーズ：ＴＦ２ＦＬ
 40
5.0
 72
     5
 11
116.2
 21
125.25
  0
TEXT
  7
TextStyle03
  8
文字
  6
CONTINUOUS
 10
60.575
 20
119.625
  1
　　　　　（上下可動）1300×4000タイプ
 40
5.0
 72
     5
 11
166.825
 21
119.625
  0
TEXT
  7
TextStyle03
  8
文字
  6
CONTINUOUS
 10
60.575
 20
114.0
  1
図面名　：外観姿図
 40
5.0
 72
     5
 11
110.575
 21
114.0
  0
TEXT
  7
TextStyle03
  8
文字
  6
CONTINUOUS
 10
60.575
 20
108.375
  1
　　　　　　
 40
5.0
 72
     5
 11
93.7
 21
108.375
  0
TEXT
  7
TextStyle03
  8
文字
  6
CONTINUOUS
 10
60.725
 20
104.525
  1
ＮＳコード：ＮＳＦＺＬ
 40
5.0
 72
     5
 11
121.975
 21
104.525
  0
INSERT
  2
*DIM_0001
  8
寸法
  6
CONTINUOUS
 10
0.0
 20
0.0
  0
INSERT
  2
*DIM_0002
  8
寸法
  6
CONTINUOUS
 10
0.0
 20
0.0
  0
INSERT
  2
*DIM_0003
  8
寸法
  6
CONTINUOUS
 10
0.0
 20
0.0
  0
INSERT
  2
*DIM_0004
  8
寸法
  6
CONTINUOUS
 10
0.0
 20
0.0
  0
INSERT
  2
*DIM_0005
  8
寸法
  6
CONTINUOUS
 10
0.0
 20
0.0
  0
INSERT
  2
*DIM_0006
  8
寸法
  6
CONTINUOUS
 10
0.0
 20
0.0
  0
INSERT
  2
*DIM_0007
  8
寸法
  6
CONTINUOUS
 10
0.0
 20
0.0
  0
INSERT
  2
*DIM_0008
  8
寸法
  6
CONTINUOUS
 10
0.0
 20
0.0
  0
INSERT
  2
*DIM_0009
  8
寸法
  6
CONTINUOUS
 10
0.0
 20
0.0
  0
INSERT
  2
*DIM_0010
  8
寸法
  6
CONTINUOUS
 10
0.0
 20
0.0
  0
INSERT
  2
*DIM_0011
  8
寸法
  6
CONTINUOUS
 10
0.0
 20
0.0
  0
INSERT
  2
*DIM_0012
  8
寸法
  6
CONTINUOUS
 10
0.0
 20
0.0
  0
INSERT
  2
*DIM_0013
  8
寸法
  6
CONTINUOUS
 10
0.0
 20
0.0
  0
INSERT
  2
*DIM_0014
  8
寸法
  6
CONTINUOUS
 10
0.0
 20
0.0
  0
INSERT
  2
*DIM_0015
  8
寸法
  6
CONTINUOUS
 10
0.0
 20
0.0
  0
INSERT
  2
*DIM_0016
  8
寸法
  6
CONTINUOUS
 10
0.0
 20
0.0
  0
INSERT
  2
*DIM_0017
  8
寸法
  6
CONTINUOUS
 10
0.0
 20
0.0
  0
INSERT
  2
*DIM_0022
  8
寸法
  6
CONTINUOUS
 10
0.0
 20
0.0
  0
INSERT
  2
*DIM_0023
  8
寸法
  6
CONTINUOUS
 10
0.0
 20
0.0
  0
INSERT
  2
*DIM_0024
  8
寸法
  6
CONTINUOUS
 10
0.0
 20
0.0
  0
LINE
  8
別途部材
  6
CONTINUOUS
 62
    47
 10
109.499633
 20
11.842527
 11
109.5663
 21
11.842527
  0
ARC
  8
別途部材
  6
CONTINUOUS
 62
    47
 10
109.49963
 20
11.942527
 40
0.1
 50
180.0
 51
270.0
  0
LINE
  8
別途部材
  6
CONTINUOUS
 62
    47
 10
109.399633
 20
11.942527
 11
109.399633
 21
14.309195
  0
LINE
  8
別途部材
  6
CONTINUOUS
 62
    47
 10
111.0663
 20
11.99905
 11
109.5663
 21
11.99905
  0
LINE
  8
別途部材
  6
CONTINUOUS
 62
    47
 10
109.499633
 20
58.2889
 11
109.5663
 21
58.2889
  0
ARC
  8
別途部材
  6
CONTINUOUS
 62
    47
 10
109.49963
 20
58.188902
 40
0.1
 50
90.0
 51
180.0
  0
LINE
  8
別途部材
  6
CONTINUOUS
 62
    47
 10
109.399633
 20
58.1889
 11
109.399633
 21
55.822235
  0
LINE
  8
別途部材
  6
CONTINUOUS
 62
    47
 10
111.0663
 20
58.13238
 11
109.5663
 21
58.13238
  0
LINE
  8
別途部材
  6
CONTINUOUS
 62
    47
 10
-113.554962
 20
-77.271043
 11
-113.554962
 21
-77.33771
  0
ARC
  8
別途部材
  6
CONTINUOUS
 62
    47
 10
-113.454964
 20
-77.271044
 40
0.1
 50
90.0
 51
180.0
  0
LINE
  8
別途部材
  6
CONTINUOUS
 62
    47
 10
-113.454962
 20
-77.171043
 11
-111.088295
 21
-77.171043
  0
LINE
  8
別途部材
  6
CONTINUOUS
 62
    47
 10
-113.39844
 20
-78.83771
 11
-113.39844
 21
-77.33771
  0
LINE
  8
別途部材
  6
CONTINUOUS
 62
    47
 10
22.89141
 20
-77.271043
 11
22.89141
 21
-77.33771
  0
ARC
  8
別途部材
  6
CONTINUOUS
 62
    47
 10
22.791411
 20
-77.271044
 40
0.1
 50
0.0
 51
90.0
  0
LINE
  8
別途部材
  6
CONTINUOUS
 62
    47
 10
22.79141
 20
-77.171043
 11
20.424745
 21
-77.171043
  0
LINE
  8
別途部材
  6
CONTINUOUS
 62
    47
 10
22.73489
 20
-78.83771
 11
22.73489
 21
-77.33771
  0
LINE
  8
別途部材
  6
DOT
 62
    47
 10
-113.554962
 20
-62.271043
 11
-113.554962
 21
-62.33771
  0
ARC
  8
別途部材
  6
DOT
 62
    47
 10
-113.454964
 20
-62.271044
 40
0.1
 50
90.0
 51
180.0
  0
LINE
  8
別途部材
  6
DOT
 62
    47
 10
-113.454962
 20
-62.171043
 11
-111.088295
 21
-62.171043
  0
LINE
  8
別途部材
  6
DOT
 62
    47
 10
-113.39844
 20
-63.83771
 11
-113.39844
 21
-62.33771
  0
LINE
  8
別途部材
  6
DOT
 62
    47
 10
22.89141
 20
-62.271043
 11
22.89141
 21
-62.33771
  0
ARC
  8
別途部材
  6
DOT
 62
    47
 10
22.791411
 20
-62.271044
 40
0.1
 50
0.0
 51
90.0
  0
LINE
  8
別途部材
  6
DOT
 62
    47
 10
22.79141
 20
-62.171043
 11
20.424745
 21
-62.171043
  0
LINE
  8
別途部材
  6
DOT
 62
    47
 10
22.73489
 20
-63.83771
 11
22.73489
 21
-62.33771
  0
LINE
  8
曲げ物
  6
CONTINUOUS
 10
116.421445
 20
-92.533713
 11
116.421445
 21
-49.867045
  0
LINE
  8
曲げ物
  6
CONTINUOUS
 10
6.06062
 20
37.022003
 11
2.365308
 21
33.32669
  0
LINE
  8
曲げ物
  6
CONTINUOUS
 10
5.35715
 20
35.485893
 11
3.90142
 21
34.030163
  0
LINE
  8
曲げ物
  6
CONTINUOUS
 10
4.52451
 20
36.318533
 11
3.06878
 21
34.862803
  0
LINE
  8
曲げ物
  6
CONTINUOUS
 10
-25.093697
 20
37.022003
 11
-28.78901
 21
33.32669
  0
LINE
  8
曲げ物
  6
CONTINUOUS
 10
-25.797167
 20
35.485893
 11
-27.252898
 21
34.030163
  0
LINE
  8
曲げ物
  6
CONTINUOUS
 10
-26.629807
 20
36.318533
 11
-28.085538
 21
34.862803
  0
LINE
  8
曲げ物
  6
CONTINUOUS
 10
-59.757963
 20
37.022003
 11
-63.453275
 21
33.32669
  0
LINE
  8
曲げ物
  6
CONTINUOUS
 10
-60.461432
 20
35.485893
 11
-61.917162
 21
34.030163
  0
LINE
  8
曲げ物
  6
CONTINUOUS
 10
-61.294073
 20
36.318533
 11
-62.749802
 21
34.862803
  0
LINE
  8
曲げ物
  6
CONTINUOUS
 10
-92.98952
 20
37.022003
 11
-96.684832
 21
33.32669
  0
LINE
  8
曲げ物
  6
CONTINUOUS
 10
-93.69299
 20
35.485893
 11
-95.14872
 21
34.030163
  0
LINE
  8
曲げ物
  6
CONTINUOUS
 10
-94.52563
 20
36.318533
 11
-95.98136
 21
34.862803
  0
LINE
  8
曲げ物
  6
CONTINUOUS
 10
84.128112
 20
-92.533713
 11
84.128112
 21
-49.867045
  0
LINE
  8
曲げ物
  6
CONTINUOUS
 10
116.421445
 20
-49.867045
 11
84.128112
 21
-49.867045
  0
LINE
  8
曲げ物
  6
CONTINUOUS
 10
116.421445
 20
-92.533713
 11
84.128112
 21
-92.533713
  0
ENDSEC
  0
EOF
