  0
SECTION
  2
HEADER
  9
$EXTMIN
 10
-210.0
 20
-148.5
  9
$EXTMAX
 10
210.0
 20
148.5
  9
$PDMODE
 70
    32
  9
$PDSIZE
 40
1.5
  9
$LTSCALE
 40
10.0
  0
ENDSEC
  0
SECTION
  2
TABLES
  0
TABLE
  2
LTYPE
 70
    15
  0
LTYPE
  2
CONTINUOUS
 70
    64
  3
実線
 72
    65
 73
     0
 40
0.0
  0
LTYPE
  2
DASHED
 70
    64
  3
破線A
 72
    65
 73
     2
 40
0.6
 49
0.4
 49
-0.2
  0
LTYPE
  2
DASHEDX2
 70
    64
  3
破線B
 72
    65
 73
     2
 40
1.3
 49
0.9
 49
-0.4
  0
LTYPE
  2
DASHDOT
 70
    64
  3
１点鎖線A
 72
    65
 73
     4
 40
0.5375
 49
0.375
 49
-0.05
 49
0.0625
 49
-0.05
  0
LTYPE
  2
DASHDOTX2
 70
    64
  3
１点鎖線B
 72
    65
 73
     4
 40
1.075
 49
0.75
 49
-0.1
 49
0.125
 49
-0.1
  0
LTYPE
  2
DIVIDE2
 70
    64
  3
２点鎖線A
 72
    65
 73
     6
 40
0.5125
 49
0.3
 49
-0.0375
 49
0.05
 49
-0.0375
 49
0.05
 49
-0.0375
  0
LTYPE
  2
DIVIDE
 70
    64
  3
２点鎖線B
 72
    65
 73
     6
 40
1.05
 49
0.55
 49
-0.1
 49
0.1
 49
-0.1
 49
0.1
 49
-0.1
  0
LTYPE
  2
DOT
 70
    64
  3
点線A
 72
    65
 73
     2
 40
0.1125
 49
0.0625
 49
-0.05
  0
LTYPE
  2
DOTX2
 70
    64
  3
点線B
 72
    65
 73
     2
 40
0.275
 49
0.15
 49
-0.125
  0
LTYPE
  2
CONTINUOUS
 70
    64
  3
実線
 72
    65
 73
     0
 40
0.0
  0
LTYPE
  2
CONTINUOUS
 70
    64
  3
実線
 72
    65
 73
     0
 40
0.0
  0
LTYPE
  2
CONTINUOUS
 70
    64
  3
実線
 72
    65
 73
     0
 40
0.0
  0
LTYPE
  2
CONTINUOUS
 70
    64
  3
実線
 72
    65
 73
     0
 40
0.0
  0
LTYPE
  2
CONTINUOUS
 70
    64
  3
実線
 72
    65
 73
     0
 40
0.0
  0
LTYPE
  2
CONTINUOUS
 70
    64
  3
実線
 72
    65
 73
     0
 40
0.0
  0
ENDTAB
  0
TABLE
  2
LAYER
 70
    34
  0
LAYER
  2
通り芯
 70
     0
 62
    15
  6
CONTINUOUS
  0
LAYER
  2
補助線
 70
     0
 62
    16
  6
DOT
  0
LAYER
  2
躯体
 70
     0
 62
    31
  6
CONTINUOUS
  0
LAYER
  2
型材
 70
     0
 62
    32
  6
CONTINUOUS
  0
LAYER
  2
型材断面
 70
     0
 62
    47
  6
CONTINUOUS
  0
LAYER
  2
ガラス
 70
     0
 62
    48
  6
CONTINUOUS
  0
LAYER
  2
ゴム等
 70
     0
 62
    63
  6
CONTINUOUS
  0
LAYER
  2
ボルト／ビス
 70
     0
 62
    64
  6
CONTINUOUS
  0
LAYER
  2
文字
 70
     0
 62
    79
  6
CONTINUOUS
  0
LAYER
  2
寸法
 70
     0
 62
    80
  6
CONTINUOUS
  0
LAYER
  2
ﾊｯﾁﾝｸﾞ
 70
     0
 62
    95
  6
CONTINUOUS
  0
LAYER
  2
別途部材
 70
     0
 62
    96
  6
CONTINUOUS
  0
LAYER
  2
曲げ物
 70
     0
 62
   111
  6
CONTINUOUS
  0
LAYER
  2
鉄骨等
 70
     0
 62
   112
  6
CONTINUOUS
  0
LAYER
  2
St
 70
     0
 62
   127
  6
CONTINUOUS
  0
LAYER
  2
その他部品等
 70
     0
 62
   128
  6
CONTINUOUS
  0
LAYER
  2
ｶﾞｽｹｯﾄ
 70
     0
 62
   143
  6
CONTINUOUS
  0
LAYER
  2
ｽｹｯﾁ
 70
     0
 62
    14
  6
CONTINUOUS
  0
LAYER
  2
0
 70
     0
 62
    17
  6
CONTINUOUS
  0
LAYER
  2
1
 70
     0
 62
    30
  6
CONTINUOUS
  0
LAYER
  2
4
 70
     0
 62
    33
  6
CONTINUOUS
  0
LAYER
  2
ﾚｲﾔ3
 70
     0
 62
    46
  6
CONTINUOUS
  0
LAYER
  2
外形線
 70
     0
 62
    49
  6
CONTINUOUS
  0
LAYER
  2
部品
 70
     0
 62
    14
  6
CONTINUOUS
  0
LAYER
  2
サッシ芯
 70
     0
 62
    17
  6
DASHDOTX2
  0
LAYER
  2
寸法線
 70
     0
 62
    62
  6
CONTINUOUS
  0
LAYER
  2
姿図外形線
 70
     0
 62
    65
  6
CONTINUOUS
  0
LAYER
  2
姿補助線
 70
     0
 62
    30
  6
CONTINUOUS
  0
LAYER
  2
透視線
 70
     0
 62
    78
  6
DOT
  0
LAYER
  2
用紙
 70
     0
 62
    81
  6
CONTINUOUS
  0
LAYER
  2
実線図枠
 70
     0
 62
    94
  6
CONTINUOUS
  0
LAYER
  2
補助図枠
 70
     0
 62
    97
  6
CONTINUOUS
  0
LAYER
  2
建具記号
 70
     0
 62
   110
  6
CONTINUOUS
  0
LAYER
  2
補助文字
 70
     0
 62
   113
  6
CONTINUOUS
  0
ENDTAB
  0
TABLE
  2
STYLE
 70
    10
  0
STYLE
  2
STANDARD
 70
     0
 40
1.0
 41
1.0
 42
1.0
 50
0.0
 71
     0
  3
TXT
  4
BIGFONT
  0
STYLE
  2
TATE
 70
     4
 40
1.0
 41
1.0
 42
1.0
 50
0.0
 71
     0
  3
TXT
  4
BIGFONT
  0
STYLE
  2
TextStyle03
 70
     0
 40
1.0
 41
1.0
 42
1.0
 50
0.0
 71
     0
  3
MONOTXT
  4
BIGFONT
  0
STYLE
  2
TextStyle04
 70
     0
 40
1.0
 41
1.0
 42
1.0
 50
0.0
 71
     0
  3
MONOTXT
  4
BIGFONT
  0
STYLE
  2
TextStyle05
 70
     0
 40
1.0
 41
1.0
 42
1.0
 50
0.0
 71
     0
  3
MONOTXT
  4
BIGFONT
  0
STYLE
  2
TextStyle06
 70
     0
 40
1.0
 41
1.0
 42
1.0
 50
0.0
 71
     0
  3
MONOTXT
  4
BIGFONT
  0
STYLE
  2
TextStyle07
 70
     0
 40
1.0
 41
1.0
 42
1.0
 50
0.0
 71
     0
  3
MONOTXT
  4
BIGFONT
  0
STYLE
  2
TextStyle08
 70
     0
 40
1.0
 41
1.0
 42
1.0
 50
0.0
 71
     0
  3
MONOTXT
  4
BIGFONT
  0
STYLE
  2
TextStyle09
 70
     0
 40
1.0
 41
1.0
 42
1.0
 50
0.0
 71
     0
  3
MONOTXT
  4
BIGFONT
  0
STYLE
  2
TextStyle10
 70
     0
 40
1.0
 41
1.0
 42
1.0
 50
0.0
 71
     0
  3
MONOTXT
  4
BIGFONT
  0
ENDTAB
  0
ENDSEC
  0
SECTION
  2
BLOCKS
  0
BLOCK
  2
*GRP_0001
 70
    65
 10
0.0
 20
0.0
  0
LINE
  8
型材断面
  6
CONTINUOUS
 10
195.0
 20
133.5
 11
195.0
 21
-133.5
  0
LINE
  8
型材断面
  6
CONTINUOUS
 10
195.0
 20
-133.5
 11
-185.0
 21
-133.5
  0
LINE
  8
型材断面
  6
CONTINUOUS
 10
-185.0
 20
-133.5
 11
-185.0
 21
133.5
  0
LINE
  8
型材断面
  6
CONTINUOUS
 10
195.0
 20
133.5
 11
-185.0
 21
133.5
  0
LINE
  8
型材断面
  6
CONTINUOUS
 10
145.0
 20
-133.5
 11
145.0
 21
-118.5
  0
LINE
  8
型材断面
  6
CONTINUOUS
 10
195.0
 20
-118.5
 11
145.0
 21
-118.5
  0
ENDBLK
  0
BLOCK
  2
*DIM_0002
 70
    65
 10
0.0
 20
0.0
  0
LINE
  8
寸法
  6
BYBLOCK
 62
     0
 10
149.3695
 20
-49.867045
 11
157.804348
 21
-49.867045
  0
LINE
  8
寸法
  6
BYBLOCK
 62
     0
 10
149.3695
 20
-92.533713
 11
157.804348
 21
-92.533713
  0
LINE
  8
寸法
  6
BYBLOCK
 62
     0
 10
157.804348
 20
-49.867045
 11
157.804348
 21
-92.533713
  0
POINT
  8
寸法
 62
     0
 10
157.804348
 20
-49.867045
  0
POINT
  8
寸法
 62
     0
 10
157.804348
 20
-92.533713
  0
TEXT
  7
TextStyle03
  8
寸法
  6
CONTINUOUS
 62
     0
 10
157.45
 20
-74.48125
  1
1280
 40
3.0
 50
90.0
 72
     5
 11
157.45
 21
-67.91875
  0
ENDBLK
  0
BLOCK
  2
*DIM_0003
 70
    65
 10
0.0
 20
0.0
  0
LINE
  8
寸法
  6
BYBLOCK
 62
     0
 10
53.282945
 20
-22.536362
 11
-113.383723
 21
-22.536362
  0
POINT
  8
寸法
 62
     0
 10
53.282945
 20
-22.536362
  0
POINT
  8
寸法
 62
     0
 10
-113.383723
 20
-22.536362
  0
TEXT
  7
TextStyle03
  8
寸法
  6
CONTINUOUS
 62
     0
 10
-41.76875
 20
-22.175
  1
呼称寸法　5000
 40
3.0
 72
     5
 11
-18.33125
 21
-22.175
  0
ENDBLK
  0
BLOCK
  2
*DIM_0004
 70
    65
 10
0.0
 20
0.0
  0
LINE
  8
寸法
  6
BYBLOCK
 62
     0
 10
-96.717055
 20
9.76892
 11
-96.717055
 21
4.857895
  0
LINE
  8
寸法
  6
BYBLOCK
 62
     0
 10
-30.050388
 20
9.76892
 11
-30.050388
 21
4.857895
  0
LINE
  8
寸法
  6
BYBLOCK
 62
     0
 10
-96.717055
 20
4.857895
 11
-30.050388
 21
4.857895
  0
POINT
  8
寸法
 62
     0
 10
-96.717055
 20
4.857895
  0
POINT
  8
寸法
 62
     0
 10
-30.050388
 20
4.857895
  0
TEXT
  7
TextStyle03
  8
寸法
  6
CONTINUOUS
 62
     0
 10
-66.68125
 20
5.225
  1
2000
 40
3.0
 72
     5
 11
-60.11875
 21
5.225
  0
ENDBLK
  0
BLOCK
  2
*DIM_0005
 70
    65
 10
0.0
 20
0.0
  0
LINE
  8
寸法
  6
BYBLOCK
 62
     0
 10
36.61628
 20
9.76892
 11
36.61628
 21
4.857895
  0
LINE
  8
寸法
  6
BYBLOCK
 62
     0
 10
-30.050388
 20
4.857895
 11
36.61628
 21
4.857895
  0
POINT
  8
寸法
 62
     0
 10
36.61628
 20
4.857895
  0
TEXT
  7
TextStyle03
  8
寸法
  6
CONTINUOUS
 62
     0
 10
-0.00625
 20
5.225
  1
2000
 40
3.0
 72
     5
 11
6.55625
 21
5.225
  0
ENDBLK
  0
BLOCK
  2
*DIM_0006
 70
    65
 10
0.0
 20
0.0
  0
LINE
  8
寸法
  6
BYBLOCK
 62
     0
 10
54.282945
 20
56.732382
 11
64.007228
 21
56.732382
  0
LINE
  8
寸法
  6
BYBLOCK
 62
     0
 10
56.913075
 20
53.032382
 11
64.007228
 21
53.032382
  0
LINE
  8
寸法
  6
BYBLOCK
 62
     0
 10
64.007228
 20
56.732382
 11
64.007228
 21
53.032382
  0
POINT
  8
寸法
 62
     0
 10
64.007228
 20
56.732382
  0
POINT
  8
寸法
 62
     0
 10
64.007228
 20
53.032382
  0
TEXT
  7
TextStyle03
  8
寸法
  6
CONTINUOUS
 62
     0
 10
63.675
 20
57.7125
  1
111
 40
3.0
 50
90.0
 72
     5
 11
63.675
 21
62.5875
  0
ENDBLK
  0
BLOCK
  2
*DIM_0007
 70
    65
 10
0.0
 20
0.0
  0
LINE
  8
寸法
  6
BYBLOCK
 62
     0
 10
54.282945
 20
13.399048
 11
64.007228
 21
13.399045
  0
LINE
  8
寸法
  6
BYBLOCK
 62
     0
 10
56.913075
 20
17.099048
 11
64.007228
 21
17.099045
  0
LINE
  8
寸法
  6
BYBLOCK
 62
     0
 10
64.007228
 20
13.399045
 11
64.007228
 21
17.099045
  0
POINT
  8
寸法
 62
     0
 10
64.007228
 20
13.399045
  0
POINT
  8
寸法
 62
     0
 10
64.007228
 20
17.099045
  0
TEXT
  7
TextStyle03
  8
寸法
  6
CONTINUOUS
 62
     0
 10
63.65
 20
7.5375
  1
111
 40
3.0
 50
90.0
 72
     5
 11
63.65
 21
12.4125
  0
ENDBLK
  0
BLOCK
  2
*DIM_0008
 70
    65
 10
0.0
 20
0.0
  0
LINE
  8
寸法
  6
BYBLOCK
 62
     0
 10
87.302595
 20
13.399048
 11
87.302595
 21
56.73238
  0
POINT
  8
寸法
 62
     0
 10
87.302595
 20
13.399048
  0
POINT
  8
寸法
 62
     0
 10
87.302595
 20
56.73238
  0
TEXT
  7
TextStyle03
  8
寸法
  6
CONTINUOUS
 62
     0
 10
86.95
 20
23.33125
  1
呼称寸法　1300
 40
3.0
 50
90.0
 72
     5
 11
86.95
 21
46.76875
  0
ENDBLK
  0
BLOCK
  2
*DIM_0009
 70
    65
 10
0.0
 20
0.0
  0
LINE
  8
寸法
  6
BYBLOCK
 62
     0
 10
141.19299
 20
58.715712
 11
87.302595
 21
58.715712
  0
LINE
  8
寸法
  6
BYBLOCK
 62
     0
 10
87.302595
 20
56.73238
 11
87.302595
 21
58.715712
  0
POINT
  8
寸法
 62
     0
 10
87.302595
 20
56.73238
  0
POINT
  8
寸法
 62
     0
 10
87.302595
 20
58.715712
  0
TEXT
  7
TextStyle03
  8
寸法
  6
CONTINUOUS
 62
     0
 10
86.9
 20
61.16875
  1
59.5
 40
3.0
 50
90.0
 72
     5
 11
86.9
 21
67.73125
  0
ENDBLK
  0
BLOCK
  2
*DIM_0010
 70
    65
 10
0.0
 20
0.0
  0
LINE
  8
寸法
  6
BYBLOCK
 62
     0
 10
141.19299
 20
11.415712
 11
87.302595
 21
11.415712
  0
LINE
  8
寸法
  6
BYBLOCK
 62
     0
 10
87.302595
 20
13.399048
 11
87.302595
 21
11.415712
  0
POINT
  8
寸法
 62
     0
 10
87.302595
 20
13.399048
  0
POINT
  8
寸法
 62
     0
 10
87.302595
 20
11.415712
  0
TEXT
  7
TextStyle03
  8
寸法
  6
CONTINUOUS
 62
     0
 10
86.9
 20
2.36875
  1
59.5
 40
3.0
 50
90.0
 72
     5
 11
86.9
 21
8.93125
  0
ENDBLK
  0
BLOCK
  2
*DIM_0011
 70
    65
 10
0.0
 20
0.0
  0
LINE
  8
寸法
  6
BYBLOCK
 62
     0
 10
55.26628
 20
-61.334713
 11
55.26628
 21
-22.536362
  0
LINE
  8
寸法
  6
BYBLOCK
 62
     0
 10
53.282945
 20
-22.536362
 11
55.26628
 21
-22.536362
  0
POINT
  8
寸法
 62
     0
 10
53.282945
 20
-22.536362
  0
POINT
  8
寸法
 62
     0
 10
55.26628
 20
-22.536362
  0
TEXT
  7
TextStyle03
  8
寸法
  6
CONTINUOUS
 62
     0
 10
57.71875
 20
-22.175
  1
59.5
 40
3.0
 72
     5
 11
64.28125
 21
-22.175
  0
ENDBLK
  0
BLOCK
  2
*DIM_0012
 70
    65
 10
0.0
 20
0.0
  0
LINE
  8
寸法
  6
BYBLOCK
 62
     0
 10
-115.367055
 20
-61.334713
 11
-115.367055
 21
-22.536362
  0
LINE
  8
寸法
  6
BYBLOCK
 62
     0
 10
-113.383723
 20
-22.536362
 11
-115.367055
 21
-22.536362
  0
POINT
  8
寸法
 62
     0
 10
-113.383723
 20
-22.536362
  0
POINT
  8
寸法
 62
     0
 10
-115.367055
 20
-22.536362
  0
TEXT
  7
TextStyle03
  8
寸法
  6
CONTINUOUS
 62
     0
 10
-124.43125
 20
-22.175
  1
59.5
 40
3.0
 72
     5
 11
-117.86875
 21
-22.175
  0
ENDBLK
  0
BLOCK
  2
*DIM_0013
 70
    65
 10
0.0
 20
0.0
  0
LINE
  8
寸法
  6
BYBLOCK
 62
     0
 10
-116.383723
 20
23.399048
 11
-145.328888
 21
23.399048
  0
LINE
  8
寸法
  6
BYBLOCK
 62
     0
 10
-116.383723
 20
46.732382
 11
-145.328888
 21
46.732382
  0
LINE
  8
寸法
  6
BYBLOCK
 62
     0
 10
-145.328888
 20
23.399048
 11
-145.328888
 21
46.732382
  0
POINT
  8
寸法
 62
     0
 10
-145.328888
 20
23.399048
  0
POINT
  8
寸法
 62
     0
 10
-145.328888
 20
46.732382
  0
TEXT
  7
TextStyle03
  8
寸法
  6
CONTINUOUS
 62
     0
 10
-145.725
 20
32.6125
  1
700
 40
3.0
 50
90.0
 72
     5
 11
-145.725
 21
37.4875
  0
ENDBLK
  0
BLOCK
  2
*DIM_0014
 70
    65
 10
0.0
 20
0.0
  0
LINE
  8
寸法
  6
BYBLOCK
 62
     0
 10
-105.050388
 20
59.73238
 11
-105.050388
 21
88.840452
  0
LINE
  8
寸法
  6
BYBLOCK
 62
     0
 10
-80.050388
 20
59.73238
 11
-80.050388
 21
88.840452
  0
LINE
  8
寸法
  6
BYBLOCK
 62
     0
 10
-105.050388
 20
88.840452
 11
-80.050388
 21
88.840452
  0
POINT
  8
寸法
 62
     0
 10
-105.050388
 20
88.840452
  0
POINT
  8
寸法
 62
     0
 10
-80.050388
 20
88.840452
  0
TEXT
  7
TextStyle03
  8
寸法
  6
CONTINUOUS
 62
     0
 10
-95.0125
 20
89.2
  1
750
 40
3.0
 72
     5
 11
-90.1375
 21
89.2
  0
ENDBLK
  0
BLOCK
  2
*DIM_0015
 70
    65
 10
0.0
 20
0.0
  0
LINE
  8
寸法
  6
BYBLOCK
 62
     0
 10
-55.050388
 20
59.73238
 11
-55.050388
 21
88.840452
  0
LINE
  8
寸法
  6
BYBLOCK
 62
     0
 10
-80.050388
 20
88.840452
 11
-55.050388
 21
88.840452
  0
POINT
  8
寸法
 62
     0
 10
-55.050388
 20
88.840452
  0
TEXT
  7
TextStyle03
  8
寸法
  6
CONTINUOUS
 62
     0
 10
-70.0125
 20
89.2
  1
750
 40
3.0
 72
     5
 11
-65.1375
 21
89.2
  0
ENDBLK
  0
BLOCK
  2
*DIM_0016
 70
    65
 10
0.0
 20
0.0
  0
LINE
  8
寸法
  6
BYBLOCK
 62
     0
 10
-30.050388
 20
59.73238
 11
-30.050388
 21
88.840452
  0
LINE
  8
寸法
  6
BYBLOCK
 62
     0
 10
-55.050388
 20
88.840452
 11
-30.050388
 21
88.840452
  0
POINT
  8
寸法
 62
     0
 10
-30.050388
 20
88.840452
  0
TEXT
  7
TextStyle03
  8
寸法
  6
CONTINUOUS
 62
     0
 10
-45.0125
 20
89.2
  1
750
 40
3.0
 72
     5
 11
-40.1375
 21
89.2
  0
ENDBLK
  0
BLOCK
  2
*DIM_0017
 70
    65
 10
0.0
 20
0.0
  0
LINE
  8
寸法
  6
BYBLOCK
 62
     0
 10
-5.050388
 20
59.73238
 11
-5.050388
 21
88.840452
  0
LINE
  8
寸法
  6
BYBLOCK
 62
     0
 10
-30.050388
 20
88.840452
 11
-5.050388
 21
88.840452
  0
POINT
  8
寸法
 62
     0
 10
-5.050388
 20
88.840452
  0
TEXT
  7
TextStyle03
  8
寸法
  6
CONTINUOUS
 62
     0
 10
-20.0125
 20
89.2
  1
750
 40
3.0
 72
     5
 11
-15.1375
 21
89.2
  0
ENDBLK
  0
BLOCK
  2
*DIM_0018
 70
    65
 10
0.0
 20
0.0
  0
LINE
  8
寸法
  6
BYBLOCK
 62
     0
 10
19.949612
 20
59.73238
 11
19.949612
 21
88.840452
  0
LINE
  8
寸法
  6
BYBLOCK
 62
     0
 10
-5.050388
 20
88.840452
 11
19.949612
 21
88.840452
  0
POINT
  8
寸法
 62
     0
 10
19.949612
 20
88.840452
  0
TEXT
  7
TextStyle03
  8
寸法
  6
CONTINUOUS
 62
     0
 10
4.9875
 20
89.2
  1
750
 40
3.0
 72
     5
 11
9.8625
 21
89.2
  0
ENDBLK
  0
BLOCK
  2
*DIM_0019
 70
    65
 10
0.0
 20
0.0
  0
LINE
  8
寸法
  6
BYBLOCK
 62
     0
 10
44.949612
 20
59.73238
 11
44.949612
 21
88.840452
  0
LINE
  8
寸法
  6
BYBLOCK
 62
     0
 10
19.949612
 20
88.840452
 11
44.949612
 21
88.840452
  0
POINT
  8
寸法
 62
     0
 10
44.949612
 20
88.840452
  0
TEXT
  7
TextStyle03
  8
寸法
  6
CONTINUOUS
 62
     0
 10
29.9875
 20
89.2
  1
750
 40
3.0
 72
     5
 11
34.8625
 21
89.2
  0
ENDBLK
  0
BLOCK
  2
*DIM_0020
 70
    65
 10
0.0
 20
0.0
  0
LINE
  8
寸法
  6
CONTINUOUS
 10
141.61342
 20
70.502383
 11
149.26347
 21
70.502383
  0
POINT
  8
寸法
 10
141.61342
 20
70.502383
  0
POINT
  8
寸法
 10
149.26347
 20
70.502383
  0
TEXT
  7
TextStyle03
  8
寸法
  6
CONTINUOUS
 10
141.3
 20
70.85
  1
229.5
 40
3.0
 72
     5
 11
149.55
 21
70.85
  0
ENDBLK
  0
BLOCK
  2
*GRP_0021
 70
    65
 10
0.0
 20
0.0
  0
LINE
  8
補助線
  6
BYBLOCK
 62
    64
 10
-109.988462
 20
-83.21482
 11
-110.112308
 21
-83.326355
  0
LINE
  8
補助線
  6
BYBLOCK
 62
    64
 10
-110.106155
 20
-83.208662
 11
-109.994618
 21
-83.33251
  0
LINE
  8
補助線
  6
BYBLOCK
 62
    64
 10
-99.27336
 20
-73.564795
 11
-99.397205
 21
-73.67633
  0
LINE
  8
補助線
  6
BYBLOCK
 62
    64
 10
-99.39105
 20
-73.558637
 11
-99.279515
 21
-73.682485
  0
LINE
  8
補助線
  6
BYBLOCK
 62
    64
 10
-88.682103
 20
-64.026305
 11
-88.55826
 21
-63.91477
  0
LINE
  8
補助線
  6
BYBLOCK
 62
    64
 10
-88.67595
 20
-63.908612
 11
-88.564412
 21
-64.03246
  0
LINE
  8
型材断面
  6
CONTINUOUS
 10
-110.855753
 20
-82.874432
 11
-110.89268
 21
-83.580573
  0
LINE
  8
型材断面
  6
CONTINUOUS
 10
-110.89268
 20
-83.580573
 11
-110.44654
 21
-84.075955
  0
LINE
  8
型材断面
  6
CONTINUOUS
 10
-110.44654
 20
-84.075955
 11
-109.740398
 21
-84.112885
  0
LINE
  8
型材断面
  6
CONTINUOUS
 10
-88.930165
 20
-63.128243
 11
-88.224025
 21
-63.165172
  0
LINE
  8
型材断面
  6
CONTINUOUS
 10
-88.224025
 20
-63.165172
 11
-87.777883
 21
-63.660552
  0
LINE
  8
型材断面
  6
CONTINUOUS
 10
-87.777883
 20
-63.660552
 11
-87.814812
 21
-64.366698
  0
LINE
  8
型材断面
  6
CONTINUOUS
 10
-109.740398
 20
-84.112885
 11
-87.814812
 21
-64.366698
  0
LINE
  8
型材断面
  6
CONTINUOUS
 10
-110.855753
 20
-82.874432
 11
-88.930165
 21
-63.128243
  0
CIRCLE
  8
ボルト／ビス
  6
CONTINUOUS
 10
-110.050385
 20
-83.270587
 40
0.250185
  0
CIRCLE
  8
ボルト／ビス
  6
CONTINUOUS
 10
-110.050385
 20
-83.270587
 40
0.301025
  0
LINE
  8
ボルト／ビス
  6
CONTINUOUS
 62
    64
 10
-110.295097
 20
-83.322632
 11
-110.217813
 21
-83.084682
  0
LINE
  8
ボルト／ビス
  6
CONTINUOUS
 62
    64
 10
-109.9731
 20
-83.032637
 11
-110.217813
 21
-83.084682
  0
LINE
  8
ボルト／ビス
  6
CONTINUOUS
 62
    64
 10
-110.12767
 20
-83.508537
 11
-109.882957
 21
-83.456492
  0
LINE
  8
ボルト／ビス
  6
CONTINUOUS
 62
    64
 10
-109.805673
 20
-83.218542
 11
-109.882957
 21
-83.456492
  0
LINE
  8
ボルト／ビス
  6
CONTINUOUS
 62
    64
 10
-110.295097
 20
-83.322632
 11
-110.12767
 21
-83.508537
  0
LINE
  8
ボルト／ビス
  6
CONTINUOUS
 62
    64
 10
-109.9731
 20
-83.032637
 11
-109.805673
 21
-83.218542
  0
CIRCLE
  8
ボルト／ビス
  6
CONTINUOUS
 62
    64
 10
-110.050385
 20
-83.270587
 40
0.216668
  0
CIRCLE
  8
ボルト／ビス
  6
CONTINUOUS
 10
-99.335282
 20
-73.620565
 40
0.250185
  0
CIRCLE
  8
ボルト／ビス
  6
CONTINUOUS
 10
-99.335282
 20
-73.620565
 40
0.301025
  0
LINE
  8
ボルト／ビス
  6
CONTINUOUS
 62
    64
 10
-99.579997
 20
-73.672607
 11
-99.50271
 21
-73.434657
  0
LINE
  8
ボルト／ビス
  6
CONTINUOUS
 62
    64
 10
-99.257997
 20
-73.382615
 11
-99.50271
 21
-73.434657
  0
LINE
  8
ボルト／ビス
  6
CONTINUOUS
 62
    64
 10
-99.41257
 20
-73.858512
 11
-99.167857
 21
-73.806467
  0
LINE
  8
ボルト／ビス
  6
CONTINUOUS
 62
    64
 10
-99.09057
 20
-73.56852
 11
-99.167857
 21
-73.806467
  0
LINE
  8
ボルト／ビス
  6
CONTINUOUS
 62
    64
 10
-99.579997
 20
-73.672607
 11
-99.41257
 21
-73.858512
  0
LINE
  8
ボルト／ビス
  6
CONTINUOUS
 62
    64
 10
-99.257997
 20
-73.382615
 11
-99.09057
 21
-73.56852
  0
CIRCLE
  8
ボルト／ビス
  6
CONTINUOUS
 62
    64
 10
-99.335282
 20
-73.620565
 40
0.216668
  0
CIRCLE
  8
ボルト／ビス
  6
CONTINUOUS
 10
-88.620183
 20
-63.970537
 40
0.250185
  0
CIRCLE
  8
ボルト／ビス
  6
CONTINUOUS
 10
-88.620183
 20
-63.970537
 40
0.301025
  0
LINE
  8
ボルト／ビス
  6
CONTINUOUS
 62
    64
 10
-88.542895
 20
-63.732588
 11
-88.787608
 21
-63.784633
  0
LINE
  8
ボルト／ビス
  6
CONTINUOUS
 62
    64
 10
-88.864893
 20
-64.022583
 11
-88.787608
 21
-63.784633
  0
LINE
  8
ボルト／ビス
  6
CONTINUOUS
 62
    64
 10
-88.375468
 20
-63.918492
 11
-88.452755
 21
-64.156442
  0
LINE
  8
ボルト／ビス
  6
CONTINUOUS
 62
    64
 10
-88.697468
 20
-64.208487
 11
-88.452755
 21
-64.156442
  0
LINE
  8
ボルト／ビス
  6
CONTINUOUS
 62
    64
 10
-88.542895
 20
-63.732588
 11
-88.375468
 21
-63.918492
  0
LINE
  8
ボルト／ビス
  6
CONTINUOUS
 62
    64
 10
-88.864893
 20
-64.022583
 11
-88.697468
 21
-64.208487
  0
CIRCLE
  8
ボルト／ビス
  6
CONTINUOUS
 62
    64
 10
-88.620183
 20
-63.970537
 40
0.216668
  0
ENDBLK
  0
BLOCK
  2
*GRP_0022
 70
    65
 10
0.0
 20
0.0
  0
LINE
  8
補助線
  6
BYBLOCK
 62
    64
 10
-88.682103
 20
-83.21482
 11
-88.558258
 21
-83.326355
  0
LINE
  8
補助線
  6
BYBLOCK
 62
    64
 10
-88.56441
 20
-83.208662
 11
-88.675947
 21
-83.33251
  0
LINE
  8
補助線
  6
BYBLOCK
 62
    64
 10
-99.397205
 20
-73.564795
 11
-99.27336
 21
-73.67633
  0
LINE
  8
補助線
  6
BYBLOCK
 62
    64
 10
-99.279515
 20
-73.558637
 11
-99.39105
 21
-73.682485
  0
LINE
  8
補助線
  6
BYBLOCK
 62
    64
 10
-109.988462
 20
-64.026305
 11
-110.112305
 21
-63.91477
  0
LINE
  8
補助線
  6
BYBLOCK
 62
    64
 10
-109.994615
 20
-63.908612
 11
-110.106153
 21
-64.03246
  0
LINE
  8
型材断面
  6
CONTINUOUS
 10
-87.814812
 20
-82.874432
 11
-87.777885
 21
-83.580573
  0
LINE
  8
型材断面
  6
CONTINUOUS
 10
-87.777885
 20
-83.580573
 11
-88.224025
 21
-84.075955
  0
LINE
  8
型材断面
  6
CONTINUOUS
 10
-88.224025
 20
-84.075955
 11
-88.930167
 21
-84.112885
  0
LINE
  8
型材断面
  6
CONTINUOUS
 10
-109.7404
 20
-63.128243
 11
-110.44654
 21
-63.165172
  0
LINE
  8
型材断面
  6
CONTINUOUS
 10
-110.44654
 20
-63.165172
 11
-110.892682
 21
-63.660552
  0
LINE
  8
型材断面
  6
CONTINUOUS
 10
-110.892682
 20
-63.660552
 11
-110.855753
 21
-64.366698
  0
LINE
  8
型材断面
  6
CONTINUOUS
 10
-88.930167
 20
-84.112885
 11
-110.855753
 21
-64.366698
  0
LINE
  8
型材断面
  6
CONTINUOUS
 10
-87.814812
 20
-82.874432
 11
-109.7404
 21
-63.128243
  0
CIRCLE
  8
ボルト／ビス
  6
CONTINUOUS
 10
-88.62018
 20
-83.270587
 40
0.250185
  0
CIRCLE
  8
ボルト／ビス
  6
CONTINUOUS
 10
-88.62018
 20
-83.270587
 40
0.301025
  0
LINE
  8
ボルト／ビス
  6
CONTINUOUS
 62
    64
 10
-88.375468
 20
-83.322632
 11
-88.452753
 21
-83.084682
  0
LINE
  8
ボルト／ビス
  6
CONTINUOUS
 62
    64
 10
-88.697465
 20
-83.032637
 11
-88.452753
 21
-83.084682
  0
LINE
  8
ボルト／ビス
  6
CONTINUOUS
 62
    64
 10
-88.542895
 20
-83.508537
 11
-88.787608
 21
-83.456492
  0
LINE
  8
ボルト／ビス
  6
CONTINUOUS
 62
    64
 10
-88.864893
 20
-83.218542
 11
-88.787608
 21
-83.456492
  0
LINE
  8
ボルト／ビス
  6
CONTINUOUS
 62
    64
 10
-88.375468
 20
-83.322632
 11
-88.542895
 21
-83.508537
  0
LINE
  8
ボルト／ビス
  6
CONTINUOUS
 62
    64
 10
-88.697465
 20
-83.032637
 11
-88.864893
 21
-83.218542
  0
CIRCLE
  8
ボルト／ビス
  6
CONTINUOUS
 62
    64
 10
-88.62018
 20
-83.270587
 40
0.216668
  0
CIRCLE
  8
ボルト／ビス
  6
CONTINUOUS
 10
-99.335282
 20
-73.620565
 40
0.250185
  0
CIRCLE
  8
ボルト／ビス
  6
CONTINUOUS
 10
-99.335282
 20
-73.620565
 40
0.301025
  0
LINE
  8
ボルト／ビス
  6
CONTINUOUS
 62
    64
 10
-99.090567
 20
-73.672607
 11
-99.167855
 21
-73.434657
  0
LINE
  8
ボルト／ビス
  6
CONTINUOUS
 62
    64
 10
-99.412568
 20
-73.382615
 11
-99.167855
 21
-73.434657
  0
LINE
  8
ボルト／ビス
  6
CONTINUOUS
 62
    64
 10
-99.257995
 20
-73.858512
 11
-99.502708
 21
-73.806467
  0
LINE
  8
ボルト／ビス
  6
CONTINUOUS
 62
    64
 10
-99.579995
 20
-73.56852
 11
-99.502708
 21
-73.806467
  0
LINE
  8
ボルト／ビス
  6
CONTINUOUS
 62
    64
 10
-99.090567
 20
-73.672607
 11
-99.257995
 21
-73.858512
  0
LINE
  8
ボルト／ビス
  6
CONTINUOUS
 62
    64
 10
-99.412568
 20
-73.382615
 11
-99.579995
 21
-73.56852
  0
CIRCLE
  8
ボルト／ビス
  6
CONTINUOUS
 62
    64
 10
-99.335282
 20
-73.620565
 40
0.216668
  0
CIRCLE
  8
ボルト／ビス
  6
CONTINUOUS
 10
-110.050382
 20
-63.970537
 40
0.250185
  0
CIRCLE
  8
ボルト／ビス
  6
CONTINUOUS
 10
-110.050382
 20
-63.970537
 40
0.301025
  0
LINE
  8
ボルト／ビス
  6
CONTINUOUS
 62
    64
 10
-110.12767
 20
-63.732588
 11
-109.882957
 21
-63.784633
  0
LINE
  8
ボルト／ビス
  6
CONTINUOUS
 62
    64
 10
-109.805673
 20
-64.022583
 11
-109.882957
 21
-63.784633
  0
LINE
  8
ボルト／ビス
  6
CONTINUOUS
 62
    64
 10
-110.295097
 20
-63.918492
 11
-110.21781
 21
-64.156442
  0
LINE
  8
ボルト／ビス
  6
CONTINUOUS
 62
    64
 10
-109.973098
 20
-64.208487
 11
-110.21781
 21
-64.156442
  0
LINE
  8
ボルト／ビス
  6
CONTINUOUS
 62
    64
 10
-110.12767
 20
-63.732588
 11
-110.295097
 21
-63.918492
  0
LINE
  8
ボルト／ビス
  6
CONTINUOUS
 62
    64
 10
-109.805673
 20
-64.022583
 11
-109.973098
 21
-64.208487
  0
CIRCLE
  8
ボルト／ビス
  6
CONTINUOUS
 62
    64
 10
-110.050382
 20
-63.970537
 40
0.216668
  0
ENDBLK
  0
BLOCK
  2
*GRP_0023
 70
    65
 10
0.0
 20
0.0
  0
LINE
  8
補助線
  6
BYBLOCK
 62
    64
 10
49.887693
 20
-83.21482
 11
50.011537
 21
-83.326355
  0
LINE
  8
補助線
  6
BYBLOCK
 62
    64
 10
50.005385
 20
-83.208662
 11
49.893848
 21
-83.33251
  0
LINE
  8
補助線
  6
BYBLOCK
 62
    64
 10
39.17259
 20
-73.564795
 11
39.296435
 21
-73.67633
  0
LINE
  8
補助線
  6
BYBLOCK
 62
    64
 10
39.29028
 20
-73.558637
 11
39.178745
 21
-73.682485
  0
LINE
  8
補助線
  6
BYBLOCK
 62
    64
 10
28.581332
 20
-64.026305
 11
28.45749
 21
-63.91477
  0
LINE
  8
補助線
  6
BYBLOCK
 62
    64
 10
28.57518
 20
-63.908612
 11
28.463643
 21
-64.03246
  0
LINE
  8
型材断面
  6
CONTINUOUS
 10
50.754983
 20
-82.874432
 11
50.79191
 21
-83.580573
  0
LINE
  8
型材断面
  6
CONTINUOUS
 10
50.79191
 20
-83.580573
 11
50.34577
 21
-84.075955
  0
LINE
  8
型材断面
  6
CONTINUOUS
 10
50.34577
 20
-84.075955
 11
49.639627
 21
-84.112885
  0
LINE
  8
型材断面
  6
CONTINUOUS
 10
28.829395
 20
-63.128243
 11
28.123255
 21
-63.165172
  0
LINE
  8
型材断面
  6
CONTINUOUS
 10
28.123255
 20
-63.165172
 11
27.677112
 21
-63.660552
  0
LINE
  8
型材断面
  6
CONTINUOUS
 10
27.677112
 20
-63.660552
 11
27.714042
 21
-64.366698
  0
LINE
  8
型材断面
  6
CONTINUOUS
 10
49.639627
 20
-84.112885
 11
27.714042
 21
-64.366698
  0
LINE
  8
型材断面
  6
CONTINUOUS
 10
50.754983
 20
-82.874432
 11
28.829395
 21
-63.128243
  0
CIRCLE
  8
ボルト／ビス
  6
CONTINUOUS
 10
49.949615
 20
-83.270587
 40
0.250185
  0
CIRCLE
  8
ボルト／ビス
  6
CONTINUOUS
 10
49.949615
 20
-83.270587
 40
0.301025
  0
LINE
  8
ボルト／ビス
  6
CONTINUOUS
 62
    64
 10
50.194327
 20
-83.322632
 11
50.117043
 21
-83.084682
  0
LINE
  8
ボルト／ビス
  6
CONTINUOUS
 62
    64
 10
49.87233
 20
-83.032637
 11
50.117043
 21
-83.084682
  0
LINE
  8
ボルト／ビス
  6
CONTINUOUS
 62
    64
 10
50.0269
 20
-83.508537
 11
49.782187
 21
-83.456492
  0
LINE
  8
ボルト／ビス
  6
CONTINUOUS
 62
    64
 10
49.704903
 20
-83.218542
 11
49.782187
 21
-83.456492
  0
LINE
  8
ボルト／ビス
  6
CONTINUOUS
 62
    64
 10
50.194327
 20
-83.322632
 11
50.0269
 21
-83.508537
  0
LINE
  8
ボルト／ビス
  6
CONTINUOUS
 62
    64
 10
49.87233
 20
-83.032637
 11
49.704903
 21
-83.218542
  0
CIRCLE
  8
ボルト／ビス
  6
CONTINUOUS
 62
    64
 10
49.949615
 20
-83.270587
 40
0.216668
  0
CIRCLE
  8
ボルト／ビス
  6
CONTINUOUS
 10
39.234512
 20
-73.620565
 40
0.250185
  0
CIRCLE
  8
ボルト／ビス
  6
CONTINUOUS
 10
39.234512
 20
-73.620565
 40
0.301025
  0
LINE
  8
ボルト／ビス
  6
CONTINUOUS
 62
    64
 10
39.479227
 20
-73.672607
 11
39.40194
 21
-73.434657
  0
LINE
  8
ボルト／ビス
  6
CONTINUOUS
 62
    64
 10
39.157228
 20
-73.382615
 11
39.40194
 21
-73.434657
  0
LINE
  8
ボルト／ビス
  6
CONTINUOUS
 62
    64
 10
39.3118
 20
-73.858512
 11
39.067087
 21
-73.806467
  0
LINE
  8
ボルト／ビス
  6
CONTINUOUS
 62
    64
 10
38.9898
 20
-73.56852
 11
39.067087
 21
-73.806467
  0
LINE
  8
ボルト／ビス
  6
CONTINUOUS
 62
    64
 10
39.479227
 20
-73.672607
 11
39.3118
 21
-73.858512
  0
LINE
  8
ボルト／ビス
  6
CONTINUOUS
 62
    64
 10
39.157228
 20
-73.382615
 11
38.9898
 21
-73.56852
  0
CIRCLE
  8
ボルト／ビス
  6
CONTINUOUS
 62
    64
 10
39.234512
 20
-73.620565
 40
0.216668
  0
CIRCLE
  8
ボルト／ビス
  6
CONTINUOUS
 10
28.519412
 20
-63.970537
 40
0.250185
  0
CIRCLE
  8
ボルト／ビス
  6
CONTINUOUS
 10
28.519412
 20
-63.970537
 40
0.301025
  0
LINE
  8
ボルト／ビス
  6
CONTINUOUS
 62
    64
 10
28.442125
 20
-63.732588
 11
28.686838
 21
-63.784633
  0
LINE
  8
ボルト／ビス
  6
CONTINUOUS
 62
    64
 10
28.764122
 20
-64.022583
 11
28.686838
 21
-63.784633
  0
LINE
  8
ボルト／ビス
  6
CONTINUOUS
 62
    64
 10
28.274698
 20
-63.918492
 11
28.351985
 21
-64.156442
  0
LINE
  8
ボルト／ビス
  6
CONTINUOUS
 62
    64
 10
28.596697
 20
-64.208487
 11
28.351985
 21
-64.156442
  0
LINE
  8
ボルト／ビス
  6
CONTINUOUS
 62
    64
 10
28.442125
 20
-63.732588
 11
28.274698
 21
-63.918492
  0
LINE
  8
ボルト／ビス
  6
CONTINUOUS
 62
    64
 10
28.764122
 20
-64.022583
 11
28.596697
 21
-64.208487
  0
CIRCLE
  8
ボルト／ビス
  6
CONTINUOUS
 62
    64
 10
28.519412
 20
-63.970537
 40
0.216668
  0
ENDBLK
  0
BLOCK
  2
*GRP_0024
 70
    65
 10
0.0
 20
0.0
  0
LINE
  8
補助線
  6
BYBLOCK
 62
    64
 10
28.581332
 20
-83.21482
 11
28.457488
 21
-83.326355
  0
LINE
  8
補助線
  6
BYBLOCK
 62
    64
 10
28.46364
 20
-83.208662
 11
28.575178
 21
-83.33251
  0
LINE
  8
補助線
  6
BYBLOCK
 62
    64
 10
39.296435
 20
-73.564795
 11
39.17259
 21
-73.67633
  0
LINE
  8
補助線
  6
BYBLOCK
 62
    64
 10
39.178745
 20
-73.558637
 11
39.29028
 21
-73.682485
  0
LINE
  8
補助線
  6
BYBLOCK
 62
    64
 10
49.887693
 20
-64.026305
 11
50.011535
 21
-63.91477
  0
LINE
  8
補助線
  6
BYBLOCK
 62
    64
 10
49.893845
 20
-63.908612
 11
50.005383
 21
-64.03246
  0
LINE
  8
型材断面
  6
CONTINUOUS
 10
27.714042
 20
-82.874432
 11
27.677115
 21
-83.580573
  0
LINE
  8
型材断面
  6
CONTINUOUS
 10
27.677115
 20
-83.580573
 11
28.123255
 21
-84.075955
  0
LINE
  8
型材断面
  6
CONTINUOUS
 10
28.123255
 20
-84.075955
 11
28.829398
 21
-84.112885
  0
LINE
  8
型材断面
  6
CONTINUOUS
 10
49.63963
 20
-63.128243
 11
50.34577
 21
-63.165172
  0
LINE
  8
型材断面
  6
CONTINUOUS
 10
50.34577
 20
-63.165172
 11
50.791913
 21
-63.660552
  0
LINE
  8
型材断面
  6
CONTINUOUS
 10
50.791913
 20
-63.660552
 11
50.754983
 21
-64.366698
  0
LINE
  8
型材断面
  6
CONTINUOUS
 10
28.829398
 20
-84.112885
 11
50.754983
 21
-64.366698
  0
LINE
  8
型材断面
  6
CONTINUOUS
 10
27.714042
 20
-82.874432
 11
49.63963
 21
-63.128243
  0
CIRCLE
  8
ボルト／ビス
  6
CONTINUOUS
 10
28.51941
 20
-83.270587
 40
0.250185
  0
CIRCLE
  8
ボルト／ビス
  6
CONTINUOUS
 10
28.51941
 20
-83.270587
 40
0.301025
  0
LINE
  8
ボルト／ビス
  6
CONTINUOUS
 62
    64
 10
28.274698
 20
-83.322632
 11
28.351982
 21
-83.084682
  0
LINE
  8
ボルト／ビス
  6
CONTINUOUS
 62
    64
 10
28.596695
 20
-83.032637
 11
28.351982
 21
-83.084682
  0
LINE
  8
ボルト／ビス
  6
CONTINUOUS
 62
    64
 10
28.442125
 20
-83.508537
 11
28.686838
 21
-83.456492
  0
LINE
  8
ボルト／ビス
  6
CONTINUOUS
 62
    64
 10
28.764122
 20
-83.218542
 11
28.686838
 21
-83.456492
  0
LINE
  8
ボルト／ビス
  6
CONTINUOUS
 62
    64
 10
28.274698
 20
-83.322632
 11
28.442125
 21
-83.508537
  0
LINE
  8
ボルト／ビス
  6
CONTINUOUS
 62
    64
 10
28.596695
 20
-83.032637
 11
28.764122
 21
-83.218542
  0
CIRCLE
  8
ボルト／ビス
  6
CONTINUOUS
 62
    64
 10
28.51941
 20
-83.270587
 40
0.216668
  0
CIRCLE
  8
ボルト／ビス
  6
CONTINUOUS
 10
39.234512
 20
-73.620565
 40
0.250185
  0
CIRCLE
  8
ボルト／ビス
  6
CONTINUOUS
 10
39.234512
 20
-73.620565
 40
0.301025
  0
LINE
  8
ボルト／ビス
  6
CONTINUOUS
 62
    64
 10
38.989797
 20
-73.672607
 11
39.067085
 21
-73.434657
  0
LINE
  8
ボルト／ビス
  6
CONTINUOUS
 62
    64
 10
39.311797
 20
-73.382615
 11
39.067085
 21
-73.434657
  0
LINE
  8
ボルト／ビス
  6
CONTINUOUS
 62
    64
 10
39.157225
 20
-73.858512
 11
39.401937
 21
-73.806467
  0
LINE
  8
ボルト／ビス
  6
CONTINUOUS
 62
    64
 10
39.479225
 20
-73.56852
 11
39.401937
 21
-73.806467
  0
LINE
  8
ボルト／ビス
  6
CONTINUOUS
 62
    64
 10
38.989797
 20
-73.672607
 11
39.157225
 21
-73.858512
  0
LINE
  8
ボルト／ビス
  6
CONTINUOUS
 62
    64
 10
39.311797
 20
-73.382615
 11
39.479225
 21
-73.56852
  0
CIRCLE
  8
ボルト／ビス
  6
CONTINUOUS
 62
    64
 10
39.234512
 20
-73.620565
 40
0.216668
  0
CIRCLE
  8
ボルト／ビス
  6
CONTINUOUS
 10
49.949612
 20
-63.970537
 40
0.250185
  0
CIRCLE
  8
ボルト／ビス
  6
CONTINUOUS
 10
49.949612
 20
-63.970537
 40
0.301025
  0
LINE
  8
ボルト／ビス
  6
CONTINUOUS
 62
    64
 10
50.0269
 20
-63.732588
 11
49.782187
 21
-63.784633
  0
LINE
  8
ボルト／ビス
  6
CONTINUOUS
 62
    64
 10
49.704903
 20
-64.022583
 11
49.782187
 21
-63.784633
  0
LINE
  8
ボルト／ビス
  6
CONTINUOUS
 62
    64
 10
50.194327
 20
-63.918492
 11
50.11704
 21
-64.156442
  0
LINE
  8
ボルト／ビス
  6
CONTINUOUS
 62
    64
 10
49.872328
 20
-64.208487
 11
50.11704
 21
-64.156442
  0
LINE
  8
ボルト／ビス
  6
CONTINUOUS
 62
    64
 10
50.0269
 20
-63.732588
 11
50.194327
 21
-63.918492
  0
LINE
  8
ボルト／ビス
  6
CONTINUOUS
 62
    64
 10
49.704903
 20
-64.022583
 11
49.872328
 21
-64.208487
  0
CIRCLE
  8
ボルト／ビス
  6
CONTINUOUS
 62
    64
 10
49.949612
 20
-63.970537
 40
0.216668
  0
ENDBLK
  0
BLOCK
  2
*GRP_0025
 70
    65
 10
0.0
 20
0.0
  0
LINE
  8
補助線
  6
BYBLOCK
 62
    64
 10
-19.397205
 20
-83.21482
 11
-19.27336
 21
-83.326355
  0
LINE
  8
補助線
  6
BYBLOCK
 62
    64
 10
-19.279512
 20
-83.208662
 11
-19.39105
 21
-83.33251
  0
LINE
  8
補助線
  6
BYBLOCK
 62
    64
 10
-30.112308
 20
-73.564795
 11
-29.988462
 21
-73.67633
  0
LINE
  8
補助線
  6
BYBLOCK
 62
    64
 10
-29.994618
 20
-73.558637
 11
-30.106153
 21
-73.682485
  0
LINE
  8
補助線
  6
BYBLOCK
 62
    64
 10
-40.703565
 20
-64.026305
 11
-40.827408
 21
-63.91477
  0
LINE
  8
補助線
  6
BYBLOCK
 62
    64
 10
-40.709717
 20
-63.908612
 11
-40.821255
 21
-64.03246
  0
LINE
  8
型材断面
  6
CONTINUOUS
 10
-18.529915
 20
-82.874432
 11
-18.492987
 21
-83.580573
  0
LINE
  8
型材断面
  6
CONTINUOUS
 10
-18.492987
 20
-83.580573
 11
-18.939127
 21
-84.075955
  0
LINE
  8
型材断面
  6
CONTINUOUS
 10
-18.939127
 20
-84.075955
 11
-19.64527
 21
-84.112885
  0
LINE
  8
型材断面
  6
CONTINUOUS
 10
-40.455502
 20
-63.128243
 11
-41.161643
 21
-63.165172
  0
LINE
  8
型材断面
  6
CONTINUOUS
 10
-41.161643
 20
-63.165172
 11
-41.607785
 21
-63.660552
  0
LINE
  8
型材断面
  6
CONTINUOUS
 10
-41.607785
 20
-63.660552
 11
-41.570855
 21
-64.366698
  0
LINE
  8
型材断面
  6
CONTINUOUS
 10
-19.64527
 20
-84.112885
 11
-41.570855
 21
-64.366698
  0
LINE
  8
型材断面
  6
CONTINUOUS
 10
-18.529915
 20
-82.874432
 11
-40.455502
 21
-63.128243
  0
CIRCLE
  8
ボルト／ビス
  6
CONTINUOUS
 10
-19.335282
 20
-83.270587
 40
0.250185
  0
CIRCLE
  8
ボルト／ビス
  6
CONTINUOUS
 10
-19.335282
 20
-83.270587
 40
0.301025
  0
LINE
  8
ボルト／ビス
  6
CONTINUOUS
 62
    64
 10
-19.09057
 20
-83.322632
 11
-19.167855
 21
-83.084682
  0
LINE
  8
ボルト／ビス
  6
CONTINUOUS
 62
    64
 10
-19.412568
 20
-83.032637
 11
-19.167855
 21
-83.084682
  0
LINE
  8
ボルト／ビス
  6
CONTINUOUS
 62
    64
 10
-19.257997
 20
-83.508537
 11
-19.50271
 21
-83.456492
  0
LINE
  8
ボルト／ビス
  6
CONTINUOUS
 62
    64
 10
-19.579995
 20
-83.218542
 11
-19.50271
 21
-83.456492
  0
LINE
  8
ボルト／ビス
  6
CONTINUOUS
 62
    64
 10
-19.09057
 20
-83.322632
 11
-19.257997
 21
-83.508537
  0
LINE
  8
ボルト／ビス
  6
CONTINUOUS
 62
    64
 10
-19.412568
 20
-83.032637
 11
-19.579995
 21
-83.218542
  0
CIRCLE
  8
ボルト／ビス
  6
CONTINUOUS
 62
    64
 10
-19.335282
 20
-83.270587
 40
0.216668
  0
CIRCLE
  8
ボルト／ビス
  6
CONTINUOUS
 10
-30.050385
 20
-73.620565
 40
0.250185
  0
CIRCLE
  8
ボルト／ビス
  6
CONTINUOUS
 10
-30.050385
 20
-73.620565
 40
0.301025
  0
LINE
  8
ボルト／ビス
  6
CONTINUOUS
 62
    64
 10
-29.80567
 20
-73.672607
 11
-29.882957
 21
-73.434657
  0
LINE
  8
ボルト／ビス
  6
CONTINUOUS
 62
    64
 10
-30.12767
 20
-73.382615
 11
-29.882957
 21
-73.434657
  0
LINE
  8
ボルト／ビス
  6
CONTINUOUS
 62
    64
 10
-29.973098
 20
-73.858512
 11
-30.21781
 21
-73.806467
  0
LINE
  8
ボルト／ビス
  6
CONTINUOUS
 62
    64
 10
-30.295097
 20
-73.56852
 11
-30.21781
 21
-73.806467
  0
LINE
  8
ボルト／ビス
  6
CONTINUOUS
 62
    64
 10
-29.80567
 20
-73.672607
 11
-29.973098
 21
-73.858512
  0
LINE
  8
ボルト／ビス
  6
CONTINUOUS
 62
    64
 10
-30.12767
 20
-73.382615
 11
-30.295097
 21
-73.56852
  0
CIRCLE
  8
ボルト／ビス
  6
CONTINUOUS
 62
    64
 10
-30.050385
 20
-73.620565
 40
0.216668
  0
CIRCLE
  8
ボルト／ビス
  6
CONTINUOUS
 10
-40.765485
 20
-63.970537
 40
0.250185
  0
CIRCLE
  8
ボルト／ビス
  6
CONTINUOUS
 10
-40.765485
 20
-63.970537
 40
0.301025
  0
LINE
  8
ボルト／ビス
  6
CONTINUOUS
 62
    64
 10
-40.842772
 20
-63.732588
 11
-40.59806
 21
-63.784633
  0
LINE
  8
ボルト／ビス
  6
CONTINUOUS
 62
    64
 10
-40.520775
 20
-64.022583
 11
-40.59806
 21
-63.784633
  0
LINE
  8
ボルト／ビス
  6
CONTINUOUS
 62
    64
 10
-41.0102
 20
-63.918492
 11
-40.932913
 21
-64.156442
  0
LINE
  8
ボルト／ビス
  6
CONTINUOUS
 62
    64
 10
-40.6882
 20
-64.208487
 11
-40.932913
 21
-64.156442
  0
LINE
  8
ボルト／ビス
  6
CONTINUOUS
 62
    64
 10
-40.842772
 20
-63.732588
 11
-41.0102
 21
-63.918492
  0
LINE
  8
ボルト／ビス
  6
CONTINUOUS
 62
    64
 10
-40.520775
 20
-64.022583
 11
-40.6882
 21
-64.208487
  0
CIRCLE
  8
ボルト／ビス
  6
CONTINUOUS
 62
    64
 10
-40.765485
 20
-63.970537
 40
0.216668
  0
ENDBLK
  0
BLOCK
  2
*GRP_0026
 70
    65
 10
0.0
 20
0.0
  0
LINE
  8
補助線
  6
BYBLOCK
 62
    64
 10
-40.703565
 20
-83.21482
 11
-40.82741
 21
-83.326355
  0
LINE
  8
補助線
  6
BYBLOCK
 62
    64
 10
-40.821257
 20
-83.208662
 11
-40.70972
 21
-83.33251
  0
LINE
  8
補助線
  6
BYBLOCK
 62
    64
 10
-29.988462
 20
-73.564795
 11
-30.112308
 21
-73.67633
  0
LINE
  8
補助線
  6
BYBLOCK
 62
    64
 10
-30.106153
 20
-73.558637
 11
-29.994618
 21
-73.682485
  0
LINE
  8
補助線
  6
BYBLOCK
 62
    64
 10
-19.397205
 20
-64.026305
 11
-19.273362
 21
-63.91477
  0
LINE
  8
補助線
  6
BYBLOCK
 62
    64
 10
-19.391053
 20
-63.908612
 11
-19.279515
 21
-64.03246
  0
LINE
  8
型材断面
  6
CONTINUOUS
 10
-41.570855
 20
-82.874432
 11
-41.607783
 21
-83.580573
  0
LINE
  8
型材断面
  6
CONTINUOUS
 10
-41.607783
 20
-83.580573
 11
-41.161643
 21
-84.075955
  0
LINE
  8
型材断面
  6
CONTINUOUS
 10
-41.161643
 20
-84.075955
 11
-40.4555
 21
-84.112885
  0
LINE
  8
型材断面
  6
CONTINUOUS
 10
-19.645268
 20
-63.128243
 11
-18.939127
 21
-63.165172
  0
LINE
  8
型材断面
  6
CONTINUOUS
 10
-18.939127
 20
-63.165172
 11
-18.492985
 21
-63.660552
  0
LINE
  8
型材断面
  6
CONTINUOUS
 10
-18.492985
 20
-63.660552
 11
-18.529915
 21
-64.366698
  0
LINE
  8
型材断面
  6
CONTINUOUS
 10
-40.4555
 20
-84.112885
 11
-18.529915
 21
-64.366698
  0
LINE
  8
型材断面
  6
CONTINUOUS
 10
-41.570855
 20
-82.874432
 11
-19.645268
 21
-63.128243
  0
CIRCLE
  8
ボルト／ビス
  6
CONTINUOUS
 10
-40.765488
 20
-83.270587
 40
0.250185
  0
CIRCLE
  8
ボルト／ビス
  6
CONTINUOUS
 10
-40.765488
 20
-83.270587
 40
0.301025
  0
LINE
  8
ボルト／ビス
  6
CONTINUOUS
 62
    64
 10
-41.0102
 20
-83.322632
 11
-40.932915
 21
-83.084682
  0
LINE
  8
ボルト／ビス
  6
CONTINUOUS
 62
    64
 10
-40.688202
 20
-83.032637
 11
-40.932915
 21
-83.084682
  0
LINE
  8
ボルト／ビス
  6
CONTINUOUS
 62
    64
 10
-40.842772
 20
-83.508537
 11
-40.59806
 21
-83.456492
  0
LINE
  8
ボルト／ビス
  6
CONTINUOUS
 62
    64
 10
-40.520775
 20
-83.218542
 11
-40.59806
 21
-83.456492
  0
LINE
  8
ボルト／ビス
  6
CONTINUOUS
 62
    64
 10
-41.0102
 20
-83.322632
 11
-40.842772
 21
-83.508537
  0
LINE
  8
ボルト／ビス
  6
CONTINUOUS
 62
    64
 10
-40.688202
 20
-83.032637
 11
-40.520775
 21
-83.218542
  0
CIRCLE
  8
ボルト／ビス
  6
CONTINUOUS
 62
    64
 10
-40.765488
 20
-83.270587
 40
0.216668
  0
CIRCLE
  8
ボルト／ビス
  6
CONTINUOUS
 10
-30.050385
 20
-73.620565
 40
0.250185
  0
CIRCLE
  8
ボルト／ビス
  6
CONTINUOUS
 10
-30.050385
 20
-73.620565
 40
0.301025
  0
LINE
  8
ボルト／ビス
  6
CONTINUOUS
 62
    64
 10
-30.2951
 20
-73.672607
 11
-30.217813
 21
-73.434657
  0
LINE
  8
ボルト／ビス
  6
CONTINUOUS
 62
    64
 10
-29.9731
 20
-73.382615
 11
-30.217813
 21
-73.434657
  0
LINE
  8
ボルト／ビス
  6
CONTINUOUS
 62
    64
 10
-30.127672
 20
-73.858512
 11
-29.88296
 21
-73.806467
  0
LINE
  8
ボルト／ビス
  6
CONTINUOUS
 62
    64
 10
-29.805673
 20
-73.56852
 11
-29.88296
 21
-73.806467
  0
LINE
  8
ボルト／ビス
  6
CONTINUOUS
 62
    64
 10
-30.2951
 20
-73.672607
 11
-30.127672
 21
-73.858512
  0
LINE
  8
ボルト／ビス
  6
CONTINUOUS
 62
    64
 10
-29.9731
 20
-73.382615
 11
-29.805673
 21
-73.56852
  0
CIRCLE
  8
ボルト／ビス
  6
CONTINUOUS
 62
    64
 10
-30.050385
 20
-73.620565
 40
0.216668
  0
CIRCLE
  8
ボルト／ビス
  6
CONTINUOUS
 10
-19.335285
 20
-63.970537
 40
0.250185
  0
CIRCLE
  8
ボルト／ビス
  6
CONTINUOUS
 10
-19.335285
 20
-63.970537
 40
0.301025
  0
LINE
  8
ボルト／ビス
  6
CONTINUOUS
 62
    64
 10
-19.257997
 20
-63.732588
 11
-19.50271
 21
-63.784633
  0
LINE
  8
ボルト／ビス
  6
CONTINUOUS
 62
    64
 10
-19.579995
 20
-64.022583
 11
-19.50271
 21
-63.784633
  0
LINE
  8
ボルト／ビス
  6
CONTINUOUS
 62
    64
 10
-19.09057
 20
-63.918492
 11
-19.167857
 21
-64.156442
  0
LINE
  8
ボルト／ビス
  6
CONTINUOUS
 62
    64
 10
-19.41257
 20
-64.208487
 11
-19.167857
 21
-64.156442
  0
LINE
  8
ボルト／ビス
  6
CONTINUOUS
 62
    64
 10
-19.257997
 20
-63.732588
 11
-19.09057
 21
-63.918492
  0
LINE
  8
ボルト／ビス
  6
CONTINUOUS
 62
    64
 10
-19.579995
 20
-64.022583
 11
-19.41257
 21
-64.208487
  0
CIRCLE
  8
ボルト／ビス
  6
CONTINUOUS
 62
    64
 10
-19.335285
 20
-63.970537
 40
0.216668
  0
ENDBLK
  0
BLOCK
  2
*DIM_0027
 70
    65
 10
0.0
 20
0.0
  0
LINE
  8
寸法
  6
CONTINUOUS
 10
66.51819
 20
-77.69387
 11
66.51819
 21
-85.34392
  0
POINT
  8
寸法
 10
66.51819
 20
-77.69387
  0
POINT
  8
寸法
 10
66.51819
 20
-85.34392
  0
TEXT
  7
TextStyle03
  8
寸法
  6
CONTINUOUS
 10
70.7
 20
-85.5
  1
229.5
 40
3.0
 50
90.0
 72
     5
 11
70.7
 21
-77.25
  0
ENDBLK
  0
BLOCK
  2
*DIM_0028
 70
    65
 10
0.0
 20
0.0
  0
LINE
  8
寸法
  6
CONTINUOUS
 10
148.3695
 20
-41.314925
 11
116.102832
 21
-41.314925
  0
POINT
  8
寸法
 10
148.3695
 20
-41.314925
  0
POINT
  8
寸法
 10
116.102832
 20
-41.314925
  0
TEXT
  7
TextStyle03
  8
寸法
  6
CONTINUOUS
 10
129.7875
 20
-40.975
  1
968
 40
3.0
 72
     5
 11
134.6625
 21
-40.975
  0
ENDBLK
  0
BLOCK
  2
*DIM_0029
 70
    65
 10
0.0
 20
0.0
  0
LINE
  8
寸法
  6
BYBLOCK
 62
     0
 10
66.51819
 20
-77.69387
 11
66.51819
 21
-61.027203
  0
POINT
  8
寸法
 62
     0
 10
66.51819
 20
-77.69387
  0
POINT
  8
寸法
 62
     0
 10
66.51819
 20
-61.027203
  0
TEXT
  7
TextStyle03
  8
寸法
  6
CONTINUOUS
 62
     0
 10
66.225
 20
-59.16875
  1
上昇452以上
 40
3.0
 50
90.0
 72
     5
 11
66.225
 21
-40.98125
  0
ENDBLK
  0
ENDSEC
  0
SECTION
  2
ENTITIES
  0
POLYLINE
  8
通り芯
  6
CONTINUOUS
 66
     1
 70
     1
  0
VERTEX
  8
通り芯
 10
-210.0
 20
-148.5
  0
VERTEX
  8
通り芯
 10
210.0
 20
-148.5
  0
VERTEX
  8
通り芯
 10
210.0
 20
148.5
  0
VERTEX
  8
通り芯
 10
-210.0
 20
148.5
  0
SEQEND
  0
INSERT
  2
*GRP_0001
  8
型材断面
  6
CONTINUOUS
 10
0.0
 20
0.0
  0
LINE
  8
型材断面
  6
DASHDOT
 10
53.282945
 20
-87.251428
 11
53.282945
 21
56.73238
  0
LINE
  8
型材断面
  6
DASHDOT
 10
-30.050388
 20
-87.251428
 11
-30.050388
 21
56.73238
  0
LINE
  8
型材断面
  6
DASHDOT
 10
-113.383723
 20
-87.251428
 11
-113.383723
 21
56.73238
  0
LINE
  8
型材断面
  6
DASHDOT
 10
150.959707
 20
56.73238
 11
-113.383723
 21
56.73238
  0
LINE
  8
型材断面
  6
DASHDOT
 10
150.959707
 20
35.065715
 11
-113.383723
 21
35.065715
  0
LINE
  8
型材断面
  6
DASHDOT
 10
150.959707
 20
13.399048
 11
-113.383723
 21
13.399048
  0
POLYLINE
  8
型材断面
  6
CONTINUOUS
 66
     1
 70
     1
  0
VERTEX
  8
型材断面
 10
-20.921443
 20
66.508305
  0
VERTEX
  8
型材断面
 10
-39.693372
 20
66.508305
  0
VERTEX
  8
型材断面
 10
-39.693372
 20
71.245147
  0
VERTEX
  8
型材断面
 10
-20.921443
 20
71.245147
  0
SEQEND
  0
POLYLINE
  8
型材断面
  6
CONTINUOUS
 66
     1
 70
     1
  0
VERTEX
  8
型材断面
 10
-20.921443
 20
3.623125
  0
VERTEX
  8
型材断面
 10
-39.693372
 20
3.623125
  0
VERTEX
  8
型材断面
 10
-39.693372
 20
-1.113717
  0
VERTEX
  8
型材断面
 10
-20.921443
 20
-1.113717
  0
SEQEND
  0
LINE
  8
型材断面
  6
CONTINUOUS
 10
-116.013853
 20
35.065715
 11
-118.60436
 21
36.561345
  0
LINE
  8
型材断面
  6
CONTINUOUS
 10
-116.013853
 20
35.065715
 11
-118.60436
 21
33.570085
  0
LINE
  8
型材断面
  6
CONTINUOUS
 10
-118.60436
 20
33.570085
 11
-118.60436
 21
36.561345
  0
LINE
  8
型材断面
  6
CONTINUOUS
 10
-96.717055
 20
59.36251
 11
-98.212685
 21
61.953017
  0
LINE
  8
型材断面
  6
CONTINUOUS
 10
-96.717055
 20
59.36251
 11
-95.221425
 21
61.953017
  0
LINE
  8
型材断面
  6
CONTINUOUS
 10
-95.221425
 20
61.953017
 11
-98.212685
 21
61.953017
  0
LINE
  8
型材断面
  6
CONTINUOUS
 10
-154.23593
 20
94.709852
 11
-153.639875
 21
92.119345
  0
LINE
  8
型材断面
  6
CONTINUOUS
 10
-154.23593
 20
94.709852
 11
-154.831988
 21
92.119345
  0
LINE
  8
型材断面
  6
CONTINUOUS
 10
-154.831988
 20
92.119345
 11
-153.639875
 21
92.119345
  0
LINE
  8
型材断面
  6
CONTINUOUS
 10
-160.258518
 20
88.840452
 11
-114.01674
 21
88.840452
  0
LINE
  8
型材断面
  6
CONTINUOUS
 10
-154.23593
 20
101.239727
 11
-155.73156
 21
98.64922
  0
LINE
  8
型材断面
  6
CONTINUOUS
 10
-154.23593
 20
101.239727
 11
-152.7403
 21
98.64922
  0
LINE
  8
型材断面
  6
CONTINUOUS
 10
-152.7403
 20
98.64922
 11
-155.73156
 21
98.64922
  0
LINE
  8
型材断面
  6
CONTINUOUS
 10
-160.258518
 20
97.710625
 11
-114.01674
 21
97.710625
  0
LINE
  8
型材断面
  6
CONTINUOUS
 10
-160.258518
 20
83.05242
 11
-114.01674
 21
83.05242
  0
LINE
  8
型材断面
  6
CONTINUOUS
 10
-96.717055
 20
10.76892
 11
-98.212685
 21
8.178413
  0
LINE
  8
型材断面
  6
CONTINUOUS
 10
-96.717055
 20
10.76892
 11
-95.221425
 21
8.178413
  0
LINE
  8
型材断面
  6
CONTINUOUS
 10
-95.221425
 20
8.178413
 11
-98.212685
 21
8.178413
  0
LINE
  8
型材断面
  6
CONTINUOUS
 10
55.913077
 20
35.065715
 11
58.503585
 21
36.561345
  0
LINE
  8
型材断面
  6
CONTINUOUS
 10
55.913077
 20
35.065715
 11
58.503585
 21
33.570085
  0
LINE
  8
型材断面
  6
CONTINUOUS
 10
58.503585
 20
33.570085
 11
58.503585
 21
36.561345
  0
LINE
  8
型材断面
  6
CONTINUOUS
 10
36.61628
 20
59.36251
 11
38.11191
 21
61.953017
  0
LINE
  8
型材断面
  6
CONTINUOUS
 10
36.61628
 20
59.36251
 11
35.12065
 21
61.953017
  0
LINE
  8
型材断面
  6
CONTINUOUS
 10
35.12065
 20
61.953017
 11
38.11191
 21
61.953017
  0
LINE
  8
型材断面
  6
CONTINUOUS
 10
36.61628
 20
10.76892
 11
38.11191
 21
8.178413
  0
LINE
  8
型材断面
  6
CONTINUOUS
 10
36.61628
 20
10.76892
 11
35.12065
 21
8.178413
  0
LINE
  8
型材断面
  6
CONTINUOUS
 10
35.12065
 20
8.178413
 11
38.11191
 21
8.178413
  0
LINE
  8
型材断面
  6
CONTINUOUS
 10
-30.050388
 20
59.36251
 11
-31.546018
 21
61.953017
  0
LINE
  8
型材断面
  6
CONTINUOUS
 10
-30.050388
 20
59.36251
 11
-28.554757
 21
61.953017
  0
LINE
  8
型材断面
  6
CONTINUOUS
 10
-28.554757
 20
61.953017
 11
-31.546018
 21
61.953017
  0
LINE
  8
型材断面
  6
CONTINUOUS
 10
-30.050388
 20
10.76892
 11
-31.546018
 21
8.178413
  0
LINE
  8
型材断面
  6
CONTINUOUS
 10
-30.050388
 20
10.76892
 11
-28.554757
 21
8.178413
  0
LINE
  8
型材断面
  6
CONTINUOUS
 10
-28.554757
 20
8.178413
 11
-31.546018
 21
8.178413
  0
LINE
  8
型材断面
  6
CONTINUOUS
 10
55.913075
 20
53.032382
 11
58.503585
 21
52.43633
  0
LINE
  8
型材断面
  6
CONTINUOUS
 10
55.913075
 20
53.032382
 11
58.503583
 21
53.628442
  0
LINE
  8
型材断面
  6
CONTINUOUS
 10
58.503583
 20
53.628442
 11
58.503585
 21
52.43633
  0
LINE
  8
型材断面
  6
CONTINUOUS
 10
55.913075
 20
17.099048
 11
58.503585
 21
17.6951
  0
LINE
  8
型材断面
  6
CONTINUOUS
 10
55.913075
 20
17.099048
 11
58.503583
 21
16.502988
  0
LINE
  8
型材断面
  6
CONTINUOUS
 10
58.503583
 20
16.502988
 11
58.503585
 21
17.6951
  0
LINE
  8
型材断面
  6
CONTINUOUS
 10
-116.01385
 20
53.032382
 11
-118.60436
 21
52.43633
  0
LINE
  8
型材断面
  6
CONTINUOUS
 10
-116.01385
 20
53.032382
 11
-118.604357
 21
53.628442
  0
LINE
  8
型材断面
  6
CONTINUOUS
 10
-118.604357
 20
53.628442
 11
-118.60436
 21
52.43633
  0
LINE
  8
型材断面
  6
CONTINUOUS
 10
-116.01385
 20
17.099048
 11
-118.60436
 21
17.6951
  0
LINE
  8
型材断面
  6
CONTINUOUS
 10
-116.01385
 20
17.099048
 11
-118.604357
 21
16.502988
  0
LINE
  8
型材断面
  6
CONTINUOUS
 10
-118.604357
 20
16.502988
 11
-118.60436
 21
17.6951
  0
LINE
  8
型材断面
  6
CONTINUOUS
 10
-115.366907
 20
11.41587
 11
-30.050388
 21
11.41587
  0
LINE
  8
型材断面
  6
CONTINUOUS
 10
55.266132
 20
11.41587
 11
-30.050388
 21
11.41587
  0
LINE
  8
型材断面
  6
CONTINUOUS
 10
55.266132
 20
58.71556
 11
-30.050388
 21
58.71556
  0
LINE
  8
型材断面
  6
CONTINUOUS
 10
-115.366907
 20
58.71556
 11
-30.050388
 21
58.71556
  0
LINE
  8
型材断面
  6
CONTINUOUS
 10
-160.258518
 20
77.264387
 11
-114.01674
 21
77.264387
  0
ARC
  8
型材断面
  6
CONTINUOUS
 62
    47
 10
145.730081
 20
11.415711
 40
0.016668
 50
179.999123
 51
270.0
  0
ARC
  8
型材断面
  6
CONTINUOUS
 62
    47
 10
145.770083
 20
11.409045
 40
0.010002
 50
270.0
 51
359.791626
  0
LINE
  8
型材断面
  6
CONTINUOUS
 62
    47
 10
145.946805
 20
11.449048
 11
145.946805
 21
12.299195
  0
LINE
  8
型材断面
  6
CONTINUOUS
 62
    47
 10
145.713415
 20
11.41571
 11
143.606755
 21
11.41571
  0
LINE
  8
型材断面
  6
CONTINUOUS
 62
    47
 10
145.946805
 20
11.415715
 11
149.26347
 21
11.415715
  0
LINE
  8
型材断面
  6
CONTINUOUS
 62
    47
 10
149.76347
 20
11.915715
 11
149.26347
 21
11.915715
  0
LINE
  8
型材断面
  6
CONTINUOUS
 62
    47
 10
143.606755
 20
12.29905
 11
143.280088
 21
12.29905
  0
LINE
  8
型材断面
  6
CONTINUOUS
 62
    47
 10
145.730083
 20
11.399048
 11
145.769743
 21
11.399048
  0
ARC
  8
型材断面
  6
CONTINUOUS
 62
    47
 10
145.730081
 20
58.715717
 40
0.016668
 50
90.0
 51
180.000877
  0
ARC
  8
型材断面
  6
CONTINUOUS
 62
    47
 10
145.770083
 20
58.722383
 40
0.010002
 50
0.208374
 51
90.0
  0
LINE
  8
型材断面
  6
CONTINUOUS
 62
    47
 10
145.946805
 20
58.682378
 11
145.946805
 21
57.832232
  0
LINE
  8
型材断面
  6
CONTINUOUS
 62
    47
 10
145.713415
 20
58.715718
 11
143.606755
 21
58.715718
  0
LINE
  8
型材断面
  6
CONTINUOUS
 62
    47
 10
145.946805
 20
58.715712
 11
149.26347
 21
58.715712
  0
LINE
  8
型材断面
  6
CONTINUOUS
 62
    47
 10
149.76347
 20
58.215712
 11
149.26347
 21
58.215712
  0
LINE
  8
型材断面
  6
CONTINUOUS
 62
    47
 10
143.606755
 20
57.832378
 11
143.280088
 21
57.832378
  0
LINE
  8
型材断面
  6
CONTINUOUS
 62
    47
 10
145.730083
 20
58.732378
 11
145.769743
 21
58.732378
  0
LINE
  8
型材断面
  6
CONTINUOUS
 10
143.606755
 20
11.41571
 11
143.606755
 21
35.065712
  0
LINE
  8
型材断面
  6
CONTINUOUS
 10
143.280088
 20
11.999048
 11
143.280088
 21
35.065712
  0
LINE
  8
型材断面
  6
CONTINUOUS
 10
141.61342
 20
11.999048
 11
141.61342
 21
35.065712
  0
LINE
  8
型材断面
  6
CONTINUOUS
 10
141.780088
 20
11.842527
 11
141.780088
 21
35.065712
  0
LINE
  8
型材断面
  6
CONTINUOUS
 10
145.946805
 20
11.415715
 11
145.946805
 21
35.065712
  0
LINE
  8
型材断面
  6
CONTINUOUS
 10
145.780088
 20
11.409045
 11
145.780088
 21
35.065712
  0
LINE
  8
型材断面
  6
CONTINUOUS
 10
149.26347
 20
11.415715
 11
149.26347
 21
35.065712
  0
LINE
  8
型材断面
  6
CONTINUOUS
 10
149.76347
 20
11.915715
 11
149.76347
 21
35.065712
  0
LINE
  8
型材断面
  6
CONTINUOUS
 10
149.76347
 20
58.215712
 11
149.76347
 21
35.065712
  0
LINE
  8
型材断面
  6
CONTINUOUS
 10
149.26347
 20
58.715712
 11
149.26347
 21
35.065712
  0
LINE
  8
型材断面
  6
CONTINUOUS
 10
145.780088
 20
58.722382
 11
145.780088
 21
35.065712
  0
LINE
  8
型材断面
  6
CONTINUOUS
 10
145.946805
 20
58.715712
 11
145.946805
 21
35.065712
  0
LINE
  8
型材断面
  6
CONTINUOUS
 10
143.606755
 20
58.715718
 11
143.606755
 21
35.065712
  0
LINE
  8
型材断面
  6
CONTINUOUS
 10
143.280088
 20
58.132378
 11
143.280088
 21
35.065712
  0
LINE
  8
型材断面
  6
CONTINUOUS
 10
141.61342
 20
58.132378
 11
141.61342
 21
35.065712
  0
LINE
  8
型材断面
  6
CONTINUOUS
 10
141.780088
 20
58.2889
 11
141.780088
 21
35.065712
  0
ARC
  8
型材断面
  6
CONTINUOUS
 62
    47
 10
-115.367058
 20
-81.810531
 40
0.016668
 50
89.999123
 51
180.0
  0
ARC
  8
型材断面
  6
CONTINUOUS
 62
    47
 10
-115.373724
 20
-81.850533
 40
0.010002
 50
180.0
 51
269.791626
  0
LINE
  8
型材断面
  6
CONTINUOUS
 62
    47
 10
-115.33372
 20
-82.027253
 11
-114.483572
 21
-82.027253
  0
LINE
  8
型材断面
  6
CONTINUOUS
 62
    47
 10
-115.367058
 20
-81.793865
 11
-115.367058
 21
-79.687205
  0
LINE
  8
型材断面
  6
CONTINUOUS
 62
    47
 10
-115.367053
 20
-82.027253
 11
-115.367053
 21
-85.34392
  0
LINE
  8
型材断面
  6
CONTINUOUS
 62
    47
 10
-114.867053
 20
-85.84392
 11
-114.867053
 21
-85.34392
  0
LINE
  8
型材断面
  6
CONTINUOUS
 62
    47
 10
-114.483717
 20
-79.687205
 11
-114.483717
 21
-79.360535
  0
LINE
  8
型材断面
  6
CONTINUOUS
 62
    47
 10
-115.38372
 20
-81.81053
 11
-115.38372
 21
-81.85019
  0
ARC
  8
型材断面
  6
CONTINUOUS
 62
    47
 10
55.266281
 20
-81.810531
 40
0.016668
 50
0.0
 51
90.000877
  0
ARC
  8
型材断面
  6
CONTINUOUS
 62
    47
 10
55.272947
 20
-81.850533
 40
0.010002
 50
270.208374
 51
360.0
  0
LINE
  8
型材断面
  6
CONTINUOUS
 62
    47
 10
55.232942
 20
-82.027253
 11
54.382798
 21
-82.027253
  0
LINE
  8
型材断面
  6
CONTINUOUS
 62
    47
 10
55.266282
 20
-81.793865
 11
55.266282
 21
-79.687205
  0
LINE
  8
型材断面
  6
CONTINUOUS
 62
    47
 10
55.266278
 20
-82.027253
 11
55.266278
 21
-85.34392
  0
LINE
  8
型材断面
  6
CONTINUOUS
 62
    47
 10
54.766278
 20
-85.84392
 11
54.766278
 21
-85.34392
  0
LINE
  8
型材断面
  6
CONTINUOUS
 62
    47
 10
54.382942
 20
-79.687205
 11
54.382942
 21
-79.360535
  0
LINE
  8
型材断面
  6
CONTINUOUS
 62
    47
 10
55.282942
 20
-81.81053
 11
55.282942
 21
-81.85019
  0
LINE
  8
型材断面
  6
CONTINUOUS
 10
-114.78372
 20
-77.69387
 11
-30.050388
 21
-77.69387
  0
LINE
  8
型材断面
  6
CONTINUOUS
 10
-114.940243
 20
-77.860535
 11
-30.050388
 21
-77.860535
  0
LINE
  8
型材断面
  6
CONTINUOUS
 10
-114.78372
 20
-79.360535
 11
-30.050388
 21
-79.360535
  0
LINE
  8
型材断面
  6
CONTINUOUS
 10
-115.367058
 20
-79.687205
 11
-30.050388
 21
-79.687205
  0
LINE
  8
型材断面
  6
CONTINUOUS
 10
-115.367053
 20
-82.027253
 11
-30.050388
 21
-82.027253
  0
LINE
  8
型材断面
  6
CONTINUOUS
 10
-115.373722
 20
-81.860535
 11
-30.050388
 21
-81.860535
  0
LINE
  8
型材断面
  6
CONTINUOUS
 10
-114.867053
 20
-85.84392
 11
-30.050388
 21
-85.84392
  0
LINE
  8
型材断面
  6
CONTINUOUS
 10
-115.367053
 20
-85.34392
 11
-30.050388
 21
-85.34392
  0
LINE
  8
型材断面
  6
CONTINUOUS
 10
54.682942
 20
-77.69387
 11
-30.050388
 21
-77.69387
  0
LINE
  8
型材断面
  6
CONTINUOUS
 10
54.839465
 20
-77.860535
 11
-30.050388
 21
-77.860535
  0
LINE
  8
型材断面
  6
CONTINUOUS
 10
54.682942
 20
-79.360535
 11
-30.050388
 21
-79.360535
  0
LINE
  8
型材断面
  6
CONTINUOUS
 10
55.266282
 20
-79.687205
 11
-30.050388
 21
-79.687205
  0
LINE
  8
型材断面
  6
CONTINUOUS
 10
55.266278
 20
-82.027253
 11
-30.050388
 21
-82.027253
  0
LINE
  8
型材断面
  6
CONTINUOUS
 10
55.272948
 20
-81.860535
 11
-30.050388
 21
-81.860535
  0
LINE
  8
型材断面
  6
CONTINUOUS
 10
55.266278
 20
-85.34392
 11
-30.050388
 21
-85.34392
  0
LINE
  8
型材断面
  6
CONTINUOUS
 10
54.766278
 20
-85.84392
 11
-30.050388
 21
-85.84392
  0
ARC
  8
型材断面
  6
DOT
 62
    47
 10
-115.367058
 20
-65.143865
 40
0.016668
 50
89.999123
 51
180.0
  0
ARC
  8
型材断面
  6
DOT
 62
    47
 10
-115.373724
 20
-65.183866
 40
0.010002
 50
180.0
 51
269.791626
  0
LINE
  8
型材断面
  6
DOT
 62
    47
 10
-115.367058
 20
-65.127197
 11
-115.367058
 21
-63.020537
  0
LINE
  8
型材断面
  6
DOT
 62
    47
 10
-114.483717
 20
-63.020537
 11
-114.483717
 21
-62.693868
  0
LINE
  8
型材断面
  6
DOT
 62
    47
 10
-115.38372
 20
-65.143862
 11
-115.38372
 21
-65.183522
  0
ARC
  8
型材断面
  6
DOT
 62
    47
 10
55.266281
 20
-65.143865
 40
0.016668
 50
0.0
 51
90.000877
  0
ARC
  8
型材断面
  6
DOT
 62
    47
 10
55.272947
 20
-65.183866
 40
0.010002
 50
270.208374
 51
360.0
  0
LINE
  8
型材断面
  6
DOT
 62
    47
 10
55.266282
 20
-65.127197
 11
55.266282
 21
-63.020537
  0
LINE
  8
型材断面
  6
DOT
 62
    47
 10
54.382942
 20
-63.020537
 11
54.382942
 21
-62.693868
  0
LINE
  8
型材断面
  6
DOT
 62
    47
 10
55.282942
 20
-65.143862
 11
55.282942
 21
-65.183522
  0
LINE
  8
型材断面
  6
DOT
 10
-114.78372
 20
-61.027203
 11
-30.050388
 21
-61.027203
  0
LINE
  8
型材断面
  6
DOT
 10
-114.940243
 20
-61.193868
 11
-30.050388
 21
-61.193868
  0
LINE
  8
型材断面
  6
DOT
 10
-114.78372
 20
-62.693868
 11
-30.050388
 21
-62.693868
  0
LINE
  8
型材断面
  6
DOT
 10
-115.373722
 20
-65.193868
 11
-30.050388
 21
-65.193868
  0
LINE
  8
型材断面
  6
DOT
 10
-115.367058
 20
-63.020537
 11
-30.050388
 21
-63.020537
  0
LINE
  8
型材断面
  6
DOT
 10
54.682942
 20
-62.693868
 11
-30.050388
 21
-62.693868
  0
LINE
  8
型材断面
  6
DOT
 10
54.839465
 20
-61.193868
 11
-30.050388
 21
-61.193868
  0
LINE
  8
型材断面
  6
DOT
 10
54.682942
 20
-61.027203
 11
-30.050388
 21
-61.027203
  0
LINE
  8
型材断面
  6
DOT
 10
55.266282
 20
-63.020537
 11
-30.050388
 21
-63.020537
  0
LINE
  8
型材断面
  6
DOT
 10
55.272948
 20
-65.193868
 11
-30.050388
 21
-65.193868
  0
INSERT
  2
*GRP_0021
  8
型材断面
  6
CONTINUOUS
 10
0.0
 20
0.0
  0
INSERT
  2
*GRP_0022
  8
型材断面
  6
CONTINUOUS
 10
0.0
 20
0.0
  0
INSERT
  2
*GRP_0023
  8
型材断面
  6
CONTINUOUS
 10
0.0
 20
0.0
  0
INSERT
  2
*GRP_0024
  8
型材断面
  6
CONTINUOUS
 10
0.0
 20
0.0
  0
INSERT
  2
*GRP_0025
  8
型材断面
  6
CONTINUOUS
 10
0.0
 20
0.0
  0
INSERT
  2
*GRP_0026
  8
型材断面
  6
CONTINUOUS
 10
0.0
 20
0.0
  0
LINE
  8
型材断面
  6
DASHDOT
 10
-80.200388
 20
13.399048
 11
-80.200388
 21
56.73238
  0
LINE
  8
型材断面
  6
DASHDOT
 10
-46.767053
 20
13.399048
 11
-46.767053
 21
56.73238
  0
LINE
  8
型材断面
  6
DASHDOT
 10
20.099612
 20
13.399048
 11
20.099612
 21
56.73238
  0
LINE
  8
型材断面
  6
DASHDOT
 10
-13.333723
 20
13.399048
 11
-13.333723
 21
56.73238
  0
LINE
  8
型材断面
  6
CONTINUOUS
 10
36.274612
 20
11.842527
 11
36.274612
 21
14.342527
  0
LINE
  8
型材断面
  6
CONTINUOUS
 10
37.107948
 20
11.842527
 11
37.107948
 21
14.342527
  0
LINE
  8
型材断面
  6
CONTINUOUS
 10
3.799612
 20
11.842527
 11
3.799612
 21
14.342527
  0
LINE
  8
型材断面
  6
CONTINUOUS
 10
2.966278
 20
11.842527
 11
2.966278
 21
14.342527
  0
LINE
  8
型材断面
  6
CONTINUOUS
 10
-29.633723
 20
11.842527
 11
-29.633723
 21
14.342527
  0
LINE
  8
型材断面
  6
CONTINUOUS
 10
-30.467058
 20
11.842527
 11
-30.467058
 21
14.342527
  0
LINE
  8
型材断面
  6
CONTINUOUS
 10
-96.375388
 20
11.842527
 11
-96.375388
 21
14.342527
  0
LINE
  8
型材断面
  6
CONTINUOUS
 10
-97.208723
 20
11.842527
 11
-97.208723
 21
14.342527
  0
LINE
  8
型材断面
  6
CONTINUOUS
 10
-63.900388
 20
11.842527
 11
-63.900388
 21
14.342527
  0
LINE
  8
型材断面
  6
CONTINUOUS
 10
-63.067053
 20
11.842527
 11
-63.067053
 21
14.342527
  0
LINE
  8
型材断面
  6
CONTINUOUS
 10
36.274612
 20
58.288903
 11
36.274612
 21
55.788903
  0
LINE
  8
型材断面
  6
CONTINUOUS
 10
37.107948
 20
58.288903
 11
37.107948
 21
55.788903
  0
LINE
  8
型材断面
  6
CONTINUOUS
 10
3.799612
 20
58.288903
 11
3.799612
 21
55.788903
  0
LINE
  8
型材断面
  6
CONTINUOUS
 10
2.966278
 20
58.288903
 11
2.966278
 21
55.788903
  0
LINE
  8
型材断面
  6
CONTINUOUS
 10
-29.633723
 20
58.288903
 11
-29.633723
 21
55.788903
  0
LINE
  8
型材断面
  6
CONTINUOUS
 10
-30.467058
 20
58.288903
 11
-30.467058
 21
55.788903
  0
LINE
  8
型材断面
  6
CONTINUOUS
 10
-96.375388
 20
58.288903
 11
-96.375388
 21
55.788903
  0
LINE
  8
型材断面
  6
CONTINUOUS
 10
-97.208723
 20
58.288903
 11
-97.208723
 21
55.788903
  0
LINE
  8
型材断面
  6
CONTINUOUS
 10
-63.900388
 20
58.288903
 11
-63.900388
 21
55.788903
  0
LINE
  8
型材断面
  6
CONTINUOUS
 10
-63.067053
 20
58.288903
 11
-63.067053
 21
55.788903
  0
LINE
  8
型材断面
  6
CONTINUOUS
 10
3.799612
 20
55.788903
 11
36.274612
 21
55.788903
  0
LINE
  8
型材断面
  6
CONTINUOUS
 10
3.799612
 20
14.342527
 11
36.274612
 21
14.342527
  0
LINE
  8
型材断面
  6
CONTINUOUS
 10
-29.633723
 20
14.342527
 11
2.966278
 21
14.342527
  0
LINE
  8
型材断面
  6
CONTINUOUS
 10
-29.633723
 20
55.788903
 11
2.966278
 21
55.788903
  0
LINE
  8
型材断面
  6
CONTINUOUS
 10
-63.067053
 20
55.788903
 11
-30.467058
 21
55.788903
  0
LINE
  8
型材断面
  6
CONTINUOUS
 10
-63.067053
 20
14.342527
 11
-30.467058
 21
14.342527
  0
LINE
  8
型材断面
  6
CONTINUOUS
 10
-96.375388
 20
14.342527
 11
-63.900388
 21
14.342527
  0
LINE
  8
型材断面
  6
CONTINUOUS
 10
-96.375388
 20
55.788903
 11
-63.900388
 21
55.788903
  0
LINE
  8
型材断面
  6
CONTINUOUS
 10
18.849612
 20
15.17586
 11
21.349612
 21
15.17586
  0
LINE
  8
型材断面
  6
CONTINUOUS
 10
21.349612
 20
15.17586
 11
21.349612
 21
54.95557
  0
LINE
  8
型材断面
  6
CONTINUOUS
 10
18.849612
 20
15.17586
 11
18.849612
 21
54.95557
  0
LINE
  8
型材断面
  6
CONTINUOUS
 10
21.349612
 20
54.95557
 11
18.849612
 21
54.95557
  0
LINE
  8
型材断面
  6
CONTINUOUS
 10
55.26613
 20
11.41587
 11
55.26613
 21
35.065715
  0
LINE
  8
型材断面
  6
CONTINUOUS
 10
55.26613
 20
58.71556
 11
55.26613
 21
35.065715
  0
LINE
  8
型材断面
  6
CONTINUOUS
 10
54.839465
 20
35.48238
 11
52.339465
 21
35.48238
  0
LINE
  8
型材断面
  6
CONTINUOUS
 10
54.839465
 20
34.649048
 11
52.339465
 21
34.649048
  0
LINE
  8
型材断面
  6
CONTINUOUS
 10
54.603767
 20
11.842527
 11
54.839465
 21
12.078235
  0
LINE
  8
型材断面
  6
CONTINUOUS
 10
52.339465
 20
34.649048
 11
52.339465
 21
14.57823
  0
LINE
  8
型材断面
  6
CONTINUOUS
 10
52.339465
 20
14.57823
 11
52.103763
 21
14.342527
  0
LINE
  8
型材断面
  6
CONTINUOUS
 10
52.103763
 20
14.342527
 11
54.603767
 21
11.842527
  0
LINE
  8
型材断面
  6
CONTINUOUS
 10
52.339465
 20
14.57823
 11
54.839465
 21
12.078235
  0
LINE
  8
型材断面
  6
CONTINUOUS
 10
55.26613
 20
11.41587
 11
54.721617
 21
11.960383
  0
LINE
  8
型材断面
  6
CONTINUOUS
 10
54.603767
 20
58.288903
 11
54.839465
 21
58.053195
  0
LINE
  8
型材断面
  6
CONTINUOUS
 10
52.339465
 20
55.5532
 11
52.103763
 21
55.788903
  0
LINE
  8
型材断面
  6
CONTINUOUS
 10
55.26613
 20
58.71556
 11
54.721617
 21
58.171047
  0
LINE
  8
型材断面
  6
CONTINUOUS
 10
52.339465
 20
35.48238
 11
52.339465
 21
55.5532
  0
LINE
  8
型材断面
  6
CONTINUOUS
 10
52.339465
 20
55.5532
 11
54.839465
 21
58.053195
  0
LINE
  8
型材断面
  6
CONTINUOUS
 10
54.839465
 20
12.078235
 11
54.839465
 21
58.053195
  0
LINE
  8
型材断面
  6
CONTINUOUS
 10
52.103763
 20
55.788903
 11
54.603767
 21
58.288903
  0
LINE
  8
型材断面
  6
CONTINUOUS
 10
-115.366905
 20
11.41587
 11
-115.366905
 21
35.065715
  0
LINE
  8
型材断面
  6
CONTINUOUS
 10
-115.366905
 20
58.71556
 11
-115.366905
 21
35.065715
  0
LINE
  8
型材断面
  6
CONTINUOUS
 10
-114.94024
 20
35.48238
 11
-112.44024
 21
35.48238
  0
LINE
  8
型材断面
  6
CONTINUOUS
 10
-114.94024
 20
34.649048
 11
-112.44024
 21
34.649048
  0
LINE
  8
型材断面
  6
CONTINUOUS
 10
-114.704543
 20
11.842527
 11
-114.94024
 21
12.078235
  0
LINE
  8
型材断面
  6
CONTINUOUS
 10
-112.44024
 20
34.649048
 11
-112.44024
 21
14.57823
  0
LINE
  8
型材断面
  6
CONTINUOUS
 10
-112.44024
 20
14.57823
 11
-112.204537
 21
14.342527
  0
LINE
  8
型材断面
  6
CONTINUOUS
 10
-112.204537
 20
14.342527
 11
-114.704543
 21
11.842527
  0
LINE
  8
型材断面
  6
CONTINUOUS
 10
-112.44024
 20
14.57823
 11
-114.94024
 21
12.078235
  0
LINE
  8
型材断面
  6
CONTINUOUS
 10
-115.366905
 20
11.41587
 11
-114.822393
 21
11.960383
  0
LINE
  8
型材断面
  6
CONTINUOUS
 10
-114.704543
 20
58.288903
 11
-114.94024
 21
58.053195
  0
LINE
  8
型材断面
  6
CONTINUOUS
 10
-112.44024
 20
55.5532
 11
-112.204537
 21
55.788903
  0
LINE
  8
型材断面
  6
CONTINUOUS
 10
-115.366905
 20
58.71556
 11
-114.822393
 21
58.171047
  0
LINE
  8
型材断面
  6
CONTINUOUS
 10
-112.44024
 20
35.48238
 11
-112.44024
 21
55.5532
  0
LINE
  8
型材断面
  6
CONTINUOUS
 10
-112.44024
 20
55.5532
 11
-114.94024
 21
58.053195
  0
LINE
  8
型材断面
  6
CONTINUOUS
 10
-114.94024
 20
12.078235
 11
-114.94024
 21
58.053195
  0
LINE
  8
型材断面
  6
CONTINUOUS
 10
-112.204537
 20
55.788903
 11
-114.704543
 21
58.288903
  0
LINE
  8
型材断面
  6
CONTINUOUS
 10
37.107948
 20
55.788903
 11
52.103763
 21
55.788903
  0
LINE
  8
型材断面
  6
CONTINUOUS
 10
37.107948
 20
14.342527
 11
52.103763
 21
14.342527
  0
LINE
  8
型材断面
  6
CONTINUOUS
 10
-97.208723
 20
14.342527
 11
-112.204537
 21
14.342527
  0
LINE
  8
型材断面
  6
CONTINUOUS
 10
54.603767
 20
11.842527
 11
-114.704543
 21
11.842527
  0
LINE
  8
型材断面
  6
CONTINUOUS
 10
-97.208723
 20
55.788903
 11
-112.204537
 21
55.788903
  0
LINE
  8
型材断面
  6
CONTINUOUS
 10
54.603767
 20
58.288903
 11
-114.704543
 21
58.288903
  0
LINE
  8
型材断面
  6
CONTINUOUS
 10
-14.583723
 20
15.17586
 11
-12.083723
 21
15.17586
  0
LINE
  8
型材断面
  6
CONTINUOUS
 10
-12.083723
 20
15.17586
 11
-12.083723
 21
54.95557
  0
LINE
  8
型材断面
  6
CONTINUOUS
 10
-14.583723
 20
15.17586
 11
-14.583723
 21
54.95557
  0
LINE
  8
型材断面
  6
CONTINUOUS
 10
-12.083723
 20
54.95557
 11
-14.583723
 21
54.95557
  0
LINE
  8
型材断面
  6
CONTINUOUS
 10
-78.950388
 20
15.17586
 11
-81.450388
 21
15.17586
  0
LINE
  8
型材断面
  6
CONTINUOUS
 10
-81.450388
 20
15.17586
 11
-81.450388
 21
54.95557
  0
LINE
  8
型材断面
  6
CONTINUOUS
 10
-78.950388
 20
15.17586
 11
-78.950388
 21
54.95557
  0
LINE
  8
型材断面
  6
CONTINUOUS
 10
-81.450388
 20
54.95557
 11
-78.950388
 21
54.95557
  0
LINE
  8
型材断面
  6
CONTINUOUS
 10
-45.517053
 20
15.17586
 11
-48.017053
 21
15.17586
  0
LINE
  8
型材断面
  6
CONTINUOUS
 10
-48.017053
 20
15.17586
 11
-48.017053
 21
54.95557
  0
LINE
  8
型材断面
  6
CONTINUOUS
 10
-45.517053
 20
15.17586
 11
-45.517053
 21
54.95557
  0
LINE
  8
型材断面
  6
CONTINUOUS
 10
-48.017053
 20
54.95557
 11
-45.517053
 21
54.95557
  0
TEXT
  7
TextStyle03
  8
文字
  6
CONTINUOUS
 10
129.825
 20
-86.1
  1
網入り6.8t
 40
3.0
 72
     5
 11
146.5125
 21
-86.1
  0
TEXT
  7
TextStyle03
  8
文字
  6
CONTINUOUS
 10
136.5
 20
-90.775
  1
×５枚
 40
3.0
 72
     5
 11
146.25
 21
-90.775
  0
TEXT
  7
TextStyle03
  8
文字
  6
CONTINUOUS
 10
-38.6
 20
67.2
  1
可動装置側
 40
3.0
 72
     5
 11
-22.1
 21
67.2
  0
TEXT
  7
TextStyle03
  8
文字
  6
CONTINUOUS
 10
-38.6
 20
-0.075
  1
可動装置側
 40
3.0
 72
     5
 11
-22.1
 21
-0.075
  0
TEXT
  7
TextStyle03
  8
文字
  6
CONTINUOUS
 10
-151.425
 20
93.325
  1
はケーシング位置を示す
 40
3.0
 72
     5
 11
-114.675
 21
93.325
  0
TEXT
  7
TextStyle03
  8
文字
  6
CONTINUOUS
 10
-151.425
 20
89.95
  1
４ヶ所中1ヶ所に設定
 40
3.0
 72
     5
 11
-119.7375
 21
89.95
  0
TEXT
  7
TextStyle03
  8
文字
  6
CONTINUOUS
 10
-151.425
 20
98.85
  1
は排水穴位置を示す
 40
3.0
 72
     5
 11
-121.425
 21
98.85
  0
TEXT
  7
TextStyle03
  8
文字
  6
CONTINUOUS
 10
-150.925
 20
23.975
  1
アンカーピッチ
 40
3.0
 50
90.0
 72
     5
 11
-150.925
 21
47.225
  0
TEXT
  7
TextStyle03
  8
文字
  6
CONTINUOUS
 10
-102.65
 20
94.175
  1
アンカーピッチ
 40
3.0
 72
     5
 11
-79.4
 21
94.175
  0
TEXT
  7
TextStyle03
  8
文字
  6
CONTINUOUS
 10
-155.15
 20
83.975
  1
アンカー数量　１８ヶ所
 40
3.0
 72
     5
 11
-118.4
 21
83.975
  0
TEXT
  7
TextStyle03
  8
文字
  6
CONTINUOUS
 10
-160.15
 20
78.2
  1
アームユニット数　※４～６ヶ所
 40
3.0
 72
     5
 11
-109.9
 21
78.2
  0
TEXT
  7
TextStyle03
  8
文字
  6
CONTINUOUS
 10
-160.15
 20
73.25
  1
※重量に依るのでご相談ください
 40
3.0
 72
     5
 11
-109.9
 21
73.25
  0
LINE
  8
文字
  6
CONTINUOUS
 10
141.61342
 20
70.502383
 11
141.61342
 21
59.952418
  0
LINE
  8
文字
  6
CONTINUOUS
 10
149.26347
 20
70.502383
 11
149.26347
 21
60.0175
  0
LINE
  8
文字
  6
CONTINUOUS
 10
66.51819
 20
-77.69387
 11
55.968227
 21
-77.69387
  0
LINE
  8
文字
  6
CONTINUOUS
 10
66.51819
 20
-85.34392
 11
56.033308
 21
-85.34392
  0
LINE
  8
文字
  6
CONTINUOUS
 10
66.51819
 20
-61.027203
 11
55.968227
 21
-61.027203
  0
LINE
  8
文字
  6
CONTINUOUS
 10
148.3695
 20
-41.314925
 11
148.3695
 21
-48.578063
  0
LINE
  8
文字
  6
CONTINUOUS
 10
116.102832
 20
-41.314925
 11
116.102832
 21
-48.578063
  0
TEXT
  7
TextStyle03
  8
文字
  6
CONTINUOUS
 10
60.3
 20
125.25
  1
シリーズ：ＴＦ２ＦＬ
 40
5.0
 72
     5
 11
115.925
 21
125.25
  0
TEXT
  7
TextStyle03
  8
文字
  6
CONTINUOUS
 10
60.3
 20
119.625
  1
　　　　　（上下可動）1300×5000タイプ
 40
5.0
 72
     5
 11
166.55
 21
119.625
  0
TEXT
  7
TextStyle03
  8
文字
  6
CONTINUOUS
 10
60.3
 20
114.0
  1
図面名　：外観姿図
 40
5.0
 72
     5
 11
110.3
 21
114.0
  0
TEXT
  7
TextStyle03
  8
文字
  6
CONTINUOUS
 10
60.3
 20
108.375
  1
　　　　　　
 40
5.0
 72
     5
 11
93.425
 21
108.375
  0
TEXT
  7
TextStyle03
  8
文字
  6
CONTINUOUS
 10
60.45
 20
104.525
  1
ＮＳコード：ＮＳＦＺＬ
 40
5.0
 72
     5
 11
121.7
 21
104.525
  0
INSERT
  2
*DIM_0002
  8
寸法
  6
CONTINUOUS
 10
0.0
 20
0.0
  0
INSERT
  2
*DIM_0003
  8
寸法
  6
CONTINUOUS
 10
0.0
 20
0.0
  0
INSERT
  2
*DIM_0004
  8
寸法
  6
CONTINUOUS
 10
0.0
 20
0.0
  0
INSERT
  2
*DIM_0005
  8
寸法
  6
CONTINUOUS
 10
0.0
 20
0.0
  0
INSERT
  2
*DIM_0006
  8
寸法
  6
CONTINUOUS
 10
0.0
 20
0.0
  0
INSERT
  2
*DIM_0007
  8
寸法
  6
CONTINUOUS
 10
0.0
 20
0.0
  0
INSERT
  2
*DIM_0008
  8
寸法
  6
CONTINUOUS
 10
0.0
 20
0.0
  0
INSERT
  2
*DIM_0009
  8
寸法
  6
CONTINUOUS
 10
0.0
 20
0.0
  0
INSERT
  2
*DIM_0010
  8
寸法
  6
CONTINUOUS
 10
0.0
 20
0.0
  0
INSERT
  2
*DIM_0011
  8
寸法
  6
CONTINUOUS
 10
0.0
 20
0.0
  0
INSERT
  2
*DIM_0012
  8
寸法
  6
CONTINUOUS
 10
0.0
 20
0.0
  0
INSERT
  2
*DIM_0013
  8
寸法
  6
CONTINUOUS
 10
0.0
 20
0.0
  0
INSERT
  2
*DIM_0014
  8
寸法
  6
CONTINUOUS
 10
0.0
 20
0.0
  0
INSERT
  2
*DIM_0015
  8
寸法
  6
CONTINUOUS
 10
0.0
 20
0.0
  0
INSERT
  2
*DIM_0016
  8
寸法
  6
CONTINUOUS
 10
0.0
 20
0.0
  0
INSERT
  2
*DIM_0017
  8
寸法
  6
CONTINUOUS
 10
0.0
 20
0.0
  0
INSERT
  2
*DIM_0018
  8
寸法
  6
CONTINUOUS
 10
0.0
 20
0.0
  0
INSERT
  2
*DIM_0019
  8
寸法
  6
CONTINUOUS
 10
0.0
 20
0.0
  0
INSERT
  2
*DIM_0020
  8
寸法
  6
CONTINUOUS
 10
0.0
 20
0.0
  0
INSERT
  2
*DIM_0027
  8
寸法
  6
CONTINUOUS
 10
0.0
 20
0.0
  0
INSERT
  2
*DIM_0028
  8
寸法
  6
CONTINUOUS
 10
0.0
 20
0.0
  0
INSERT
  2
*DIM_0029
  8
寸法
  6
CONTINUOUS
 10
0.0
 20
0.0
  0
LINE
  8
別途部材
  6
CONTINUOUS
 62
    47
 10
141.71342
 20
11.842527
 11
141.780088
 21
11.842527
  0
ARC
  8
別途部材
  6
CONTINUOUS
 62
    47
 10
141.713419
 20
11.942526
 40
0.1
 50
180.0
 51
270.0
  0
LINE
  8
別途部材
  6
CONTINUOUS
 62
    47
 10
141.61342
 20
11.942527
 11
141.61342
 21
14.309193
  0
LINE
  8
別途部材
  6
CONTINUOUS
 62
    47
 10
143.280088
 20
11.999048
 11
141.780088
 21
11.999048
  0
LINE
  8
別途部材
  6
CONTINUOUS
 62
    47
 10
141.71342
 20
58.2889
 11
141.780088
 21
58.2889
  0
ARC
  8
別途部材
  6
CONTINUOUS
 62
    47
 10
141.713419
 20
58.188901
 40
0.1
 50
90.0
 51
180.0
  0
LINE
  8
別途部材
  6
CONTINUOUS
 62
    47
 10
141.61342
 20
58.1889
 11
141.61342
 21
55.822233
  0
LINE
  8
別途部材
  6
CONTINUOUS
 62
    47
 10
143.280088
 20
58.132378
 11
141.780088
 21
58.132378
  0
LINE
  8
別途部材
  6
CONTINUOUS
 62
    47
 10
-114.940243
 20
-77.79387
 11
-114.940243
 21
-77.860535
  0
ARC
  8
別途部材
  6
CONTINUOUS
 62
    47
 10
-114.840243
 20
-77.793869
 40
0.1
 50
90.0
 51
180.0
  0
LINE
  8
別途部材
  6
CONTINUOUS
 62
    47
 10
-114.840243
 20
-77.69387
 11
-112.473575
 21
-77.69387
  0
LINE
  8
別途部材
  6
CONTINUOUS
 62
    47
 10
-114.78372
 20
-79.360535
 11
-114.78372
 21
-77.860535
  0
LINE
  8
別途部材
  6
CONTINUOUS
 62
    47
 10
54.839465
 20
-77.79387
 11
54.839465
 21
-77.860535
  0
ARC
  8
別途部材
  6
CONTINUOUS
 62
    47
 10
54.739465
 20
-77.793869
 40
0.1
 50
0.0
 51
90.0
  0
LINE
  8
別途部材
  6
CONTINUOUS
 62
    47
 10
54.739465
 20
-77.69387
 11
52.372797
 21
-77.69387
  0
LINE
  8
別途部材
  6
CONTINUOUS
 62
    47
 10
54.682942
 20
-79.360535
 11
54.682942
 21
-77.860535
  0
LINE
  8
別途部材
  6
DOT
 62
    47
 10
-114.940243
 20
-61.127203
 11
-114.940243
 21
-61.193868
  0
ARC
  8
別途部材
  6
DOT
 62
    47
 10
-114.840243
 20
-61.127202
 40
0.1
 50
90.0
 51
180.0
  0
LINE
  8
別途部材
  6
DOT
 62
    47
 10
-114.840243
 20
-61.027203
 11
-112.473575
 21
-61.027203
  0
LINE
  8
別途部材
  6
DOT
 62
    47
 10
-114.78372
 20
-62.693868
 11
-114.78372
 21
-61.193868
  0
LINE
  8
別途部材
  6
DOT
 62
    47
 10
54.839465
 20
-61.127203
 11
54.839465
 21
-61.193868
  0
ARC
  8
別途部材
  6
DOT
 62
    47
 10
54.739465
 20
-61.127202
 40
0.1
 50
0.0
 51
90.0
  0
LINE
  8
別途部材
  6
DOT
 62
    47
 10
54.739465
 20
-61.027203
 11
52.372797
 21
-61.027203
  0
LINE
  8
別途部材
  6
DOT
 62
    47
 10
54.682942
 20
-62.693868
 11
54.682942
 21
-61.193868
  0
LINE
  8
曲げ物
  6
CONTINUOUS
 10
148.3695
 20
-92.533713
 11
148.3695
 21
-49.867045
  0
LINE
  8
曲げ物
  6
CONTINUOUS
 10
38.008675
 20
37.022003
 11
34.313363
 21
33.32669
  0
LINE
  8
曲げ物
  6
CONTINUOUS
 10
37.305205
 20
35.485893
 11
35.849475
 21
34.030163
  0
LINE
  8
曲げ物
  6
CONTINUOUS
 10
36.472565
 20
36.318533
 11
35.016835
 21
34.862803
  0
LINE
  8
曲げ物
  6
CONTINUOUS
 10
6.120495
 20
37.022003
 11
2.425182
 21
33.32669
  0
LINE
  8
曲げ物
  6
CONTINUOUS
 10
5.417025
 20
35.485893
 11
3.961295
 21
34.030163
  0
LINE
  8
曲げ物
  6
CONTINUOUS
 10
4.584385
 20
36.318533
 11
3.128655
 21
34.862803
  0
LINE
  8
曲げ物
  6
CONTINUOUS
 10
-27.973165
 20
37.022003
 11
-31.668477
 21
33.32669
  0
LINE
  8
曲げ物
  6
CONTINUOUS
 10
-28.676635
 20
35.485893
 11
-30.132365
 21
34.030163
  0
LINE
  8
曲げ物
  6
CONTINUOUS
 10
-29.509275
 20
36.318533
 11
-30.965005
 21
34.862803
  0
LINE
  8
曲げ物
  6
CONTINUOUS
 10
-61.774535
 20
37.022003
 11
-65.469848
 21
33.32669
  0
LINE
  8
曲げ物
  6
CONTINUOUS
 10
-62.478005
 20
35.485893
 11
-63.933735
 21
34.030163
  0
LINE
  8
曲げ物
  6
CONTINUOUS
 10
-63.310645
 20
36.318533
 11
-64.766375
 21
34.862803
  0
LINE
  8
曲げ物
  6
CONTINUOUS
 10
-95.297588
 20
37.022003
 11
-98.9929
 21
33.32669
  0
LINE
  8
曲げ物
  6
CONTINUOUS
 10
-96.001058
 20
35.485893
 11
-97.456787
 21
34.030163
  0
LINE
  8
曲げ物
  6
CONTINUOUS
 10
-96.833698
 20
36.318533
 11
-98.289427
 21
34.862803
  0
LINE
  8
曲げ物
  6
CONTINUOUS
 10
116.102832
 20
-92.533713
 11
116.102832
 21
-49.867045
  0
LINE
  8
曲げ物
  6
CONTINUOUS
 10
148.3695
 20
-49.867045
 11
116.102832
 21
-49.867045
  0
LINE
  8
曲げ物
  6
CONTINUOUS
 10
148.3695
 20
-92.533713
 11
116.102832
 21
-92.533713
  0
ENDSEC
  0
EOF
